  0
SECTION
  2
HEADER
  9
$ACADVER
  1
AC1009
  9
$INSBASE
 10
0.0
 20
0.0
 30
0.0
  9
$EXTMIN
 10
126.8867590318978
 20
198.4425489357973
 30
-0.0015258207003583
  9
$EXTMAX
 10
715.54337493451703
 20
630.07768512756411
 30
0.0000000349246037
  9
$LIMMIN
 10
0.0
 20
0.0
  9
$LIMMAX
 10
853.5
 20
555.00000000000011
  9
$ORTHOMODE
 70
     0
  9
$REGENMODE
 70
     1
  9
$FILLMODE
 70
     1
  9
$QTEXTMODE
 70
     0
  9
$MIRRTEXT
 70
     1
  9
$DRAGMODE
 70
     2
  9
$LTSCALE
 40
3.0
  9
$OSMODE
 70
   551
  9
$ATTMODE
 70
     1
  9
$TEXTSIZE
 40
2.5
  9
$TRACEWID
 40
1.0
  9
$TEXTSTYLE
  7
STANDARD
  9
$CLAYER
  8
AM_0
  9
$CELTYPE
  6
BYLAYER
  9
$CECOLOR
 62
   256
  9
$DIMSCALE
 40
3.0
  9
$DIMASZ
 40
2.5
  9
$DIMEXO
 40
1.0
  9
$DIMDLI
 40
8.0
  9
$DIMRND
 40
0.0
  9
$DIMDLE
 40
0.0
  9
$DIMEXE
 40
0.6
  9
$DIMTP
 40
0.1
  9
$DIMTM
 40
0.1
  9
$DIMTXT
 40
2.5
  9
$DIMCEN
 40
0.0
  9
$DIMTSZ
 40
0.0
  9
$DIMTOL
 70
     0
  9
$DIMLIM
 70
     0
  9
$DIMTIH
 70
     0
  9
$DIMTOH
 70
     0
  9
$DIMSE1
 70
     0
  9
$DIMSE2
 70
     0
  9
$DIMTAD
 70
     1
  9
$DIMZIN
 70
     8
  9
$DIMBLK
  1

  9
$DIMASO
 70
     1
  9
$DIMSHO
 70
     1
  9
$DIMPOST
  1

  9
$DIMAPOST
  1
"
  9
$DIMALT
 70
     0
  9
$DIMALTD
 70
     2
  9
$DIMALTF
 40
0.0393701
  9
$DIMLFAC
 40
1.0
  9
$DIMTOFL
 70
     1
  9
$DIMTVP
 40
0.0
  9
$DIMTIX
 70
     0
  9
$DIMSOXD
 70
     0
  9
$DIMSAH
 70
     0
  9
$DIMBLK1
  1

  9
$DIMBLK2
  1

  9
$DIMSTYLE
  2
AM_ISO
  9
$DIMCLRD
 70
   256
  9
$DIMCLRE
 70
   256
  9
$DIMCLRT
 70
     4
  9
$DIMTFAC
 40
0.71
  9
$DIMGAP
 40
0.8
  9
$LUNITS
 70
     2
  9
$LUPREC
 70
     2
  9
$SKETCHINC
 40
1.0
  9
$FILLETRAD
 40
15.0
  9
$AUNITS
 70
     0
  9
$AUPREC
 70
     0
  9
$MENU
  1
.
  9
$ELEVATION
 40
0.0
  9
$PELEVATION
 40
0.0
  9
$THICKNESS
 40
0.0
  9
$LIMCHECK
 70
     0
  9
$BLIPMODE
 70
     0
  9
$CHAMFERA
 40
6.0
  9
$CHAMFERB
 40
3.0
  9
$SKPOLY
 70
     0
  9
$TDCREATE
 40
2452065.6056192131
  9
$TDUPDATE
 40
2458541.598776863
  9
$TDINDWG
 40
0.3816092708
  9
$TDUSRTIMER
 40
0.3816090741
  9
$USRTIMER
 70
     1
  9
$ANGBASE
 50
0.0
  9
$ANGDIR
 70
     0
  9
$PDMODE
 70
     0
  9
$PDSIZE
 40
0.0
  9
$PLINEWID
 40
0.0
  9
$COORDS
 70
     1
  9
$SPLFRAME
 70
     0
  9
$SPLINETYPE
 70
     6
  9
$SPLINESEGS
 70
     8
  9
$ATTDIA
 70
     1
  9
$ATTREQ
 70
     1
  9
$HANDLING
 70
     1
  9
$HANDSEED
  5
62AC
  9
$SURFTAB1
 70
     6
  9
$SURFTAB2
 70
     6
  9
$SURFTYPE
 70
     6
  9
$SURFU
 70
     6
  9
$SURFV
 70
     6
  9
$UCSNAME
  2

  9
$UCSORG
 10
0.0
 20
0.0
 30
0.0
  9
$UCSXDIR
 10
1.0
 20
0.0
 30
0.0
  9
$UCSYDIR
 10
0.0
 20
1.0
 30
0.0
  9
$PUCSNAME
  2

  9
$PUCSORG
 10
0.0
 20
0.0
 30
0.0
  9
$PUCSXDIR
 10
1.0
 20
0.0
 30
0.0
  9
$PUCSYDIR
 10
0.0
 20
1.0
 30
0.0
  9
$USERI1
 70
     0
  9
$USERI2
 70
     0
  9
$USERI3
 70
     0
  9
$USERI4
 70
     0
  9
$USERI5
 70
     0
  9
$USERR1
 40
0.0
  9
$USERR2
 40
0.0
  9
$USERR3
 40
0.0
  9
$USERR4
 40
0.0
  9
$USERR5
 40
0.0
  9
$WORLDVIEW
 70
     1
  9
$SHADEDGE
 70
     3
  9
$SHADEDIF
 70
    70
  9
$TILEMODE
 70
     1
  9
$MAXACTVP
 70
    64
  9
$PLIMCHECK
 70
     0
  9
$PEXTMIN
 10
1.0000000000000000E+020
 20
1.0000000000000000E+020
 30
1.0000000000000000E+020
  9
$PEXTMAX
 10
-1.0000000000000000E+020
 20
-1.0000000000000000E+020
 30
-1.0000000000000000E+020
  9
$PLIMMIN
 10
0.0
 20
0.0
  9
$PLIMMAX
 10
420.0
 20
297.0
  9
$UNITMODE
 70
     0
  9
$VISRETAIN
 70
     1
  9
$PLINEGEN
 70
     0
  9
$PSLTSCALE
 70
     1
  0
ENDSEC
  0
SECTION
  2
TABLES
  0
TABLE
  2
VPORT
 70
     1
  0
VPORT
  2
*ACTIVE
 70
     0
 10
0.0
 20
0.0
 11
1.0
 21
1.0
 12
421.21506698320741
 22
414.26011703168058
 13
0.0
 23
0.0
 14
7.5
 24
7.5
 15
30.0
 25
30.0
 16
0.0
 26
0.0
 36
1.0
 17
0.0
 27
0.0
 37
0.0
 40
434.5983064631061
 41
1.7571592210767459
 42
50.0
 43
0.0
 44
0.0
 50
0.0
 51
0.0
 71
     0
 72
   100
 73
     1
 74
     3
 75
     0
 76
     0
 77
     0
 78
     0
  0
ENDTAB
  0
TABLE
  2
LTYPE
 70
    27
  0
LTYPE
  2
CONTINUOUS
 70
     0
  3
Solid line
 72
    65
 73
     0
 40
0.0
  0
LTYPE
  2
AM_ISO02W050
 70
     0
  3
__ __ __ __ __ __ __ __ __ __ __ __ __ __ __
 72
    65
 73
     2
 40
7.5
 49
6.0
 49
-1.5
  0
LTYPE
  2
AM_ISO08W050
 70
     0
  3
____ . ____ . ____ . ____ . ____ . ____ . ____
 72
    65
 73
     4
 40
18.0
 49
12.0
 49
-1.5
 49
3.0
 49
-1.5
  0
LTYPE
  2
AM_ISO09W050
 70
     0
  3
_____ . . _____ . . _____ . . ____ .. ____
 72
    65
 73
     6
 40
22.5
 49
12.0
 49
-1.5
 49
3.0
 49
-1.5
 49
3.0
 49
-1.5
  0
LTYPE
  2
AMCONSTR
 70
     0
  3
_______________________
 72
    65
 73
     2
 40
9999.0
 49
9999.0
 49
0.0
  0
LTYPE
  2
AM_ISO08W050X2
 70
     0
  3
__ . __ . __ . __ . __ . __
 72
    65
 73
     4
 40
9.0
 49
6.0
 49
-0.75
 49
1.5
 49
-0.75
  0
LTYPE
  2
AM_ISO02W050X2
 70
     0
  3
 _ _ _ _ _ _ _ _ _ _ _ _
 72
    65
 73
     2
 40
3.75
 49
3.0
 49
-0.75
  0
LTYPE
  2
AMZIGZAG
 70
     0
  3
/\/-/\/-/\/-/\/-/\/-/\/
 72
    65
 73
     2
 40
11.0001
 49
0.0001
 49
-11.0
  0
LTYPE
  2
ACISOWELD
 70
     0
  3
_ _ _ _ _
 72
    65
 73
     2
 40
2.0
 49
2.0
 49
-1.0
  0
LTYPE
  2
ACISOTGB
 70
     0
  3
__ . . __ . .
 72
    65
 73
     6
 40
9.0
 49
4.0
 49
-1.0
 49
1.0
 49
-1.0
 49
1.0
 49
-1.0
  0
LTYPE
  2
ACISOTGL
 70
     0
  3
_ _ _ _ _
 72
    65
 73
     2
 40
3.0
 49
2.0
 49
-1.0
  0
LTYPE
  2
CENTER
 70
     0
  3
__ . __
 72
    65
 73
     4
 40
7.0
 49
4.0
 49
-1.0
 49
1.0
 49
-1.0
  0
LTYPE
  2
HIDDEN
 70
     0
  3
Hidden __ __ __ __ __ __ __ __ __ __ __ __ __ _
 72
    65
 73
     2
 40
9.5249999999999986
 49
6.3499999999999979
 49
-3.174999999999998
  0
LTYPE
  2
PHANTOM2
 70
     0
  3
Phantom (.5x) ___ _ _ ___ _ _ ___ _ _ ___ _ _
 72
    65
 73
     6
 40
31.75
 49
15.875
 49
-3.174999999999998
 49
3.174999999999998
 49
-3.174999999999998
 49
3.174999999999998
 49
-3.174999999999998
  0
LTYPE
  2
ACANSTGBM
 70
     0
  3
__ . . __ . .
 72
    65
 73
     6
 40
9.0
 49
4.0
 49
-1.0
 49
1.0
 49
-1.0
 49
1.0
 49
-1.0
  0
LTYPE
  2
ACANSTGLM
 70
     0
  3
_ _ _ _ _
 72
    65
 73
     2
 40
3.0
 49
2.0
 49
-1.0
  0
LTYPE
  2
GEN3B
 70
     0
  3
 - - - - -
 72
    65
 73
     2
 40
1.0
 49
0.5
 49
-0.5
  0
LTYPE
  2
GEN7A
 70
     0
  3
__ . __ . __
 72
    65
 73
     4
 40
7.375
 49
4.75
 49
-0.875
 49
0.875
 49
-0.875
  0
LTYPE
  2
ACJISTGB
 70
     0
  3
__ . . __ . .
 72
    65
 73
     6
 40
9.0
 49
4.0
 49
-1.0
 49
1.0
 49
-1.0
 49
1.0
 49
-1.0
  0
LTYPE
  2
ACJISTGL
 70
     0
  3
_ _ _ _ _
 72
    65
 73
     2
 40
3.0
 49
2.0
 49
-1.0
  0
LTYPE
  2
GEN7
 70
     0
  3
____ . ____ . ____ . ____ . ____ . ____ . ____
 72
    65
 73
     4
 40
14.25
 49
9.75
 49
-1.5
 49
1.5
 49
-1.5
  0
LTYPE
  2
CENTER2
 70
     0
  3
Center (.5x) ___ _ ___ _ ___ _ ___ _ ___ _ ___
 72
    65
 73
     4
 40
1.125
 49
0.75
 49
-0.125
 49
0.125
 49
-0.125
  0
LTYPE
  2
HIDDEN2
 70
     0
  3
Hidden (.5x) _ _ _ _ _ _ _ _ _ _ _ _ _ _ _ _ _
 72
    65
 73
     2
 40
0.1875
 49
0.125
 49
-0.0625
  0
LTYPE
  2
AMZIGZAG2
 70
     0
  3
/\/-/\/-/\/-/\/-/\/-/\/
 72
    65
 73
     2
 40
0.4401
 49
0.0001
 49
-0.4400000000000001
  0
LTYPE
  2
ACANSTGB
 70
     0
  3
__ . . __ . .
 72
    65
 73
     6
 40
0.35433070866
 49
0.15748031496
 49
-0.03937007874
 49
0.03937007874
 49
-0.03937007874
 49
0.03937007874
 49
-0.03937007874
  0
LTYPE
  2
ACANSTGL
 70
     0
  3
_ _ _ _ _
 72
    65
 73
     2
 40
0.11811023622
 49
0.07874015748
 49
-0.03937007874
  0
ENDTAB
  0
TABLE
  2
LAYER
 70
     8
  0
LAYER
  2
0
 70
     0
 62
     7
  6
CONTINUOUS
  0
LAYER
  2
AM_0
 70
     0
 62
     7
  6
CONTINUOUS
  0
LAYER
  2
AM_5
 70
     0
 62
     2
  6
CONTINUOUS
  0
LAYER
  2
DEFPOINTS
 70
     0
 62
     7
  6
CONTINUOUS
  0
LAYER
  2
ｶｸﾚｾﾝ2
 70
     0
 62
     3
  6
GEN3B
  0
LAYER
  2
ﾁｭｳｼﾝｾﾝ1
 70
     0
 62
     1
  6
GEN7A
  0
LAYER
  2
AM_0N
 70
     0
 62
     7
  6
CONTINUOUS
  0
LAYER
  2
ﾁｭｳｼﾝｾﾝ
 70
     0
 62
     1
  6
GEN7
  0
ENDTAB
  0
TABLE
  2
STYLE
 70
    10
  0
STYLE
  2
STANDARD
 70
     0
 40
0.0
 41
0.8299999999999999
 50
0.0
 71
     0
 42
2.5
  3
txt.shx
  4
bigfont.shx
  0
STYLE
  2
ANNOTATIVE
 70
     0
 40
0.0
 41
1.0
 50
0.0
 71
     0
 42
0.2
  3
txt
  4

  0
STYLE
  2

 70
     1
 40
0.0
 41
1.0
 50
0.0
 71
     0
 42
2.5
  3
ltypeshp.shx
  4

  0
STYLE
  2
ACISOTS
 70
     0
 40
1.0
 41
1.0
 50
0.0
 71
     0
 42
2.5
  3
isocp.shx
  4
extfont.shx
  0
STYLE
  2
ACISOGDT
 70
     0
 40
0.0
 41
1.0
 50
0.0
 71
     0
 42
2.5
  3
amgdt.shx
  4

  0
STYLE
  2
ACANSTS
 70
     0
 40
1.0
 41
1.0
 50
0.0
 71
     0
 42
2.5
  3
romans.shx
  4
bigfont.shx
  0
STYLE
  2
ACANSGDT
 70
     0
 40
0.0
 41
1.0
 50
0.0
 71
     0
 42
2.5
  3
amgdt.shx
  4

  0
STYLE
  2
ACJISTS
 70
     0
 40
1.0
 41
1.0
 50
0.0
 71
     0
 42
2.5
  3
isocp.shx
  4
bigfont.shx
  0
STYLE
  2
ACJISGDT
 70
     0
 40
0.0
 41
1.0
 50
0.0
 71
     0
 42
2.5
  3
amgdt.shx
  4

  0
STYLE
  2

 70
     1
 40
0.0
 41
1.0
 50
0.0
 71
     0
 42
2.5
  3
genltshp.shx
  4

  0
ENDTAB
  0
TABLE
  2
VIEW
 70
     6
  0
VIEW
  2
AM_VIEW1
 70
     0
 40
277.50000000000011
 10
249.64779005524869
 20
416.25
 41
499.29558011049721
 11
0.0
 21
0.0
 31
1.0
 12
0.0
 22
0.0
 32
0.0
 42
50.0
 43
0.0
 44
0.0
 50
0.0
 71
     0
  0
VIEW
  2
AM_VIEW2
 70
     0
 40
277.50000000000011
 10
603.85220994475117
 20
416.25
 41
499.29558011049721
 11
0.0
 21
0.0
 31
1.0
 12
0.0
 22
0.0
 32
0.0
 42
50.0
 43
0.0
 44
0.0
 50
0.0
 71
     0
  0
VIEW
  2
AM_VIEW3
 70
     0
 40
277.50000000000011
 10
249.64779005524869
 20
138.75
 41
499.29558011049721
 11
0.0
 21
0.0
 31
1.0
 12
0.0
 22
0.0
 32
0.0
 42
50.0
 43
0.0
 44
0.0
 50
0.0
 71
     0
  0
VIEW
  2
AM_VIEW4
 70
     0
 40
277.50000000000011
 10
603.85220994475117
 20
138.75
 41
499.29558011049721
 11
0.0
 21
0.0
 31
1.0
 12
0.0
 22
0.0
 32
0.0
 42
50.0
 43
0.0
 44
0.0
 50
0.0
 71
     0
  0
VIEW
  2
AM_VIEW5
 70
     0
 40
277.50000000000011
 10
426.75
 20
277.50000000000011
 41
499.2955801104971
 11
0.0
 21
0.0
 31
1.0
 12
0.0
 22
0.0
 32
0.0
 42
50.0
 43
0.0
 44
0.0
 50
0.0
 71
     0
  0
VIEW
  2
AM_VIEW6
 70
     0
 40
554.99445000000014
 10
426.75
 20
277.5
 41
998.5811743093924
 11
0.0
 21
0.0
 31
1.0
 12
0.0
 22
0.0
 32
0.0
 42
50.0
 43
0.0
 44
0.0
 50
0.0
 71
     0
  0
ENDTAB
  0
TABLE
  2
UCS
 70
     0
  0
ENDTAB
  0
TABLE
  2
APPID
 70
   101
  0
APPID
  2
ACAD
 70
     0
  0
APPID
  2
ACADANNOTATIVE
 70
     0
  0
APPID
  2
MCAD_NO_VIS
 70
     0
  0
APPID
  2
ACAD_TEMP_GRAPHIC
 70
     0
  0
APPID
  2
ACATTRIBSERVICES
 70
     0
  0
APPID
  2
GENIUS_GENREC_14
 70
     0
  0
APPID
  2
GENIUS_GENOBJ-N-REC_13
 70
     0
  0
APPID
  2
GENIUS_GENODEF_13
 70
     0
  0
APPID
  2
GENIUS_GENOLIS_13
 70
     0
  0
APPID
  2
GENIUS_GENOBJ-N-TIT_13
 70
     0
  0
APPID
  2
GENIUS_GENOENT_13
 70
     0
  0
APPID
  2
GENIUS_GENTITLE_13
 70
     0
  0
APPID
  2
GENIUS_GENOREF_13
 70
     0
  0
APPID
  2
GENIUS_GENSCREG_15
 70
     0
  0
APPID
  2
GENIUS_GENOBJ-N-SDF_13
 70
     0
  0
APPID
  2
GENIUS_GENFIL_13
 70
     0
  0
APPID
  2
GENIUS_GENOBJ-N-CHA_13
 70
     0
  0
APPID
  2
GENIUS_GENDTOL_13
 70
     0
  0
APPID
  2
GENIUS_GENOBJ-N-FIL_13
 70
     0
  0
APPID
  2
AD_DRAW
 70
     0
  0
APPID
  2
DESIGNERASSEMBLIES
 70
     0
  0
APPID
  2
ASURF_PCURVE_APPNAME
 70
     0
  0
APPID
  2
GENIUS_GE3SECT_13
 70
     0
  0
APPID
  2
GENIUS_GENCFG_13
 70
     0
  0
APPID
  2
GENIUS_GE3CFG0_13
 70
     0
  0
APPID
  2
GENIUS_GENCFG0_13
 70
     0
  0
APPID
  2
GENIUS_GENCFG1_13
 70
     0
  0
APPID
  2
GENIUS_GENCFG2_13
 70
     0
  0
APPID
  2
GENIUS_GENCFG3_13
 70
     0
  0
APPID
  2
GENIUS_GENCFG4_13
 70
     0
  0
APPID
  2
GENIUS_GEVCFG0_13
 70
     0
  0
APPID
  2
GENIUS_GENHINW_13
 70
     0
  0
APPID
  2
GENIUS_FIRSTVISTXT_14
 70
     0
  0
APPID
  2
GENIUS_GENOBJ-N-LEADER_13
 70
     0
  0
APPID
  2
GEV_VCCNULL_SWITCH_OFF
 70
     0
  0
APPID
  2
GENIUS_GEFCFG0_13
 70
     0
  0
APPID
  2
GENIUS_GENZVEED_13
 70
     0
  0
APPID
  2
GENIUS_GENSCREG_13
 70
     0
  0
APPID
  2
GENIUS_DUMCFG0_13
 70
     0
  0
APPID
  2
GEVID936201362
 70
     0
  0
APPID
  2
GEVDC
 70
     0
  0
APPID
  2
GEVCON
 70
     0
  0
APPID
  2
VCC
 70
     0
  0
APPID
  2
GEVPT
 70
     0
  0
APPID
  2
GEVIT
 70
     0
  0
APPID
  2
GENBH
 70
     0
  0
APPID
  2
GEVMK
 70
     0
  0
APPID
  2
GENIUS_GENBH_13
 70
     0
  0
APPID
  2
GENIUS_GENOBJ-NBEHI-BHF_13
 70
     0
  0
APPID
  2
GENIUS_GENOBJ-NBEHI-BHB_13
 70
     0
  0
APPID
  2
GENIUS_GENOBJ-F-DESC_13
 70
     0
  0
APPID
  2
GENIUS_GEFDESC_14
 70
     0
  0
APPID
  2
GENIUS_GENOBJ-F-PART_13
 70
     0
  0
APPID
  2
GENIUS_GEFSTDP_13
 70
     0
  0
APPID
  2
GENIUS_GEFPARTINS_13
 70
     0
  0
APPID
  2
GENIUS_GENTRA_14
 70
     0
  0
APPID
  2
GENIUS_GENINF13_13
 70
     0
  0
APPID
  2
GENIUS_GENOBJ-N-INFOPT_13
 70
     0
  0
APPID
  2
GENIUS_GENOBJ-N-RSSYM_13
 70
     0
  0
APPID
  2
GENIUS_GENSYMENT_13
 70
     0
  0
APPID
  2
GENIUS_GENSCSYM_13
 70
     0
  0
APPID
  2
GENIUS_GEFINFNAM_13
 70
     0
  0
APPID
  2
GENIUS_GENOBJ-N-CEN_13
 70
     0
  0
APPID
  2
GENIUS_GENOBJ-N-CRS_13
 70
     0
  0
APPID
  2
GENIUS_GENOBJ-N-CRC_13
 70
     0
  0
APPID
  2
GENIUS_GENCRC_14
 70
     0
  0
APPID
  2
GEVID942827039
 70
     0
  0
APPID
  2
GEVID942827040
 70
     0
  0
APPID
  2
GEVID942827041
 70
     0
  0
APPID
  2
GENIUS_GENOBJ-F-SCPASSM_13
 70
     0
  0
APPID
  2
GENIUS_GENDIMSH_14
 70
     0
  0
APPID
  2
GEVID942827042
 70
     0
  0
APPID
  2
GEVID946020473
 70
     0
  0
APPID
  2
GEVID946020474
 70
     0
  0
APPID
  2
GEVID946020475
 70
     0
  0
APPID
  2
GENIUS_GENOBJ-N-HTC_13
 70
     0
  0
APPID
  2
GENIUS_GENHATCH_13
 70
     0
  0
APPID
  2
GEVID948854295
 70
     0
  0
APPID
  2
GEVID939402019
 70
     0
  0
APPID
  2
GEVID952919491
 70
     0
  0
APPID
  2
GEVID952919492
 70
     0
  0
APPID
  2
GENIUS_GEFWELD_13
 70
     0
  0
APPID
  2
GENIUS_GENOBJ-F-WELS_13
 70
     0
  0
APPID
  2
GEVID952919493
 70
     0
  0
APPID
  2
GENIUS_GENOBJ-N-RSBK_13
 70
     0
  0
APPID
  2
GENIUS_GENOBJ-N-LIB_13
 70
     0
  0
APPID
  2
GENIUS_GENSCALE_13
 70
     0
  0
APPID
  2
GEVID986376691
 70
     0
  0
APPID
  2
DCO15
 70
     0
  0
APPID
  2
GEVID988070561
 70
     0
  0
APPID
  2
GEVID988070562
 70
     0
  0
APPID
  2
GEVID988070563
 70
     0
  0
APPID
  2
ACADM_DIM_EDIT
 70
     0
  0
APPID
  2
AMDT_DM_ADJ
 70
     0
  0
APPID
  2
ACAD_PSEXT
 70
     0
  0
APPID
  2
ACAD_DSTYLE_DIMJAG
 70
     0
  0
APPID
  2
ACAD_DSTYLE_DIMBREAK
 70
     0
  0
APPID
  2
ACAD_NAV_VCDISPLAY
 70
     0
  0
APPID
  2
ACADANNOPO
 70
     0
  0
APPID
  2
ACAD_EXEMPT_FROM_CAD_STANDARDS
 70
     0
  0
APPID
  2
ACAD_MLEADERVER
 70
     0
  0
ENDTAB
  0
TABLE
  2
DIMSTYLE
 70
    23
  0
DIMSTYLE
  2
STANDARD
 70
     0
  3

  4

  5

  6

  7

 40
1.0
 41
0.18
 42
0.0625
 43
0.38
 44
0.18
 45
0.0
 46
0.0
 47
0.0
 48
0.0
140
0.18
141
0.09
142
0.0
143
25.399999999999999
144
1.0
145
0.0
146
1.0
147
0.09
 71
     0
 72
     0
 73
     1
 74
     1
 75
     0
 76
     0
 77
     0
 78
     0
170
     0
171
     2
172
     0
173
     0
174
     0
175
     0
176
     0
177
     0
178
     0
  0
DIMSTYLE
  2
ANNOTATIVE
 70
     0
  3

  4

  5

  6

  7

 40
1.0
 41
0.18
 42
0.0625
 43
0.38
 44
0.18
 45
0.0
 46
0.0
 47
0.0
 48
0.0
140
0.18
141
0.09
142
0.0
143
25.399999999999999
144
1.0
145
0.0
146
1.0
147
0.09
 71
     0
 72
     0
 73
     1
 74
     1
 75
     0
 76
     0
 77
     0
 78
     0
170
     0
171
     2
172
     0
173
     0
174
     0
175
     0
176
     0
177
     0
178
     0
  0
DIMSTYLE
  2
AM_ISO
 70
     0
  3

  4
"
  5

  6

  7

 40
1.0
 41
2.5
 42
1.0
 43
8.0
 44
0.6
 45
0.0
 46
0.0
 47
0.1
 48
0.1
140
2.5
141
0.0
142
0.0
143
0.0393701
144
1.0
145
0.0
146
0.71
147
0.8
 71
     0
 72
     0
 73
     0
 74
     0
 75
     0
 76
     0
 77
     1
 78
     8
170
     0
171
     2
172
     1
173
     0
174
     0
175
     0
176
   256
177
   256
178
     4
  0
DIMSTYLE
  2
AM_ISO$3
 70
     0
  3

  4
"
  5

  6

  7

 40
1.0
 41
2.5
 42
1.0
 43
8.0
 44
0.6
 45
0.0
 46
0.0
 47
0.1
 48
0.1
140
2.5
141
0.0
142
0.0
143
0.0393701
144
1.0
145
0.0
146
0.71
147
0.8
 71
     0
 72
     0
 73
     0
 74
     1
 75
     0
 76
     0
 77
     1
 78
     8
170
     0
171
     2
172
     0
173
     0
174
     0
175
     0
176
   256
177
   256
178
     4
  0
DIMSTYLE
  2
AM_ISO$4
 70
     0
  3

  4
"
  5

  6

  7

 40
1.0
 41
2.5
 42
1.0
 43
8.0
 44
0.6
 45
0.0
 46
0.0
 47
0.1
 48
0.1
140
2.5
141
0.0
142
0.0
143
0.0393701
144
1.0
145
0.0
146
0.71
147
0.8
 71
     0
 72
     0
 73
     0
 74
     1
 75
     0
 76
     0
 77
     1
 78
     8
170
     0
171
     2
172
     0
173
     0
174
     0
175
     0
176
   256
177
   256
178
     4
  0
DIMSTYLE
  2
AM_ISO$6
 70
     0
  3

  4
"
  5

  6

  7

 40
1.0
 41
2.5
 42
1.0
 43
8.0
 44
0.6
 45
0.0
 46
0.0
 47
0.1
 48
0.1
140
2.5
141
0.0
142
0.0
143
0.0393701
144
1.0
145
0.0
146
0.71
147
0.8
 71
     0
 72
     0
 73
     0
 74
     0
 75
     0
 76
     0
 77
     0
 78
     8
170
     0
171
     2
172
     1
173
     0
174
     0
175
     0
176
   256
177
   256
178
     4
  0
DIMSTYLE
  2
AM_ISO$7
 70
     0
  3

  4
"
  5

  6

  7

 40
1.0
 41
2.5
 42
1.0
 43
8.0
 44
0.6
 45
0.0
 46
0.0
 47
0.1
 48
0.1
140
2.5
141
0.0
142
0.0
143
0.0393701
144
1.0
145
0.0
146
0.71
147
0.8
 71
     0
 72
     0
 73
     0
 74
     0
 75
     0
 76
     0
 77
     1
 78
     8
170
     0
171
     2
172
     1
173
     0
174
     0
175
     0
176
   256
177
   256
178
     4
  0
DIMSTYLE
  2
AM_ISO$SF
 70
     0
  3

  4
"
  5

  6

  7

 40
1.0
 41
2.5
 42
1.0
 43
10.0
 44
1.0
 45
0.0
 46
0.0
 47
0.1
 48
0.1
140
3.5
141
0.0
142
0.0
143
0.0393701
144
1.0
145
0.0
146
0.71
147
1.5
 71
     0
 72
     0
 73
     0
 74
     0
 75
     1
 76
     1
 77
     1
 78
     8
170
     0
171
     2
172
     1
173
     0
174
     0
175
     0
176
   256
177
   256
178
     2
  0
DIMSTYLE
  2
AM_ISO$SH
 70
     0
  3

  4
"
  5

  6

  7

 40
1.0
 41
2.5
 42
1.0
 43
10.0
 44
1.0
 45
0.0
 46
0.0
 47
0.1
 48
0.1
140
3.5
141
0.0
142
0.0
143
0.0393701
144
2.0
145
0.0
146
0.71
147
1.5
 71
     0
 72
     0
 73
     0
 74
     0
 75
     1
 76
     1
 77
     1
 78
     8
170
     0
171
     2
172
     1
173
     1
174
     0
175
     0
176
   256
177
   256
178
     2
  0
DIMSTYLE
  2
AM_JIS
 70
     0
  3

  4
"
  5

  6

  7

 40
1.0
 41
2.5
 42
1.0
 43
7.0
 44
1.0
 45
0.0
 46
0.0
 47
0.1
 48
0.1000000001
140
2.5
141
0.0
142
0.0
143
0.0393701
144
1.0
145
0.0
146
0.71
147
1.0
 71
     0
 72
     0
 73
     0
 74
     0
 75
     0
 76
     0
 77
     3
 78
     8
170
     0
171
     2
172
     1
173
     0
174
     0
175
     0
176
   256
177
   256
178
     4
  0
DIMSTYLE
  2
AM_JIS$3
 70
     0
  3

  4
"
  5

  6

  7

 40
1.0
 41
2.5
 42
1.0
 43
7.0
 44
1.0
 45
0.0
 46
0.0
 47
0.1
 48
0.1000000001
140
2.5
141
0.0
142
0.0
143
0.0393701
144
1.0
145
0.0
146
0.71
147
1.0
 71
     0
 72
     0
 73
     0
 74
     1
 75
     0
 76
     0
 77
     3
 78
     8
170
     0
171
     2
172
     0
173
     0
174
     0
175
     0
176
   256
177
   256
178
     4
  0
DIMSTYLE
  2
AM_JIS$4
 70
     0
  3

  4
"
  5

  6

  7

 40
1.0
 41
2.5
 42
1.0
 43
7.0
 44
1.0
 45
0.0
 46
0.0
 47
0.1
 48
0.1000000001
140
2.5
141
0.0
142
0.0
143
0.0393701
144
1.0
145
0.0
146
0.71
147
1.0
 71
     0
 72
     0
 73
     0
 74
     0
 75
     0
 76
     0
 77
     3
 78
     8
170
     0
171
     2
172
     0
173
     0
174
     0
175
     0
176
   256
177
   256
178
     4
  0
DIMSTYLE
  2
AM_JIS$6
 70
     0
  3

  4
"
  5

  6

  7

 40
1.0
 41
2.5
 42
1.0
 43
7.0
 44
1.0
 45
0.0
 46
0.0
 47
0.1
 48
0.1000000001
140
2.5
141
0.0
142
0.0
143
0.0393701
144
1.0
145
0.0
146
0.71
147
1.0
 71
     0
 72
     0
 73
     0
 74
     0
 75
     0
 76
     0
 77
     0
 78
     8
170
     0
171
     2
172
     1
173
     0
174
     0
175
     0
176
   256
177
   256
178
     4
  0
DIMSTYLE
  2
AM_JIS$7
 70
     0
  3

  4
"
  5

  6

  7

 40
1.0
 41
2.5
 42
1.0
 43
7.0
 44
1.0
 45
0.0
 46
0.0
 47
0.1
 48
0.1000000001
140
2.5
141
0.0
142
0.0
143
0.0393701
144
1.0
145
0.0
146
0.71
147
1.0
 71
     0
 72
     0
 73
     0
 74
     0
 75
     0
 76
     0
 77
     3
 78
     8
170
     0
171
     2
172
     1
173
     0
174
     0
175
     0
176
   256
177
   256
178
     4
  0
DIMSTYLE
  2
AM_JIS$SF
 70
     0
  3

  4
"
  5

  6

  7

 40
1.0
 41
2.5
 42
1.0
 43
10.0
 44
1.0
 45
0.0
 46
0.0
 47
0.1
 48
0.1
140
3.5
141
0.0
142
0.0
143
0.0393701
144
1.0
145
0.0
146
0.71
147
1.5
 71
     0
 72
     0
 73
     0
 74
     0
 75
     1
 76
     1
 77
     3
 78
     8
170
     0
171
     2
172
     1
173
     0
174
     0
175
     0
176
   256
177
   256
178
     4
  0
DIMSTYLE
  2
AM_JIS$SH
 70
     0
  3

  4
"
  5

  6

  7

 40
1.0
 41
2.5
 42
1.0
 43
10.0
 44
1.0
 45
0.0
 46
0.0
 47
0.1
 48
0.1
140
3.5
141
0.0
142
0.0
143
0.0393701
144
1.0
145
0.0
146
0.71
147
1.5
 71
     0
 72
     0
 73
     0
 74
     0
 75
     1
 76
     0
 77
     3
 78
     8
170
     0
171
     2
172
     1
173
     1
174
     0
175
     0
176
   256
177
   256
178
     4
  0
DIMSTYLE
  2
AM_ISO$0
 70
     0
  3

  4
"
  5

  6

  7

 40
1.0
 41
2.5
 42
1.0
 43
8.0
 44
0.6
 45
0.0
 46
0.0
 47
0.1
 48
0.1
140
2.5
141
0.0
142
0.0
143
0.0393701
144
1.0
145
0.0
146
0.71
147
0.8
 71
     0
 72
     0
 73
     0
 74
     0
 75
     0
 76
     0
 77
     1
 78
     8
170
     0
171
     2
172
     1
173
     0
174
     0
175
     0
176
   256
177
   256
178
     4
  0
DIMSTYLE
  2
AM_ANSI
 70
     0
  3

  4
mm
  5

  6

  7

 40
1.0
 41
0.12
 42
0.05
 43
0.5
 44
0.1
 45
0.0
 46
0.0
 47
0.1
 48
0.1
140
0.12
141
0.0
142
0.0
143
25.399999999999999
144
1.0
145
0.0
146
0.71
147
0.06
 71
     0
 72
     0
 73
     1
 74
     1
 75
     0
 76
     0
 77
     0
 78
     7
170
     0
171
     2
172
     0
173
     0
174
     0
175
     0
176
   256
177
   256
178
     2
  0
DIMSTYLE
  2
AM_ANSI$3
 70
     0
  3

  4
mm
  5

  6

  7

 40
1.0
 41
0.12
 42
0.05
 43
0.5
 44
0.1
 45
0.0
 46
0.0
 47
0.1
 48
0.1
140
0.12
141
0.0
142
0.0
143
25.399999999999999
144
1.0
145
0.0
146
0.71
147
0.06
 71
     0
 72
     0
 73
     1
 74
     1
 75
     0
 76
     0
 77
     0
 78
     7
170
     0
171
     2
172
     0
173
     0
174
     0
175
     0
176
   256
177
   256
178
     2
  0
DIMSTYLE
  2
AM_ANSI$4
 70
     0
  3

  4
mm
  5

  6

  7

 40
1.0
 41
0.12
 42
0.05
 43
0.5
 44
0.1
 45
0.0
 46
0.0
 47
0.1
 48
0.1
140
0.12
141
0.0
142
0.0
143
25.399999999999999
144
1.0
145
0.0
146
0.71
147
0.06
 71
     0
 72
     0
 73
     1
 74
     1
 75
     0
 76
     0
 77
     0
 78
     7
170
     0
171
     2
172
     0
173
     0
174
     0
175
     0
176
   256
177
   256
178
     2
  0
DIMSTYLE
  2
AM_ANSI$7
 70
     0
  3

  4
mm
  5

  6

  7

 40
1.0
 41
0.12
 42
0.05
 43
0.5
 44
0.1
 45
0.0
 46
0.0
 47
0.1
 48
0.1
140
0.12
141
0.0
142
0.0
143
25.399999999999999
144
1.0
145
0.0
146
0.71
147
0.06
 71
     0
 72
     0
 73
     1
 74
     1
 75
     0
 76
     0
 77
     0
 78
     7
170
     0
171
     2
172
     0
173
     0
174
     0
175
     0
176
   256
177
   256
178
     2
  0
DIMSTYLE
  2
AM_ANSI$SF
 70
     0
  3

  4
mm
  5

  6

  7

 40
1.0
 41
0.12
 42
0.05
 43
0.5
 44
0.1
 45
0.0
 46
0.0
 47
0.1
 48
0.1
140
0.12
141
0.0
142
0.0
143
25.399999999999999
144
1.0
145
0.0
146
0.71
147
0.06
 71
     0
 72
     0
 73
     1
 74
     1
 75
     1
 76
     1
 77
     0
 78
     7
170
     0
171
     2
172
     0
173
     0
174
     0
175
     0
176
   256
177
   256
178
     2
  0
DIMSTYLE
  2
AM_ANSI$SH
 70
     0
  3

  4
mm
  5

  6
GENAXEH
  7

 40
1.0
 41
0.12
 42
0.05
 43
0.5
 44
0.1
 45
0.0
 46
0.0
 47
0.1
 48
0.1
140
0.12
141
0.0
142
0.0
143
25.399999999999999
144
1.0
145
0.0
146
0.71
147
0.06
 71
     0
 72
     0
 73
     1
 74
     1
 75
     1
 76
     1
 77
     0
 78
     7
170
     0
171
     2
172
     0
173
     1
174
     0
175
     0
176
   256
177
   256
178
     2
  0
ENDTAB
  0
ENDSEC
  0
SECTION
  2
BLOCKS
  0
BLOCK
  8
0
  2
$MODEL_SPACE
 70
     0
 10
0.0
 20
0.0
 30
0.0
  3
$MODEL_SPACE
  1

  0
ENDBLK
  5
6122
  8
0
  0
BLOCK
 67
     1
  8
0
  2
$PAPER_SPACE
 70
     0
 10
0.0
 20
0.0
 30
0.0
  3
$PAPER_SPACE
  1

  0
ENDBLK
  5
611E
 67
     1
  8
0
  0
BLOCK
  8
0
  2
GENAXEH
 70
     0
 10
0.0
 20
0.0
 30
0.0
  3
GENAXEH
  1

  0
LINE
  5
73
  8
0
 10
-1.0
 20
0.0
 30
0.0
 11
1.0
 21
0.0
 31
0.0
  0
ENDBLK
  5
75
  8
0
  0
BLOCK
  8
0
  2
_OPEN30
 70
     0
 10
0.0
 20
0.0
 30
0.0
  3
_OPEN30
  1

  0
LINE
  5
31A
  8
0
 62
     0
 10
-1.0
 20
0.26794919
 30
0.0
 11
0.0
 21
0.0
 31
0.0
  0
LINE
  5
31B
  8
0
 62
     0
 10
0.0
 20
0.0
 30
0.0
 11
-1.0
 21
-0.26794919
 31
0.0
  0
LINE
  5
31C
  8
0
 62
     0
 10
0.0
 20
0.0
 30
0.0
 11
-1.0
 21
0.0
 31
0.0
  0
ENDBLK
  5
31E
  8
0
  0
BLOCK
  8
0
  2
_NONE
 70
     0
 10
0.0
 20
0.0
 30
0.0
  3
_NONE
  1

  0
ENDBLK
  5
579
  8
0
  0
BLOCK
  8
0
  2
*U5
 70
     1
 10
0.0
 20
0.0
 30
0.0
  3
*U5
  1

  0
TEXT
  5
60AF
  8
AM_0
 10
547.24658798069595
 20
545.64179357212834
 30
0.0
 40
10.0
  1
ＶＸ０２－０８０～１００ＭＷ
 41
0.8299999999999999
  0
ENDBLK
  5
60B1
  8
0
  0
BLOCK
  8
0
  2
_ACMFILLEDHALF
 70
     0
 10
0.0
 20
0.0
 30
0.0
  3
_ACMFILLEDHALF
  1

  0
TRACE
  5
6226
  8
AM_0
 62
     0
 10
-0.8
 20
0.0
 30
0.0
 11
-1.0
 21
0.166666666
 31
0.0
 12
0.0
 22
0.0
 32
0.0
 13
0.0
 23
0.0
 33
0.0
  0
LINE
  5
6227
  8
AM_0
 62
     0
 10
-1.0
 20
0.0
 30
0.0
 11
-0.8
 21
0.0
 31
0.0
  0
ENDBLK
  5
6225
  8
0
  0
ENDSEC
  0
SECTION
  2
ENTITIES
  0
LINE
  5
1AB5
  8
AM_0
 10
257.30037871952942
 20
239.8111822383421
 30
0.0
 11
260.30037871952931
 21
239.8111822383421
 31
0.0
  0
LINE
  5
1AB7
  8
AM_0
 10
257.30037871952919
 20
316.25728123834222
 30
0.0
 11
260.30037871952931
 21
316.25728123834222
 31
0.0
  0
LINE
  5
1ABA
  8
AM_0
 10
155.5068087195292
 20
221.75101423834209
 30
0.0
 11
252.42654871952931
 21
221.75101423834209
 31
0.0
  0
LINE
  5
1ABB
  8
AM_0
 10
153.9783087195292
 20
241.3111822383421
 30
0.0
 11
161.30037871952919
 21
241.31118223834221
 31
0.0
  0
LINE
  5
1ABC
  8
AM_0
 10
161.30037871952919
 20
244.0342642383421
 30
0.0
 11
154.6657887195291
 21
244.0342642383421
 31
0.0
  0
LINE
  5
1ABD
  8
AM_0
 10
161.30037871952919
 20
242.0342662383421
 30
0.0
 11
154.6657887195291
 21
242.0342662383421
 31
0.0
  0
LINE
  5
1ABE
  8
AM_0
 10
161.30037871952919
 20
314.03428123834198
 30
0.0
 11
154.6657887195291
 21
314.03428123834198
 31
0.0
  0
LINE
  5
1ABF
  8
AM_0
 10
161.30037871952919
 20
312.03426823834218
 30
0.0
 11
154.6657887195291
 21
312.03426823834218
 31
0.0
  0
LINE
  5
1AC0
  8
AM_0
 10
153.97767871952919
 20
314.75728123834222
 30
0.0
 11
161.30037871952919
 21
314.75728123834222
 31
0.0
  0
LINE
  5
1AC1
  8
AM_0
 10
155.5068087195292
 20
334.31752123834212
 30
0.0
 11
252.42654871952931
 21
334.31752123834212
 31
0.0
  0
ARC
  5
1AC3
  8
AM_0
 10
153.97767871952919
 20
313.07937223834222
 30
0.0
 40
1.6779127499999991
 50
90.000003000000945
 51
270.0
  0
ARC
  5
1AC4
  8
AM_0
 10
154.8497487195292
 20
313.03426723834218
 30
0.0
 40
1.0000000199999981
 50
90.000003000000945
 51
270.0
  0
LINE
  5
1AC5
  8
AM_0
 10
140.30037871952919
 20
313.42715023834222
 30
0.0
 11
140.30037871952919
 21
312.36721423834223
 31
0.0
  0
ARC
  5
1AC6
  8
AM_0
 10
139.30038871952911
 20
312.20900923834199
 30
0.0
 40
1.0000000199999981
 50
113.127029999999
 51
180.00001
  0
LINE
  5
1AC7
  8
AM_0
 10
140.11221871952921
 20
313.6431832383422
 30
0.0
 11
138.90762871952921
 21
313.12871923834211
 31
0.0
  0
LINE
  5
1AC8
  8
AM_0
 10
138.3003687195291
 20
326.05063123834231
 30
0.0
 11
138.3003687195291
 21
289.0342662383423
 31
0.0
  0
LINE
  5
1AC9
  8
AM_0
 10
144.3003687195291
 20
331.0342612383422
 30
0.0
 11
144.3003687195291
 21
290.0342662383423
 31
0.0
  0
LINE
  5
1ACA
  8
AM_0
 10
152.30037871952919
 20
331.0342612383422
 30
0.0
 11
152.30037871952919
 21
228.59403223834209
 31
0.0
  0
LINE
  5
1ACB
  8
AM_0
 10
143.30037871952919
 20
328.0342612383422
 30
0.0
 11
143.30037871952919
 21
290.0342662383423
 31
0.0
  0
LINE
  5
1ACC
  8
AM_0
 10
157.66584871952929
 20
241.3829902383421
 30
0.0
 11
152.3004387195291
 21
229.93851523834221
 31
0.0
  0
ARC
  5
1ACD
  8
AM_0
 10
139.30038871952911
 20
230.0178622383421
 30
0.0
 40
1.0000000199999981
 50
179.99999
 51
239.9736099999989
  0
LINE
  5
1ACE
  8
AM_0
 10
140.0869887195291
 20
229.5395122383423
 30
0.0
 11
138.84774871952911
 21
230.16854323834221
 31
0.0
  0
ARC
  5
1ACF
  8
AM_0
 10
189.3003687195291
 20
220.90462423834219
 30
0.0
 40
2.00000007
 50
270.0
 51
0.0
  0
ARC
  5
1AD0
  8
AM_0
 10
189.3003687195291
 20
218.14632523834209
 30
0.0
 40
2.00000007
 50
270.0
 51
0.0
  0
LINE
  5
1AD1
  8
AM_0
 10
191.30037871952919
 20
218.14632523834209
 30
0.0
 11
191.30037871952919
 21
221.75101423834209
 31
0.0
  0
ARC
  5
1AD2
  8
AM_0
 10
189.3003687195291
 20
219.0568462383421
 30
0.0
 40
2.00000007
 50
270.0
 51
0.0
  0
LINE
  5
1AD3
  8
AM_0
 10
152.30037871952919
 20
229.9384852383422
 30
0.0
 11
153.54159871952911
 21
223.3791292383421
 31
0.0
  0
LINE
  5
1AD4
  8
AM_0
 10
152.30037871952919
 20
228.5939572383422
 30
0.0
 11
153.5804787195292
 21
220.58878423834221
 31
0.0
  0
LINE
  5
1AD5
  8
AM_0
 10
152.300318719529
 20
227.24942923834209
 30
0.0
 11
153.5913987195292
 21
218.7563092383422
 31
0.0
  0
ARC
  5
1AD6
  8
AM_0
 10
155.5068087195292
 20
223.75100023834219
 30
0.0
 40
2.00000007
 50
190.71569
 51
270.0
  0
ARC
  5
1AD7
  8
AM_0
 10
155.5553787195293
 20
220.90462423834219
 30
0.0
 40
2.00000007
 50
189.0849700000002
 51
270.0
  0
LINE
  5
1AD8
  8
AM_0
 10
143.30037871952919
 20
228.03428023834221
 30
0.0
 11
144.3003687195291
 21
228.03428023834221
 31
0.0
  0
ARC
  5
1AD9
  8
AM_0
 10
142.8003687195291
 20
227.7848902383422
 30
0.0
 40
0.5000000100000001
 50
0.0
 51
90.000003000000945
  0
ARC
  5
1ADA
  8
AM_0
 10
142.8003687195291
 20
229.93117723834209
 30
0.0
 40
0.5000000100000001
 50
270.0
 51
0.0
  0
LINE
  5
1ADB
  8
AM_0
 10
144.3003687195291
 20
225.03428023834209
 30
0.0
 11
152.30037871952919
 21
225.03428023834209
 31
0.0
  0
ARC
  5
1ADC
  8
AM_0
 10
155.5900587195292
 20
218.14632523834209
 30
0.0
 40
2.00000007
 50
187.94404
 51
270.0
  0
LINE
  5
1ADD
  8
AM_0
 10
152.300318719529
 20
227.2493842383422
 30
0.0
 11
153.60921871952931
 21
217.86994123834211
 31
0.0
  0
ARC
  5
1ADE
  8
AM_0
 10
155.56875871952931
 20
219.0568462383421
 30
0.0
 40
2.00000007
 50
188.6433899999999
 51
270.0
  0
ARC
  5
1ADF
  8
AM_0
 10
140.56857871952911
 20
229.2848902383422
 30
0.0
 40
1.0000000199999981
 50
239.97360000000029
 51
270.0
  0
ARC
  5
1AE0
  8
AM_0
 10
140.53962871952919
 20
230.43117523834209
 30
0.0
 40
1.0000000199999981
 50
243.088740000001
 51
270.0
  0
LINE
  5
1AE1
  8
AM_0
 10
140.30037871952919
 20
228.53810923834229
 30
0.0
 11
140.30037871952919
 21
229.06388323834221
 31
0.0
  0
LINE
  5
1AE2
  8
AM_0
 10
140.06820871952931
 20
228.4190752383422
 30
0.0
 11
138.80001871952911
 21
229.1520622383421
 31
0.0
  0
LINE
  5
1AE3
  8
AM_0
 10
140.56857871952911
 20
228.28487623834209
 30
0.0
 11
142.8003687195291
 21
228.28487623834209
 31
0.0
  0
LINE
  5
1AE4
  8
AM_0
 10
140.53962871952919
 20
229.43119123834211
 30
0.0
 11
142.8003687195291
 21
229.43119123834211
 31
0.0
  0
LINE
  5
1AEA
  8
AM_0
 10
155.5553787195293
 20
218.90464123834209
 30
0.0
 11
189.3003687195291
 21
218.90464123834209
 31
0.0
  0
LINE
  5
1AEB
  8
AM_0
 10
155.56875871952931
 20
217.0568482383421
 30
0.0
 11
189.3003687195291
 21
217.0568482383421
 31
0.0
  0
LINE
  5
1AEC
  8
AM_0
 10
155.5900587195292
 20
216.14633923834219
 30
0.0
 11
189.3003687195291
 21
216.14633923834219
 31
0.0
  0
ARC
  5
1AF5
  8
AM_0
 10
142.30038871952911
 20
310.77737023834209
 30
0.0
 40
1.0000000199999981
 50
0.0
 51
90.000003000000945
  0
LINE
  5
1AF6
  8
AM_0
 10
160.30037871952911
 20
302.03426623834218
 30
0.0
 11
154.6657887195291
 21
302.03426623834218
 31
0.0
  0
LINE
  5
1AF7
  8
AM_0
 10
160.30037871952911
 20
304.03426723834218
 30
0.0
 11
154.6657887195291
 21
304.03426723834218
 31
0.0
  0
ARC
  5
1AF8
  8
AM_0
 10
153.7618587195293
 20
303.05892523834223
 30
0.0
 40
1.461486869999999
 50
90.000003000000945
 51
270.0
  0
ARC
  5
1AF9
  8
AM_0
 10
154.8497487195292
 20
303.03426823834218
 30
0.0
 40
1.0000000199999981
 50
90.000003000000945
 51
270.0
  0
LINE
  5
1AFA
  8
AM_0
 10
153.7618587195293
 20
301.59743923834219
 30
0.0
 11
160.30037871952919
 21
301.59743923834219
 31
0.0
  0
LINE
  5
1AFB
  8
AM_0
 10
153.7618587195293
 20
304.52041123834221
 30
0.0
 11
160.30037871952919
 21
304.52041123834221
 31
0.0
  0
LINE
  5
1AFC
  8
AM_0
 10
160.30037871952919
 20
294.03426523834219
 30
0.0
 11
154.6657887195291
 21
294.03426523834219
 31
0.0
  0
LINE
  5
1AFD
  8
AM_0
 10
160.30037871952919
 20
292.03426723834218
 30
0.0
 11
154.6657887195291
 21
292.03426723834218
 31
0.0
  0
ARC
  5
1AFE
  8
AM_0
 10
153.6312987195291
 20
293.04683923834227
 30
0.0
 40
1.3309326599999991
 50
90.000003000000945
 51
270.0
  0
ARC
  5
1AFF
  8
AM_0
 10
154.8497487195292
 20
293.03426623834218
 30
0.0
 40
1.0000000199999981
 50
90.000003000000945
 51
270.0
  0
LINE
  5
1B00
  8
AM_0
 10
153.6312987195291
 20
294.37777123834201
 30
0.0
 11
160.30037871952919
 21
294.37777123834218
 31
0.0
  0
LINE
  5
1B01
  8
AM_0
 10
153.6312987195291
 20
291.7159072383422
 30
0.0
 11
160.30037871952919
 21
291.7159072383422
 31
0.0
  0
POLYLINE
  5
1B02
  8
AM_0
 66
     1
 10
0.0
 20
0.0
 30
0.0
  0
VERTEX
  5
1B03
  8
AM_0
  6
CONTINUOUS
 10
155.18085871952911
 20
294.37681423834198
 30
0.0
  0
VERTEX
  5
1B04
  8
AM_0
  6
CONTINUOUS
 10
155.82690871952931
 20
301.59773623834201
 30
0.0
 42
-1.0
  0
SEQEND
  5
1B05
  8
AM_0
  0
ARC
  5
1B06
  8
AM_0
 10
142.30038871952911
 20
301.03426723834218
 30
0.0
 40
1.0000000199999981
 50
0.0
 51
90.000003000000945
  0
ARC
  5
1B07
  8
AM_0
 10
142.30038871952911
 20
305.03426623834218
 30
0.0
 40
1.0000000199999981
 50
270.0
 51
0.0
  0
ARC
  5
1B08
  8
AM_0
 10
142.30038871952911
 20
291.03426523834219
 30
0.0
 40
1.0000000199999981
 50
0.0
 51
90.000003000000945
  0
ARC
  5
1B09
  8
AM_0
 10
142.30038871952911
 20
295.03426723834218
 30
0.0
 40
1.0000000199999981
 50
270.0
 51
0.0
  0
POLYLINE
  5
1B0A
  8
AM_0
 66
     1
 10
0.0
 20
0.0
 30
0.0
  0
VERTEX
  5
1B0B
  8
AM_0
  6
CONTINUOUS
 10
156.16260871952929
 20
304.5212032383422
 30
0.0
  0
VERTEX
  5
1B0C
  8
AM_0
  6
CONTINUOUS
 10
157.12308871952931
 20
311.40283723834227
 30
0.0
 42
-1.0
  0
SEQEND
  5
1B0D
  8
AM_0
  0
LINE
  5
1B0F
  8
AM_0
 10
153.97767871952919
 20
311.4014542383423
 30
0.0
 11
161.30037871952919
 21
311.4014542383423
 31
0.0
  0
POLYLINE
  5
1B27
  8
AM_0
 66
     1
 10
0.0
 20
0.0
 30
0.0
  0
VERTEX
  5
1B28
  8
AM_0
  6
CONTINUOUS
 10
155.18085871952911
 20
261.69167923834209
 30
0.0
  0
VERTEX
  5
1B29
  8
AM_0
  6
CONTINUOUS
 10
155.82690871952931
 20
254.4707422383421
 30
0.0
 42
-1.0
  0
SEQEND
  5
1B2A
  8
AM_0
  0
LINE
  5
1B2B
  8
AM_0
 10
160.30037871952919
 20
254.03426623834221
 30
0.0
 11
154.6657887195291
 21
254.03426623834221
 31
0.0
  0
LINE
  5
1B2C
  8
AM_0
 10
160.30037871952919
 20
264.03428023834209
 30
0.0
 11
154.6657887195291
 21
264.03428023834209
 31
0.0
  0
LINE
  5
1B2D
  8
AM_0
 10
160.30037871952919
 20
262.03426423834219
 30
0.0
 11
154.6657887195291
 21
262.03426423834219
 31
0.0
  0
ARC
  5
1B2E
  8
AM_0
 10
153.6312987195291
 20
263.02170823834223
 30
0.0
 40
1.3309326599999991
 50
90.000003000000945
 51
270.0
  0
LINE
  5
1B2F
  8
AM_0
 10
153.76191871952909
 20
254.47104823834221
 30
0.0
 11
160.30037871952919
 21
254.47104823834221
 31
0.0
  0
ARC
  5
1B30
  8
AM_0
 10
154.8497487195292
 20
263.03426623834218
 30
0.0
 40
1.0000000199999981
 50
90.000003000000945
 51
270.0
  0
LINE
  5
1B31
  8
AM_0
 10
153.6312987195291
 20
264.35262523834223
 30
0.0
 11
160.30037871952919
 21
264.35262523834223
 31
0.0
  0
LINE
  5
1B32
  8
AM_0
 10
153.6312987195291
 20
261.69075823834208
 30
0.0
 11
160.30037871952919
 21
261.69075823834208
 31
0.0
  0
ARC
  5
1B33
  8
AM_0
 10
142.30038871952911
 20
255.03428023834221
 30
0.0
 40
1.0000000199999981
 50
270.0
 51
0.0
  0
ARC
  5
1B34
  8
AM_0
 10
142.30038871952911
 20
265.03426423834219
 30
0.0
 40
1.0000000199999981
 50
270.0
 51
0.0
  0
ARC
  5
1B35
  8
AM_0
 10
142.30038871952911
 20
261.03428023834221
 30
0.0
 40
1.0000000199999981
 50
0.0
 51
90.000003000000945
  0
ARC
  5
1B45
  8
AM_0
 10
140.4507087195293
 20
310.77737023834209
 30
0.0
 40
1.0000000199999981
 50
90.000003000000945
 51
107.09763000000019
  0
ARC
  5
1B46
  8
AM_0
 10
139.30038871952911
 20
310.42355023834227
 30
0.0
 40
1.0000000199999981
 50
107.09763000000019
 51
180.00001
  0
LINE
  5
1B47
  8
AM_0
 10
140.15670871952921
 20
311.73317923834207
 30
0.0
 11
139.00638871952921
 21
311.37932923834222
 31
0.0
  0
LINE
  5
1B48
  8
AM_0
 10
140.30037871952919
 20
303.66042523834221
 30
0.0
 11
140.30037871952919
 21
302.29763323834197
 31
0.0
  0
ARC
  5
1B49
  8
AM_0
 10
139.30038871952911
 20
303.03426823834218
 30
0.0
 40
1.0000000199999981
 50
179.99999
 51
270.0
  0
ARC
  5
1B4A
  8
AM_0
 10
139.30038871952911
 20
303.03426823834218
 30
0.0
 40
1.0000000199999981
 50
90.000003000000945
 51
180.00001
  0
LINE
  5
1B4B
  8
AM_0
 10
140.30037871952919
 20
293.64138223834209
 30
0.0
 11
140.30037871952919
 21
292.42995823834212
 31
0.0
  0
LINE
  5
1B4C
  8
AM_0
 10
136.8003687195291
 20
298.03426723834218
 30
0.0
 11
138.3003687195291
 21
298.16549323834198
 31
0.0
  0
LINE
  5
1B4D
  8
AM_0
 10
136.8003687195291
 20
295.3162492383421
 30
0.0
 11
138.3003687195291
 21
295.3162492383421
 31
0.0
  0
ARC
  5
1B4E
  8
AM_0
 10
139.30038871952911
 20
293.03426623834218
 30
0.0
 40
1.0000000199999981
 50
90.000003000000945
 51
180.00001
  0
ARC
  5
1B4F
  8
AM_0
 10
139.30038871952911
 20
293.03426623834218
 30
0.0
 40
1.0000000199999981
 50
179.99999
 51
270.0
  0
LINE
  5
1B56
  8
AM_0
 10
140.30037871952919
 20
262.42716523834213
 30
0.0
 11
140.30037871952919
 21
263.63851423834222
 31
0.0
  0
LINE
  5
1B57
  8
AM_0
 10
136.80042871952921
 20
258.03428023834209
 30
0.0
 11
138.3003687195291
 21
257.90303923834227
 31
0.0
  0
LINE
  5
1B58
  8
AM_0
 10
136.8003687195291
 20
260.75222323834208
 30
0.0
 11
138.3003687195291
 21
260.75222323834208
 31
0.0
  0
ARC
  5
1B59
  8
AM_0
 10
139.30038871952911
 20
263.03426623834218
 30
0.0
 40
1.0000000199999981
 50
179.99999
 51
270.0
  0
ARC
  5
1B5A
  8
AM_0
 10
139.30038871952911
 20
263.03426623834218
 30
0.0
 40
1.0000000199999981
 50
90.000003000000945
 51
180.00001
  0
LINE
  5
1B5B
  8
AM_0
 10
136.8003687195291
 20
262.88424223834221
 30
0.0
 11
140.0940687195291
 21
262.88424223834221
 31
0.0
  0
LINE
  5
1B5C
  8
AM_0
 10
136.8003687195291
 20
258.03428023834209
 30
0.0
 11
136.8003687195291
 21
267.0342662383423
 31
0.0
  0
LINE
  5
1B5D
  8
AM_0
 10
136.8003687195291
 20
298.03426723834218
 30
0.0
 11
136.8003687195291
 21
289.0342662383423
 31
0.0
  0
LINE
  5
1B5E
  8
AM_0
 10
142.30038871952911
 20
302.03426623834218
 30
0.0
 11
139.30038871952911
 21
302.03426623834218
 31
0.0
  0
LINE
  5
1B5F
  8
AM_0
 10
140.4507087195293
 20
311.77736923834209
 30
0.0
 11
142.30038871952911
 21
311.77736923834209
 31
0.0
  0
LINE
  5
1B60
  8
AM_0
 10
142.30038871952911
 20
304.03426723834218
 30
0.0
 11
139.30038871952911
 21
304.03426723834218
 31
0.0
  0
LINE
  5
1B62
  8
AM_0
 10
142.30038871952911
 20
294.03426523834219
 30
0.0
 11
139.30038871952911
 21
294.03426523834219
 31
0.0
  0
LINE
  5
1B63
  8
AM_0
 10
142.30038871952911
 20
292.03426723834218
 30
0.0
 11
139.30038871952911
 21
292.03426723834218
 31
0.0
  0
LINE
  5
1B67
  8
AM_0
 10
142.30038871952911
 20
254.03426623834221
 30
0.0
 11
139.30038871952911
 21
254.03426623834221
 31
0.0
  0
LINE
  5
1B68
  8
AM_0
 10
142.30038871952911
 20
262.03426423834219
 30
0.0
 11
139.30038871952911
 21
262.03426423834219
 31
0.0
  0
LINE
  5
1B69
  8
AM_0
 10
142.30038871952911
 20
264.03428023834209
 30
0.0
 11
139.30038871952911
 21
264.03428023834209
 31
0.0
  0
LINE
  5
1B6A
  8
AM_0
 10
136.8003687195291
 20
293.18429023834221
 30
0.0
 11
141.47787871952909
 21
293.18429023834221
 31
0.0
  0
LINE
  5
1B70
  8
AM_0
 10
160.30037871952919
 20
252.03428023834209
 30
0.0
 11
154.6657887195291
 21
252.03428023834209
 31
0.0
  0
POLYLINE
  5
1B71
  8
AM_0
 66
     1
 10
0.0
 20
0.0
 30
0.0
  0
VERTEX
  5
1B72
  8
AM_0
  6
CONTINUOUS
 10
156.16260871952929
 20
251.54728123834221
 30
0.0
  0
VERTEX
  5
1B73
  8
AM_0
  6
CONTINUOUS
 10
157.12308871952931
 20
244.66568923834211
 30
0.0
 42
-1.0
  0
SEQEND
  5
1B74
  8
AM_0
  0
ARC
  5
1B75
  8
AM_0
 10
153.9783087195292
 20
242.9891002383421
 30
0.0
 40
1.6779175200000001
 50
90.000003000000945
 51
270.0
  0
ARC
  5
1B76
  8
AM_0
 10
154.8497487195292
 20
243.03428023834209
 30
0.0
 40
1.0000000199999981
 50
90.000003000000945
 51
270.0
  0
LINE
  5
1B77
  8
AM_0
 10
153.76191871952909
 20
251.54805823834221
 30
0.0
 11
160.30037871952919
 21
251.54805823834221
 31
0.0
  0
ARC
  5
1B78
  8
AM_0
 10
142.30038871952911
 20
251.03426623834221
 30
0.0
 40
1.0000000199999981
 50
0.0
 51
90.000003000000945
  0
ARC
  5
1B79
  8
AM_0
 10
142.30038871952911
 20
237.04934023834221
 30
0.0
 40
1.0000000199999981
 50
334.63675999999958
 51
0.0
  0
ARC
  5
1B7A
  8
AM_0
 10
142.30038871952911
 20
245.29110223834209
 30
0.0
 40
1.0000000199999981
 50
270.0
 51
0.0
  0
ARC
  5
1B7B
  8
AM_0
 10
142.6003587195292
 20
241.6450582383423
 30
0.0
 40
0.7000000200000001
 50
0.0
 51
90.000003000000945
  0
ARC
  5
1B7C
  8
AM_0
 10
142.30038871952911
 20
232.53263323834221
 30
0.0
 40
1.0000000199999981
 50
270.0
 51
0.0
  0
LINE
  5
1B7D
  8
AM_0
 10
144.9984987195291
 20
234.84279823834211
 30
0.0
 11
151.22829871952931
 21
234.84279823834211
 31
0.0
  0
ARC
  5
1B7E
  8
AM_0
 10
142.30038871952911
 20
237.04934023834221
 30
0.0
 40
1.0000000199999981
 50
270.0
 51
0.0
  0
LINE
  5
1B80
  8
AM_0
 10
153.9783087195292
 20
244.6670332383421
 30
0.0
 11
161.30037871952919
 21
244.6670332383423
 31
0.0
  0
ARC
  5
1B81
  8
AM_0
 10
140.5716687195291
 20
237.04934023834221
 30
0.0
 40
1.0000000199999981
 50
239.64049999999929
 51
270.0
  0
ARC
  5
1B82
  8
AM_0
 10
140.50503871952921
 20
243.3450112383421
 30
0.0
 40
1.0000000199999981
 50
246.87297000000089
 51
270.0
  0
ARC
  5
1B83
  8
AM_0
 10
140.4507087195293
 20
245.29110223834209
 30
0.0
 40
1.0000000199999981
 50
252.90236999999971
 51
270.0
  0
LINE
  5
1B84
  8
AM_0
 10
140.30037871952919
 20
242.6413822383422
 30
0.0
 11
140.30037871952919
 21
243.7013332383421
 31
0.0
  0
ARC
  5
1B85
  8
AM_0
 10
139.30038871952911
 20
237.7940302383422
 30
0.0
 40
1.0000000199999981
 50
179.99999
 51
239.64048999999929
  0
ARC
  5
1B86
  8
AM_0
 10
139.30038871952911
 20
237.7940302383422
 30
0.0
 40
1.0000000199999981
 50
179.99999
 51
239.64048999999929
  0
LINE
  5
1B87
  8
AM_0
 10
138.79494871952929
 20
236.9311312383422
 30
0.0
 11
138.77133871952921
 21
236.94497023834219
 31
0.0
  0
ARC
  5
1B88
  8
AM_0
 10
139.30038871952911
 20
245.6449972383422
 30
0.0
 40
1.0000000199999981
 50
179.99999
 51
252.90236999999971
  0
ARC
  5
1B89
  8
AM_0
 10
139.30038871952911
 20
243.8595352383422
 30
0.0
 40
1.0000000199999981
 50
179.99999
 51
246.87298000000141
  0
LINE
  5
1B8A
  8
AM_0
 10
140.06625871952929
 20
236.18642623834219
 30
0.0
 11
138.79494871952929
 21
236.93110123834211
 31
0.0
  0
LINE
  5
1B8B
  8
AM_0
 10
140.11221871952921
 20
242.4253792383422
 30
0.0
 11
138.907568719529
 21
242.93987323834219
 31
0.0
  0
LINE
  5
1B8C
  8
AM_0
 10
140.15670871952921
 20
244.33532023834209
 30
0.0
 11
139.00638871952921
 21
244.68917323834219
 31
0.0
  0
ARC
  5
1B8D
  8
AM_0
 10
139.30038871952911
 20
253.03426423834219
 30
0.0
 40
1.0000000199999981
 50
179.99999
 51
270.0
  0
ARC
  5
1B8E
  8
AM_0
 10
140.59902871952929
 20
235.90932523834209
 30
0.0
 40
1.0000000199999981
 50
236.74527000000009
 51
270.0
  0
LINE
  5
1B8F
  8
AM_0
 10
140.30037871952919
 20
235.2038212383423
 30
0.0
 11
140.30037871952919
 21
235.6759282383421
 31
0.0
  0
ARC
  5
1B90
  8
AM_0
 10
140.57742871952919
 20
231.39261823834221
 30
0.0
 40
1.0000000199999981
 50
239.0333999999994
 51
270.0
  0
ARC
  5
1B91
  8
AM_0
 10
140.54904871952931
 20
232.53263323834221
 30
0.0
 40
1.0000000199999981
 50
242.07339999999951
 51
270.0
  0
LINE
  5
1B92
  8
AM_0
 10
140.30037871952919
 20
230.6377192383421
 30
0.0
 11
140.30037871952919
 21
231.1837402383421
 31
0.0
  0
ARC
  5
1B93
  8
AM_0
 10
139.30038871952911
 20
231.06020323834221
 30
0.0
 40
1.0000000199999981
 50
179.99999
 51
243.0887500000004
  0
ARC
  5
1B94
  8
AM_0
 10
139.30038871952911
 20
233.19448123834221
 30
0.0
 40
1.0000000199999981
 50
179.99999
 51
242.07341000000051
  0
ARC
  5
1B95
  8
AM_0
 10
139.30038871952911
 20
232.15891423834219
 30
0.0
 40
1.0000000199999981
 50
179.99999
 51
239.0333999999994
  0
LINE
  5
1B96
  8
AM_0
 10
140.062838719529
 20
230.53516423834211
 30
0.0
 11
138.78585871952919
 21
231.30143023834219
 31
0.0
  0
LINE
  5
1B97
  8
AM_0
 10
140.08071871952919
 20
231.6490732383422
 30
0.0
 11
138.83205871952919
 21
232.31093623834229
 31
0.0
  0
ARC
  5
1B98
  8
AM_0
 10
139.30038871952911
 20
236.7609022383422
 30
0.0
 40
1.0000000199999981
 50
179.99999
 51
236.7452799999993
  0
LINE
  5
1B99
  8
AM_0
 10
140.05062871952919
 20
235.0730842383422
 30
0.0
 11
138.75198871952921
 21
235.92464623834209
 31
0.0
  0
LINE
  5
1B9A
  8
AM_0
 10
142.30038871952911
 20
252.03428023834209
 30
0.0
 11
139.30038871952911
 21
252.03428023834209
 31
0.0
  0
LINE
  5
1B9B
  8
AM_0
 10
140.59902871952929
 20
234.90934123834211
 30
0.0
 11
143.30037871952919
 21
234.90934123834211
 31
0.0
  0
LINE
  5
1B9C
  8
AM_0
 10
140.5716687195291
 20
236.0493562383422
 30
0.0
 11
142.30038871952911
 21
236.0493562383422
 31
0.0
  0
LINE
  5
1B9D
  8
AM_0
 10
140.50503871952921
 20
242.3449942383422
 30
0.0
 11
142.6003587195292
 21
242.3449942383422
 31
0.0
  0
LINE
  5
1B9E
  8
AM_0
 10
140.4507087195293
 20
244.2911152383422
 30
0.0
 11
142.30038871952911
 21
244.2911152383422
 31
0.0
  0
LINE
  5
1B9F
  8
AM_0
 10
140.57742871952919
 20
230.39260123834211
 30
0.0
 11
143.30037871952919
 21
230.39260123834211
 31
0.0
  0
LINE
  5
1BA0
  8
AM_0
 10
140.54904871952931
 20
231.5326162383422
 30
0.0
 11
142.30038871952911
 21
231.5326162383422
 31
0.0
  0
ARC
  5
1BA1
  8
AM_0
 10
153.76191871952909
 20
253.00954723834221
 30
0.0
 40
1.4615021100000001
 50
90.000003000000945
 51
270.0
  0
LINE
  5
1BA2
  8
AM_0
 10
140.30037871952919
 20
252.40804423834209
 30
0.0
 11
140.30037871952919
 21
253.77089923834211
 31
0.0
  0
ARC
  5
1BA3
  8
AM_0
 10
154.8497487195292
 20
253.03426423834219
 30
0.0
 40
1.0000000199999981
 50
90.000003000000945
 51
270.0
  0
ARC
  5
1BA5
  8
AM_0
 10
139.30038871952911
 20
253.03426423834219
 30
0.0
 40
1.0000000199999981
 50
90.000003000000945
 51
180.00001
  0
LINE
  5
1BA7
  8
AM_0
 10
138.3003687195291
 20
230.0178622383421
 30
0.0
 11
138.3003687195291
 21
267.0342662383423
 31
0.0
  0
ARC
  5
1BA8
  8
AM_0
 10
189.3003687195291
 20
335.16391123834222
 30
0.0
 40
2.00000007
 50
0.0
 51
90.000003000000945
  0
ARC
  5
1BA9
  8
AM_0
 10
189.3003687195291
 20
337.0116112383422
 30
0.0
 40
2.00000007
 50
0.0
 51
90.000003000000945
  0
ARC
  5
1BAA
  8
AM_0
 10
189.3003687195291
 20
337.92214123834219
 30
0.0
 40
2.00000007
 50
0.0
 51
90.000003000000945
  0
LINE
  5
1BAB
  8
AM_0
 10
191.30037871952919
 20
337.92214123834219
 30
0.0
 11
191.30037871952919
 21
334.31752123834212
 31
0.0
  0
ARC
  5
1BAC
  8
AM_0
 10
155.5068087195292
 20
332.31754123834219
 30
0.0
 40
2.00000007
 50
90.000003000000945
 51
169.28430999999981
  0
ARC
  5
1BAD
  8
AM_0
 10
155.5553787195293
 20
335.16391123834222
 30
0.0
 40
2.00000007
 50
90.000003000000945
 51
170.91502999999969
  0
ARC
  5
1BAE
  8
AM_0
 10
155.56875871952931
 20
337.0116112383422
 30
0.0
 40
2.00000007
 50
90.000003000000945
 51
171.35660999999999
  0
ARC
  5
1BAF
  8
AM_0
 10
155.5900587195292
 20
337.92214123834219
 30
0.0
 40
2.00000007
 50
90.000003000000945
 51
172.05596
  0
LINE
  5
1BB0
  8
AM_0
 10
152.30037871952919
 20
327.47452123834222
 30
0.0
 11
153.58041871952921
 21
335.4796612383422
 31
0.0
  0
LINE
  5
1BB1
  8
AM_0
 10
152.30037871952919
 20
328.81912123834218
 30
0.0
 11
153.5913987195292
 21
337.31218123834219
 31
0.0
  0
LINE
  5
1BB2
  8
AM_0
 10
152.30037871952919
 20
328.81912123834218
 30
0.0
 11
153.60921871952931
 21
338.19853123834218
 31
0.0
  0
LINE
  5
1BB3
  8
AM_0
 10
152.30037871952919
 20
326.12998123834222
 30
0.0
 11
153.54165871952929
 21
332.68939123834213
 31
0.0
  0
LINE
  5
1BB4
  8
AM_0
 10
143.30037871952919
 20
328.0342612383422
 30
0.0
 11
144.3003687195291
 21
328.0342612383422
 31
0.0
  0
ARC
  5
1BB5
  8
AM_0
 10
142.8003687195291
 20
326.13736123834218
 30
0.0
 40
0.5000000100000001
 50
0.0
 51
90.000003000000945
  0
ARC
  5
1BB6
  8
AM_0
 10
142.8003687195291
 20
328.2836512383422
 30
0.0
 40
0.5000000100000001
 50
270.0
 51
0.0
  0
LINE
  5
1BB7
  8
AM_0
 10
144.3003687195291
 20
331.0342612383422
 30
0.0
 11
152.30037871952919
 21
331.0342612383422
 31
0.0
  0
ARC
  5
1BB8
  8
AM_0
 10
140.56857871952911
 20
326.78365123834197
 30
0.0
 40
1.0000000199999981
 50
90.000003000000945
 51
120.0263999999997
  0
ARC
  5
1BB9
  8
AM_0
 10
140.53962871952919
 20
325.63735123834198
 30
0.0
 40
1.0000000199999981
 50
90.000003000000945
 51
116.911259999999
  0
ARC
  5
1BBA
  8
AM_0
 10
140.57742871952919
 20
324.67588123834219
 30
0.0
 40
1.0000000199999981
 50
90.000003000000945
 51
120.9666000000004
  0
ARC
  5
1BBB
  8
AM_0
 10
140.54904871952931
 20
323.53591123834212
 30
0.0
 40
1.0000000199999981
 50
90.000003000000945
 51
117.92660000000041
  0
LINE
  5
1BBC
  8
AM_0
 10
140.30037871952919
 20
325.43080123834221
 30
0.0
 11
140.30037871952919
 21
324.8847412383422
 31
0.0
  0
LINE
  5
1BBD
  8
AM_0
 10
140.30037871952919
 20
327.53041123834208
 30
0.0
 11
140.30037871952919
 21
327.00466123834212
 31
0.0
  0
ARC
  5
1BBE
  8
AM_0
 10
139.30038871952911
 20
326.05063123834231
 30
0.0
 40
1.0000000199999981
 50
120.0263999999997
 51
180.00001
  0
ARC
  5
1BBF
  8
AM_0
 10
139.30038871952911
 20
325.00834123834221
 30
0.0
 40
1.0000000199999981
 50
116.911259999999
 51
180.00001
  0
LINE
  5
1BC0
  8
AM_0
 10
140.06820871952931
 20
327.64936123834218
 30
0.0
 11
138.80001871952911
 21
326.91640123834208
 31
0.0
  0
LINE
  5
1BC1
  8
AM_0
 10
140.062838719529
 20
325.53337123834223
 30
0.0
 11
138.7857987195292
 21
324.7670812383422
 31
0.0
  0
LINE
  5
1BC2
  8
AM_0
 10
140.08704871952929
 20
326.52910123834221
 30
0.0
 11
138.84774871952911
 21
325.90009123834221
 31
0.0
  0
LINE
  5
1BC3
  8
AM_0
 10
140.56857871952911
 20
327.78367123834221
 30
0.0
 11
142.8003687195291
 21
327.78367123834221
 31
0.0
  0
LINE
  5
1BC4
  8
AM_0
 10
140.57742871952919
 20
325.67587123834221
 30
0.0
 11
143.30037871952919
 21
325.67587123834221
 31
0.0
  0
LINE
  5
1BC5
  8
AM_0
 10
140.54904871952931
 20
324.53590123834209
 30
0.0
 11
142.30038871952911
 21
324.53590123834209
 31
0.0
  0
LINE
  5
1BC6
  8
AM_0
 10
140.53962871952919
 20
326.63734123834217
 30
0.0
 11
142.8003687195291
 21
326.63734123834217
 31
0.0
  0
ARC
  5
1BC9
  8
AM_0
 10
142.30038871952911
 20
319.01920123834208
 30
0.0
 40
1.0000000199999981
 50
0.0
 51
90.000003000000945
  0
ARC
  5
1BCA
  8
AM_0
 10
142.6003587195292
 20
314.42350123834223
 30
0.0
 40
0.7000000200000001
 50
270.0
 51
0.0
  0
LINE
  5
1BCB
  8
AM_0
 10
144.9984987195291
 20
321.22567123834222
 30
0.0
 11
151.22829871952931
 21
321.22567123834222
 31
0.0
  0
ARC
  5
1BCC
  8
AM_0
 10
140.59902871952929
 20
320.15914123834227
 30
0.0
 40
1.0000000199999981
 50
90.000003000000945
 51
123.2547299999999
  0
ARC
  5
1BCD
  8
AM_0
 10
140.5716687195291
 20
319.01920123834208
 30
0.0
 40
1.0000000199999981
 50
90.000003000000945
 51
120.35950000000059
  0
LINE
  5
1BCE
  8
AM_0
 10
140.30037871952919
 20
320.86471123834212
 30
0.0
 11
140.30037871952919
 21
320.39254123834212
 31
0.0
  0
ARC
  5
1BCF
  8
AM_0
 10
140.50503871952921
 20
312.72347623834219
 30
0.0
 40
1.0000000199999981
 50
90.000003000000945
 51
113.127029999999
  0
ARC
  5
1BD0
  8
AM_0
 10
139.30038871952911
 20
322.87399123834211
 30
0.0
 40
1.0000000199999981
 50
117.92660000000041
 51
180.00001
  0
ARC
  5
1BD1
  8
AM_0
 10
139.30038871952911
 20
318.27451123834197
 30
0.0
 40
1.0000000199999981
 50
120.35950000000059
 51
180.00001
  0
ARC
  5
1BD2
  8
AM_0
 10
139.30038871952911
 20
319.30759123834218
 30
0.0
 40
1.0000000199999981
 50
123.2547299999999
 51
180.00001
  0
LINE
  5
1BD3
  8
AM_0
 10
140.05062871952919
 20
320.99542123834232
 30
0.0
 11
138.75198871952921
 21
320.14384123834208
 31
0.0
  0
LINE
  5
1BD4
  8
AM_0
 10
140.06625871952929
 20
319.8820612383422
 30
0.0
 11
138.79494871952929
 21
319.13737123834221
 31
0.0
  0
LINE
  5
1BD5
  8
AM_0
 10
140.59902871952929
 20
321.15913123834218
 30
0.0
 11
143.30037871952919
 21
321.15913123834218
 31
0.0
  0
LINE
  5
1BD6
  8
AM_0
 10
140.5716687195291
 20
320.0191912383421
 30
0.0
 11
142.30038871952911
 21
320.0191912383421
 31
0.0
  0
LINE
  5
1BD7
  8
AM_0
 10
140.50503871952921
 20
313.72347523834219
 30
0.0
 11
142.6003587195292
 21
313.72347523834219
 31
0.0
  0
ARC
  5
1BD8
  8
AM_0
 10
142.30038871952911
 20
323.53591123834212
 30
0.0
 40
1.0000000199999981
 50
0.0
 51
90.000003000000945
  0
LINE
  5
1BD9
  8
AM_0
 10
157.6657887195291
 20
314.68546123834221
 30
0.0
 11
152.30037871952919
 21
326.12995123834219
 31
0.0
  0
ARC
  5
1BDA
  8
AM_0
 10
139.30038871952911
 20
323.90956123834212
 30
0.0
 40
1.0000000199999981
 50
120.9666000000004
 51
180.00001
  0
LINE
  5
1BDB
  8
AM_0
 10
140.08071871952919
 20
324.41941123834209
 30
0.0
 11
138.83205871952919
 21
323.75752123834218
 31
0.0
  0
LINE
  5
1BDC
  8
AM_0
 10
155.5553787195293
 20
337.1639212383422
 30
0.0
 11
189.3003687195291
 21
337.1639212383422
 31
0.0
  0
LINE
  5
1BDD
  8
AM_0
 10
155.56875871952931
 20
339.01162123834217
 30
0.0
 11
189.3003687195291
 21
339.01162123834217
 31
0.0
  0
LINE
  5
1BDE
  8
AM_0
 10
155.5900587195292
 20
339.92215123834222
 30
0.0
 11
189.3003687195291
 21
339.92215123834222
 31
0.0
  0
ARC
  5
1BE6
  8
AM_0
 10
257.12247871952928
 20
313.07937223834222
 30
0.0
 40
1.6779127499999991
 50
276.08620038401921
 51
83.913799615980722
  0
LINE
  5
1BE8
  8
ﾁｭｳｼﾝｾﾝ
 10
209.30037871952919
 20
329.03426623834218
 30
0.0
 11
209.30037871952919
 21
227.0342662383421
 31
0.0
  0
LINE
  5
1BEB
  8
AM_0
 10
260.30037871952931
 20
334.0342612383422
 30
0.0
 11
260.30037871952931
 21
222.03428023834209
 31
0.0
  0
LINE
  5
1BF8
  8
AM_0
 10
258.80037871952931
 20
239.8112272383421
 30
0.0
 11
254.35836871952921
 21
223.2333622383421
 31
0.0
  0
LINE
  5
1BF9
  8
AM_0
 10
260.30037871952931
 20
222.03428023834209
 30
0.0
 11
268.30038871952911
 21
222.03428023834209
 31
0.0
  0
LINE
  5
1BFA
  8
AM_0
 10
254.8409187195291
 20
225.03428023834209
 30
0.0
 11
260.30037871952931
 21
225.03428023834209
 31
0.0
  0
ARC
  5
1BFB
  8
AM_0
 10
252.42654871952931
 20
223.75100023834219
 30
0.0
 40
2.00000007
 50
270.0
 51
345.0000000000004
  0
LINE
  5
1C09
  8
AM_0
 10
260.30037871952931
 20
309.97170523834211
 30
0.0
 11
268.30038871952911
 21
309.97170523834211
 31
0.0
  0
LINE
  5
1C0A
  8
AM_0
 10
260.30037871952931
 20
246.09682723834209
 30
0.0
 11
268.30038871952911
 21
246.09682723834209
 31
0.0
  0
LINE
  5
1C0B
  8
AM_0
 10
260.30037871952931
 20
232.0342642383421
 30
0.0
 11
268.30038871952911
 21
232.0342642383421
 31
0.0
  0
ARC
  5
1C15
  8
AM_0
 10
257.12247871952928
 20
242.9891002383421
 30
0.0
 40
1.6779127499999991
 50
276.08620038402319
 51
83.913799615976757
  0
LINE
  5
1C4A
  8
AM_0
 10
260.30037871952931
 20
334.0342612383422
 30
0.0
 11
268.30038871952911
 21
334.0342612383422
 31
0.0
  0
LINE
  5
1C4B
  8
AM_0
 10
260.30037871952931
 20
324.03427123834223
 30
0.0
 11
268.30038871952911
 21
324.03427123834223
 31
0.0
  0
LINE
  5
1C4C
  8
AM_0
 10
254.8409187195291
 20
331.0342612383422
 30
0.0
 11
260.30037871952931
 21
331.0342612383422
 31
0.0
  0
ARC
  5
1C4D
  8
AM_0
 10
252.42654871952931
 20
332.31754123834219
 30
0.0
 40
2.00000007
 50
14.999999999999609
 51
90.000003000000945
  0
ARC
  5
1C4E
  8
AM_0
 10
259.95138871952929
 20
317.7572812383421
 30
0.0
 40
1.5000000299999989
 50
195.0000100000002
 51
270.0
  0
LINE
  5
1C4F
  8
AM_0
 10
258.50253871952918
 20
317.36908123834218
 30
0.0
 11
254.35836871952921
 21
332.83516123834221
 31
0.0
  0
LINE
  5
2376
  8
AM_0
 10
253.30037871952939
 20
232.0342662383421
 30
0.0
 11
165.30037871952919
 21
232.0342662383421
 31
0.0
  0
ARC
  5
2377
  8
AM_0
 10
183.37144653139461
 20
237.0342662383421
 30
0.0
 40
5.0
 50
225.0
 51
270.0
1001
GENIUS_GENOBJ-N-FIL_13
1002
{
1000
OWNER
1000
GEN
1002
}
1001
GENIUS_GENODEF_13
1002
{
1000
HIER
1070
     0
1002
}
1002
{
1000
MANEDIT
1070
     0
1002
}
1002
{
1000
NOSEL
1070
     0
1002
}
1002
{
1000
BEHIND
1070
     0
1002
}
1002
{
1000
OTHER
1070
     0
1002
}
1002
{
1000
REACTOR
1002
}
  0
LINE
  5
2378
  8
AM_0
 10
234.57245665817149
 20
237.0342662383421
 30
0.0
 11
184.02830078088701
 21
237.0342662383421
 31
0.0
  0
ARC
  5
2379
  8
AM_0
 10
234.57245665817149
 20
242.0342662383421
 30
0.0
 40
5.0
 50
270.0
 51
315.0
1001
GENIUS_GENOBJ-N-FIL_13
1002
{
1000
OWNER
1000
GEN
1002
}
1001
GENIUS_GENODEF_13
1002
{
1000
HIER
1070
     0
1002
}
1002
{
1000
MANEDIT
1070
     0
1002
}
1002
{
1000
NOSEL
1070
     0
1002
}
1002
{
1000
BEHIND
1070
     0
1002
}
1002
{
1000
OTHER
1070
     0
1002
}
1002
{
1000
REACTOR
1002
}
  0
ARC
  5
237A
  8
AM_0
 10
253.30037871952939
 20
236.0342662383421
 30
0.0
 40
4.0
 50
270.0
 51
0.0
1001
GENIUS_GENOBJ-N-FIL_13
1002
{
1000
OWNER
1000
GEN
1002
}
1001
GENIUS_GENODEF_13
1002
{
1000
HIER
1070
     0
1002
}
1002
{
1000
MANEDIT
1070
     0
1002
}
1002
{
1000
NOSEL
1070
     0
1002
}
1002
{
1000
BEHIND
1070
     0
1002
}
1002
{
1000
OTHER
1070
     0
1002
}
1002
{
1000
REACTOR
1002
}
  0
LINE
  5
237B
  8
AM_0
 10
253.30037871952911
 20
324.0342662383423
 30
0.0
 11
165.30037871952919
 21
324.0342662383423
 31
0.0
  0
ARC
  5
237C
  8
AM_0
 10
235.22931090766369
 20
319.0342662383423
 30
0.0
 40
5.0
 50
45.0
 51
90.0
1001
GENIUS_GENOBJ-N-FIL_13
1002
{
1000
OWNER
1000
GEN
1002
}
1001
GENIUS_GENODEF_13
1002
{
1000
HIER
1070
     0
1002
}
1002
{
1000
MANEDIT
1070
     0
1002
}
1002
{
1000
NOSEL
1070
     0
1002
}
1002
{
1000
BEHIND
1070
     0
1002
}
1002
{
1000
OTHER
1070
     0
1002
}
1002
{
1000
REACTOR
1002
}
  0
ARC
  5
237D
  8
AM_0
 10
183.37144653139489
 20
319.0342662383423
 30
0.0
 40
5.0
 50
90.0
 51
135.0
1001
GENIUS_GENODEF_13
1002
{
1000
HIER
1070
     0
1002
}
1002
{
1000
MANEDIT
1070
     0
1002
}
1002
{
1000
NOSEL
1070
     0
1002
}
1002
{
1000
BEHIND
1070
     0
1002
}
1002
{
1000
OTHER
1070
     0
1002
}
1002
{
1000
REACTOR
1002
}
1001
GENIUS_GENOBJ-N-FIL_13
1002
{
1000
OWNER
1000
GEN
1002
}
  0
LINE
  5
237E
  8
AM_0
 10
234.57245665817149
 20
319.0342662383423
 30
0.0
 11
184.02830078088709
 21
319.0342662383423
 31
0.0
  0
ARC
  5
237F
  8
AM_0
 10
184.02830078088709
 20
314.0342662383423
 30
0.0
 40
5.0
 50
90.0
 51
135.0
1001
GENIUS_GENODEF_13
1002
{
1000
HIER
1070
     0
1002
}
1002
{
1000
MANEDIT
1070
     0
1002
}
1002
{
1000
NOSEL
1070
     0
1002
}
1002
{
1000
BEHIND
1070
     0
1002
}
1002
{
1000
OTHER
1070
     0
1002
}
1002
{
1000
REACTOR
1002
}
1001
GENIUS_GENOBJ-N-FIL_13
1002
{
1000
OWNER
1000
GEN
1002
}
  0
ARC
  5
2380
  8
AM_0
 10
165.30037871952919
 20
320.0342662383423
 30
0.0
 40
4.0
 50
90.0
 51
180.0
1001
GENIUS_GENODEF_13
1002
{
1000
HIER
1070
     0
1002
}
1002
{
1000
MANEDIT
1070
     0
1002
}
1002
{
1000
NOSEL
1070
     0
1002
}
1002
{
1000
BEHIND
1070
     0
1002
}
1002
{
1000
OTHER
1070
     0
1002
}
1002
{
1000
REACTOR
1002
}
1001
GENIUS_GENOBJ-N-FIL_13
1002
{
1000
OWNER
1000
GEN
1002
}
  0
LINE
  5
2382
  8
AM_0
 10
161.30037871952919
 20
320.0342662383423
 30
0.0
 11
161.30037871952919
 21
236.0342662383421
 31
0.0
  0
ARC
  5
2383
  8
AM_0
 10
166.30037871952919
 20
254.1053340502074
 30
0.0
 40
5.0
 50
180.0
 51
225.0
1001
GENIUS_GENOBJ-N-FIL_13
1002
{
1000
OWNER
1000
GEN
1002
}
1001
GENIUS_GENODEF_13
1002
{
1000
HIER
1070
     0
1002
}
1002
{
1000
MANEDIT
1070
     0
1002
}
1002
{
1000
NOSEL
1070
     0
1002
}
1002
{
1000
BEHIND
1070
     0
1002
}
1002
{
1000
OTHER
1070
     0
1002
}
1002
{
1000
REACTOR
1002
}
  0
ARC
  5
2384
  8
AM_0
 10
166.30037871952919
 20
301.96319842647699
 30
0.0
 40
5.0
 50
135.0
 51
180.0
1001
GENIUS_GENOBJ-N-FIL_13
1002
{
1000
OWNER
1000
GEN
1002
}
1001
GENIUS_GENODEF_13
1002
{
1000
HIER
1070
     0
1002
}
1002
{
1000
MANEDIT
1070
     0
1002
}
1002
{
1000
NOSEL
1070
     0
1002
}
1002
{
1000
BEHIND
1070
     0
1002
}
1002
{
1000
OTHER
1070
     0
1002
}
1002
{
1000
REACTOR
1002
}
  0
LINE
  5
2385
  8
AM_0
 10
166.30037871952919
 20
301.3063441769844
 30
0.0
 11
166.30037871952911
 21
254.7621882996998
 31
0.0
  0
ARC
  5
2386
  8
AM_0
 10
171.30037871952911
 20
254.7621882996998
 30
0.0
 40
5.0
 50
180.0
 51
225.0
1001
GENIUS_GENOBJ-N-FIL_13
1002
{
1000
OWNER
1000
GEN
1002
}
1001
GENIUS_GENODEF_13
1002
{
1000
HIER
1070
     0
1002
}
1002
{
1000
MANEDIT
1070
     0
1002
}
1002
{
1000
NOSEL
1070
     0
1002
}
1002
{
1000
BEHIND
1070
     0
1002
}
1002
{
1000
OTHER
1070
     0
1002
}
1002
{
1000
REACTOR
1002
}
  0
ARC
  5
2387
  8
AM_0
 10
165.30037871952919
 20
236.0342662383421
 30
0.0
 40
4.0
 50
180.0
 51
270.0
1001
GENIUS_GENODEF_13
1002
{
1000
HIER
1070
     0
1002
}
1002
{
1000
MANEDIT
1070
     0
1002
}
1002
{
1000
NOSEL
1070
     0
1002
}
1002
{
1000
BEHIND
1070
     0
1002
}
1002
{
1000
OTHER
1070
     0
1002
}
1002
{
1000
REACTOR
1002
}
1001
GENIUS_GENOBJ-N-FIL_13
1002
{
1000
OWNER
1000
GEN
1002
}
  0
LINE
  5
2388
  8
AM_0
 10
257.30037871952919
 20
320.0342662383423
 30
0.0
 11
257.30037871952942
 21
236.0342662383421
 31
0.0
  0
ARC
  5
2389
  8
AM_0
 10
252.30037871952931
 20
301.96319842647682
 30
0.0
 40
5.0
 50
0.0
 51
45.0
1001
GENIUS_GENOBJ-N-FIL_13
1002
{
1000
OWNER
1000
GEN
1002
}
1001
GENIUS_GENODEF_13
1002
{
1000
HIER
1070
     0
1002
}
1002
{
1000
MANEDIT
1070
     0
1002
}
1002
{
1000
NOSEL
1070
     0
1002
}
1002
{
1000
BEHIND
1070
     0
1002
}
1002
{
1000
OTHER
1070
     0
1002
}
1002
{
1000
REACTOR
1002
}
  0
ARC
  5
238A
  8
AM_0
 10
252.30037871952931
 20
254.1053340502076
 30
0.0
 40
5.0
 50
315.0
 51
0.0
1001
GENIUS_GENOBJ-N-FIL_13
1002
{
1000
OWNER
1000
GEN
1002
}
1001
GENIUS_GENODEF_13
1002
{
1000
HIER
1070
     0
1002
}
1002
{
1000
MANEDIT
1070
     0
1002
}
1002
{
1000
NOSEL
1070
     0
1002
}
1002
{
1000
BEHIND
1070
     0
1002
}
1002
{
1000
OTHER
1070
     0
1002
}
1002
{
1000
REACTOR
1002
}
  0
LINE
  5
238B
  8
AM_0
 10
238.76484481359651
 20
322.56980014427478
 30
0.0
 11
255.83591262546199
 21
305.49873233240947
 31
0.0
  0
LINE
  5
238C
  8
AM_0
 10
238.107990564104
 20
317.56980014427501
 30
0.0
 11
250.8359126254617
 21
304.84187808291739
 31
0.0
  0
ARC
  5
238D
  8
AM_0
 10
234.57245665817149
 20
314.0342662383423
 30
0.0
 40
5.0
 50
45.0
 51
90.0
1001
GENIUS_GENOBJ-N-FIL_13
1002
{
1000
OWNER
1000
GEN
1002
}
1001
GENIUS_GENODEF_13
1002
{
1000
HIER
1070
     0
1002
}
1002
{
1000
MANEDIT
1070
     0
1002
}
1002
{
1000
NOSEL
1070
     0
1002
}
1002
{
1000
BEHIND
1070
     0
1002
}
1002
{
1000
OTHER
1070
     0
1002
}
1002
{
1000
REACTOR
1002
}
  0
LINE
  5
238E
  8
AM_0
 10
252.30037871952911
 20
301.30634417698462
 30
0.0
 11
252.30037871952931
 21
254.7621882996998
 31
0.0
  0
ARC
  5
238F
  8
AM_0
 10
247.30037871952911
 20
301.30634417698462
 30
0.0
 40
5.0
 50
0.0
 51
45.0
1001
GENIUS_GENODEF_13
1002
{
1000
HIER
1070
     0
1002
}
1002
{
1000
MANEDIT
1070
     0
1002
}
1002
{
1000
NOSEL
1070
     0
1002
}
1002
{
1000
BEHIND
1070
     0
1002
}
1002
{
1000
OTHER
1070
     0
1002
}
1002
{
1000
REACTOR
1002
}
1001
GENIUS_GENOBJ-N-FIL_13
1002
{
1000
OWNER
1000
GEN
1002
}
  0
ARC
  5
2390
  8
AM_0
 10
253.30037871952911
 20
320.0342662383423
 30
0.0
 40
4.0
 50
0.0
 51
90.0
1001
GENIUS_GENODEF_13
1002
{
1000
HIER
1070
     0
1002
}
1002
{
1000
MANEDIT
1070
     0
1002
}
1002
{
1000
NOSEL
1070
     0
1002
}
1002
{
1000
BEHIND
1070
     0
1002
}
1002
{
1000
OTHER
1070
     0
1002
}
1002
{
1000
REACTOR
1002
}
1001
GENIUS_GENOBJ-N-FIL_13
1002
{
1000
OWNER
1000
GEN
1002
}
  0
LINE
  5
2392
  8
ﾁｭｳｼﾝｾﾝ1
 10
252.3003787195307
 20
313.03426623834167
 30
0.0
 11
252.30037871953141
 21
325.0342662383419
 31
0.0
  0
LINE
  5
2393
  8
ﾁｭｳｼﾝｾﾝ1
 10
258.30037871953112
 20
319.03426623834162
 30
0.0
 11
246.3003787195311
 21
319.0342662383423
 31
0.0
  0
LINE
  5
2398
  8
AM_0
 10
157.80037871952919
 20
291.5342662383423
 30
0.0
 11
160.30037871952911
 21
291.5342662383423
 31
0.0
  0
LINE
  5
2399
  8
AM_0
 10
160.30037871952919
 20
264.5342662383423
 30
0.0
 11
157.80037871952919
 21
264.5342662383423
 31
0.0
  0
LINE
  5
239A
  8
AM_0
 10
146.9017076231832
 20
267.5342662383423
 30
0.0
 11
146.9017076231832
 21
288.5342662383423
 31
0.0
  0
LINE
  5
239B
  8
AM_0
 10
131.9017076231832
 20
286.06589129235732
 30
0.0
 11
131.9017076231832
 21
270.00264118432631
 31
0.0
  0
LINE
  5
239C
  8
AM_0
 10
144.9017076231832
 20
266.0342662383423
 30
0.0
 11
144.9017076231832
 21
290.0342662383423
 31
0.0
  0
LINE
  5
239D
  8
AM_0
 10
135.4017076231832
 20
278.0342662383423
 30
0.0
 11
135.9017076231832
 21
277.5342662383423
 31
0.0
  0
LINE
  5
239E
  8
AM_0
 10
142.4017076231832
 20
289.73426623834217
 30
0.0
 11
142.4017076231832
 21
266.3342662383422
 31
0.0
  0
LINE
  5
239F
  8
AM_0
 10
152.30037871952919
 20
289.5342662383423
 30
0.0
 11
152.30037871952919
 21
266.5342662383423
 31
0.0
  0
LINE
  5
23A0
  8
AM_0
 10
146.4017076231832
 20
277.33426623834032
 30
0.0
 11
146.4017076231832
 21
278.73426623834331
 31
0.0
  0
LINE
  5
23A1
  8
AM_0
 10
148.50134334975431
 20
268.93426623834227
 30
0.0
 11
147.75134334975519
 21
287.13426623834232
 31
0.0
  0
LINE
  5
23A2
  8
AM_0
 10
147.55037871952919
 20
268.93426623834227
 30
0.0
 11
146.9017076231832
 21
284.6753515096583
 31
0.0
  0
LINE
  5
23A3
  8
AM_0
 10
148.2990713101012
 20
268.21860752597831
 30
0.0
 11
147.55181126669319
 21
287.84663799950931
 31
0.0
  0
LINE
  5
23A4
  8
AM_0
 10
147.74991080259119
 20
268.22189447717432
 30
0.0
 11
147.00134334975519
 21
287.88426623834209
 31
0.0
  0
LINE
  5
23A5
  8
AM_0
 10
144.9017076231832
 20
290.0342662383423
 30
0.0
 11
142.70170762318321
 21
290.0342662383423
 31
0.0
  0
ARC
  5
23A6
  8
AM_0
 10
156.80037871952931
 20
290.5342662383423
 30
0.0
 40
0.5
 50
269.99999999998693
 51
0.0
  0
ARC
  5
23A7
  8
AM_0
 10
157.80037871952931
 20
291.0342662383423
 30
0.0
 40
0.5
 50
90.0
 51
180.0
  0
LINE
  5
23A8
  8
AM_0
 10
157.30037871952919
 20
290.5342662383423
 30
0.0
 11
157.30037871952919
 21
291.0342662383423
 31
0.0
  0
LINE
  5
23A9
  8
AM_0
 10
148.30037871952919
 20
287.13426623834232
 30
0.0
 11
151.80037871952919
 21
287.13426623834221
 31
0.0
  0
LINE
  5
23AA
  8
AM_0
 10
157.30037871952919
 20
288.8903375597493
 30
0.0
 11
157.30037871952919
 21
279.17819491693422
 31
0.0
  0
LINE
  5
23AB
  8
AM_0
 10
152.80037871952919
 20
290.0342662383423
 30
0.0
 11
156.80037871952911
 21
290.0342662383423
 31
0.0
  0
LINE
  5
23AC
  8
AM_0
 10
156.80037871952919
 20
289.39033755974918
 30
0.0
 11
152.30037871952919
 21
289.39033755974918
 31
0.0
  0
ARC
  5
23AD
  8
AM_0
 10
156.80037871952931
 20
288.8903375597493
 30
0.0
 40
0.5
 50
0.0
 51
90.0
  0
ARC
  5
23AE
  8
AM_0
 10
151.80037871952919
 20
287.63426623834221
 30
0.0
 40
0.5
 50
270.0
 51
0.0
  0
ARC
  5
23AF
  8
AM_0
 10
152.80037871952919
 20
289.5342662383423
 30
0.0
 40
0.5
 50
90.0
 51
180.0
  0
LINE
  5
23B0
  8
AM_0
 10
156.80037871952919
 20
278.67819491693422
 30
0.0
 11
152.30037871952919
 21
278.67819491693422
 31
0.0
  0
ARC
  5
23B1
  8
AM_0
 10
156.80037871952919
 20
279.17819491693422
 30
0.0
 40
0.5
 50
270.0
 51
0.0
  0
LINE
  5
23B2
  8
AM_0
 10
146.4017076231832
 20
284.17943699063431
 30
0.0
 11
146.4017076231832
 21
283.00719380420122
 31
0.0
  0
LINE
  5
23B3
  8
AM_0
 10
147.82807577818011
 20
287.13426623834232
 30
0.0
 11
148.30037871952919
 21
287.13426623834232
 31
0.0
  0
LINE
  5
23B4
  8
AM_0
 10
147.7314832836409
 20
287.20838400507893
 30
0.0
 11
147.75134334975519
 21
287.13426623834232
 31
0.0
  0
ARC
  5
23B5
  8
AM_0
 10
147.82807577818031
 20
287.23426623834217
 30
0.0
 40
0.1000000000000346
 50
195.00019500644461
 51
270.0
  0
ARC
  5
23B6
  8
AM_0
 10
146.1017076231833
 20
287.32109921885018
 30
0.0
 40
0.3000000000000043
 50
270.0
 51
0.0
  0
LINE
  5
23B7
  8
AM_0
 10
144.9017076231832
 20
289.43426623834227
 30
0.0
 11
146.1216633263403
 21
289.35293585813127
 31
0.0
  0
LINE
  5
23B8
  8
AM_0
 10
144.9017076231832
 20
288.27801420250228
 30
0.0
 11
146.1017076231833
 21
288.27801420250228
 31
0.0
  0
LINE
  5
23B9
  8
AM_0
 10
146.4017076231832
 20
289.0342662383423
 30
0.0
 11
144.9017076231832
 21
289.0342662383423
 31
0.0
  0
ARC
  5
23BA
  8
AM_0
 10
146.4017076231832
 20
288.5342662383423
 30
0.0
 40
0.5
 50
0.0
 51
90.0
  0
LINE
  5
23BB
  8
AM_0
 10
146.4017076231832
 20
289.0536003107743
 30
0.0
 11
146.4017076231832
 21
289.0342662383423
 31
0.0
  0
LINE
  5
23BC
  8
AM_0
 10
146.4017076231832
 20
289.3342662383422
 30
0.0
 11
146.4017076231832
 21
289.0536003107743
 31
0.0
  0
LINE
  5
23BD
  8
AM_0
 10
146.1216633263403
 20
289.35293585813127
 30
0.0
 11
146.4017076231832
 21
289.3342662383422
 31
0.0
  0
ARC
  5
23BE
  8
AM_0
 10
146.1017076231833
 20
289.0536003107743
 30
0.0
 40
0.3000000000000007
 50
0.0
 51
86.185925165715304
  0
LINE
  5
23BF
  8
AM_0
 10
147.4736462911041
 20
287.88426623834209
 30
0.0
 11
147.55037871953019
 21
287.88426623834209
 31
0.0
  0
LINE
  5
23C0
  8
AM_0
 10
147.55037871953019
 20
287.88426623834209
 30
0.0
 11
147.57023878564331
 21
287.81014847160583
 31
0.0
  0
LINE
  5
23C1
  8
AM_0
 10
146.9814832836411
 20
287.81014847160583
 30
0.0
 11
147.00134334975519
 21
287.88426623834209
 31
0.0
  0
LINE
  5
23C2
  8
AM_0
 10
147.00134334975519
 20
287.88426623834209
 30
0.0
 11
147.07807577818011
 21
287.88426623834209
 31
0.0
  0
LINE
  5
23C3
  8
AM_0
 10
147.57023878564331
 20
287.81014847160583
 30
0.0
 11
147.7314832836409
 21
287.20838400507893
 31
0.0
  0
LINE
  5
23C4
  8
AM_0
 10
147.07807577818011
 20
287.88426623834209
 30
0.0
 11
147.4736462911041
 21
287.88426623834209
 31
0.0
  0
LINE
  5
23C5
  8
AM_0
 10
146.90170762318419
 20
287.5124257067813
 30
0.0
 11
146.9814832836411
 21
287.81014847160583
 31
0.0
  0
ARC
  5
23C6
  8
AM_0
 10
147.47364629110419
 20
287.7842662383423
 30
0.0
 40
0.0999999999999866
 50
15.00019500656942
 51
90.0
  0
ARC
  5
23C7
  8
AM_0
 10
147.07807577818031
 20
287.7842662383423
 30
0.0
 40
0.1000000000000014
 50
90.0
 51
164.99980499343059
  0
LINE
  5
23C8
  8
AM_0
 10
146.4017076231832
 20
287.97801420250221
 30
0.0
 11
146.4017076231832
 21
287.32109921885018
 31
0.0
  0
ARC
  5
23C9
  8
AM_0
 10
146.1017076231833
 20
287.97801420250221
 30
0.0
 40
0.3000000000000007
 50
0.0
 51
90.0
  0
LINE
  5
23CA
  8
AM_0
 10
144.9017076231832
 20
284.47943699063438
 30
0.0
 11
146.1017076231833
 21
284.47943699063438
 31
0.0
  0
LINE
  5
23CB
  8
AM_0
 10
146.1017076231833
 20
287.02109921885022
 30
0.0
 11
144.9017076231832
 21
287.02109921885022
 31
0.0
  0
LINE
  5
23CC
  8
AM_0
 10
147.75134334975519
 20
287.13426623834232
 30
0.0
 11
147.82807577818011
 21
287.13426623834232
 31
0.0
  0
ARC
  5
23CD
  8
AM_0
 10
146.1017076231833
 20
284.17943699063431
 30
0.0
 40
0.3000000000000007
 50
0.0
 51
90.0
  0
LINE
  5
23CE
  8
AM_0
 10
146.1017076231833
 20
282.70719380420132
 30
0.0
 11
144.9017076231832
 21
282.70719380420132
 31
0.0
  0
ARC
  5
23CF
  8
AM_0
 10
146.1017076231833
 20
283.00719380420122
 30
0.0
 40
0.3000000000000043
 50
270.0
 51
0.0
  0
LINE
  5
23D0
  8
AM_0
 10
146.1017076231833
 20
279.03426623834332
 30
0.0
 11
144.9017076231832
 21
279.03426623834332
 31
0.0
  0
ARC
  5
23D1
  8
AM_0
 10
146.1017076231833
 20
278.73426623834331
 30
0.0
 40
0.3000000000000007
 50
0.0
 51
90.0
  0
LINE
  5
23D2
  8
AM_0
 10
135.9017076231832
 20
288.16754606698919
 30
0.0
 11
142.4017076231832
 21
288.16754606698919
 31
0.0
  0
LINE
  5
23D3
  8
AM_0
 10
135.9017076231832
 20
288.66754606698919
 30
0.0
 11
142.4017076231832
 21
288.66754606698919
 31
0.0
  0
LINE
  5
23D4
  8
AM_0
 10
142.4017076231832
 20
278.5342662383423
 30
0.0
 11
135.9017076231832
 21
278.5342662383423
 31
0.0
  0
LINE
  5
23D5
  8
AM_0
 10
135.4017076231832
 20
279.0342662383423
 30
0.0
 11
142.4017076231832
 21
279.0342662383423
 31
0.0
  0
LINE
  5
23D6
  8
AM_0
 10
142.1017076231833
 20
289.0342662383423
 30
0.0
 11
135.2637575583652
 21
289.0342662383423
 31
0.0
  0
LINE
  5
23D7
  8
AM_0
 10
142.4017076231832
 20
279.38095430688332
 30
0.0
 11
135.9017076231832
 21
279.38095430688332
 31
0.0
  0
LINE
  5
23D8
  8
AM_0
 10
142.4017076231832
 20
287.68757816980133
 30
0.0
 11
135.9017076231832
 21
287.68757816980133
 31
0.0
  0
ARC
  5
23D9
  8
AM_0
 10
142.70170762318321
 20
289.73426623834217
 30
0.0
 40
0.2999999999999971
 50
90.0
 51
180.0
  0
ARC
  5
23DA
  8
AM_0
 10
142.1017076231833
 20
289.3342662383422
 30
0.0
 40
0.2999999999999971
 50
270.0
 51
0.0
  0
ARC
  5
23DB
  8
AM_0
 10
144.0267076231832
 20
283.5342662383423
 30
0.0
 40
9.124999999999984
 50
152.92493329272219
 51
207.07506670727781
  0
LINE
  5
23DC
  8
AM_0
 10
134.62357315870071
 20
288.80248751793971
 30
0.0
 11
132.26152322351859
 21
286.83411257195468
 31
0.0
  0
LINE
  5
23DD
  8
AM_0
 10
135.4017076231832
 20
288.45583365483418
 30
0.0
 11
135.9017076231832
 21
289.0342662383423
 31
0.0
  0
ARC
  5
23DE
  8
AM_0
 10
135.2637575583652
 20
288.0342662383423
 30
0.0
 40
1.0
 50
90.0
 51
129.805571092256
  0
LINE
  5
23DF
  8
AM_0
 10
135.9017076231832
 20
288.66754606698919
 30
0.0
 11
135.4017076231832
 21
288.45583365483418
 31
0.0
  0
LINE
  5
23E0
  8
AM_0
 10
135.4017076231832
 20
287.99355838186318
 30
0.0
 11
135.9017076231832
 21
288.66754606698919
 31
0.0
  0
LINE
  5
23E1
  8
AM_0
 10
135.9017076231832
 20
288.16754606698919
 30
0.0
 11
135.4017076231832
 21
287.99355838186318
 31
0.0
  0
LINE
  5
23E2
  8
AM_0
 10
135.4017076231832
 20
287.45583365483429
 30
0.0
 11
135.9017076231832
 21
288.16754606698919
 31
0.0
  0
LINE
  5
23E3
  8
AM_0
 10
135.9017076231832
 20
287.68757816980133
 30
0.0
 11
135.4017076231832
 21
287.45583365483429
 31
0.0
  0
ARC
  5
23E4
  8
AM_0
 10
132.9017076231832
 20
286.06589129235732
 30
0.0
 40
1.0000000000000291
 50
129.80557109226311
 51
180.0
  0
LINE
  5
23E5
  8
AM_0
 10
135.9017076231832
 20
278.5342662383423
 30
0.0
 11
135.4017076231832
 21
278.0342662383423
 31
0.0
  0
LINE
  5
23E6
  8
AM_0
 10
135.4017076231832
 20
279.0342662383423
 30
0.0
 11
135.9017076231832
 21
278.5342662383423
 31
0.0
  0
LINE
  5
23E7
  8
AM_0
 10
135.9017076231832
 20
279.38095430688332
 30
0.0
 11
135.4017076231832
 21
279.0342662383423
 31
0.0
  0
LINE
  5
23E8
  8
AM_0
 10
142.70170762318321
 20
266.0342662383423
 30
0.0
 11
144.9017076231832
 21
266.0342662383423
 31
0.0
  0
ARC
  5
23E9
  8
AM_0
 10
156.80037871952919
 20
265.5342662383423
 30
0.0
 40
0.5
 50
0.0
 51
90.000000000009777
  0
LINE
  5
23EA
  8
AM_0
 10
151.80037871952919
 20
268.93426623834227
 30
0.0
 11
148.57807577818011
 21
268.93426623834227
 31
0.0
  0
LINE
  5
23EB
  8
AM_0
 10
157.30037871952919
 20
276.89033755974918
 30
0.0
 11
157.30037871952919
 21
267.17819491693422
 31
0.0
  0
LINE
  5
23EC
  8
AM_0
 10
152.30037871952919
 20
277.39033755974918
 30
0.0
 11
156.80037871952919
 21
277.39033755974918
 31
0.0
  0
ARC
  5
23ED
  8
AM_0
 10
156.80037871952919
 20
276.89033755974918
 30
0.0
 40
0.5
 50
0.0
 51
90.0
  0
LINE
  5
23EE
  8
AM_0
 10
152.30037871952919
 20
266.67819491693422
 30
0.0
 11
156.80037871952919
 21
266.67819491693422
 31
0.0
  0
LINE
  5
23EF
  8
AM_0
 10
156.80037871952911
 20
266.0342662383423
 30
0.0
 11
152.80037871952919
 21
266.0342662383423
 31
0.0
  0
ARC
  5
23F0
  8
AM_0
 10
156.80037871952919
 20
267.17819491693422
 30
0.0
 40
0.5
 50
270.0
 51
0.0
  0
ARC
  5
23F1
  8
AM_0
 10
151.80037871952919
 20
268.43426623834227
 30
0.0
 40
0.5
 50
0.0
 51
90.0
  0
ARC
  5
23F2
  8
AM_0
 10
152.80037871952919
 20
266.5342662383423
 30
0.0
 40
0.5
 50
180.0
 51
270.0
  0
ARC
  5
23F3
  8
AM_0
 10
146.1017076231833
 20
271.88909548605028
 30
0.0
 40
0.3000000000000114
 50
270.0
 51
0.0
  0
LINE
  5
23F4
  8
AM_0
 10
144.9017076231832
 20
277.03426623834031
 30
0.0
 11
146.1017076231833
 21
277.03426623834031
 31
0.0
  0
ARC
  5
23F5
  8
AM_0
 10
146.1017076231833
 20
277.33426623834021
 30
0.0
 40
0.2999999999999971
 50
270.0
 51
0.0
  0
LINE
  5
23F6
  8
AM_0
 10
144.9017076231832
 20
273.36133867248333
 30
0.0
 11
146.1017076231833
 21
273.36133867248333
 31
0.0
  0
ARC
  5
23F7
  8
AM_0
 10
146.1017076231833
 20
273.0613386724832
 30
0.0
 40
0.3000000000000007
 50
0.0
 51
90.0
  0
LINE
  5
23F8
  8
AM_0
 10
146.4017076231832
 20
273.06133867248332
 30
0.0
 11
146.4017076231832
 21
271.88909548605039
 31
0.0
  0
LINE
  5
23F9
  8
AM_0
 10
147.82807577818011
 20
268.18426623834227
 30
0.0
 11
148.22364629110399
 21
268.18426623834227
 31
0.0
  0
LINE
  5
23FA
  8
AM_0
 10
147.82807577818011
 20
268.18426623834227
 30
0.0
 11
148.22364629110399
 21
268.18426623834227
 31
0.0
  0
LINE
  5
23FB
  8
AM_0
 10
148.32023878564331
 20
268.25838400507882
 30
0.0
 11
148.48148328364121
 21
268.8601484716059
 31
0.0
  0
LINE
  5
23FC
  8
AM_0
 10
148.32023878564331
 20
268.25838400507882
 30
0.0
 11
148.48148328364121
 21
268.8601484716059
 31
0.0
  0
ARC
  5
23FD
  8
AM_0
 10
148.57807577818011
 20
268.83426623834231
 30
0.0
 40
0.0999999999999943
 50
90.0
 51
164.9998049934847
  0
ARC
  5
23FE
  8
AM_0
 10
148.22364629110399
 20
268.2842662383423
 30
0.0
 40
0.0999999999999943
 50
270.0
 51
344.99980499349448
  0
LINE
  5
23FF
  8
AM_0
 10
146.90086103464211
 20
268.55926623834199
 30
0.0
 11
146.9814832836411
 21
268.8601484716059
 31
0.0
  0
LINE
  5
2400
  8
AM_0
 10
147.5530893717353
 20
268.89500170524428
 30
0.0
 11
147.73148328364121
 21
268.25838400507882
 31
0.0
  0
LINE
  5
2401
  8
AM_0
 10
147.57023878564331
 20
268.8601484716059
 30
0.0
 11
147.73148328364121
 21
268.25838400507882
 31
0.0
  0
LINE
  5
2402
  8
AM_0
 10
146.4017076231832
 20
268.74743325783328
 30
0.0
 11
146.4017076231832
 21
268.09051827418227
 31
0.0
  0
LINE
  5
2403
  8
AM_0
 10
146.9017076231832
 20
268.56242570678018
 30
0.0
 11
146.9814832836411
 21
268.8601484716059
 31
0.0
  0
LINE
  5
2404
  8
AM_0
 10
144.9017076231832
 20
269.04743325783329
 30
0.0
 11
146.1017076231833
 21
269.04743325783329
 31
0.0
  0
LINE
  5
2405
  8
AM_0
 10
146.1017076231833
 20
271.58909548605038
 30
0.0
 11
144.9017076231832
 21
271.58909548604919
 31
0.0
  0
LINE
  5
2406
  8
AM_0
 10
147.50627855661909
 20
268.93426623834227
 30
0.0
 11
147.5530893717353
 21
268.89500170524428
 31
0.0
  0
LINE
  5
2407
  8
AM_0
 10
147.07807577818011
 20
268.93426623834227
 30
0.0
 11
147.50627855661909
 21
268.93426623834227
 31
0.0
  0
LINE
  5
2408
  8
AM_0
 10
147.07807577818011
 20
268.93426623834227
 30
0.0
 11
147.4736462911041
 21
268.93426623834227
 31
0.0
  0
ARC
  5
2409
  8
AM_0
 10
147.07807577818011
 20
268.83426623834231
 30
0.0
 40
0.0999999999999943
 50
90.0
 51
164.9998049934847
  0
ARC
  5
240A
  8
AM_0
 10
147.4736462911041
 20
268.83426623834231
 30
0.0
 40
0.0999999999999608
 50
15.00019500651571
 51
90.0
  0
ARC
  5
240B
  8
AM_0
 10
146.1017076231833
 20
268.74743325783322
 30
0.0
 40
0.3000000000000007
 50
0.0
 51
90.0
  0
LINE
  5
240C
  8
AM_0
 10
144.9017076231832
 20
267.0342662383423
 30
0.0
 11
146.4017076231832
 21
267.0342662383423
 31
0.0
  0
LINE
  5
240D
  8
AM_0
 10
146.1017076231833
 20
267.79051827418232
 30
0.0
 11
144.9017076231832
 21
267.79051827418232
 31
0.0
  0
LINE
  5
240E
  8
AM_0
 10
146.1216633263403
 20
266.71559661855218
 30
0.0
 11
144.9017076231832
 21
266.63426623834232
 31
0.0
  0
ARC
  5
240F
  8
AM_0
 10
146.4017076231832
 20
267.5342662383423
 30
0.0
 40
0.5
 50
270.0
 51
0.0
  0
ARC
  5
2410
  8
AM_0
 10
147.82807577818011
 20
268.2842662383423
 30
0.0
 40
0.0999999999999606
 50
195.00019500650541
 51
270.0
  0
ARC
  5
2411
  8
AM_0
 10
146.1017076231833
 20
268.09051827418227
 30
0.0
 40
0.2999999999999971
 50
270.0
 51
0.0
  0
LINE
  5
2412
  8
AM_0
 10
146.4017076231832
 20
267.0342662383423
 30
0.0
 11
146.4017076231832
 21
267.01493216590927
 31
0.0
  0
ARC
  5
2413
  8
AM_0
 10
146.1017076231833
 20
267.01493216590927
 30
0.0
 40
0.3000000000000043
 50
273.81407483428472
 51
0.0
  0
ARC
  5
2414
  8
AM_0
 10
157.80037871952919
 20
265.0342662383423
 30
0.0
 40
0.5
 50
180.0
 51
270.0
  0
LINE
  5
2415
  8
AM_0
 10
157.30037871952919
 20
265.0342662383423
 30
0.0
 11
157.30037871952919
 21
265.5342662383423
 31
0.0
  0
LINE
  5
2416
  8
AM_0
 10
135.9017076231832
 20
268.38095430688332
 30
0.0
 11
142.4017076231832
 21
268.38095430688332
 31
0.0
  0
LINE
  5
2417
  8
AM_0
 10
135.9017076231832
 20
276.68757816980133
 30
0.0
 11
142.4017076231832
 21
276.68757816980133
 31
0.0
  0
LINE
  5
2418
  8
AM_0
 10
135.2637575583652
 20
267.0342662383423
 30
0.0
 11
142.1017076231833
 21
267.0342662383423
 31
0.0
  0
LINE
  5
2419
  8
AM_0
 10
142.4017076231832
 20
277.0342662383423
 30
0.0
 11
135.4017076231832
 21
277.0342662383423
 31
0.0
  0
LINE
  5
241A
  8
AM_0
 10
135.9017076231832
 20
277.5342662383423
 30
0.0
 11
142.4017076231832
 21
277.5342662383423
 31
0.0
  0
LINE
  5
241B
  8
AM_0
 10
142.4017076231832
 20
267.40098640969438
 30
0.0
 11
135.9017076231832
 21
267.40098640969438
 31
0.0
  0
LINE
  5
241C
  8
AM_0
 10
142.4017076231832
 20
267.90098640969438
 30
0.0
 11
135.9017076231832
 21
267.90098640969438
 31
0.0
  0
ARC
  5
241D
  8
AM_0
 10
142.1017076231833
 20
266.73426623834217
 30
0.0
 40
0.3000000000000043
 50
0.0
 51
90.0
  0
ARC
  5
241E
  8
AM_0
 10
142.70170762318321
 20
266.3342662383422
 30
0.0
 40
0.2999999999999971
 50
180.0
 51
270.0
  0
ARC
  5
241F
  8
AM_0
 10
144.0267076231832
 20
272.5342662383423
 30
0.0
 40
9.124999999999984
 50
152.92493329272219
 51
207.07506670727781
  0
LINE
  5
2420
  8
AM_0
 10
135.4017076231832
 20
277.0342662383423
 30
0.0
 11
135.9017076231832
 21
276.68757816980133
 31
0.0
  0
LINE
  5
2421
  8
AM_0
 10
135.9017076231832
 20
277.5342662383423
 30
0.0
 11
135.4017076231832
 21
277.0342662383423
 31
0.0
  0
LINE
  5
2422
  8
AM_0
 10
132.26152322351859
 20
269.23441990472878
 30
0.0
 11
134.62357315870071
 21
267.26604495874483
 31
0.0
  0
LINE
  5
2423
  8
AM_0
 10
135.9017076231832
 20
267.0342662383423
 30
0.0
 11
135.4017076231832
 21
267.61269882184928
 31
0.0
  0
ARC
  5
2424
  8
AM_0
 10
135.2637575583652
 20
268.0342662383423
 30
0.0
 40
1.0000000000000411
 50
230.19442890774391
 51
270.0
  0
LINE
  5
2425
  8
AM_0
 10
135.4017076231832
 20
268.61269882184928
 30
0.0
 11
135.9017076231832
 21
268.38095430688332
 31
0.0
  0
LINE
  5
2426
  8
AM_0
 10
135.9017076231832
 20
267.90098640969438
 30
0.0
 11
135.4017076231832
 21
268.61269882184928
 31
0.0
  0
LINE
  5
2427
  8
AM_0
 10
135.4017076231832
 20
268.0749740948213
 30
0.0
 11
135.9017076231832
 21
267.90098640969438
 31
0.0
  0
LINE
  5
2428
  8
AM_0
 10
135.9017076231832
 20
267.40098640969438
 30
0.0
 11
135.4017076231832
 21
268.0749740948213
 31
0.0
  0
LINE
  5
2429
  8
AM_0
 10
135.4017076231832
 20
267.61269882184928
 30
0.0
 11
135.9017076231832
 21
267.40098640969438
 31
0.0
  0
ARC
  5
242A
  8
AM_0
 10
132.9017076231832
 20
270.00264118432619
 30
0.0
 40
1.0
 50
180.0
 51
230.19442890773689
  0
CIRCLE
  5
242B
  8
AM_0
 10
166.30037871952749
 20
319.0342662383419
 30
0.0
 40
4.0
  0
LINE
  5
242C
  8
AM_0
 10
165.98887871952741
 20
316.75545783261759
 30
0.0
 11
166.61187871952751
 21
316.75545783261759
 31
0.0
  0
LINE
  5
242D
  8
AM_0
 10
165.98887871952741
 20
321.31307464406632
 30
0.0
 11
166.61187871952751
 21
321.31307464406632
 31
0.0
  0
LINE
  5
242E
  8
AM_0
 10
165.98887871952741
 20
316.75545783261759
 30
0.0
 11
165.98887871952741
 21
318.72276623834188
 31
0.0
  0
LINE
  5
242F
  8
AM_0
 10
165.98887871952741
 20
319.34576623834192
 30
0.0
 11
165.98887871952741
 21
321.31307464406632
 31
0.0
  0
LINE
  5
2430
  8
AM_0
 10
165.98887871952741
 20
319.34576623834192
 30
0.0
 11
164.0215703138031
 21
319.34576623834192
 31
0.0
  0
LINE
  5
2431
  8
AM_0
 10
165.98887871952741
 20
318.72276623834188
 30
0.0
 11
164.0215703138031
 21
318.72276623834188
 31
0.0
  0
LINE
  5
2432
  8
AM_0
 10
164.0215703138031
 20
319.34576623834192
 30
0.0
 11
164.0215703138031
 21
318.72276623834188
 31
0.0
  0
LINE
  5
2433
  8
AM_0
 10
166.61187871952751
 20
316.75545783261759
 30
0.0
 11
166.61187871952751
 21
318.72276623834188
 31
0.0
  0
LINE
  5
2434
  8
AM_0
 10
166.61187871952751
 20
319.34576623834192
 30
0.0
 11
166.61187871952751
 21
321.31307464406632
 31
0.0
  0
LINE
  5
2435
  8
AM_0
 10
168.57918712525191
 20
318.72276623834188
 30
0.0
 11
166.61187871952751
 21
318.72276623834188
 31
0.0
  0
LINE
  5
2436
  8
AM_0
 10
168.57918712525191
 20
319.34576623834192
 30
0.0
 11
166.61187871952751
 21
319.34576623834192
 31
0.0
  0
LINE
  5
2437
  8
AM_0
 10
168.57918712525191
 20
319.34576623834192
 30
0.0
 11
168.57918712525191
 21
318.72276623834188
 31
0.0
  0
CIRCLE
  5
2438
  8
AM_0
 10
252.3003787195311
 20
319.0342662383419
 30
0.0
 40
4.0
  0
LINE
  5
2439
  8
AM_0
 10
251.9888787195311
 20
316.75545783261748
 30
0.0
 11
252.61187871953109
 21
316.75545783261748
 31
0.0
  0
LINE
  5
243A
  8
AM_0
 10
251.9888787195311
 20
321.31307464406621
 30
0.0
 11
252.61187871953109
 21
321.31307464406621
 31
0.0
  0
LINE
  5
243B
  8
AM_0
 10
251.9888787195311
 20
316.75545783261748
 30
0.0
 11
251.9888787195311
 21
318.72276623834182
 31
0.0
  0
LINE
  5
243C
  8
AM_0
 10
251.9888787195311
 20
319.34576623834192
 30
0.0
 11
251.9888787195311
 21
321.31307464406621
 31
0.0
  0
LINE
  5
243D
  8
AM_0
 10
251.9888787195311
 20
319.34576623834192
 30
0.0
 11
250.02157031380671
 21
319.34576623834192
 31
0.0
  0
LINE
  5
243E
  8
AM_0
 10
251.9888787195311
 20
318.72276623834182
 30
0.0
 11
250.02157031380671
 21
318.72276623834182
 31
0.0
  0
LINE
  5
243F
  8
AM_0
 10
250.02157031380671
 20
319.34576623834192
 30
0.0
 11
250.02157031380671
 21
318.72276623834182
 31
0.0
  0
LINE
  5
2440
  8
AM_0
 10
252.61187871953109
 20
316.75545783261748
 30
0.0
 11
252.61187871953109
 21
318.72276623834182
 31
0.0
  0
LINE
  5
2441
  8
AM_0
 10
252.61187871953109
 20
319.34576623834192
 30
0.0
 11
252.61187871953109
 21
321.31307464406621
 31
0.0
  0
LINE
  5
2442
  8
AM_0
 10
254.5791871252554
 20
318.72276623834182
 30
0.0
 11
252.61187871953109
 21
318.72276623834182
 31
0.0
  0
LINE
  5
2443
  8
AM_0
 10
254.5791871252554
 20
319.34576623834192
 30
0.0
 11
252.61187871953109
 21
319.34576623834192
 31
0.0
  0
LINE
  5
2444
  8
AM_0
 10
254.5791871252554
 20
319.34576623834192
 30
0.0
 11
254.5791871252554
 21
318.72276623834182
 31
0.0
  0
LINE
  5
2445
  8
AM_0
 10
179.83591262546221
 20
322.56980014427512
 30
0.0
 11
162.7648448135964
 21
305.49873233240982
 31
0.0
  0
LINE
  5
2446
  8
AM_0
 10
180.49276687495441
 20
317.56980014427501
 30
0.0
 11
167.76484481359651
 21
304.84187808291722
 31
0.0
  0
ARC
  5
2447
  8
AM_0
 10
171.30037871952919
 20
301.3063441769844
 30
0.0
 40
5.0
 50
135.0
 51
180.0
1001
GENIUS_GENOBJ-N-FIL_13
1002
{
1000
OWNER
1000
GEN
1002
}
1001
GENIUS_GENODEF_13
1002
{
1000
HIER
1070
     0
1002
}
1002
{
1000
MANEDIT
1070
     0
1002
}
1002
{
1000
NOSEL
1070
     0
1002
}
1002
{
1000
BEHIND
1070
     0
1002
}
1002
{
1000
OTHER
1070
     0
1002
}
1002
{
1000
REACTOR
1002
}
  0
LINE
  5
2448
  8
AM_0
 10
238.76484481359651
 20
233.49873233240939
 30
0.0
 11
255.83591262546199
 21
250.56980014427469
 31
0.0
  0
ARC
  5
2449
  8
AM_0
 10
235.2293109076638
 20
237.0342662383421
 30
0.0
 40
5.0
 50
270.0
 51
315.0
1001
GENIUS_GENODEF_13
1002
{
1000
HIER
1070
     0
1002
}
1002
{
1000
MANEDIT
1070
     0
1002
}
1002
{
1000
NOSEL
1070
     0
1002
}
1002
{
1000
BEHIND
1070
     0
1002
}
1002
{
1000
OTHER
1070
     0
1002
}
1002
{
1000
REACTOR
1002
}
1001
GENIUS_GENOBJ-N-FIL_13
1002
{
1000
OWNER
1000
GEN
1002
}
  0
LINE
  5
244A
  8
AM_0
 10
238.10799056410431
 20
238.4987323324093
 30
0.0
 11
250.83591262546199
 21
251.22665439376701
 31
0.0
  0
ARC
  5
244B
  8
AM_0
 10
247.30037871952939
 20
254.7621882996998
 30
0.0
 40
5.0
 50
315.0
 51
0.0
1001
GENIUS_GENOBJ-N-FIL_13
1002
{
1000
OWNER
1000
GEN
1002
}
1001
GENIUS_GENODEF_13
1002
{
1000
HIER
1070
     0
1002
}
1002
{
1000
MANEDIT
1070
     0
1002
}
1002
{
1000
NOSEL
1070
     0
1002
}
1002
{
1000
BEHIND
1070
     0
1002
}
1002
{
1000
OTHER
1070
     0
1002
}
1002
{
1000
REACTOR
1002
}
  0
LINE
  5
244C
  8
AM_0
 10
179.83591262546199
 20
233.49873233240939
 30
0.0
 11
162.7648448135964
 21
250.56980014427461
 31
0.0
  0
LINE
  5
244D
  8
AM_0
 10
180.49276687495421
 20
238.4987323324093
 30
0.0
 11
167.76484481359651
 21
251.22665439376701
 31
0.0
  0
ARC
  5
244E
  8
AM_0
 10
184.02830078088701
 20
242.0342662383421
 30
0.0
 40
5.0
 50
225.0
 51
270.0
1001
GENIUS_GENOBJ-N-FIL_13
1002
{
1000
OWNER
1000
GEN
1002
}
1001
GENIUS_GENODEF_13
1002
{
1000
HIER
1070
     0
1002
}
1002
{
1000
MANEDIT
1070
     0
1002
}
1002
{
1000
NOSEL
1070
     0
1002
}
1002
{
1000
BEHIND
1070
     0
1002
}
1002
{
1000
OTHER
1070
     0
1002
}
1002
{
1000
REACTOR
1002
}
  0
CIRCLE
  5
244F
  8
AM_0
 10
166.3003787195274
 20
237.0342662383425
 30
0.0
 40
4.0
  0
LINE
  5
2450
  8
AM_0
 10
165.98887871952741
 20
239.31307464406689
 30
0.0
 11
166.6118787195274
 21
239.31307464406689
 31
0.0
  0
LINE
  5
2451
  8
AM_0
 10
165.98887871952741
 20
234.75545783261811
 30
0.0
 11
166.6118787195274
 21
234.75545783261811
 31
0.0
  0
LINE
  5
2452
  8
AM_0
 10
165.98887871952741
 20
239.31307464406689
 30
0.0
 11
165.98887871952741
 21
237.34576623834261
 31
0.0
  0
LINE
  5
2453
  8
AM_0
 10
165.98887871952741
 20
236.7227662383425
 30
0.0
 11
165.98887871952741
 21
234.75545783261811
 31
0.0
  0
LINE
  5
2454
  8
AM_0
 10
165.98887871952741
 20
236.7227662383425
 30
0.0
 11
164.02157031380301
 21
236.7227662383425
 31
0.0
  0
LINE
  5
2455
  8
AM_0
 10
165.98887871952741
 20
237.34576623834261
 30
0.0
 11
164.02157031380301
 21
237.34576623834261
 31
0.0
  0
LINE
  5
2456
  8
AM_0
 10
164.02157031380301
 20
236.7227662383425
 30
0.0
 11
164.02157031380301
 21
237.34576623834261
 31
0.0
  0
LINE
  5
2457
  8
AM_0
 10
166.6118787195274
 20
239.31307464406689
 30
0.0
 11
166.6118787195274
 21
237.34576623834261
 31
0.0
  0
LINE
  5
2458
  8
AM_0
 10
166.6118787195274
 20
236.7227662383425
 30
0.0
 11
166.6118787195274
 21
234.75545783261811
 31
0.0
  0
LINE
  5
2459
  8
AM_0
 10
168.57918712525179
 20
237.34576623834261
 30
0.0
 11
166.6118787195274
 21
237.34576623834261
 31
0.0
  0
LINE
  5
245A
  8
AM_0
 10
168.57918712525179
 20
236.7227662383425
 30
0.0
 11
166.6118787195274
 21
236.7227662383425
 31
0.0
  0
LINE
  5
245B
  8
AM_0
 10
168.57918712525179
 20
236.7227662383425
 30
0.0
 11
168.57918712525179
 21
237.34576623834261
 31
0.0
  0
CIRCLE
  5
245C
  8
AM_0
 10
252.3003787195309
 20
237.0342662383423
 30
0.0
 40
4.0
  0
LINE
  5
245D
  8
AM_0
 10
251.9888787195309
 20
239.3130746440668
 30
0.0
 11
252.61187871953101
 21
239.3130746440668
 31
0.0
  0
LINE
  5
245E
  8
AM_0
 10
251.9888787195309
 20
234.75545783261799
 30
0.0
 11
252.61187871953101
 21
234.75545783261799
 31
0.0
  0
LINE
  5
245F
  8
AM_0
 10
251.9888787195309
 20
239.3130746440668
 30
0.0
 11
251.9888787195309
 21
237.34576623834229
 31
0.0
  0
LINE
  5
2460
  8
AM_0
 10
251.9888787195309
 20
236.7227662383423
 30
0.0
 11
251.9888787195309
 21
234.75545783261799
 31
0.0
  0
LINE
  5
2461
  8
AM_0
 10
251.9888787195309
 20
236.7227662383423
 30
0.0
 11
250.02157031380659
 21
236.7227662383423
 31
0.0
  0
LINE
  5
2462
  8
AM_0
 10
251.9888787195309
 20
237.34576623834229
 30
0.0
 11
250.02157031380659
 21
237.34576623834229
 31
0.0
  0
LINE
  5
2463
  8
AM_0
 10
250.02157031380659
 20
236.7227662383423
 30
0.0
 11
250.02157031380659
 21
237.34576623834229
 31
0.0
  0
LINE
  5
2464
  8
AM_0
 10
252.61187871953101
 20
239.3130746440668
 30
0.0
 11
252.61187871953101
 21
237.34576623834229
 31
0.0
  0
LINE
  5
2465
  8
AM_0
 10
252.61187871953101
 20
236.7227662383423
 30
0.0
 11
252.61187871953101
 21
234.75545783261799
 31
0.0
  0
LINE
  5
2466
  8
AM_0
 10
254.57918712525529
 20
237.34576623834229
 30
0.0
 11
252.61187871953101
 21
237.34576623834229
 31
0.0
  0
LINE
  5
2467
  8
AM_0
 10
254.57918712525529
 20
236.7227662383423
 30
0.0
 11
252.61187871953101
 21
236.7227662383423
 31
0.0
  0
LINE
  5
2468
  8
AM_0
 10
254.57918712525529
 20
236.7227662383423
 30
0.0
 11
254.57918712525529
 21
237.34576623834229
 31
0.0
  0
LINE
  5
2469
  8
AM_0
 10
161.30037871952919
 20
247.03426623834221
 30
0.0
 11
160.30037871952919
 21
247.03426623834221
 31
0.0
  0
LINE
  5
246A
  8
AM_0
 10
161.30037871952919
 20
309.0342662383423
 30
0.0
 11
160.30037871952919
 21
309.03426623834218
 31
0.0
  0
LINE
  5
246B
  8
AM_0
 10
160.30037871952919
 20
247.03426623834221
 30
0.0
 11
160.30037871952919
 21
309.03426623834218
 31
0.0
  0
POLYLINE
  5
246C
  8
AM_0
 66
     1
 10
0.0
 20
0.0
 30
0.0
  0
VERTEX
  5
246E
  8
AM_0
 10
154.94005738273381
 20
266.0342662383423
 30
0.0
  0
VERTEX
  5
246F
  8
AM_0
 10
155.0077287195293
 20
264.35487823834222
 30
0.0
 42
-1.0
  0
SEQEND
  5
2470
  8
AM_0
  0
POLYLINE
  5
2471
  8
AM_0
 66
     1
 10
0.0
 20
0.0
 30
0.0
  0
VERTEX
  5
2472
  8
AM_0
 10
154.94005815804209
 20
290.0342662383423
 30
0.0
  0
VERTEX
  5
2473
  8
AM_0
 10
155.0077287195293
 20
291.7136302383422
 30
0.0
 42
-1.0
  0
SEQEND
  5
2474
  8
AM_0
  0
LINE
  5
2475
  8
AM_0
 10
144.3003687195291
 20
266.0342662383423
 30
0.0
 11
144.3003687195291
 21
225.03428023834209
 31
0.0
  0
LINE
  5
2476
  8
AM_0
 10
143.30037871952919
 20
266.0342662383423
 30
0.0
 11
143.30037871952919
 21
226.91103523834229
 31
0.0
  0
LINE
  5
253E
  8
AM_0
 10
557.62119121249043
 20
310.34082901599947
 30
0.0
 11
557.62119121249043
 21
311.53428573834208
 31
0.0
  0
LINE
  5
2541
  8
AM_0
 10
556.62119121249043
 20
311.53428573834208
 30
0.0
 11
557.62119121249043
 21
311.53428573834208
 31
0.0
  0
LINE
  5
25A1
  8
AM_0
 10
518.62119121249009
 20
232.03428573834211
 30
0.0
 11
549.51810870455995
 21
233.1132298720882
 31
0.0
  0
LINE
  5
25A2
  8
AM_0
 10
556.62119121249032
 20
300.8101844658126
 30
0.0
 11
556.62119121249043
 21
320.77591894804158
 31
0.0
  0
LINE
  5
25A4
  8
AM_0
 10
554.69099020589522
 20
322.77470060207992
 30
0.0
 11
518.62119121249043
 21
324.03428573834219
 31
0.0
  0
ARC
  5
25A5
  8
AM_0
 10
554.62119121249054
 20
320.77591894804158
 30
0.0
 40
2.0
 50
0.0
 51
87.999999999999659
1001
GENIUS_GENOBJ-N-FIL_13
1002
{
1000
OWNER
1000
GEN
1002
}
1001
GENIUS_GENODEF_13
1002
{
1000
HIER
1070
     0
1002
}
1002
{
1000
MANEDIT
1070
     0
1002
}
1002
{
1000
NOSEL
1070
     0
1002
}
1002
{
1000
BEHIND
1070
     0
1002
}
1002
{
1000
OTHER
1070
     0
1002
}
1002
{
1000
REACTOR
1002
}
  0
LINE
  5
25A6
  8
AM_0
 10
518.62119121249043
 20
324.03428573834219
 30
0.0
 11
518.62119121249009
 21
232.03428573834191
 31
0.0
  0
LINE
  5
25A7
  8
ﾁｭｳｼﾝｾﾝ1
 10
507.62119121249032
 20
237.03428573834279
 30
0.0
 11
523.44871422502695
 21
237.0342857383425
 31
0.0
  0
LINE
  5
25A9
  8
AM_0
 10
514.62119121249043
 20
324.03428573834219
 30
0.0
 11
514.62119121249043
 21
303.2197808388097
 31
0.0
  0
LINE
  5
25AA
  8
AM_0
 10
514.62119121249032
 20
252.84879063787449
 30
0.0
 11
514.62119121249032
 21
232.0342857383429
 31
0.0
  0
LINE
  5
25AB
  8
AM_0
 10
510.62119121249032
 20
317.89850406918151
 30
0.0
 11
510.62119121249032
 21
238.1700674075025
 31
0.0
  0
LINE
  5
25AC
  8
AM_0
 10
512.56225370036225
 20
240.9416407106491
 30
0.0
 11
513.62119121249032
 21
241.03428573834259
 31
0.0
  0
LINE
  5
25AD
  8
AM_0
 10
512.56225370036225
 20
233.12693076603631
 30
0.0
 11
513.62119121249032
 21
233.0342857383425
 31
0.0
  0
ARC
  5
25AE
  8
AM_0
 10
517.02119121249041
 20
237.0342857383425
 30
0.0
 40
6.5
 50
151.82726586813479
 51
208.1727341318651
  0
ARC
  5
25AF
  8
AM_0
 10
512.70170288875875
 20
234.72084228298289
 30
0.0
 40
1.6000000000000001
 50
208.1727341318651
 51
265.00000000000028
  0
LINE
  5
25B0
  8
AM_0
 10
510.94171755106203
 20
239.3342857383426
 30
0.0
 11
513.23127722985748
 21
237.0342857383425
 31
0.0
  0
LINE
  5
25B1
  8
AM_0
 10
512.92119121249004
 20
237.3457857383427
 30
0.0
 11
512.92119121249004
 21
236.72278573834259
 31
0.0
  0
LINE
  5
25B2
  8
AM_0
 10
510.94171755106203
 20
234.73428573834269
 30
0.0
 11
513.23127722985748
 21
237.0342857383425
 31
0.0
  0
LINE
  5
25B3
  8
AM_0
 10
510.52865952215558
 20
237.3457857383427
 30
0.0
 11
512.92119121249004
 21
237.3457857383427
 31
0.0
  0
LINE
  5
25B4
  8
AM_0
 10
510.52865952215558
 20
236.72278573834259
 30
0.0
 11
512.92119121249004
 21
236.72278573834259
 31
0.0
  0
ARC
  5
25B5
  8
AM_0
 10
512.70170288875875
 20
239.34772919370229
 30
0.0
 40
1.6000000000000001
 50
94.99999999999973
 51
151.82726586813479
  0
LINE
  5
25B6
  8
AM_0
 10
514.62119121249043
 20
324.03428573834219
 30
0.0
 11
518.62119121249043
 21
324.03428573834219
 31
0.0
  0
LINE
  5
25B7
  8
AM_0
 10
513.6211912124902
 20
323.03428573834202
 30
0.0
 11
514.62119121249054
 21
324.03428573834219
 31
0.0
  0
LINE
  5
25B8
  8
AM_0
 10
518.62119121249009
 20
232.03428573834191
 30
0.0
 11
514.62119121249032
 21
232.0342857383429
 31
0.0
  0
LINE
  5
25B9
  8
AM_0N
 10
514.62119121249032
 20
240.83428573834269
 30
0.0
 11
513.62119121249032
 21
240.83428573834269
 31
0.0
  0
LINE
  5
25BA
  8
AM_0N
 10
513.62119121249032
 20
237.23428573834269
 30
0.0
 11
514.62119121249032
 21
237.59825597260891
 31
0.0
  0
LINE
  5
25BB
  8
AM_0N
 10
513.62119121249032
 20
236.83428573834269
 30
0.0
 11
514.62119121249032
 21
237.19825597260891
 31
0.0
  0
LINE
  5
25BC
  8
AM_0N
 10
513.62119121249032
 20
233.0342857383425
 30
0.0
 11
513.62119121249032
 21
241.03428573834259
 31
0.0
  0
LINE
  5
25BD
  8
AM_0N
 10
513.62119121249032
 20
233.23428573834269
 30
0.0
 11
514.62119121249032
 21
233.23428573834269
 31
0.0
  0
LINE
  5
25BE
  8
AM_0
 10
510.62119121249032
 20
252.84879063787429
 30
0.0
 11
514.62119121249032
 21
252.84879063787449
 31
0.0
  0
LINE
  5
25BF
  8
AM_0
 10
514.62119121249032
 20
251.19193638838189
 30
0.0
 11
510.62119121249032
 21
252.84879063787429
 31
0.0
  0
LINE
  5
25C0
  8
AM_0
 10
510.62119121249032
 20
303.2197808388097
 30
0.0
 11
514.62119121249043
 21
303.2197808388097
 31
0.0
  0
LINE
  5
25C1
  8
AM_0
 10
514.62119121249043
 20
304.87663508830218
 30
0.0
 11
510.62119121249032
 21
303.2197808388097
 31
0.0
  0
LINE
  5
25C6
  8
ﾁｭｳｼﾝｾﾝ1
 10
507.62119121249049
 20
319.0342857383414
 30
0.0
 11
523.44871422502695
 21
319.03428573834151
 31
0.0
  0
LINE
  5
25C7
  8
AM_0
 10
512.56225370036225
 20
315.126930766035
 30
0.0
 11
513.62119121249032
 21
315.03428573834151
 31
0.0
  0
LINE
  5
25C8
  8
AM_0
 10
512.56225370036225
 20
322.9416407106479
 30
0.0
 11
513.62119121249032
 21
323.03428573834151
 31
0.0
  0
ARC
  5
25C9
  8
AM_0
 10
517.02119121249041
 20
319.03428573834151
 30
0.0
 40
6.5
 50
151.82726586813479
 51
208.1727341318651
  0
ARC
  5
25CA
  8
AM_0
 10
512.70170288875875
 20
321.34772919370118
 30
0.0
 40
1.6000000000000001
 50
94.999999999999758
 51
151.82726586813479
  0
LINE
  5
25CB
  8
AM_0
 10
510.94171755106203
 20
316.7342857383415
 30
0.0
 11
513.23127722985748
 21
319.03428573834151
 31
0.0
  0
LINE
  5
25CC
  8
AM_0
 10
512.92119121249004
 20
318.72278573834149
 30
0.0
 11
512.92119121249004
 21
319.34578573834148
 31
0.0
  0
LINE
  5
25CD
  8
AM_0
 10
510.94171755106203
 20
321.33428573834152
 30
0.0
 11
513.23127722985748
 21
319.03428573834151
 31
0.0
  0
LINE
  5
25CE
  8
AM_0
 10
510.52865952215558
 20
318.72278573834149
 30
0.0
 11
512.92119121249004
 21
318.72278573834149
 31
0.0
  0
LINE
  5
25CF
  8
AM_0
 10
510.52865952215558
 20
319.34578573834148
 30
0.0
 11
512.92119121249004
 21
319.34578573834148
 31
0.0
  0
ARC
  5
25D0
  8
AM_0
 10
512.70170288875875
 20
316.72084228298178
 30
0.0
 40
1.6000000000000001
 50
208.1727341318651
 51
265.00000000000028
  0
LINE
  5
25D1
  8
AM_0N
 10
514.62119121249032
 20
315.23428573834138
 30
0.0
 11
513.62119121249032
 21
315.23428573834138
 31
0.0
  0
LINE
  5
25D2
  8
AM_0N
 10
513.62119121249032
 20
318.83428573834141
 30
0.0
 11
514.62119121249032
 21
318.4703155040753
 31
0.0
  0
LINE
  5
25D3
  8
AM_0N
 10
513.62119121249032
 20
319.23428573834138
 30
0.0
 11
514.62119121249032
 21
318.87031550407522
 31
0.0
  0
LINE
  5
25D4
  8
AM_0N
 10
513.62119121249032
 20
323.03428573834151
 30
0.0
 11
513.62119121249032
 21
315.03428573834151
 31
0.0
  0
LINE
  5
25D5
  8
AM_0N
 10
513.62119121249032
 20
322.83428573834141
 30
0.0
 11
514.62119121249032
 21
322.83428573834141
 31
0.0
  0
LINE
  5
2A93
  8
ﾁｭｳｼﾝｾﾝ1
 10
166.3003787195272
 20
313.03426623834167
 30
0.0
 11
166.30037871952771
 21
325.0342662383419
 31
0.0
  0
LINE
  5
2A94
  8
ﾁｭｳｼﾝｾﾝ1
 10
172.30037871952749
 20
319.03426623834162
 30
0.0
 11
160.30037871952749
 21
319.0342662383423
 31
0.0
  0
LINE
  5
2A95
  8
ﾁｭｳｼﾝｾﾝ1
 10
166.30037871952709
 20
231.0342662383425
 30
0.0
 11
166.30037871952771
 21
243.0342662383425
 31
0.0
  0
LINE
  5
2A96
  8
ﾁｭｳｼﾝｾﾝ1
 10
172.3003787195274
 20
237.0342662383423
 30
0.0
 11
160.3003787195274
 21
237.03426623834281
 31
0.0
  0
LINE
  5
2A97
  8
ﾁｭｳｼﾝｾﾝ1
 10
252.30037871953061
 20
231.0342662383423
 30
0.0
 11
252.30037871953121
 21
243.0342662383423
 31
0.0
  0
LINE
  5
2A98
  8
ﾁｭｳｼﾝｾﾝ1
 10
258.3003787195309
 20
237.0342662383421
 30
0.0
 11
246.3003787195309
 21
237.03426623834281
 31
0.0
  0
LINE
  5
3274
  8
ﾁｭｳｼﾝｾﾝ
 10
577.16548846919386
 20
298.03428673834208
 30
0.0
 11
674.07689395578711
 21
298.03428673834208
 31
0.0
  0
LINE
  5
327B
  8
ﾁｭｳｼﾝｾﾝ
 10
420.27638575591573
 20
298.03428673834208
 30
0.0
 11
289.39965268999782
 21
298.03428673834208
 31
0.0
  0
LINE
  5
327C
  8
ﾁｭｳｼﾝｾﾝ
 10
625.62119121249043
 20
353.0998590824442
 30
0.0
 11
625.62119121249043
 21
198.80001373834199
 31
0.0
  0
LINE
  5
327E
  8
AM_0
 10
568.06336221249035
 20
317.05418173834209
 30
0.0
 11
572.64376221249051
 21
320.56889173834207
 31
0.0
  0
LINE
  5
327F
  8
AM_0
 10
572.64376221249051
 20
320.56886173834198
 30
0.0
 11
571.8901622124904
 21
326.29298173834212
 31
0.0
  0
LINE
  5
3280
  8
AM_0
 10
571.8901622124904
 20
326.29295173834208
 30
0.0
 11
566.55616221249034
 21
328.50239173834211
 31
0.0
  0
LINE
  5
3281
  8
AM_0
 10
566.5561922124906
 20
328.50239173834211
 30
0.0
 11
561.97573221249036
 21
324.987711738342
 31
0.0
  0
LINE
  5
3282
  8
AM_0
 10
561.97573221249036
 20
324.987711738342
 30
0.0
 11
562.72930221249067
 21
319.26359173834197
 31
0.0
  0
LINE
  5
3283
  8
AM_0
 10
562.72930221249067
 20
319.26359173834197
 30
0.0
 11
568.06333221249065
 21
317.05415173834211
 31
0.0
  0
LINE
  5
3284
  8
AM_0
 10
678.59866821249045
 20
320.56877173834198
 30
0.0
 11
683.17909821249043
 21
317.05409173834198
 31
0.0
  0
LINE
  5
3285
  8
AM_0
 10
679.35224121249041
 20
326.29289173834212
 30
0.0
 11
678.59863821249041
 21
320.56877173834198
 31
0.0
  0
LINE
  5
3286
  8
AM_0
 10
684.68628621249024
 20
328.50233173834198
 30
0.0
 11
679.35225621249037
 21
326.29292173834199
 31
0.0
  0
LINE
  5
3287
  8
AM_0
 10
689.26671621249045
 20
324.98762173834211
 30
0.0
 11
684.68628621249024
 21
328.50230173834211
 31
0.0
  0
LINE
  5
3288
  8
AM_0
 10
683.17909821249043
 20
317.05412173834202
 30
0.0
 11
688.51312821249041
 21
319.26353173834201
 31
0.0
  0
LINE
  5
3289
  8
AM_0
 10
649.16802021249043
 20
213.6438427383421
 30
0.0
 11
648.41443521249039
 21
207.9197347383421
 31
0.0
  0
LINE
  5
328A
  8
AM_0
 10
648.41445021249035
 20
207.91971973834211
 30
0.0
 11
652.99487721249034
 21
204.4050427383421
 31
0.0
  0
LINE
  5
328B
  8
AM_0
 10
654.50208021249045
 20
215.853267738342
 30
0.0
 11
649.16805021249036
 21
213.6438427383421
 31
0.0
  0
LINE
  5
328C
  8
AM_0
 10
659.08249521249024
 20
212.3385577383421
 30
0.0
 11
654.50206521249049
 21
215.85325273834209
 31
0.0
  0
LINE
  5
328D
  8
AM_0
 10
652.99487721249034
 20
204.40505773834201
 30
0.0
 11
658.32890721249044
 21
206.6144827383421
 31
0.0
  0
LINE
  5
328E
  8
AM_0
 10
658.3288772124904
 20
206.61446773834211
 30
0.0
 11
659.08248021249051
 21
212.33857573834209
 31
0.0
  0
LINE
  5
328F
  8
AM_0
 10
602.82794721249081
 20
207.91974973834209
 30
0.0
 11
602.07434421249047
 21
213.64385773834201
 31
0.0
  0
LINE
  5
3290
  8
AM_0
 10
598.24750221249042
 20
204.40505773834201
 30
0.0
 11
602.82794721249081
 21
207.9197347383421
 31
0.0
  0
LINE
  5
3291
  8
AM_0
 10
602.07437421249051
 20
213.64382773834211
 30
0.0
 11
596.74035921249026
 21
215.85325273834209
 31
0.0
  0
LINE
  5
3292
  8
AM_0
 10
596.74032921249045
 20
215.853267738342
 30
0.0
 11
592.15991421249043
 21
212.33857573834209
 31
0.0
  0
LINE
  5
3293
  8
AM_0
 10
592.91351721249043
 20
206.61445273834201
 30
0.0
 11
598.24753221249046
 21
204.40502473834201
 31
0.0
  0
LINE
  5
3294
  8
AM_0
 10
592.1598842124904
 20
212.33859073834199
 30
0.0
 11
592.91348721249051
 21
206.6144827383421
 31
0.0
  0
LINE
  5
32A0
  8
AM_0
 10
318.30033871952912
 20
328.55180173834208
 30
0.0
 11
321.30033871952912
 21
328.55180173834208
 31
0.0
  0
LINE
  5
32A1
  8
AM_0
 10
318.30033871952912
 20
317.00477173834207
 30
0.0
 11
321.30033871952912
 21
317.00477173834207
 31
0.0
  0
LINE
  5
32A2
  8
AM_0
 10
318.30033871952912
 20
319.89152173834219
 30
0.0
 11
321.30033871952912
 21
319.89152173834219
 31
0.0
  0
LINE
  5
32A3
  8
AM_0
 10
318.30033871952912
 20
325.66502173834198
 30
0.0
 11
321.30033871952912
 21
325.66502173834198
 31
0.0
  0
LINE
  5
32A4
  8
AM_0
 10
322.30032871952892
 20
318.004731738342
 30
0.0
 11
322.30032871952892
 21
327.55178173834207
 31
0.0
  0
LINE
  5
32A5
  8
AM_0
 10
318.30033871952912
 20
329.5517917383421
 30
0.0
 11
318.30033871952912
 21
316.00478173834222
 31
0.0
  0
LINE
  5
32A6
  8
AM_0
 10
689.26665321249038
 20
324.98768173834208
 30
0.0
 11
688.51306821249057
 21
319.26359173834197
 31
0.0
  0
LINE
  5
32A7
  8
AM_0
 10
317.30040871952878
 20
329.5517917383421
 30
0.0
 11
318.30033871952912
 21
329.5517917383421
 31
0.0
  0
LINE
  5
32A8
  8
AM_0
 10
317.30040871952878
 20
316.00478173834222
 30
0.0
 11
318.30033871952912
 21
316.00478173834222
 31
0.0
  0
LINE
  5
32A9
  8
AM_0
 10
294.30033871952912
 20
327.70145173834197
 30
0.0
 11
294.30033871952912
 21
308.06234173834201
 31
0.0
  0
LINE
  5
32AA
  8
ﾁｭｳｼﾝｾﾝ
 10
126.90393858048169
 20
278.03428573834208
 30
0.0
 11
303.72628845075178
 21
278.03428573834208
 31
0.0
  0
LINE
  5
32AB
  8
AM_0
 10
268.30032871952892
 20
334.03430173834198
 30
0.0
 11
294.43125871952918
 21
334.71854173834208
 31
0.0
  0
LINE
  5
32AC
  8
AM_0
 10
268.30038871952911
 20
222.03429973834201
 30
0.0
 11
291.37887871952893
 21
221.42995873834209
 31
0.0
  0
LINE
  5
32AD
  8
AM_0
 10
268.30038871952911
 20
222.034284738342
 30
0.0
 11
268.30038871952911
 21
334.03430173834198
 31
0.0
  0
LINE
  5
32AE
  8
AM_0
 10
301.30038871952911
 20
349.03430173834198
 30
0.0
 11
306.30033871952912
 21
349.03430173834198
 31
0.0
  0
LINE
  5
32AF
  8
AM_0
 10
299.30040871952878
 20
347.03429173834212
 30
0.0
 11
299.30040871952878
 21
331.70144173834211
 31
0.0
  0
LINE
  5
32B1
  8
AM_0
 10
703.62119121249043
 20
215.0342977383421
 30
0.0
 11
692.85277521249043
 21
317.66447173834212
 31
0.0
  0
LINE
  5
32B2
  8
AM_0
 10
671.62120521249039
 20
206.03429773834199
 30
0.0
 11
667.62119121249043
 21
206.03429773834199
 31
0.0
  0
LINE
  5
32B3
  8
AM_0
 10
672.62119221249066
 20
204.03431473834209
 30
0.0
 11
578.62123221249044
 21
204.03431473834209
 31
0.0
  0
LINE
  5
32B4
  8
AM_0
 10
583.62118821249044
 20
206.03429773834199
 30
0.0
 11
579.62118921249044
 21
206.03429773834199
 31
0.0
  0
LINE
  5
32B5
  8
AM_0
 10
664.62119121249043
 20
215.0342977383421
 30
0.0
 11
664.62119121249043
 21
209.0342977383421
 31
0.0
  0
LINE
  5
32B6
  8
AM_0
 10
673.62119121249043
 20
203.03429773834199
 30
0.0
 11
673.62119121249043
 21
213.03431473834209
 31
0.0
  0
LINE
  5
32B7
  8
ﾁｭｳｼﾝｾﾝ1
 10
560.62120221249052
 20
219.57975373834211
 30
0.0
 11
560.62120221249052
 21
198.48884173834199
 31
0.0
  0
LINE
  5
32B8
  8
ﾁｭｳｼﾝｾﾝ1
 10
690.6212072124905
 20
219.57975373834211
 30
0.0
 11
690.6212072124905
 21
198.48884173834199
 31
0.0
  0
LINE
  5
32B9
  8
AM_0
 10
591.62118921249044
 20
220.0342987383421
 30
0.0
 11
659.62120521249028
 21
220.0342987383421
 31
0.0
  0
LINE
  5
32BA
  8
ﾁｭｳｼﾝｾﾝ1
 10
359.30037871952902
 20
219.57975373834211
 30
0.0
 11
359.30037871952891
 21
199.60138109217769
 31
0.0
  0
LINE
  5
32BB
  8
AM_0
 10
277.30038871952911
 20
203.03429773834199
 30
0.0
 11
302.30040871952889
 21
203.03429773834199
 31
0.0
  0
LINE
  5
32BC
  8
AM_0
 10
279.30033871952912
 20
215.0342977383421
 30
0.0
 11
298.24974871952912
 21
215.0342977383421
 31
0.0
  0
LINE
  5
32BD
  8
AM_0
 10
346.30035871952919
 20
203.03429773834199
 30
0.0
 11
371.30037871952891
 21
203.03429773834199
 31
0.0
  0
LINE
  5
32BE
  8
ﾁｭｳｼﾝｾﾝ1
 10
289.30038871952911
 20
219.57975373834199
 30
0.0
 11
289.30038871952911
 21
199.60138109217769
 31
0.0
  0
LINE
  5
32BF
  8
AM_0
 10
306.30033871952912
 20
349.03430173834198
 30
0.0
 11
306.30033871952912
 21
233.8914457383421
 31
0.0
  0
LINE
  5
32C0
  8
AM_0
 10
306.30039871952908
 20
349.03430173834198
 30
0.0
 11
350.43126871952887
 21
347.87867173834201
 31
0.0
  0
LINE
  5
32C1
  8
AM_0
 10
359.86458871952902
 20
331.77233173834207
 30
0.0
 11
365.56185871952903
 21
331.27388173834208
 31
0.0
  0
LINE
  5
32C2
  8
AM_0
 10
368.30037871952891
 20
328.28528173834212
 30
0.0
 11
368.30037871952891
 21
218.77885273834201
 31
0.0
  0
LINE
  5
32C3
  8
AM_0
 10
277.30038871952911
 20
213.034284738342
 30
0.0
 11
277.30038871952911
 21
203.03429773834199
 31
0.0
  0
LINE
  5
32C4
  8
AM_0
 10
303.30033871952912
 20
204.034284738342
 30
0.0
 11
345.30033871952912
 21
204.034284738342
 31
0.0
  0
LINE
  5
32C5
  8
AM_0
 10
371.30037871952891
 20
213.034284738342
 30
0.0
 11
371.30037871952891
 21
203.03429773834199
 31
0.0
  0
LINE
  5
32C6
  8
AM_0
 10
309.30033871952912
 20
218.03429773834199
 30
0.0
 11
309.30033871952912
 21
248.03430073834201
 31
0.0
  0
LINE
  5
32C7
  8
ｶｸﾚｾﾝ2
 10
295.30038871952911
 20
215.0342977383421
 30
0.0
 11
295.30038871952911
 21
203.03429773834199
 31
0.0
  0
LINE
  5
32C8
  8
ｶｸﾚｾﾝ2
 10
283.30038871952911
 20
215.0342977383421
 30
0.0
 11
283.30038871952911
 21
203.03429773834199
 31
0.0
  0
LINE
  5
32C9
  8
ｶｸﾚｾﾝ2
 10
566.62123221249044
 20
215.0342977383421
 30
0.0
 11
566.62123221249044
 21
203.03429773834199
 31
0.0
  0
LINE
  5
32CA
  8
ｶｸﾚｾﾝ2
 10
554.62123221249044
 20
215.0342977383421
 30
0.0
 11
554.62123221249044
 21
203.03429773834199
 31
0.0
  0
LINE
  5
32CB
  8
AM_0
 10
547.62118221249045
 20
203.03429773834199
 30
0.0
 11
547.62118221249045
 21
215.0342977383421
 31
0.0
  0
LINE
  5
32CC
  8
AM_0
 10
547.62118221249045
 20
203.03429773834199
 30
0.0
 11
577.62118221249045
 21
203.03429773834199
 31
0.0
  0
LINE
  5
32CD
  8
AM_0
 10
575.62123221249044
 20
215.0342977383421
 30
0.0
 11
549.62119221249031
 21
215.0342977383421
 31
0.0
  0
LINE
  5
32CE
  8
AM_0
 10
309.30033871952912
 20
285.25056373834201
 30
0.0
 11
309.30033871952912
 21
248.5587607383421
 31
0.0
  0
LINE
  5
32CF
  8
AM_0
 10
347.30037871952891
 20
215.0342977383421
 30
0.0
 11
369.30033871952912
 21
215.0342977383421
 31
0.0
  0
LINE
  5
32D0
  8
AM_0
 10
298.24974871952912
 20
215.0342977383421
 30
0.0
 11
306.30033871952912
 21
215.0342977383421
 31
0.0
  0
LINE
  5
32D1
  8
ｶｸﾚｾﾝ2
 10
365.30037871952891
 20
215.0342977383421
 30
0.0
 11
365.30037871952891
 21
203.03429773834199
 31
0.0
  0
LINE
  5
32D2
  8
ｶｸﾚｾﾝ2
 10
684.62119221249066
 20
215.0342977383421
 30
0.0
 11
684.62119221249066
 21
203.03429773834199
 31
0.0
  0
LINE
  5
32D3
  8
AM_0
 10
320.30040871952878
 20
329.56175173834202
 30
0.0
 11
355.30035871952919
 21
329.56175173834202
 31
0.0
  0
LINE
  5
32D4
  8
ｶｸﾚｾﾝ2
 10
353.30037871952891
 20
215.0342977383421
 30
0.0
 11
353.30037871952891
 21
203.03429773834199
 31
0.0
  0
LINE
  5
32D5
  8
AM_0
 10
302.30040871952889
 20
203.03429773834199
 30
0.0
 11
302.30040871952889
 21
203.03429773834199
 31
0.0
  0
LINE
  5
32D6
  8
AM_0
 10
342.30033871952912
 20
307.82510173834208
 30
0.0
 11
342.30033871952912
 21
220.0342987383421
 31
0.0
  0
LINE
  5
32D7
  8
AM_0
 10
547.62118221249045
 20
215.0342977383421
 30
0.0
 11
558.38962221249039
 21
317.66447173834212
 31
0.0
  0
LINE
  5
32D8
  8
AM_0
 10
355.30035871952919
 20
342.88040173834202
 30
0.0
 11
355.30035871952919
 21
234.075102738342
 31
0.0
  0
LINE
  5
32D9
  8
ｶｸﾚｾﾝ2
 10
696.62120721249039
 20
215.0342977383421
 30
0.0
 11
696.62120721249039
 21
203.03429773834199
 31
0.0
  0
LINE
  5
32DA
  8
AM_0
 10
703.62119121249043
 20
203.03429773834199
 30
0.0
 11
673.62119121249043
 21
203.03429773834199
 31
0.0
  0
LINE
  5
32DB
  8
AM_0
 10
675.62119221249066
 20
215.0342977383421
 30
0.0
 11
701.6212082124905
 21
215.0342977383421
 31
0.0
  0
LINE
  5
32DC
  8
AM_0
 10
342.30033871952912
 20
230.07511573834199
 30
0.0
 11
351.30033871952912
 21
230.07511573834199
 31
0.0
  0
LINE
  5
32DD
  8
AM_0
 10
586.62118821249044
 20
215.0342977383421
 30
0.0
 11
586.62118821249044
 21
209.0342977383421
 31
0.0
  0
LINE
  5
32DE
  8
AM_0
 10
577.62118221249045
 20
203.03429773834199
 30
0.0
 11
577.62118221249045
 21
213.03431473834209
 31
0.0
  0
LINE
  5
32DF
  8
AM_0
 10
678.62119221249066
 20
313.2868417383421
 30
0.0
 11
678.62119221249066
 21
252.034284738342
 31
0.0
  0
LINE
  5
32E0
  8
AM_0
 10
703.62119121249043
 20
203.03429773834199
 30
0.0
 11
703.62119121249043
 21
215.0342977383421
 31
0.0
  0
LINE
  5
32E1
  8
AM_0
 10
350.30037871952891
 20
315.82508173834202
 30
0.0
 11
355.30035871952919
 21
315.82508173834202
 31
0.0
  0
LINE
  5
32E2
  8
AM_0
 10
572.62123221249044
 20
313.2868417383421
 30
0.0
 11
572.62123221249044
 21
252.034284738342
 31
0.0
  0
LINE
  5
32E3
  8
AM_0
 10
577.62118221249045
 20
283.03428673834208
 30
0.0
 11
577.62118221249045
 21
220.0342987383421
 31
0.0
  0
LINE
  5
32E4
  8
AM_0
 10
673.62119121249043
 20
283.03428673834208
 30
0.0
 11
673.62119121249043
 21
220.0342987383421
 31
0.0
  0
LINE
  5
32E5
  8
AM_0
 10
346.30035871952919
 20
203.03429773834199
 30
0.0
 11
346.30035871952919
 21
203.03429773834199
 31
0.0
  0
LINE
  5
32E6
  8
AM_0
 10
303.14091871952883
 20
218.9967787383421
 30
0.0
 11
309.19149871952908
 21
247.52123773834199
 31
0.0
  0
LINE
  5
32E7
  8
AM_0
 10
317.30040871952878
 20
334.56107173834198
 30
0.0
 11
317.30040871952878
 21
311.65904173834213
 31
0.0
  0
LINE
  5
32EA
  8
AM_0
 10
320.30040871952878
 20
348.58913173834208
 30
0.0
 11
320.30040871952878
 21
329.56175173834202
 31
0.0
  0
LINE
  5
32EB
  8
AM_0
 10
320.30034871952893
 20
348.58913173834208
 30
0.0
 11
333.88230871952908
 21
329.56175173834202
 31
0.0
  0
LINE
  5
32EC
  8
AM_0
 10
320.30040871952878
 20
311.38301173834208
 30
0.0
 11
320.30040871952878
 21
285.25056373834201
 31
0.0
  0
LINE
  5
32ED
  8
AM_0
 10
333.12999871952911
 20
311.38301173834208
 30
0.0
 11
320.30034871952893
 21
285.25056373834201
 31
0.0
  0
LINE
  5
32EE
  8
AM_0
 10
309.30033871952912
 20
285.25056373834201
 30
0.0
 11
320.30040871952878
 21
285.25056373834201
 31
0.0
  0
LINE
  5
32EF
  8
AM_0
 10
320.30040871952878
 20
311.38301173834208
 30
0.0
 11
343.13508871952888
 21
311.38301173834208
 31
0.0
  0
LINE
  5
32F0
  8
AM_0
 10
296.30040871952878
 20
329.70143173834202
 30
0.0
 11
297.30033871952912
 21
329.70143173834202
 31
0.0
  0
LINE
  5
32F1
  8
AM_0
 10
294.30033871952912
 20
228.8185567383421
 30
0.0
 11
299.30040871952878
 21
228.8185567383421
 31
0.0
  0
LINE
  5
32F2
  8
AM_0
 10
294.30033871952912
 20
306.0623317383421
 30
0.0
 11
299.30040871952878
 21
306.0623317383421
 31
0.0
  0
LINE
  5
32F3
  8
AM_0
 10
296.30040871952878
 20
321.52865173834221
 30
0.0
 11
297.30033871952912
 21
321.52865173834221
 31
0.0
  0
LINE
  5
32F4
  8
AM_0
 10
299.30040871952878
 20
319.52864173834212
 30
0.0
 11
299.30040871952878
 21
215.164212738342
 31
0.0
  0
LINE
  5
32F5
  8
AM_0
 10
294.30033871952912
 20
226.81854073834211
 30
0.0
 11
294.30033871952912
 21
215.0342977383421
 31
0.0
  0
LINE
  5
32F6
  8
AM_0
 10
268.30038871952911
 20
324.03428173834209
 30
0.0
 11
294.30033871952912
 21
324.03428173834209
 31
0.0
  0
LINE
  5
32F7
  8
AM_0
 10
268.30038871952911
 20
309.97130173834199
 30
0.0
 11
294.30033871952912
 21
309.97130173834199
 31
0.0
  0
LINE
  5
32F8
  8
AM_0
 10
268.30038871952911
 20
246.0972727383421
 30
0.0
 11
299.30040871952878
 21
246.0972727383421
 31
0.0
  0
LINE
  5
32F9
  8
AM_0
 10
268.30038871952911
 20
232.0342987383421
 30
0.0
 11
299.30040871952878
 21
232.0342987383421
 31
0.0
  0
LINE
  5
3314
  8
ﾁｭｳｼﾝｾﾝ
 10
699.79558131041961
 20
278.03428573834208
 30
0.0
 11
507.60645106913751
 21
278.03428573834208
 31
0.0
  0
CIRCLE
  5
33C9
  8
AM_0
 10
567.3097322124903
 20
322.77827173834208
 30
0.0
 40
4.9999998000000003
  0
CIRCLE
  5
33CA
  8
AM_0
 10
683.93266821249051
 20
322.77821173834212
 30
0.0
 40
4.9999998000000003
  0
CIRCLE
  5
33CB
  8
AM_0
 10
653.74843221249046
 20
210.1291627383421
 30
0.0
 40
4.9999998000000003
  0
CIRCLE
  5
33CC
  8
AM_0
 10
597.49389921249042
 20
210.1291627383421
 30
0.0
 40
4.9999998000000003
  0
ARC
  5
33CF
  8
AM_0
 10
321.30033871952912
 20
320.89148173834201
 30
0.0
 40
1.0000000199999981
 50
270.0
 51
0.0
  0
ARC
  5
33D0
  8
AM_0
 10
321.30033871952912
 20
324.66503173834212
 30
0.0
 40
1.0000000199999981
 50
0.0
 51
90.00000299999769
  0
ARC
  5
33D1
  8
AM_0
 10
321.30033871952912
 20
326.66501173834212
 30
0.0
 40
1.0000000199999981
 50
270.0
 51
0.0
  0
ARC
  5
33D2
  8
AM_0
 10
321.30033871952912
 20
318.89153173834211
 30
0.0
 40
1.0000000199999981
 50
0.0
 51
90.00000299999769
  0
ARC
  5
33D3
  8
AM_0
 10
321.30033871952912
 20
318.004731738342
 30
0.0
 40
1.0000000199999981
 50
270.0
 51
0.0
  0
ARC
  5
33D4
  8
AM_0
 10
321.30033871952912
 20
327.55178173834207
 30
0.0
 40
1.0000000199999981
 50
0.0
 51
90.00000299999769
  0
ARC
  5
33D9
  8
AM_0
 10
294.30033871952912
 20
339.716841738342
 30
0.0
 40
5.0000001000000003
 50
271.50000000000267
 51
0.0
  0
ARC
  5
33DA
  8
AM_0
 10
301.30038871952911
 20
347.03429173834212
 30
0.0
 40
2.00000007
 50
90.00000299999769
 51
180.00001000000091
  0
ARC
  5
33DB
  8
AM_0
 10
291.30033871952912
 20
218.43098173834201
 30
0.0
 40
3.0
 50
0.0
 51
88.499997000000647
  0
ARC
  5
33DC
  8
AM_0
 10
686.20932621249051
 20
308.90627173834213
 30
0.0
 40
3.0
 50
27.00057300000061
 51
84.294261000001953
  0
ARC
  5
33DD
  8
AM_0
 10
365.30037871952891
 20
328.28528173834212
 30
0.0
 40
3.0
 50
0.0
 51
84.999996999998885
  0
ARC
  5
33DE
  8
AM_0
 10
360.30033871952912
 20
336.753291738342
 30
0.0
 40
5.0000001000000003
 50
179.999989999999
 51
265.0
  0
ARC
  5
33DF
  8
AM_0
 10
565.03306221249045
 20
308.90627173834213
 30
0.0
 40
3.0
 50
95.705737999999187
 51
152.99941999999919
  0
ARC
  5
33E0
  8
AM_0
 10
572.62123221249044
 20
220.0342987383421
 30
0.0
 40
5.0000001000000003
 50
270.0
 51
0.0
  0
ARC
  5
33E1
  8
AM_0
 10
577.62118221249045
 20
313.2868417383421
 30
0.0
 40
5.0000001000000003
 50
138.71941000000029
 51
180.00001000000091
  0
ARC
  5
33E2
  8
AM_0
 10
580.11975321249042
 20
328.56764173834222
 30
0.0
 40
3.0
 50
132.0006499999993
 51
189.2943400000016
  0
ARC
  5
33E3
  8
AM_0
 10
673.62119121249043
 20
313.2868417383421
 30
0.0
 40
5.0000001000000003
 50
0.0
 51
41.280591000000221
  0
ARC
  5
33E4
  8
AM_0
 10
672.62119221249066
 20
203.03429773834199
 30
0.0
 40
1.0000000199999981
 50
0.0
 51
90.00000299999769
  0
ARC
  5
33E5
  8
AM_0
 10
578.62123221249044
 20
203.03429773834199
 30
0.0
 40
1.0000000199999981
 50
90.00000299999769
 51
180.00001000000091
  0
ARC
  5
33E6
  8
AM_0
 10
583.62118821249044
 20
209.0342977383421
 30
0.0
 40
3.0
 50
270.0
 51
0.0
  0
ARC
  5
33E7
  8
AM_0
 10
579.62118921249044
 20
204.03431473834209
 30
0.0
 40
2.00000007
 50
90.00000299999769
 51
180.00001000000091
  0
ARC
  5
33E8
  8
AM_0
 10
670.68843621249027
 20
333.8707117383421
 30
0.0
 40
5.0000001000000003
 50
334.93703000000249
 51
64.582444000001288
  0
ARC
  5
33E9
  8
AM_0
 10
318.30033871952912
 20
334.56107173834198
 30
0.0
 40
1.0000000199999981
 50
90.00000299999769
 51
180.00001000000091
  0
ARC
  5
33EA
  8
AM_0
 10
345.30033871952912
 20
203.03429773834199
 30
0.0
 40
1.0000000199999981
 50
0.0
 51
90.00000299999769
  0
ARC
  5
33EB
  8
AM_0
 10
304.30038871952911
 20
248.5587607383421
 30
0.0
 40
5.0000001000000003
 50
348.0238700000001
 51
0.0
  0
ARC
  5
33ED
  8
AM_0
 10
625.62119121249043
 20
278.03428573834208
 30
0.0
 40
71.000000999999983
 50
5.9898141999996781
 51
27.00057300000061
  0
ARC
  5
33EE
  8
AM_0
 10
549.62119221249031
 20
213.03431473834209
 30
0.0
 40
2.00000007
 50
90.00000299999769
 51
180.00001000000091
  0
ARC
  5
33EF
  8
AM_0
 10
306.30033871952912
 20
218.03429773834199
 30
0.0
 40
3.0
 50
270.0
 51
0.0
  0
ARC
  5
33F0
  8
AM_0
 10
625.62119121249043
 20
283.03428673834208
 30
0.0
 40
48.0
 50
0.0
 51
77.663515021264985
  0
ARC
  5
33F1
  8
AM_0
 10
351.30033871952912
 20
234.075102738342
 30
0.0
 40
4.0000001999999979
 50
270.0
 51
0.0
  0
ARC
  5
33F2
  8
AM_0
 10
563.34292221249029
 20
325.82204173834202
 30
0.0
 40
13.9999986
 50
266.80063999999879
 51
25.062969000000368
  0
ARC
  5
33F3
  8
AM_0
 10
678.62119221249066
 20
220.0342987383421
 30
0.0
 40
5.0000001000000003
 50
179.999989999999
 51
270.0
  0
ARC
  5
33F4
  8
AM_0
 10
667.62119121249043
 20
209.0342977383421
 30
0.0
 40
3.0
 50
179.999989999999
 51
270.0
  0
ARC
  5
33F5
  8
AM_0
 10
350.30037871952891
 20
342.88040173834202
 30
0.0
 40
5.0000001000000003
 50
0.0
 51
88.499997000000647
  0
ARC
  5
33F6
  8
AM_0
 10
373.30035871952919
 20
218.77885273834201
 30
0.0
 40
5.0000001000000003
 50
179.999989999999
 51
235.15011000000041
  0
ARC
  5
33F7
  8
AM_0
 10
369.30033871952912
 20
213.034284738342
 30
0.0
 40
2.00000007
 50
0.0
 51
90.00000299999769
  0
ARC
  5
33F8
  8
AM_0
 10
279.30033871952912
 20
213.034284738342
 30
0.0
 40
2.00000007
 50
90.00000299999769
 51
180.00001000000091
  0
ARC
  5
33F9
  8
AM_0
 10
303.30033871952912
 20
203.03429773834199
 30
0.0
 40
1.0000000199999981
 50
90.00000299999769
 51
180.00001000000091
  0
ARC
  5
33FA
  8
AM_0
 10
575.62123221249044
 20
213.03431473834209
 30
0.0
 40
2.00000007
 50
0.0
 51
90.00000299999769
  0
ARC
  5
33FB
  8
AM_0
 10
687.89946621249021
 20
325.82204173834202
 30
0.0
 40
13.9999986
 50
154.9370400000038
 51
273.19937000000078
  0
ARC
  5
33FC
  8
AM_0
 10
347.30037871952891
 20
220.0342987383421
 30
0.0
 40
5.0000001000000003
 50
180.00001000000091
 51
270.0
  0
ARC
  5
33FE
  8
AM_0
 10
701.6212082124905
 20
213.03431473834209
 30
0.0
 40
2.00000007
 50
0.0
 51
90.00000299999769
  0
ARC
  5
33FF
  8
AM_0
 10
591.62118921249044
 20
215.0342977383421
 30
0.0
 40
5.0000001000000003
 50
90.00000299999769
 51
180.00001000000091
  0
ARC
  5
3400
  8
AM_0
 10
625.62119121249043
 20
278.03428573834208
 30
0.0
 40
71.000000999999983
 50
47.999359000001277
 51
132.0006499999993
  0
ARC
  5
3401
  8
AM_0
 10
675.62119221249066
 20
213.03431473834209
 30
0.0
 40
2.00000007
 50
90.00000299999769
 51
180.00001000000091
  0
ARC
  5
3402
  8
AM_0
 10
659.62120521249028
 20
215.0342977383421
 30
0.0
 40
5.0000001000000003
 50
0.0
 51
90.00000299999769
  0
ARC
  5
3403
  8
AM_0
 10
625.62119121249043
 20
278.03428573834208
 30
0.0
 40
71.000000999999983
 50
152.99941999999919
 51
174.01019000000019
  0
ARC
  5
3404
  8
AM_0
 10
350.30037871952891
 20
307.82510173834208
 30
0.0
 40
8.0000000999999976
 50
90.00000299999769
 51
180.00001000000091
  0
ARC
  5
3405
  8
AM_0
 10
298.24974871952912
 20
220.0342987383421
 30
0.0
 40
5.0000001000000003
 50
270.0
 51
348.0238700000001
  0
ARC
  5
3406
  8
AM_0
 10
606.62118921249044
 20
252.034284738342
 30
0.0
 40
34.000002000000002
 50
179.999989999999
 51
211.4669699999979
  0
ARC
  5
3407
  8
AM_0
 10
688.95986121249018
 20
306.85163173834218
 30
0.0
 40
5.0000001000000003
 50
5.9898155000032931
 51
93.199358999997614
  0
ARC
  5
3408
  8
AM_0
 10
671.62120521249039
 20
204.03431473834209
 30
0.0
 40
2.00000007
 50
0.0
 51
90.00000299999769
  0
ARC
  5
3409
  8
AM_0
 10
644.62120521249051
 20
252.034284738342
 30
0.0
 40
34.000002000000002
 50
328.53301999999962
 51
0.0
  0
ARC
  5
340B
  8
AM_0
 10
370.30035871952919
 20
327.42104173834201
 30
0.0
 40
2.00000007
 50
179.999989999999
 51
240.00000999999969
  0
ARC
  5
340C
  8
AM_0
 10
370.30035871952919
 20
268.64753473834207
 30
0.0
 40
2.00000007
 50
120.0000000000005
 51
180.00001000000091
  0
ARC
  5
340E
  8
AM_0
 10
578.28043221249038
 20
315.577431738342
 30
0.0
 40
20.000000700000001
 50
121.73616999999869
 51
174.01019000000019
  0
ARC
  5
340F
  8
AM_0
 10
672.96196521249044
 20
315.577431738342
 30
0.0
 40
20.000000700000001
 50
5.9898155000032931
 51
58.263836000000381
  0
ARC
  5
3410
  8
AM_0
 10
580.55395821249044
 20
333.8707117383421
 30
0.0
 40
5.0000001000000003
 50
115.41755999999791
 51
205.06296999999751
  0
ARC
  5
3411
  8
AM_0
 10
625.62119121249043
 20
239.0343007383421
 30
0.0
 40
110.000004
 50
58.263836000000381
 51
121.73616999999869
  0
ARC
  5
3412
  8
AM_0
 10
671.12265621249026
 20
328.56764173834222
 30
0.0
 40
3.0
 50
350.70566999999772
 51
47.999359000001277
  0
ARC
  5
3413
  8
AM_0
 10
562.28254221249017
 20
306.85163173834218
 30
0.0
 40
5.0000001000000003
 50
86.800639000002093
 51
174.01019000000019
  0
ARC
  5
3414
  8
AM_0
 10
318.30033871952912
 20
311.65904173834213
 30
0.0
 40
1.0000000199999981
 50
179.999989999999
 51
270.0
  0
ARC
  5
3415
  8
AM_0
 10
318.30033871952912
 20
308.65904173834213
 30
0.0
 40
2.00000007
 50
0.0
 51
90.00000299999769
  0
ARC
  5
3416
  8
AM_0
 10
318.30033871952912
 20
337.56107173834198
 30
0.0
 40
2.00000007
 50
270.0
 51
0.0
  0
ARC
  5
3417
  8
AM_0
 10
296.30040871952878
 20
327.70145173834197
 30
0.0
 40
2.00000007
 50
90.00000299999769
 51
180.00001000000091
  0
ARC
  5
3418
  8
AM_0
 10
297.30033871952912
 20
331.70144173834211
 30
0.0
 40
2.00000007
 50
270.0
 51
0.0
  0
ARC
  5
3419
  8
AM_0
 10
296.30040871952878
 20
323.52863173834203
 30
0.0
 40
2.00000007
 50
179.999989999999
 51
270.0
  0
ARC
  5
341A
  8
AM_0
 10
297.30033871952912
 20
319.52864173834212
 30
0.0
 40
2.00000007
 50
0.0
 51
90.00000299999769
  0
ARC
  5
341B
  8
AM_0
 10
292.30038871952911
 20
308.06234173834201
 30
0.0
 40
2.00000007
 50
270.0
 51
0.0
  0
ARC
  5
341C
  8
AM_0
 10
292.30038871952911
 20
226.81854073834211
 30
0.0
 40
2.00000007
 50
0.0
 51
90.00000299999769
  0
LINE
  5
3917
  8
AM_0
 10
374.30032871952881
 20
331.53428373834208
 30
0.0
 11
379.30032871952881
 21
326.5342837383422
 31
0.0
  0
LINE
  5
3918
  8
AM_0
 10
369.80032871952892
 20
331.53428373834208
 30
0.0
 11
374.30032871952892
 21
331.53428373834208
 31
0.0
  0
LINE
  5
3919
  8
AM_0
 10
369.30032871952892
 20
331.03428373834208
 30
0.0
 11
369.30032871952841
 21
265.03428373834248
 31
0.0
  0
LINE
  5
391A
  8
AM_0
 10
379.30032871952881
 20
326.5342837383422
 30
0.0
 11
379.30032871952892
 21
269.5342837383422
 31
0.0
  0
LINE
  5
391B
  8
AM_0
 10
369.80032871952892
 20
264.53428373834208
 30
0.0
 11
374.30032871952881
 21
264.53428373834208
 31
0.0
  0
LINE
  5
391C
  8
AM_0
 10
374.30032871952881
 20
264.53428373834208
 30
0.0
 11
379.30032871952881
 21
269.5342837383422
 31
0.0
  0
LINE
  5
391D
  8
AM_0
 10
369.80032871952892
 20
331.53428373834208
 30
0.0
 11
369.30032871952892
 21
331.03428373834208
 31
0.0
1001
GENIUS_GENFIL_13
1070
     0
1040
0.5
1040
0.5
1040
20.0
1040
0.0
1002
{
1002
}
1001
GENIUS_GENOBJ-N-CHA_13
1002
{
1000
OWNER
1000
GEN
1002
}
1001
GENIUS_GENODEF_13
1002
{
1000
HIER
1070
     0
1002
}
1002
{
1000
MANEDIT
1070
     0
1002
}
1002
{
1000
NOSEL
1070
     0
1002
}
1002
{
1000
BEHIND
1070
     0
1002
}
1002
{
1000
OTHER
1070
     0
1002
}
1002
{
1000
REACTOR
1002
}
  0
LINE
  5
391E
  8
AM_0
 10
369.30032871952892
 20
265.03428373834208
 30
0.0
 11
369.80032871952892
 21
264.53428373834208
 31
0.0
1001
GENIUS_GENFIL_13
1070
     0
1040
0.5
1040
0.5
1040
20.0
1040
0.0
1002
{
1002
}
1001
GENIUS_GENOBJ-N-CHA_13
1002
{
1000
OWNER
1000
GEN
1002
}
1001
GENIUS_GENODEF_13
1002
{
1000
HIER
1070
     0
1002
}
1002
{
1000
MANEDIT
1070
     0
1002
}
1002
{
1000
NOSEL
1070
     0
1002
}
1002
{
1000
BEHIND
1070
     0
1002
}
1002
{
1000
OTHER
1070
     0
1002
}
1002
{
1000
REACTOR
1002
}
  0
LINE
  5
3927
  8
AM_0
 10
374.30032871952892
 20
331.53428373834208
 30
0.0
 11
374.30032871952881
 21
264.53428373834208
 31
0.0
  0
CIRCLE
  5
3928
  8
AM_0
 10
625.62119121249043
 20
298.03428673834208
 30
0.0
 40
33.499999999999893
  0
CIRCLE
  5
3929
  8
AM_0
 10
625.62119121249043
 20
298.03428673834208
 30
0.0
 40
28.49999999999994
  0
ARC
  5
392A
  8
AM_0
 10
625.62119121249043
 20
283.03428673834208
 30
0.0
 40
48.0
 50
102.336484978735
 51
180.00001000000091
  0
LINE
  5
459B
  8
AM_0
 10
381.3003387195289
 20
315.03433273834202
 30
0.0
 11
381.3003387195289
 21
312.03433273834202
 31
0.0
  0
LINE
  5
459C
  8
AM_0
 10
381.3003387195289
 20
315.03433273834202
 30
0.0
 11
413.30037871952879
 21
315.03433273834202
 31
0.0
  0
LINE
  5
459D
  8
AM_0
 10
379.30032871952881
 20
284.03431573834212
 30
0.0
 11
413.30037871952879
 21
284.03431573834212
 31
0.0
  0
LINE
  5
459F
  8
AM_0
 10
379.30032871952881
 20
312.03433273834207
 30
0.0
 11
413.30037871952879
 21
312.03433273834202
 31
0.0
  0
LINE
  5
45A0
  8
AM_0
 10
413.30037871952879
 20
315.03433273834202
 30
0.0
 11
413.30037871952879
 21
284.03431573834212
 31
0.0
  0
LINE
  5
45A2
  8
AM_0
 10
621.62118921249044
 20
315.03433273834202
 30
0.0
 11
629.62117521249036
 21
315.03433273834202
 31
0.0
  0
LINE
  5
45A3
  8
AM_0
 10
621.62118921249044
 20
308.03431273834212
 30
0.0
 11
629.62117521249036
 21
308.03431273834212
 31
0.0
  0
LINE
  5
45A4
  8
AM_0
 10
629.62117521249036
 20
308.03431273834212
 30
0.0
 11
629.62117521249036
 21
315.03433273834202
 31
0.0
  0
LINE
  5
45AB
  8
AM_0
 10
621.62118921249044
 20
308.03431273834212
 30
0.0
 11
621.62118921249044
 21
315.03433273834202
 31
0.0
  0
CIRCLE
  5
46CC
  8
AM_5
 10
625.62119121249043
 20
298.03428673834208
 30
0.0
 40
4.0000001999999979
  0
ARC
  5
46CD
  8
AM_0
 10
625.62119121249043
 20
298.03428673834208
 30
0.0
 40
14.000001299999999
 50
106.60154000000141
 51
73.398451999997818
  0
CIRCLE
  5
46CE
  8
AM_0
 10
625.62119121249043
 20
298.03428673834208
 30
0.0
 40
3.0
  0
LINE
  5
5C85
  8
ﾁｭｳｼﾝｾﾝ
 10
132.9508887195289
 20
552.07075358089992
 30
0.0
 11
415.49147871952903
 21
552.07075358089992
 31
0.0
  0
LINE
  5
5C86
  8
AM_0
 10
317.30037871952891
 20
502.00352358089992
 30
0.0
 11
317.30037871952891
 21
481.35880358089992
 31
0.0
  0
LINE
  5
5C87
  8
AM_0
 10
318.30037871952908
 20
500.53281358089998
 30
0.0
 11
318.30037871952908
 21
486.98576358089969
 31
0.0
  0
LINE
  5
5C88
  8
AM_0
 10
317.30037871952891
 20
486.98576358089969
 30
0.0
 11
318.30037871952908
 21
486.98576358089969
 31
0.0
  0
LINE
  5
5C89
  8
AM_0
 10
317.30037871952891
 20
500.53281358089998
 30
0.0
 11
318.30037871952908
 21
500.53281358089998
 31
0.0
  0
LINE
  5
5C8A
  8
AM_0
 10
322.30034871952893
 20
488.98576358090003
 30
0.0
 11
322.30034871952893
 21
498.53278358089989
 31
0.0
  0
LINE
  5
5C8B
  8
AM_0
 10
318.30037871952908
 20
496.64603358089983
 30
0.0
 11
321.30037871952891
 21
496.64603358089983
 31
0.0
  0
LINE
  5
5C8C
  8
AM_0
 10
318.30037871952908
 20
490.87253358089959
 30
0.0
 11
321.30037871952891
 21
490.87253358089959
 31
0.0
  0
LINE
  5
5C8D
  8
AM_0
 10
318.30037871952908
 20
487.98576358089991
 30
0.0
 11
321.30037871952891
 21
487.98576358089991
 31
0.0
  0
LINE
  5
5C8E
  8
AM_0
 10
318.30037871952908
 20
499.53281358089981
 30
0.0
 11
321.30037871952891
 21
499.53281358089981
 31
0.0
  0
LINE
  5
5C8F
  8
AM_0
 10
413.30037871952879
 20
566.07075358089992
 30
0.0
 11
413.30037871952879
 21
538.07075358089992
 31
0.0
  0
LINE
  5
5C90
  8
AM_0
 10
379.30032871952881
 20
566.07075358089992
 30
0.0
 11
413.30037871952879
 21
566.07075358089992
 31
0.0
  0
LINE
  5
5C91
  8
AM_0
 10
379.30032871952881
 20
538.07075358089992
 30
0.0
 11
413.30037871952879
 21
538.07075358089992
 31
0.0
  0
LINE
  5
5C92
  8
AM_0
 10
381.30037871952891
 20
556.07072358089988
 30
0.0
 11
381.30037871952891
 21
548.07075358089992
 31
0.0
  0
LINE
  5
5C93
  8
AM_0
 10
277.30037871952891
 20
627.28449358090006
 30
0.0
 11
277.30037871952891
 21
608.30643358089992
 31
0.0
  0
LINE
  5
5C94
  8
AM_0
 10
371.30037871952891
 20
626.49891358090008
 30
0.0
 11
371.30037871952891
 21
603.64258358090001
 31
0.0
  0
LINE
  5
5C95
  8
AM_0
 10
309.30040871952912
 20
630.07075358089992
 30
0.0
 11
369.35273871952899
 21
628.49821358089969
 31
0.0
  0
LINE
  5
5C96
  8
AM_0
 10
279.24803871952889
 20
629.28382358089993
 30
0.0
 11
309.30037871952919
 21
630.07078358089984
 31
0.0
  0
LINE
  5
5C97
  8
AM_0
 10
306.30037871952891
 20
623.07075358089992
 30
0.0
 11
306.30037871952891
 21
481.07075358089992
 31
0.0
  0
LINE
  5
5C98
  8
AM_0
 10
368.30037871952891
 20
601.61570358089989
 30
0.0
 11
368.30037871952891
 21
502.52579358089992
 31
0.0
  0
LINE
  5
5C99
  8
AM_0
 10
368.30040871952889
 20
601.61570358089989
 30
0.0
 11
369.35273871952899
 21
601.64326358089988
 31
0.0
  0
LINE
  5
5C9A
  8
AM_0
 10
371.30037871952891
 20
477.6425835808999
 30
0.0
 11
371.30037871952891
 21
500.49891358090002
 31
0.0
  0
LINE
  5
5C9B
  8
AM_0
 10
277.30037871952891
 20
476.85703358089989
 30
0.0
 11
277.30037871952891
 21
495.83506358089988
 31
0.0
  0
LINE
  5
5C9C
  8
AM_0
 10
309.30040871952912
 20
474.07075358089998
 30
0.0
 11
369.35273871952899
 21
475.64326358089983
 31
0.0
  0
LINE
  5
5C9D
  8
AM_0
 10
279.24803871952889
 20
474.85770358090002
 30
0.0
 11
309.30037871952919
 21
474.07075358089998
 31
0.0
  0
LINE
  5
5C9E
  8
AM_0
 10
309.30037871952919
 20
626.21479358089971
 30
0.0
 11
302.30037871952891
 21
629.88746358089975
 31
0.0
  0
LINE
  5
5C9F
  8
AM_0
 10
306.70338871952907
 20
623.0602235808999
 30
0.0
 11
302.30040871952889
 21
625.37031358090007
 31
0.0
  0
LINE
  5
5CA0
  8
AM_0
 10
302.30037871952891
 20
629.88743358090005
 30
0.0
 11
302.30037871952891
 21
625.3703435809
 31
0.0
  0
LINE
  5
5CA1
  8
AM_0
 10
369.35270871952889
 20
502.4982135808998
 30
0.0
 11
368.30037871952891
 21
502.52576358089988
 31
0.0
  0
LINE
  5
5CA2
  8
AM_0
 10
381.30037871952891
 20
548.07075358089992
 30
0.0
 11
413.30037871952879
 21
548.07075358089992
 31
0.0
  0
LINE
  5
5CA3
  8
AM_0
 10
381.30037871952891
 20
556.07072358089988
 30
0.0
 11
413.30037871952879
 21
556.07072358089988
 31
0.0
  0
LINE
  5
5CA4
  8
AM_0
 10
355.30040871952889
 20
501.81974358089991
 30
0.0
 11
355.30040871952889
 21
602.32175358089967
 31
0.0
  0
LINE
  5
5CA5
  8
AM_0
 10
363.73616871952891
 20
600.47007358089991
 30
0.0
 11
359.03865871952911
 21
600.88105358090002
 31
0.0
  0
LINE
  5
5CA6
  8
AM_0
 10
363.73616871952891
 20
503.67145358089959
 30
0.0
 11
359.03865871952911
 21
503.26047358089988
 31
0.0
  0
LINE
  5
5CA7
  8
AM_0
 10
352.56187871952892
 20
498.83115358089981
 30
0.0
 11
346.86458871952891
 21
498.33271358089991
 31
0.0
  0
LINE
  5
5CA8
  8
AM_0
 10
342.30037871952891
 20
480.06754358089989
 30
0.0
 11
342.30037871952891
 21
493.35172358089989
 31
0.0
  0
LINE
  5
5CA9
  8
AM_0
 10
309.30037871952919
 20
622.99219358089999
 30
0.0
 11
309.30037871952919
 21
626.21476358089967
 31
0.0
  0
LINE
  5
5CAA
  8
AM_0
 10
302.30037871952891
 20
474.2540735808999
 30
0.0
 11
302.30037871952891
 21
478.77116358089989
 31
0.0
  0
LINE
  5
5CAB
  8
AM_0
 10
306.70338871952907
 20
481.08131358089997
 30
0.0
 11
302.30037871952891
 21
478.77119358089982
 31
0.0
  0
LINE
  5
5CAC
  8
AM_0
 10
309.30037871952919
 20
477.92673358090002
 30
0.0
 11
302.30037871952891
 21
474.2540735808999
 31
0.0
  0
LINE
  5
5CAD
  8
AM_0
 10
309.30037871952919
 20
481.14930358089981
 30
0.0
 11
309.30037871952919
 21
477.92673358090002
 31
0.0
  0
LINE
  5
5CAE
  8
AM_0
 10
319.036248719529
 20
481.4042435808999
 30
0.0
 11
306.30040871952889
 21
481.07075358089992
 31
0.0
  0
LINE
  5
5CAF
  8
AM_0
 10
319.0362187195289
 20
622.73725358089962
 30
0.0
 11
306.30040871952889
 21
623.07075358089992
 31
0.0
  0
LINE
  5
5CB0
  8
AM_0
 10
317.30037871952891
 20
502.00352358089992
 30
0.0
 11
320.30037871952891
 21
502.00352358089992
 31
0.0
  0
LINE
  5
5CB1
  8
AM_0
 10
320.300408719529
 20
502.00352358089992
 30
0.0
 11
320.300408719529
 21
602.13798358089957
 31
0.0
  0
LINE
  5
5CB2
  8
AM_0
 10
320.300408719529
 20
502.00349358089989
 30
0.0
 11
333.8823787195289
 21
504.56187358089988
 31
0.0
  0
LINE
  5
5CB3
  8
AM_0
 10
321.39680871952908
 20
482.06748358089982
 30
0.0
 11
332.03358871952912
 21
488.1807035808996
 31
0.0
  0
LINE
  5
5CB4
  8
AM_0
 10
342.30037871952891
 20
610.78974358089988
 30
0.0
 11
342.30037871952891
 21
624.07395358089957
 31
0.0
  0
LINE
  5
5CB5
  8
AM_0
 10
352.3789587195289
 20
505.0462135808998
 30
0.0
 11
333.8823787195289
 21
504.56187358089988
 31
0.0
  0
LINE
  5
5CB6
  8
AM_0
 10
339.37892871952891
 20
488.97446358090002
 30
0.0
 11
334.39418871952893
 21
488.84391358089988
 31
0.0
  0
LINE
  5
5CB7
  8
AM_0
 10
352.56187871952892
 20
605.31031358089967
 30
0.0
 11
346.86461871952889
 21
605.8087835808999
 31
0.0
  0
LINE
  5
5CB8
  8
AM_0
 10
321.39680871952908
 20
622.07398358089961
 30
0.0
 11
332.03355871952908
 21
615.96079358089992
 31
0.0
  0
LINE
  5
5CB9
  8
AM_0
 10
320.300408719529
 20
602.13798358089957
 30
0.0
 11
333.8823787195289
 21
599.57960358089986
 31
0.0
  0
LINE
  5
5CBA
  8
AM_0
 10
352.3789587195289
 20
599.09525358089991
 30
0.0
 11
333.88234871952892
 21
599.57963358090001
 31
0.0
  0
LINE
  5
5CBB
  8
AM_0
 10
339.37889871952888
 20
615.1670335808999
 30
0.0
 11
334.39415871952889
 21
615.29755358089994
 31
0.0
  0
LINE
  5
5CBC
  8
AM_0
 10
318.30037871952908
 20
604.60871358089958
 30
0.0
 11
321.30037871952891
 21
604.60871358089958
 31
0.0
  0
LINE
  5
5CBD
  8
AM_0
 10
318.30037871952908
 20
616.15571358089971
 30
0.0
 11
321.30037871952891
 21
616.15571358089971
 31
0.0
  0
LINE
  5
5CBE
  8
AM_0
 10
318.30037871952908
 20
613.26896358089994
 30
0.0
 11
321.30037871952891
 21
613.26896358089994
 31
0.0
  0
LINE
  5
5CBF
  8
AM_0
 10
318.30037871952908
 20
607.49546358089992
 30
0.0
 11
321.30037871952891
 21
607.49546358089992
 31
0.0
  0
LINE
  5
5CC0
  8
AM_0
 10
322.30034871952893
 20
615.15574358089987
 30
0.0
 11
322.30034871952893
 21
605.60871358089958
 31
0.0
  0
LINE
  5
5CC1
  8
AM_0
 10
317.30037871952891
 20
603.60868358089976
 30
0.0
 11
318.30037871952908
 21
603.60868358089976
 31
0.0
  0
LINE
  5
5CC2
  8
AM_0
 10
317.30037871952891
 20
617.15574358089975
 30
0.0
 11
318.30037871952908
 21
617.15574358089975
 31
0.0
  0
LINE
  5
5CC3
  8
AM_0
 10
318.30037871952908
 20
603.60868358089976
 30
0.0
 11
318.30037871952908
 21
617.15574358089975
 31
0.0
  0
LINE
  5
5CC4
  8
AM_0
 10
317.30037871952891
 20
602.13798358089957
 30
0.0
 11
317.30037871952891
 21
622.78269358089995
 31
0.0
  0
LINE
  5
5CC5
  8
AM_0
 10
317.30037871952891
 20
602.13798358089957
 30
0.0
 11
320.30037871952891
 21
602.13798358089957
 31
0.0
  0
LINE
  5
5CC6
  8
AM_0
 10
306.30040871952889
 20
481.07075358089992
 30
0.0
 11
301.24803871952901
 21
481.20304358089987
 31
0.0
  0
LINE
  5
5CC7
  8
AM_0
 10
306.30037871952891
 20
623.07075358089992
 30
0.0
 11
301.24806871952887
 21
622.93842358089955
 31
0.0
  0
LINE
  5
5CC8
  8
AM_0
 10
299.300408719529
 20
483.20237358089992
 30
0.0
 11
299.300408719529
 21
620.93912358089995
 31
0.0
  0
LINE
  5
5CC9
  8
AM_0
 10
268.300408719529
 20
496.07075358089998
 30
0.0
 11
268.300408719529
 21
608.07075358089992
 31
0.0
  0
LINE
  5
5CCA
  8
AM_0
 10
294.30037871952891
 20
495.38993358089988
 30
0.0
 11
268.30043871952893
 21
496.07075358089998
 31
0.0
  0
LINE
  5
5CCB
  8
AM_0
 10
268.300408719529
 20
506.07044358089991
 30
0.0
 11
299.300408719529
 21
506.07044358089991
 31
0.0
  0
LINE
  5
5CCC
  8
AM_0
 10
296.30037871952891
 20
486.85947358089982
 30
0.0
 11
297.300408719529
 21
486.85947358089982
 31
0.0
  0
LINE
  5
5CCD
  8
AM_0
 10
294.30037871952891
 20
488.85947358089982
 30
0.0
 11
294.30037871952891
 21
504.07044358090002
 31
0.0
  0
LINE
  5
5CCE
  8
AM_0
 10
294.30037871952891
 20
615.28205358089986
 30
0.0
 11
294.30037871952891
 21
600.07105358089996
 31
0.0
  0
LINE
  5
5CCF
  8
AM_0
 10
294.30040871952889
 20
608.75159358089968
 30
0.0
 11
268.30043871952893
 21
608.07075358089992
 31
0.0
  0
LINE
  5
5CD0
  8
AM_0
 10
268.300408719529
 20
598.07105358089996
 30
0.0
 11
299.300408719529
 21
598.07105358089996
 31
0.0
  0
LINE
  5
5CD1
  8
AM_0
 10
296.30037871952891
 20
617.28205358089986
 30
0.0
 11
297.300408719529
 21
617.28205358089986
 31
0.0
  0
LINE
  5
5CD2
  8
AM_0
 10
268.300408719529
 20
520.13081358089994
 30
0.0
 11
299.300408719529
 21
520.13081358089994
 31
0.0
  0
LINE
  5
5CD3
  8
AM_0
 10
268.300408719529
 20
584.01069358089967
 30
0.0
 11
299.300408719529
 21
584.01069358089967
 31
0.0
  0
ARC
  5
5CD4
  8
AM_0
 10
321.30037871952891
 20
498.53278358089989
 30
0.0
 40
1.0
 50
0.0
 51
90.00000299999769
  0
ARC
  5
5CD5
  8
AM_0
 10
321.30037871952891
 20
495.64603358089988
 30
0.0
 40
1.0
 50
0.0
 51
90.00000299999769
  0
ARC
  5
5CD6
  8
AM_0
 10
321.30037871952891
 20
489.87253358089993
 30
0.0
 40
1.0
 50
0.0
 51
90.00000299999769
  0
ARC
  5
5CD7
  8
AM_0
 10
321.30037871952891
 20
488.98576358090003
 30
0.0
 40
1.0
 50
269.999989999999
 51
0.0000006832495047
  0
ARC
  5
5CD8
  8
AM_0
 10
321.30037871952891
 20
491.8725035808996
 30
0.0
 40
1.0
 50
269.999989999999
 51
0.0000006832495047
  0
ARC
  5
5CD9
  8
AM_0
 10
321.30037871952891
 20
497.64603358089988
 30
0.0
 40
1.0
 50
269.999989999999
 51
0.0000006832495047
  0
ARC
  5
5CDA
  8
AM_0
 10
369.30037871952891
 20
626.49891358090008
 30
0.0
 40
2.0
 50
0.0
 51
88.499997000000747
  0
ARC
  5
5CDB
  8
AM_0
 10
279.30037871952891
 20
627.28449358090006
 30
0.0
 40
2.0
 50
91.500001000001546
 51
180.00001000000091
  0
ARC
  5
5CDC
  8
AM_0
 10
369.30037871952891
 20
603.64258358090001
 30
0.0
 40
2.0
 50
271.49999999999608
 51
0.0
  0
ARC
  5
5CDD
  8
AM_0
 10
289.30037871952908
 20
617.07075358089992
 30
0.0
 40
6.0
 50
359.45747999999497
 51
326.4427199999991
  0
CIRCLE
  5
5CDE
  8
AM_0
 10
359.30037871952891
 20
617.07075358089992
 30
0.0
 40
6.0
  0
ARC
  5
5CDF
  8
AM_0
 10
369.30037871952891
 20
477.6425835808999
 30
0.0
 40
2.0
 50
271.49999999999608
 51
0.0
  0
ARC
  5
5CE0
  8
AM_0
 10
279.30037871952891
 20
476.85703358089989
 30
0.0
 40
2.0
 50
180.00001000000091
 51
268.50000000000369
  0
ARC
  5
5CE1
  8
AM_0
 10
369.30037871952891
 20
500.49891358090002
 30
0.0
 40
2.0
 50
0.0
 51
88.499997000000747
  0
ARC
  5
5CE2
  8
AM_0
 10
289.30037871952908
 20
487.07075358089998
 30
0.0
 40
6.0
 50
33.557299999995493
 51
0.5425182800043322
  0
CIRCLE
  5
5CE3
  8
AM_0
 10
359.30037871952891
 20
487.07075358089998
 30
0.0
 40
6.0
  0
ARC
  5
5CE4
  8
AM_0
 10
381.30037871952891
 20
552.07072358089988
 30
0.0
 40
3.9999962
 50
90.00000299999769
 51
120.0008584236235
  0
ARC
  5
5CE5
  8
AM_0
 10
381.30037871952891
 20
552.07072358089988
 30
0.0
 40
3.9999962
 50
239.99914157637639
 51
270.0
  0
ARC
  5
5CE6
  8
AM_0
 10
363.30037871952891
 20
595.48908358089966
 30
0.0
 40
5.0
 50
0.0
 51
85.000003999997659
  0
ARC
  5
5CE7
  8
AM_0
 10
363.30037871952891
 20
508.65238358089982
 30
0.0
 40
5.0
 50
274.99999999999972
 51
0.0
  0
ARC
  5
5CE8
  8
AM_0
 10
347.30037871952891
 20
493.35172358089989
 30
0.0
 40
5.0
 50
95.00000199999856
 51
180.00001000000091
  0
ARC
  5
5CE9
  8
AM_0
 10
347.30037871952891
 20
610.78974358089988
 30
0.0
 40
5.0
 50
180.00001000000091
 51
265.00001000000071
  0
ARC
  5
5CEA
  8
AM_0
 10
347.30037871952891
 20
480.06754358089989
 30
0.0
 40
5.0
 50
180.00001000000091
 51
271.49999999999608
  0
ARC
  5
5CEB
  8
AM_0
 10
347.30037871952891
 20
624.07395358089957
 30
0.0
 40
5.0
 50
88.499997000000747
 51
180.00001000000091
  0
ARC
  5
5CEC
  8
AM_0
 10
339.30037871952908
 20
491.97343358089989
 30
0.0
 40
3.0
 50
271.49999999999608
 51
0.0
  0
ARC
  5
5CED
  8
AM_0
 10
318.90535871952892
 20
486.4025335808999
 30
0.0
 40
5.0
 50
271.49999999999608
 51
299.88701999999472
  0
ARC
  5
5CEE
  8
AM_0
 10
334.52504871952891
 20
483.84565358089992
 30
0.0
 40
5.0
 50
91.500001000001546
 51
119.88701999999461
  0
ARC
  5
5CEF
  8
AM_0
 10
352.30040871952889
 20
508.04520358090002
 30
0.0
 40
3.0
 50
271.49999999999608
 51
0.0
  0
ARC
  5
5CF0
  8
AM_0
 10
352.30040871952889
 20
501.81974358089991
 30
0.0
 40
3.0
 50
274.99999999999972
 51
0.0
  0
ARC
  5
5CF1
  8
AM_0
 10
359.4744187195289
 20
498.2794635808998
 30
0.0
 40
5.0
 50
95.00000199999856
 51
153.73433000000259
  0
ARC
  5
5CF2
  8
AM_0
 10
359.4744187195289
 20
605.86201358089988
 30
0.0
 40
5.0
 50
206.2656699999973
 51
265.00001000000071
  0
ARC
  5
5CF3
  8
AM_0
 10
352.30040871952889
 20
596.09629358090001
 30
0.0
 40
3.0
 50
0.0
 51
88.499997000000747
  0
ARC
  5
5CF4
  8
AM_0
 10
318.90535871952892
 20
617.73896358089985
 30
0.0
 40
5.0
 50
60.112980000005322
 51
88.499997000000747
  0
ARC
  5
5CF5
  8
AM_0
 10
352.30040871952889
 20
602.32175358089967
 30
0.0
 40
3.0
 50
0.0
 51
85.000003999997659
  0
ARC
  5
5CF6
  8
AM_0
 10
334.52504871952891
 20
620.29584358090005
 30
0.0
 40
5.0
 50
240.11298000000519
 51
268.50000000000369
  0
ARC
  5
5CF7
  8
AM_0
 10
339.30037871952908
 20
612.16807358089989
 30
0.0
 40
3.0
 50
0.0
 51
88.499997000000747
  0
ARC
  5
5CF8
  8
AM_0
 10
321.30037871952891
 20
606.49546358089992
 30
0.0
 40
1.0
 50
0.0
 51
90.00000299999769
  0
ARC
  5
5CF9
  8
AM_0
 10
321.30037871952891
 20
612.26899358089975
 30
0.0
 40
1.0
 50
0.0
 51
90.00000299999769
  0
ARC
  5
5CFA
  8
AM_0
 10
321.30037871952891
 20
615.15574358089987
 30
0.0
 40
1.0
 50
0.0
 51
90.00000299999769
  0
ARC
  5
5CFB
  8
AM_0
 10
321.30037871952891
 20
614.26896358089994
 30
0.0
 40
1.0
 50
269.999989999999
 51
0.0000006832495047
  0
ARC
  5
5CFC
  8
AM_0
 10
321.30037871952891
 20
608.49546358089981
 30
0.0
 40
1.0
 50
269.999989999999
 51
0.0000006832495047
  0
ARC
  5
5CFD
  8
AM_0
 10
321.30037871952891
 20
605.60871358089958
 30
0.0
 40
1.0
 50
269.999989999999
 51
0.0000006832495047
  0
ARC
  5
5CFE
  8
AM_0
 10
421.7891187195288
 20
552.07075358089992
 30
0.0
 40
101.4887199999999
 50
151.89333000000309
 51
208.1066699999968
  0
ARC
  5
5CFF
  8
AM_0
 10
301.30040871952912
 20
483.20237358089992
 30
0.0
 40
2.0
 50
180.00001000000091
 51
268.50000000000369
  0
ARC
  5
5D00
  8
AM_0
 10
301.30040871952912
 20
620.93912358089995
 30
0.0
 40
2.0
 50
91.500001000001546
 51
180.00001000000091
  0
ARC
  5
5D01
  8
AM_0
 10
296.30037871952891
 20
488.85947358089982
 30
0.0
 40
2.0
 50
180.00001000000091
 51
270.0
  0
ARC
  5
5D02
  8
AM_0
 10
292.30037871952891
 20
504.07044358090002
 30
0.0
 40
2.0
 50
0.0
 51
90.00000299999769
  0
ARC
  5
5D03
  8
AM_0
 10
297.300408719529
 20
484.85947358089982
 30
0.0
 40
2.0
 50
0.0
 51
90.00000299999769
  0
ARC
  5
5D04
  8
AM_0
 10
297.300408719529
 20
619.28205358089986
 30
0.0
 40
2.0
 50
270.0
 51
0.0
  0
ARC
  5
5D05
  8
AM_0
 10
296.30037871952891
 20
615.28205358089986
 30
0.0
 40
2.0
 50
90.00000299999769
 51
180.00001000000091
  0
ARC
  5
5D06
  8
AM_0
 10
292.30037871952891
 20
600.07105358089996
 30
0.0
 40
2.0
 50
270.0
 51
0.0
  0
LINE
  5
5D07
  8
AM_0
 10
239.32659856856941
 20
486.07075358089992
 30
0.0
 11
239.5811478425922
 21
495.79072358089968
 31
0.0
  0
LINE
  5
5D08
  8
AM_0
 10
179.27416657332881
 20
486.07075358089992
 30
0.0
 11
179.01968453219001
 21
495.79072358089968
 31
0.0
  0
LINE
  5
5D09
  8
AM_0
 10
175.8004087195288
 20
484.07075358089992
 30
0.0
 11
242.80040871952889
 21
484.07075358089992
 31
0.0
  0
LINE
  5
5D0A
  8
AM_0
 10
175.8004087195288
 20
483.07075358089998
 30
0.0
 11
175.8004087195288
 21
484.07075358089992
 31
0.0
  0
LINE
  5
5D0B
  8
AM_0
 10
242.80040871952889
 20
483.07075358089998
 30
0.0
 11
242.80040871952889
 21
484.07075358089992
 31
0.0
  0
LINE
  5
5D0C
  8
AM_0
 10
161.3004087195288
 20
445.07075358089998
 30
0.0
 11
162.55999385579111
 21
481.14055257430482
 31
0.0
  0
LINE
  5
5D0D
  8
AM_0
 10
164.5587755098295
 20
483.07075358089998
 30
0.0
 11
254.0420419292285
 21
483.07075358089998
 31
0.0
  0
ARC
  5
5D0E
  8
AM_0
 10
164.5587755098295
 20
481.07075358089992
 30
0.0
 40
2.0
 50
90.0
 51
178.0000000000029
1001
GENIUS_GENODEF_13
1002
{
1000
HIER
1070
     0
1002
}
1002
{
1000
MANEDIT
1070
     0
1002
}
1002
{
1000
NOSEL
1070
     0
1002
}
1002
{
1000
BEHIND
1070
     0
1002
}
1002
{
1000
OTHER
1070
     0
1002
}
1002
{
1000
REACTOR
1002
}
1001
GENIUS_GENOBJ-N-FIL_13
1002
{
1000
OWNER
1000
GEN
1002
}
  0
LINE
  5
5D0F
  8
AM_0
 10
256.04082358326667
 20
481.14055257430482
 30
0.0
 11
257.300408719529
 21
445.07075358089998
 31
0.0
  0
ARC
  5
5D10
  8
AM_0
 10
254.0420419292285
 20
481.07075358089992
 30
0.0
 40
2.0
 50
1.9999999999971021
 51
90.0
1001
GENIUS_GENOBJ-N-FIL_13
1002
{
1000
OWNER
1000
GEN
1002
}
1001
GENIUS_GENODEF_13
1002
{
1000
HIER
1070
     0
1002
}
1002
{
1000
MANEDIT
1070
     0
1002
}
1002
{
1000
NOSEL
1070
     0
1002
}
1002
{
1000
BEHIND
1070
     0
1002
}
1002
{
1000
OTHER
1070
     0
1002
}
1002
{
1000
REACTOR
1002
}
  0
LINE
  5
5D11
  8
AM_0
 10
257.300408719529
 20
445.07075358089998
 30
0.0
 11
161.3004087195286
 21
445.07075358089998
 31
0.0
  0
LINE
  5
5D12
  8
AM_0
 10
161.4051710280041
 20
448.07075358089958
 30
0.0
 11
160.3004087195288
 21
448.07075358089958
 31
0.0
  0
LINE
  5
5D13
  8
AM_0
 10
162.52263565173999
 20
480.0707535808998
 30
0.0
 11
160.3004087195288
 21
480.0707535808998
 31
0.0
  0
LINE
  5
5D14
  8
ﾁｭｳｼﾝｾﾝ1
 10
166.30040871952951
 20
434.80604608089999
 30
0.0
 11
166.3004087195296
 21
447.80604608089988
 31
0.0
  0
LINE
  5
5D15
  8
ﾁｭｳｼﾝｾﾝ
 10
209.30040871952889
 20
490.362784254129
 30
0.0
 11
209.30040871952889
 21
432.62023094009049
 31
0.0
  0
LINE
  5
5D16
  8
AM_0
 10
157.8004087195288
 20
450.5707535808998
 30
0.0
 11
160.3004087195288
 21
450.57075358089952
 31
0.0
  0
LINE
  5
5D17
  8
AM_0
 10
160.3004087195288
 20
477.57075358089952
 30
0.0
 11
157.8004087195288
 21
477.57075358089958
 31
0.0
  0
LINE
  5
5D18
  8
AM_0
 10
146.9017376231829
 20
474.5707535808998
 30
0.0
 11
146.9017376231829
 21
453.5707535808998
 31
0.0
  0
LINE
  5
5D19
  8
AM_0
 10
131.9017376231829
 20
456.0391285268845
 30
0.0
 11
131.9017376231829
 21
472.10237863491568
 31
0.0
  0
LINE
  5
5D1A
  8
AM_0
 10
144.9017376231829
 20
476.0707535808998
 30
0.0
 11
144.9017376231829
 21
452.07075358089958
 31
0.0
  0
LINE
  5
5D1B
  8
AM_0
 10
135.4017376231829
 20
464.07075358089958
 30
0.0
 11
135.9017376231829
 21
464.57075358089958
 31
0.0
  0
LINE
  5
5D1C
  8
AM_0
 10
142.4017376231829
 20
452.37075358089959
 30
0.0
 11
142.4017376231829
 21
475.77075358089968
 31
0.0
  0
LINE
  5
5D1D
  8
AM_0
 10
152.3004087195288
 20
452.57075358089958
 30
0.0
 11
152.3004087195288
 21
475.5707535808998
 31
0.0
  0
LINE
  5
5D1E
  8
AM_0
 10
146.4017376231829
 20
464.77075358090173
 30
0.0
 11
146.4017376231829
 21
463.37075358089851
 31
0.0
  0
LINE
  5
5D1F
  8
AM_0
 10
148.50137334975369
 20
473.1707535808996
 30
0.0
 11
147.7513733497548
 21
454.97075358089961
 31
0.0
  0
LINE
  5
5D20
  8
AM_0
 10
147.5504087195288
 20
473.1707535808996
 30
0.0
 11
146.9017376231829
 21
457.42966830958369
 31
0.0
  0
LINE
  5
5D21
  8
AM_0
 10
148.29910131010081
 20
473.88641229326362
 30
0.0
 11
147.55184126669289
 21
454.25838181973279
 31
0.0
  0
LINE
  5
5D22
  8
AM_0
 10
147.7499408025908
 20
473.88312534206767
 30
0.0
 11
147.00137334975491
 21
454.22075358089961
 31
0.0
  0
LINE
  5
5D23
  8
AM_0
 10
144.9017376231829
 20
452.07075358089958
 30
0.0
 11
142.70173762318291
 21
452.07075358089958
 31
0.0
  0
ARC
  5
5D24
  8
AM_0
 10
156.8004087195288
 20
451.57075358089958
 30
0.0
 40
0.5
 50
0.0
 51
90.000000000013017
  0
ARC
  5
5D25
  8
AM_0
 10
157.8004087195288
 20
451.0707535808998
 30
0.0
 40
0.5
 50
180.0
 51
270.0
  0
LINE
  5
5D26
  8
AM_0
 10
157.3004087195288
 20
451.57075358089958
 30
0.0
 11
157.3004087195288
 21
451.0707535808998
 31
0.0
  0
LINE
  5
5D27
  8
AM_0
 10
148.3004087195288
 20
454.97075358089961
 30
0.0
 11
151.8004087195288
 21
454.97075358089961
 31
0.0
  0
LINE
  5
5D28
  8
AM_0
 10
157.3004087195288
 20
453.21468225949292
 30
0.0
 11
157.3004087195288
 21
462.9268249023076
 31
0.0
  0
LINE
  5
5D29
  8
AM_0
 10
152.8004087195288
 20
452.07075358089958
 30
0.0
 11
156.8004087195288
 21
452.07075358089958
 31
0.0
  0
LINE
  5
5D2A
  8
AM_0
 10
156.8004087195288
 20
452.7146822594928
 30
0.0
 11
152.3004087195288
 21
452.7146822594928
 31
0.0
  0
ARC
  5
5D2B
  8
AM_0
 10
156.8004087195288
 20
453.21468225949292
 30
0.0
 40
0.5
 50
270.0
 51
0.0
  0
ARC
  5
5D2C
  8
AM_0
 10
151.8004087195288
 20
454.47075358089972
 30
0.0
 40
0.5
 50
0.0
 51
90.0
  0
ARC
  5
5D2D
  8
AM_0
 10
152.8004087195288
 20
452.57075358089958
 30
0.0
 40
0.5
 50
180.0
 51
270.0
  0
LINE
  5
5D2E
  8
AM_0
 10
156.8004087195288
 20
463.4268249023076
 30
0.0
 11
152.3004087195288
 21
463.4268249023076
 31
0.0
  0
ARC
  5
5D2F
  8
AM_0
 10
156.8004087195288
 20
462.92682490230789
 30
0.0
 40
0.5
 50
0.0
 51
90.0
  0
LINE
  5
5D30
  8
AM_0
 10
146.4017376231829
 20
457.92558282860762
 30
0.0
 11
146.4017376231829
 21
459.09782601504048
 31
0.0
  0
LINE
  5
5D31
  8
AM_0
 10
147.8281057781798
 20
454.97075358089961
 30
0.0
 11
148.3004087195288
 21
454.97075358089961
 31
0.0
  0
LINE
  5
5D32
  8
AM_0
 10
147.7315132836406
 20
454.89663581416312
 30
0.0
 11
147.7513733497548
 21
454.97075358089961
 31
0.0
  0
ARC
  5
5D33
  8
AM_0
 10
147.8281057781798
 20
454.87075358089959
 30
0.0
 40
0.1000000000000346
 50
90.0
 51
164.99980499355539
  0
ARC
  5
5D34
  8
AM_0
 10
146.1017376231828
 20
454.78392060039158
 30
0.0
 40
0.3000000000000043
 50
0.0
 51
90.0
  0
LINE
  5
5D35
  8
AM_0
 10
144.9017376231829
 20
452.6707535808996
 30
0.0
 11
146.12169332633991
 21
452.75208396111071
 31
0.0
  0
LINE
  5
5D36
  8
AM_0
 10
144.9017376231829
 20
453.8270056167396
 30
0.0
 11
146.10173762318269
 21
453.8270056167396
 31
0.0
  0
LINE
  5
5D37
  8
AM_0
 10
146.4017376231829
 20
453.0707535808998
 30
0.0
 11
144.9017376231829
 21
453.0707535808998
 31
0.0
  0
ARC
  5
5D38
  8
AM_0
 10
146.4017376231829
 20
453.5707535808998
 30
0.0
 40
0.5
 50
270.0
 51
0.0
  0
LINE
  5
5D39
  8
AM_0
 10
146.4017376231829
 20
453.0514195084678
 30
0.0
 11
146.4017376231829
 21
453.0707535808998
 31
0.0
  0
LINE
  5
5D3A
  8
AM_0
 10
146.4017376231829
 20
452.77075358089968
 30
0.0
 11
146.4017376231829
 21
453.0514195084678
 31
0.0
  0
LINE
  5
5D3B
  8
AM_0
 10
146.12169332633991
 20
452.75208396111071
 30
0.0
 11
146.4017376231829
 21
452.77075358089968
 31
0.0
  0
ARC
  5
5D3C
  8
AM_0
 10
146.1017376231828
 20
453.0514195084678
 30
0.0
 40
0.3000000000000007
 50
273.81407483428148
 51
0.0
  0
LINE
  5
5D3D
  8
AM_0
 10
147.4736762911038
 20
454.22075358089961
 30
0.0
 11
147.55040871952971
 21
454.22075358089961
 31
0.0
  0
LINE
  5
5D3E
  8
AM_0
 10
147.55040871952971
 20
454.22075358089961
 30
0.0
 11
147.57026878564281
 21
454.2948713476361
 31
0.0
  0
LINE
  5
5D3F
  8
AM_0
 10
146.9815132836406
 20
454.2948713476361
 30
0.0
 11
147.00137334975491
 21
454.22075358089961
 31
0.0
  0
LINE
  5
5D40
  8
AM_0
 10
147.00137334975491
 20
454.22075358089961
 30
0.0
 11
147.0781057781798
 21
454.22075358089961
 31
0.0
  0
LINE
  5
5D41
  8
AM_0
 10
147.57026878564281
 20
454.2948713476361
 30
0.0
 11
147.7315132836406
 21
454.89663581416312
 31
0.0
  0
LINE
  5
5D42
  8
AM_0
 10
147.0781057781798
 20
454.22075358089961
 30
0.0
 11
147.4736762911038
 21
454.22075358089961
 31
0.0
  0
LINE
  5
5D43
  8
AM_0
 10
146.90173762318381
 20
454.5925941124608
 30
0.0
 11
146.9815132836406
 21
454.2948713476361
 31
0.0
  0
ARC
  5
5D44
  8
AM_0
 10
147.4736762911038
 20
454.32075358089958
 30
0.0
 40
0.0999999999999866
 50
270.0
 51
344.99980499343371
  0
ARC
  5
5D45
  8
AM_0
 10
147.0781057781798
 20
454.32075358089958
 30
0.0
 40
0.1000000000000014
 50
195.00019500656629
 51
270.0
  0
LINE
  5
5D46
  8
AM_0
 10
146.4017376231829
 20
454.12700561673961
 30
0.0
 11
146.4017376231829
 21
454.78392060039158
 31
0.0
  0
ARC
  5
5D47
  8
AM_0
 10
146.1017376231828
 20
454.12700561673972
 30
0.0
 40
0.3000000000000007
 50
270.0
 51
0.0
  0
LINE
  5
5D48
  8
AM_0
 10
144.9017376231829
 20
457.62558282860761
 30
0.0
 11
146.10173762318269
 21
457.62558282860761
 31
0.0
  0
LINE
  5
5D49
  8
AM_0
 10
146.10173762318269
 20
455.08392060039159
 30
0.0
 11
144.9017376231829
 21
455.08392060039159
 31
0.0
  0
LINE
  5
5D4A
  8
AM_0
 10
147.7513733497548
 20
454.97075358089961
 30
0.0
 11
147.8281057781798
 21
454.97075358089961
 31
0.0
  0
ARC
  5
5D4B
  8
AM_0
 10
146.1017376231828
 20
457.92558282860767
 30
0.0
 40
0.3000000000000007
 50
270.0
 51
0.0
  0
LINE
  5
5D4C
  8
AM_0
 10
146.10173762318269
 20
459.39782601504061
 30
0.0
 11
144.9017376231829
 21
459.39782601504061
 31
0.0
  0
ARC
  5
5D4D
  8
AM_0
 10
146.1017376231828
 20
459.09782601504082
 30
0.0
 40
0.3000000000000043
 50
0.0
 51
90.0
  0
LINE
  5
5D4E
  8
AM_0
 10
146.10173762318269
 20
463.07075358089861
 30
0.0
 11
144.9017376231829
 21
463.07075358089861
 31
0.0
  0
ARC
  5
5D4F
  8
AM_0
 10
146.1017376231828
 20
463.37075358089868
 30
0.0
 40
0.3000000000000007
 50
270.0
 51
0.0
  0
LINE
  5
5D50
  8
AM_0
 10
135.9017376231829
 20
453.93747375225269
 30
0.0
 11
142.4017376231829
 21
453.93747375225269
 31
0.0
  0
LINE
  5
5D51
  8
AM_0
 10
135.9017376231829
 20
453.43747375225269
 30
0.0
 11
142.4017376231829
 21
453.43747375225269
 31
0.0
  0
LINE
  5
5D52
  8
AM_0
 10
142.4017376231829
 20
463.5707535808998
 30
0.0
 11
135.9017376231829
 21
463.5707535808998
 31
0.0
  0
LINE
  5
5D53
  8
AM_0
 10
135.4017376231829
 20
463.0707535808998
 30
0.0
 11
142.4017376231829
 21
463.0707535808998
 31
0.0
  0
LINE
  5
5D54
  8
AM_0
 10
142.10173762318269
 20
453.0707535808998
 30
0.0
 11
135.26378755836481
 21
453.0707535808998
 31
0.0
  0
LINE
  5
5D55
  8
AM_0
 10
142.4017376231829
 20
462.72406551235849
 30
0.0
 11
135.9017376231829
 21
462.72406551235849
 31
0.0
  0
LINE
  5
5D56
  8
AM_0
 10
142.4017376231829
 20
454.41744164944072
 30
0.0
 11
135.9017376231829
 21
454.41744164944072
 31
0.0
  0
ARC
  5
5D57
  8
AM_0
 10
142.70173762318291
 20
452.37075358089959
 30
0.0
 40
0.2999999999999971
 50
180.0
 51
270.0
  0
ARC
  5
5D58
  8
AM_0
 10
142.1017376231828
 20
452.77075358089968
 30
0.0
 40
0.2999999999999971
 50
0.0
 51
90.0
  0
ARC
  5
5D59
  8
AM_0
 10
144.0267376231829
 20
458.5707535808998
 30
0.0
 40
9.124999999999984
 50
152.92493329271929
 51
207.07506670728071
  0
LINE
  5
5D5A
  8
AM_0
 10
134.6236031587004
 20
453.30253230130199
 30
0.0
 11
132.2615532235184
 21
455.2709072472872
 31
0.0
  0
LINE
  5
5D5B
  8
AM_0
 10
135.4017376231829
 20
453.64918616440758
 30
0.0
 11
135.9017376231829
 21
453.0707535808998
 31
0.0
  0
ARC
  5
5D5C
  8
AM_0
 10
135.26378755836481
 20
454.0707535808998
 30
0.0
 40
1.0
 50
230.19442890774391
 51
270.0
  0
LINE
  5
5D5D
  8
AM_0
 10
135.9017376231829
 20
453.43747375225269
 30
0.0
 11
135.4017376231829
 21
453.64918616440758
 31
0.0
  0
LINE
  5
5D5E
  8
AM_0
 10
135.4017376231829
 20
454.11146143737881
 30
0.0
 11
135.9017376231829
 21
453.43747375225269
 31
0.0
  0
LINE
  5
5D5F
  8
AM_0
 10
135.9017376231829
 20
453.93747375225269
 30
0.0
 11
135.4017376231829
 21
454.11146143737881
 31
0.0
  0
LINE
  5
5D60
  8
AM_0
 10
135.4017376231829
 20
454.64918616440758
 30
0.0
 11
135.9017376231829
 21
453.93747375225269
 31
0.0
  0
LINE
  5
5D61
  8
AM_0
 10
135.9017376231829
 20
454.41744164944072
 30
0.0
 11
135.4017376231829
 21
454.64918616440758
 31
0.0
  0
ARC
  5
5D62
  8
AM_0
 10
132.9017376231829
 20
456.03912852688478
 30
0.0
 40
1.0000000000000291
 50
180.0
 51
230.19442890773689
  0
LINE
  5
5D63
  8
AM_0
 10
135.9017376231829
 20
463.5707535808998
 30
0.0
 11
135.4017376231829
 21
464.07075358089958
 31
0.0
  0
LINE
  5
5D64
  8
AM_0
 10
135.4017376231829
 20
463.0707535808998
 30
0.0
 11
135.9017376231829
 21
463.5707535808998
 31
0.0
  0
LINE
  5
5D65
  8
AM_0
 10
135.9017376231829
 20
462.72406551235849
 30
0.0
 11
135.4017376231829
 21
463.0707535808998
 31
0.0
  0
LINE
  5
5D66
  8
AM_0
 10
142.70173762318291
 20
476.0707535808998
 30
0.0
 11
144.9017376231829
 21
476.0707535808998
 31
0.0
  0
ARC
  5
5D67
  8
AM_0
 10
156.8004087195288
 20
476.57075358089958
 30
0.0
 40
0.5
 50
269.99999999998693
 51
0.0
  0
LINE
  5
5D68
  8
AM_0
 10
151.8004087195288
 20
473.1707535808996
 30
0.0
 11
148.5781057781798
 21
473.1707535808996
 31
0.0
  0
LINE
  5
5D69
  8
AM_0
 10
157.3004087195288
 20
465.2146822594928
 30
0.0
 11
157.3004087195288
 21
474.92682490230789
 31
0.0
  0
LINE
  5
5D6A
  8
AM_0
 10
152.3004087195288
 20
464.7146822594928
 30
0.0
 11
156.8004087195288
 21
464.7146822594928
 31
0.0
  0
ARC
  5
5D6B
  8
AM_0
 10
156.8004087195288
 20
465.2146822594928
 30
0.0
 40
0.5
 50
270.0
 51
0.0
  0
LINE
  5
5D6C
  8
AM_0
 10
152.3004087195288
 20
475.42682490230789
 30
0.0
 11
156.8004087195288
 21
475.42682490230789
 31
0.0
  0
LINE
  5
5D6D
  8
AM_0
 10
156.8004087195288
 20
476.0707535808998
 30
0.0
 11
152.8004087195288
 21
476.0707535808998
 31
0.0
  0
ARC
  5
5D6E
  8
AM_0
 10
156.8004087195288
 20
474.92682490230789
 30
0.0
 40
0.5
 50
0.0
 51
90.0
  0
ARC
  5
5D6F
  8
AM_0
 10
151.8004087195288
 20
473.6707535808996
 30
0.0
 40
0.5
 50
270.0
 51
0.0
  0
ARC
  5
5D70
  8
AM_0
 10
152.8004087195288
 20
475.5707535808998
 30
0.0
 40
0.5
 50
90.0
 51
180.0
  0
ARC
  5
5D71
  8
AM_0
 10
146.1017376231828
 20
470.21592433319182
 30
0.0
 40
0.3000000000000114
 50
0.0
 51
90.0
  0
LINE
  5
5D72
  8
AM_0
 10
144.9017376231829
 20
465.07075358090162
 30
0.0
 11
146.10173762318269
 21
465.07075358090162
 31
0.0
  0
ARC
  5
5D73
  8
AM_0
 10
146.1017376231828
 20
464.77075358090173
 30
0.0
 40
0.2999999999999971
 50
0.0
 51
90.0
  0
LINE
  5
5D74
  8
AM_0
 10
144.9017376231829
 20
468.7436811467586
 30
0.0
 11
146.10173762318269
 21
468.7436811467586
 31
0.0
  0
ARC
  5
5D75
  8
AM_0
 10
146.1017376231828
 20
469.04368114675879
 30
0.0
 40
0.3000000000000007
 50
270.0
 51
0.0
  0
LINE
  5
5D76
  8
AM_0
 10
146.4017376231829
 20
469.04368114675879
 30
0.0
 11
146.4017376231829
 21
470.21592433319182
 31
0.0
  0
LINE
  5
5D77
  8
AM_0
 10
147.8281057781798
 20
473.9207535808996
 30
0.0
 11
148.2236762911038
 21
473.9207535808996
 31
0.0
  0
LINE
  5
5D78
  8
AM_0
 10
147.8281057781798
 20
473.9207535808996
 30
0.0
 11
148.2236762911038
 21
473.9207535808996
 31
0.0
  0
LINE
  5
5D79
  8
AM_0
 10
148.32026878564281
 20
473.84663581416322
 30
0.0
 11
148.4815132836406
 21
473.24487134763598
 31
0.0
  0
LINE
  5
5D7A
  8
AM_0
 10
148.32026878564281
 20
473.84663581416322
 30
0.0
 11
148.4815132836406
 21
473.24487134763598
 31
0.0
  0
ARC
  5
5D7B
  8
AM_0
 10
148.5781057781798
 20
473.27075358089968
 30
0.0
 40
0.0999999999999943
 50
195.00019500651879
 51
270.0
  0
ARC
  5
5D7C
  8
AM_0
 10
148.2236762911038
 20
473.8207535808998
 30
0.0
 40
0.0999999999999943
 50
15.000195006505431
 51
90.0
  0
LINE
  5
5D7D
  8
AM_0
 10
146.90089103464169
 20
473.54575358089988
 30
0.0
 11
146.9815132836406
 21
473.24487134763598
 31
0.0
  0
LINE
  5
5D7E
  8
AM_0
 10
147.55311937173471
 20
473.21001811399759
 30
0.0
 11
147.7315132836406
 21
473.84663581416322
 31
0.0
  0
LINE
  5
5D7F
  8
AM_0
 10
147.57026878564281
 20
473.24487134763598
 30
0.0
 11
147.7315132836406
 21
473.84663581416322
 31
0.0
  0
LINE
  5
5D80
  8
AM_0
 10
146.4017376231829
 20
473.35758656140882
 30
0.0
 11
146.4017376231829
 21
474.0145015450596
 31
0.0
  0
LINE
  5
5D81
  8
AM_0
 10
146.9017376231829
 20
473.54259411246159
 30
0.0
 11
146.9815132836406
 21
473.24487134763598
 31
0.0
  0
LINE
  5
5D82
  8
AM_0
 10
144.9017376231829
 20
473.0575865614087
 30
0.0
 11
146.10173762318269
 21
473.0575865614087
 31
0.0
  0
LINE
  5
5D83
  8
AM_0
 10
146.10173762318269
 20
470.51592433319161
 30
0.0
 11
144.9017376231829
 21
470.51592433319257
 31
0.0
  0
LINE
  5
5D84
  8
AM_0
 10
147.5063085566189
 20
473.1707535808996
 30
0.0
 11
147.55311937173471
 21
473.21001811399759
 31
0.0
  0
LINE
  5
5D85
  8
AM_0
 10
147.0781057781798
 20
473.1707535808996
 30
0.0
 11
147.5063085566189
 21
473.1707535808996
 31
0.0
  0
LINE
  5
5D86
  8
AM_0
 10
147.0781057781798
 20
473.1707535808996
 30
0.0
 11
147.4736762911038
 21
473.1707535808996
 31
0.0
  0
ARC
  5
5D87
  8
AM_0
 10
147.0781057781798
 20
473.27075358089968
 30
0.0
 40
0.0999999999999943
 50
195.00019500651879
 51
270.0
  0
ARC
  5
5D88
  8
AM_0
 10
147.4736762911038
 20
473.27075358089968
 30
0.0
 40
0.0999999999999608
 50
270.0
 51
344.99980499348112
  0
ARC
  5
5D89
  8
AM_0
 10
146.1017376231828
 20
473.35758656140882
 30
0.0
 40
0.3000000000000007
 50
270.0
 51
0.0
  0
LINE
  5
5D8A
  8
AM_0
 10
144.9017376231829
 20
475.0707535808998
 30
0.0
 11
146.4017376231829
 21
475.0707535808998
 31
0.0
  0
LINE
  5
5D8B
  8
AM_0
 10
146.10173762318269
 20
474.31450154505961
 30
0.0
 11
144.9017376231829
 21
474.31450154505961
 31
0.0
  0
LINE
  5
5D8C
  8
AM_0
 10
146.12169332633991
 20
475.38942320068969
 30
0.0
 11
144.9017376231829
 21
475.47075358089961
 31
0.0
  0
ARC
  5
5D8D
  8
AM_0
 10
146.4017376231829
 20
474.5707535808998
 30
0.0
 40
0.5
 50
0.0
 51
90.0
  0
ARC
  5
5D8E
  8
AM_0
 10
147.8281057781798
 20
473.8207535808998
 30
0.0
 40
0.0999999999999606
 50
90.0
 51
164.99980499349451
  0
ARC
  5
5D8F
  8
AM_0
 10
146.1017376231828
 20
474.0145015450596
 30
0.0
 40
0.2999999999999971
 50
0.0
 51
90.0
  0
LINE
  5
5D90
  8
AM_0
 10
146.4017376231829
 20
475.0707535808998
 30
0.0
 11
146.4017376231829
 21
475.09008765333277
 31
0.0
  0
ARC
  5
5D91
  8
AM_0
 10
146.1017376231828
 20
475.09008765333277
 30
0.0
 40
0.3000000000000043
 50
0.0
 51
86.18592516571853
  0
ARC
  5
5D92
  8
AM_0
 10
157.8004087195288
 20
477.07075358089958
 30
0.0
 40
0.5
 50
90.0
 51
180.0
  0
LINE
  5
5D93
  8
AM_0
 10
157.3004087195288
 20
477.07075358089958
 30
0.0
 11
157.3004087195288
 21
476.57075358089958
 31
0.0
  0
LINE
  5
5D94
  8
AM_0
 10
135.9017376231829
 20
473.72406551235849
 30
0.0
 11
142.4017376231829
 21
473.72406551235849
 31
0.0
  0
LINE
  5
5D95
  8
AM_0
 10
135.9017376231829
 20
465.41744164944078
 30
0.0
 11
142.4017376231829
 21
465.41744164944078
 31
0.0
  0
LINE
  5
5D96
  8
AM_0
 10
135.26378755836481
 20
475.0707535808998
 30
0.0
 11
142.10173762318269
 21
475.0707535808998
 31
0.0
  0
LINE
  5
5D97
  8
AM_0
 10
142.4017376231829
 20
465.07075358089958
 30
0.0
 11
135.4017376231829
 21
465.07075358089958
 31
0.0
  0
LINE
  5
5D98
  8
AM_0
 10
135.9017376231829
 20
464.57075358089958
 30
0.0
 11
142.4017376231829
 21
464.57075358089958
 31
0.0
  0
LINE
  5
5D99
  8
AM_0
 10
142.4017376231829
 20
474.70403340954738
 30
0.0
 11
135.9017376231829
 21
474.70403340954738
 31
0.0
  0
LINE
  5
5D9A
  8
AM_0
 10
142.4017376231829
 20
474.20403340954738
 30
0.0
 11
135.9017376231829
 21
474.20403340954738
 31
0.0
  0
ARC
  5
5D9B
  8
AM_0
 10
142.1017376231828
 20
475.37075358089959
 30
0.0
 40
0.3000000000000043
 50
270.0
 51
0.0
  0
ARC
  5
5D9C
  8
AM_0
 10
142.70173762318291
 20
475.77075358089968
 30
0.0
 40
0.2999999999999971
 50
90.0
 51
180.0
  0
ARC
  5
5D9D
  8
AM_0
 10
144.0267376231829
 20
469.5707535808998
 30
0.0
 40
9.124999999999984
 50
152.92493329271929
 51
207.07506670728071
  0
LINE
  5
5D9E
  8
AM_0
 10
135.4017376231829
 20
465.07075358089958
 30
0.0
 11
135.9017376231829
 21
465.41744164944078
 31
0.0
  0
LINE
  5
5D9F
  8
AM_0
 10
135.9017376231829
 20
464.57075358089958
 30
0.0
 11
135.4017376231829
 21
465.07075358089958
 31
0.0
  0
LINE
  5
5DA0
  8
AM_0
 10
132.2615532235184
 20
472.87059991451292
 30
0.0
 11
134.6236031587004
 21
474.8389748604971
 31
0.0
  0
LINE
  5
5DA1
  8
AM_0
 10
135.9017376231829
 20
475.0707535808998
 30
0.0
 11
135.4017376231829
 21
474.49232099739282
 31
0.0
  0
ARC
  5
5DA2
  8
AM_0
 10
135.26378755836481
 20
474.0707535808998
 30
0.0
 40
1.0000000000000411
 50
90.0
 51
129.805571092256
  0
LINE
  5
5DA3
  8
AM_0
 10
135.4017376231829
 20
473.49232099739271
 30
0.0
 11
135.9017376231829
 21
473.72406551235849
 31
0.0
  0
LINE
  5
5DA4
  8
AM_0
 10
135.9017376231829
 20
474.20403340954738
 30
0.0
 11
135.4017376231829
 21
473.49232099739271
 31
0.0
  0
LINE
  5
5DA5
  8
AM_0
 10
135.4017376231829
 20
474.0300457244208
 30
0.0
 11
135.9017376231829
 21
474.20403340954738
 31
0.0
  0
LINE
  5
5DA6
  8
AM_0
 10
135.9017376231829
 20
474.70403340954738
 30
0.0
 11
135.4017376231829
 21
474.0300457244208
 31
0.0
  0
LINE
  5
5DA7
  8
AM_0
 10
135.4017376231829
 20
474.49232099739282
 30
0.0
 11
135.9017376231829
 21
474.70403340954738
 31
0.0
  0
ARC
  5
5DA8
  8
AM_0
 10
132.9017376231829
 20
472.10237863491568
 30
0.0
 40
1.0
 50
129.80557109226311
 51
180.0
  0
LINE
  5
5DA9
  8
AM_0
 10
257.30040871952889
 20
441.07075358089998
 30
0.0
 11
236.48590381999651
 21
441.07075358089998
 31
0.0
  0
LINE
  5
5DAA
  8
AM_0
 10
182.1149136190613
 20
441.07075358089998
 30
0.0
 11
161.30040871952951
 21
441.07075358089998
 31
0.0
  0
LINE
  5
5DAB
  8
AM_0
 10
251.1646270503679
 20
437.07075358089998
 30
0.0
 11
167.43619038868971
 21
437.07075358089998
 31
0.0
  0
LINE
  5
5DAC
  8
AM_0
 10
170.20776369183591
 20
439.01181606877202
 30
0.0
 11
170.30040871952951
 21
440.07075358089992
 31
0.0
  0
LINE
  5
5DAD
  8
AM_0
 10
162.39305374722289
 20
439.01181606877202
 30
0.0
 11
162.30040871952951
 21
440.07075358089992
 31
0.0
  0
ARC
  5
5DAE
  8
AM_0
 10
166.30040871952951
 20
443.4707535808999
 30
0.0
 40
6.5
 50
241.82726586813479
 51
298.17273413186518
  0
ARC
  5
5DAF
  8
AM_0
 10
163.98696526416981
 20
439.15126525716829
 30
0.0
 40
1.6000000000000001
 50
184.99999999999969
 51
241.82726586813479
  0
LINE
  5
5DB0
  8
AM_0
 10
168.6004087195295
 20
437.39127991947169
 30
0.0
 11
166.30040871952951
 21
439.6808395982672
 31
0.0
  0
LINE
  5
5DB1
  8
AM_0
 10
166.61190871952951
 20
439.37075358089987
 30
0.0
 11
165.98890871952941
 21
439.37075358089987
 31
0.0
  0
LINE
  5
5DB2
  8
AM_0
 10
164.0004087195295
 20
437.39127991947169
 30
0.0
 11
166.30040871952951
 21
439.6808395982672
 31
0.0
  0
LINE
  5
5DB3
  8
AM_0
 10
166.61190871952951
 20
436.97822189056518
 30
0.0
 11
166.61190871952951
 21
439.37075358089987
 31
0.0
  0
LINE
  5
5DB4
  8
AM_0
 10
165.98890871952941
 20
436.97822189056518
 30
0.0
 11
165.98890871952941
 21
439.37075358089987
 31
0.0
  0
ARC
  5
5DB5
  8
AM_0
 10
168.61385217488919
 20
439.15126525716829
 30
0.0
 40
1.6000000000000001
 50
298.17273413186518
 51
355.00000000000023
  0
LINE
  5
5DB6
  8
AM_0
 10
257.300408719529
 20
441.07075358089998
 30
0.0
 11
257.300408719529
 21
445.07075358089998
 31
0.0
  0
LINE
  5
5DB7
  8
AM_0
 10
161.3004087195286
 20
445.07075358089998
 30
0.0
 11
161.30040871952971
 21
441.07075358089998
 31
0.0
  0
LINE
  5
5DB8
  8
AM_0N
 10
170.10040871952941
 20
441.07075358089998
 30
0.0
 11
170.10040871952941
 21
440.07075358089992
 31
0.0
  0
LINE
  5
5DB9
  8
AM_0N
 10
166.5004087195295
 20
440.07075358089992
 30
0.0
 11
166.86437895379569
 21
441.07075358089998
 31
0.0
  0
LINE
  5
5DBA
  8
AM_0N
 10
166.10040871952941
 20
440.07075358089992
 30
0.0
 11
166.46437895379549
 21
441.07075358089998
 31
0.0
  0
LINE
  5
5DBB
  8
AM_0N
 10
162.30040871952951
 20
440.07075358089992
 30
0.0
 11
170.30040871952951
 21
440.07075358089992
 31
0.0
  0
LINE
  5
5DBC
  8
AM_0N
 10
162.5004087195295
 20
440.07075358089992
 30
0.0
 11
162.5004087195295
 21
441.07075358089998
 31
0.0
  0
LINE
  5
5DBD
  8
AM_0
 10
182.1149136190611
 20
437.07075358089998
 30
0.0
 11
182.1149136190611
 21
441.07075358089998
 31
0.0
  0
LINE
  5
5DBE
  8
AM_0
 10
180.4580593695685
 20
441.07075358089998
 30
0.0
 11
182.1149136190611
 21
437.07075358089998
 31
0.0
  0
LINE
  5
5DBF
  8
AM_0
 10
236.48590381999651
 20
437.07075358089998
 30
0.0
 11
236.48590381999651
 21
441.07075358089998
 31
0.0
  0
LINE
  5
5DC0
  8
AM_0
 10
238.14275806948899
 20
441.07075358089998
 30
0.0
 11
236.48590381999651
 21
437.07075358089998
 31
0.0
  0
LINE
  5
5DC1
  8
AM_0
 10
175.8004087195288
 20
486.07075358089992
 30
0.0
 11
242.80040871952889
 21
486.07075358089992
 31
0.0
  0
LINE
  5
5DC2
  8
AM_0
 10
175.8004087195288
 20
486.07075358089992
 30
0.0
 11
175.8004087195288
 21
484.07075358089992
 31
0.0
  0
LINE
  5
5DC3
  8
AM_0
 10
242.80040871952889
 20
486.07075358089992
 30
0.0
 11
242.80040871952889
 21
484.07075358089992
 31
0.0
  0
LINE
  5
5DC4
  8
ﾁｭｳｼﾝｾﾝ1
 10
252.30040871952821
 20
434.80604608089999
 30
0.0
 11
252.30040871952821
 21
447.80604608089988
 31
0.0
  0
LINE
  5
5DC5
  8
AM_0
 10
248.39305374722181
 20
439.01181606877202
 30
0.0
 11
248.30040871952829
 21
440.07075358089992
 31
0.0
  0
LINE
  5
5DC6
  8
AM_0
 10
256.20776369183483
 20
439.01181606877202
 30
0.0
 11
256.30040871952821
 21
440.07075358089992
 31
0.0
  0
ARC
  5
5DC7
  8
AM_0
 10
252.30040871952849
 20
443.4707535808999
 30
0.0
 40
6.5
 50
241.82726586813479
 51
298.17273413186518
  0
ARC
  5
5DC8
  8
AM_0
 10
254.61385217488819
 20
439.15126525716829
 30
0.0
 40
1.6000000000000001
 50
298.17273413186518
 51
355.00000000000023
  0
LINE
  5
5DC9
  8
AM_0
 10
250.00040871952831
 20
437.39127991947169
 30
0.0
 11
252.30040871952829
 21
439.6808395982672
 31
0.0
  0
LINE
  5
5DCA
  8
AM_0
 10
251.9889087195283
 20
439.37075358089987
 30
0.0
 11
252.61190871952829
 21
439.37075358089987
 31
0.0
  0
LINE
  5
5DCB
  8
AM_0
 10
254.6004087195283
 20
437.39127991947169
 30
0.0
 11
252.30040871952829
 21
439.6808395982672
 31
0.0
  0
LINE
  5
5DCC
  8
AM_0
 10
251.9889087195283
 20
436.97822189056518
 30
0.0
 11
251.9889087195283
 21
439.37075358089987
 31
0.0
  0
LINE
  5
5DCD
  8
AM_0
 10
252.61190871952829
 20
436.97822189056518
 30
0.0
 11
252.61190871952829
 21
439.37075358089987
 31
0.0
  0
ARC
  5
5DCE
  8
AM_0
 10
249.98696526416879
 20
439.15126525716829
 30
0.0
 40
1.6000000000000001
 50
184.99999999999969
 51
241.82726586813479
  0
LINE
  5
5DCF
  8
AM_0N
 10
248.5004087195282
 20
441.07075358089998
 30
0.0
 11
248.5004087195282
 21
440.07075358089992
 31
0.0
  0
LINE
  5
5DD0
  8
AM_0N
 10
252.1004087195283
 20
440.07075358089992
 30
0.0
 11
251.73643848526211
 21
441.07075358089998
 31
0.0
  0
LINE
  5
5DD1
  8
AM_0N
 10
252.50040871952831
 20
440.07075358089992
 30
0.0
 11
252.13643848526209
 21
441.07075358089998
 31
0.0
  0
LINE
  5
5DD2
  8
AM_0N
 10
256.30040871952832
 20
440.07075358089992
 30
0.0
 11
248.30040871952829
 21
440.07075358089992
 31
0.0
  0
LINE
  5
5DD3
  8
AM_0N
 10
256.10040871952828
 20
440.07075358089992
 30
0.0
 11
256.10040871952828
 21
441.07075358089998
 31
0.0
  0
LINE
  5
5DD4
  8
AM_0
 10
160.3004087195288
 20
448.07075358089958
 30
0.0
 11
160.3004087195288
 21
480.0707535808998
 31
0.0
  0
LINE
  5
5DD5
  8
AM_0
 10
258.50615871952903
 20
596.99964358090006
 30
0.0
 11
254.3604387195291
 21
612.48075358089955
 31
0.0
  0
LINE
  5
5DD6
  8
AM_0
 10
258.5061287195291
 20
596.08964358089975
 30
0.0
 11
254.360408719529
 21
611.57075358089992
 31
0.0
  0
LINE
  5
5DD7
  8
AM_0
 10
258.5061287195291
 20
594.23966358090001
 30
0.0
 11
254.360408719529
 21
609.72080358089966
 31
0.0
  0
LINE
  5
5DD8
  8
AM_0
 10
260.300408719529
 20
608.07075358089992
 30
0.0
 11
260.300408719529
 21
496.07075358089958
 31
0.0
  0
LINE
  5
5DD9
  8
AM_0
 10
138.30040871952909
 20
600.09077358089985
 30
0.0
 11
138.30040871952909
 21
557.07075358089992
 31
0.0
  0
LINE
  5
5DDA
  8
AM_0
 10
140.57042871952899
 20
601.82075358089992
 30
0.0
 11
142.800408719529
 21
601.82075358089992
 31
0.0
  0
LINE
  5
5DDB
  8
AM_0
 10
140.5004187195288
 20
587.7606935808999
 30
0.0
 11
142.60039871952901
 21
587.7606935808999
 31
0.0
  0
LINE
  5
5DDC
  8
AM_0
 10
140.07042871952899
 20
601.69071358089991
 30
0.0
 11
138.80046871952899
 21
600.95072358089988
 31
0.0
  0
LINE
  5
5DDD
  8
AM_0
 10
140.06035871952901
 20
599.57081358089999
 30
0.0
 11
138.78038871952899
 21
598.80079358089995
 31
0.0
  0
LINE
  5
5DDE
  8
AM_0
 10
140.05034871952921
 20
595.0307735808999
 30
0.0
 11
138.750358719529
 21
594.18079358089994
 31
0.0
  0
LINE
  5
5DDF
  8
AM_0
 10
140.110408719529
 20
587.68076358089991
 30
0.0
 11
138.9104587195292
 21
587.17075358090005
 31
0.0
  0
LINE
  5
5DE0
  8
AM_0
 10
140.58043871952901
 20
599.71076358089977
 30
0.0
 11
143.3004087195292
 21
599.71076358089977
 31
0.0
  0
LINE
  5
5DE1
  8
AM_0
 10
140.600458719529
 20
595.20075358089969
 30
0.0
 11
143.3004087195292
 21
595.20075358089969
 31
0.0
  0
LINE
  5
5DE2
  8
AM_0
 10
140.45043871952899
 20
585.81074358089995
 30
0.0
 11
142.3004087195292
 21
585.81074358089995
 31
0.0
  0
LINE
  5
5DE3
  8
AM_0
 10
140.57042871952899
 20
594.06074358089995
 30
0.0
 11
142.3004087195292
 21
594.06074358089995
 31
0.0
  0
LINE
  5
5DE4
  8
AM_0
 10
140.550408719529
 20
598.57075358089992
 30
0.0
 11
142.3004087195292
 21
598.57075358089992
 31
0.0
  0
LINE
  5
5DE5
  8
AM_0
 10
140.54039871952921
 20
600.6707235808999
 30
0.0
 11
142.800408719529
 21
600.6707235808999
 31
0.0
  0
LINE
  5
5DE6
  8
AM_0
 10
140.0703687195292
 20
593.92078358089975
 30
0.0
 11
138.79039871952921
 21
593.17078358089998
 31
0.0
  0
LINE
  5
5DE7
  8
AM_0
 10
140.16039871952921
 20
585.77079358089975
 30
0.0
 11
139.0104287195291
 21
585.42078358089975
 31
0.0
  0
LINE
  5
5DE8
  8
AM_0
 10
140.0903887195291
 20
600.57075358089992
 30
0.0
 11
138.85039871952921
 21
599.94074358089983
 31
0.0
  0
LINE
  5
5DE9
  8
AM_0
 10
140.08043871952901
 20
598.46079358089992
 30
0.0
 11
138.83043871952901
 21
597.79078358089976
 31
0.0
  0
LINE
  5
5DEA
  8
AM_0
 10
142.3004087195292
 20
578.07075358089992
 30
0.0
 11
139.3004087195292
 21
578.07075358089992
 31
0.0
  0
LINE
  5
5DEB
  8
AM_0
 10
142.3004087195292
 20
576.07075358089969
 30
0.0
 11
139.3004087195292
 21
576.07075358089969
 31
0.0
  0
LINE
  5
5DEC
  8
AM_0
 10
142.3004087195292
 20
568.07075358089969
 30
0.0
 11
139.3004087195292
 21
568.07075358089969
 31
0.0
  0
LINE
  5
5DED
  8
AM_0
 10
142.3004087195292
 20
566.07075358089992
 30
0.0
 11
139.3004087195292
 21
566.07075358089992
 31
0.0
  0
LINE
  5
5DEE
  8
AM_0
 10
142.3004087195292
 20
558.07075358089992
 30
0.0
 11
139.3004087195292
 21
558.07075358089992
 31
0.0
  0
LINE
  5
5DEF
  8
AM_0
 10
142.3004087195292
 20
556.07075358089992
 30
0.0
 11
139.3004087195292
 21
556.07075358089992
 31
0.0
  0
LINE
  5
5DF0
  8
AM_0
 10
140.3004087195292
 20
567.68073358089975
 30
0.0
 11
140.3004087195292
 21
566.47077358089985
 31
0.0
  0
LINE
  5
5DF1
  8
AM_0
 10
140.3004087195292
 20
557.68073358089975
 30
0.0
 11
140.3004087195292
 21
556.52070358089975
 31
0.0
  0
LINE
  5
5DF2
  8
AM_0
 10
140.3004087195292
 20
577.70075358089969
 30
0.0
 11
140.3004087195292
 21
576.33076358089966
 31
0.0
  0
LINE
  5
5DF3
  8
AM_0
 10
140.3004087195292
 20
587.46076358089999
 30
0.0
 11
140.3004087195292
 21
586.40070358089997
 31
0.0
  0
LINE
  5
5DF4
  8
AM_0
 10
140.3004087195292
 20
594.90070358089997
 30
0.0
 11
140.3004087195292
 21
594.43073358089975
 31
0.0
  0
LINE
  5
5DF5
  8
AM_0
 10
140.3004087195292
 20
599.47077358089985
 30
0.0
 11
140.3004087195292
 21
598.9207235808999
 31
0.0
  0
LINE
  5
5DF6
  8
AM_0
 10
140.3004087195292
 20
601.57075358089992
 30
0.0
 11
140.3004087195292
 21
601.04072358089968
 31
0.0
  0
LINE
  5
5DF7
  8
AM_0
 10
136.80040871952909
 20
572.07075358089969
 30
0.0
 11
136.80040871952909
 21
552.07075358089992
 31
0.0
  0
LINE
  5
5DF8
  8
AM_0
 10
136.80040871952909
 20
572.07072358089977
 30
0.0
 11
138.30040871952909
 21
572.20072358089965
 31
0.0
  0
LINE
  5
5DF9
  8
AM_0
 10
136.80040871952909
 20
567.22077358089985
 30
0.0
 11
138.30040871952909
 21
567.22077358089985
 31
0.0
  0
LINE
  5
5DFA
  8
AM_0
 10
136.80040871952909
 20
569.35078358089993
 30
0.0
 11
138.30040871952909
 21
569.35078358089993
 31
0.0
  0
LINE
  5
5DFB
  8
AM_0
 10
253.64043871952899
 20
588.07075358089992
 30
0.0
 11
154.6603987195291
 21
588.07075358089992
 31
0.0
  0
LINE
  5
5DFC
  8
AM_0
 10
253.64043871952899
 20
586.07075358089992
 30
0.0
 11
154.6603987195291
 21
586.07075358089992
 31
0.0
  0
LINE
  5
5DFD
  8
AM_0
 10
221.3004087195292
 20
578.07075358089992
 30
0.0
 11
154.6603987195291
 21
578.07075358089992
 31
0.0
  0
LINE
  5
5DFE
  8
AM_0
 10
253.6332387195292
 20
576.07075358089969
 30
0.0
 11
154.6603987195291
 21
576.07075358089969
 31
0.0
  0
LINE
  5
5DFF
  8
AM_0
 10
188.73912871952891
 20
568.07075358089969
 30
0.0
 11
154.6603987195291
 21
568.07075358089969
 31
0.0
  0
LINE
  5
5E00
  8
AM_0
 10
188.73912871952891
 20
566.07075358089992
 30
0.0
 11
154.6603987195291
 21
566.07075358089992
 31
0.0
  0
LINE
  5
5E01
  8
AM_0
 10
188.73912871952891
 20
558.07075358089992
 30
0.0
 11
154.6603987195291
 21
558.07075358089992
 31
0.0
  0
LINE
  5
5E02
  8
AM_0
 10
188.73912871952891
 20
556.07075358089992
 30
0.0
 11
154.6603987195291
 21
556.07075358089992
 31
0.0
  0
LINE
  5
5E03
  8
AM_0
 10
153.98039871952909
 20
588.79072358089957
 30
0.0
 11
257.12041871952903
 21
588.79072358089957
 31
0.0
  0
LINE
  5
5E04
  8
AM_0
 10
153.98039871952909
 20
585.44074358089995
 30
0.0
 11
221.32042871952919
 21
585.44074358089995
 31
0.0
  0
LINE
  5
5E05
  8
AM_0
 10
153.76042871952899
 20
578.56074358089995
 30
0.0
 11
221.3004087195292
 21
578.56074358089995
 31
0.0
  0
LINE
  5
5E06
  8
AM_0
 10
153.76042871952899
 20
575.63080358089985
 30
0.0
 11
257.33464871952913
 21
575.63080358089985
 31
0.0
  0
LINE
  5
5E07
  8
AM_0
 10
153.63042871952899
 20
568.41071358089994
 30
0.0
 11
189.95909871952901
 21
568.41071358089994
 31
0.0
  0
LINE
  5
5E08
  8
AM_0
 10
153.63042871952899
 20
565.75080358089986
 30
0.0
 11
189.95909871952901
 21
565.75080358089986
 31
0.0
  0
LINE
  5
5E09
  8
AM_0
 10
153.57042871952899
 20
558.34077358089985
 30
0.0
 11
190.01909871952901
 21
558.34077358089985
 31
0.0
  0
LINE
  5
5E0A
  8
AM_0
 10
153.57042871952899
 20
555.81074358089995
 30
0.0
 11
190.01909871952901
 21
555.81074358089995
 31
0.0
  0
LINE
  5
5E0B
  8
AM_0
 10
153.57042871952899
 20
548.34077358089996
 30
0.0
 11
190.01909871952901
 21
548.34077358089996
 31
0.0
  0
LINE
  5
5E0C
  8
AM_0
 10
188.73912871952891
 20
548.07075358089992
 30
0.0
 11
154.6603987195291
 21
548.07075358089992
 31
0.0
  0
LINE
  5
5E0D
  8
AM_0
 10
188.73912871952891
 20
546.07075358089992
 30
0.0
 11
154.6603987195291
 21
546.07075358089992
 31
0.0
  0
LINE
  5
5E0E
  8
AM_0
 10
153.57042871952899
 20
545.80073358089987
 30
0.0
 11
190.01909871952901
 21
545.80073358089987
 31
0.0
  0
LINE
  5
5E0F
  8
AM_0
 10
153.63042871952899
 20
538.39069358090001
 30
0.0
 11
189.95909871952901
 21
538.39069358090001
 31
0.0
  0
LINE
  5
5E10
  8
AM_0
 10
188.73912871952891
 20
538.07075358089992
 30
0.0
 11
154.6603987195291
 21
538.07075358089992
 31
0.0
  0
LINE
  5
5E11
  8
AM_0
 10
188.73912871952891
 20
536.07075358089992
 30
0.0
 11
154.6603987195291
 21
536.07075358089992
 31
0.0
  0
LINE
  5
5E12
  8
AM_0
 10
153.63042871952899
 20
535.73078358089992
 30
0.0
 11
189.971678719529
 21
535.73078358089992
 31
0.0
  0
LINE
  5
5E13
  8
AM_0
 10
253.6332387195292
 20
528.07075358089992
 30
0.0
 11
154.6603987195291
 21
528.07075358089992
 31
0.0
  0
LINE
  5
5E14
  8
AM_0
 10
153.76042871952899
 20
528.5106935808999
 30
0.0
 11
257.33464871952913
 21
528.5106935808999
 31
0.0
  0
LINE
  5
5E15
  8
AM_0
 10
221.3004087195292
 20
526.0707535808998
 30
0.0
 11
154.6603987195291
 21
526.0707535808998
 31
0.0
  0
LINE
  5
5E16
  8
AM_0
 10
153.76042871952899
 20
525.5807635809
 30
0.0
 11
221.3004087195292
 21
525.5807635809
 31
0.0
  0
LINE
  5
5E17
  8
AM_0
 10
253.64043871952899
 20
518.0707535808998
 30
0.0
 11
209.300408719529
 21
518.0707535808998
 31
0.0
  0
LINE
  5
5E18
  8
AM_0
 10
253.64043871952899
 20
516.07075358089992
 30
0.0
 11
209.300408719529
 21
516.07075358089992
 31
0.0
  0
LINE
  5
5E19
  8
AM_0
 10
153.98039871952909
 20
515.35078358089982
 30
0.0
 11
209.300408719529
 21
515.35078358089982
 31
0.0
  0
LINE
  5
5E1A
  8
AM_0
 10
257.12041871952903
 20
518.7007535808998
 30
0.0
 11
239.28044871952901
 21
518.7007535808998
 31
0.0
  0
LINE
  5
5E1B
  8
AM_0
 10
140.5004187195288
 20
516.38080358089985
 30
0.0
 11
142.60039871952901
 21
516.38080358089985
 31
0.0
  0
LINE
  5
5E1C
  8
AM_0
 10
140.1104687195288
 20
516.46079358089992
 30
0.0
 11
138.9104587195292
 21
516.98081358089985
 31
0.0
  0
LINE
  5
5E1D
  8
AM_0
 10
140.45043871952899
 20
518.33076358089966
 30
0.0
 11
142.3004087195292
 21
518.33076358089966
 31
0.0
  0
LINE
  5
5E1E
  8
AM_0
 10
140.16039871952921
 20
518.37073358089958
 30
0.0
 11
139.0104287195291
 21
518.7307535809
 31
0.0
  0
LINE
  5
5E1F
  8
AM_0
 10
142.3004087195292
 20
526.0707535808998
 30
0.0
 11
139.3004087195292
 21
526.0707535808998
 31
0.0
  0
LINE
  5
5E20
  8
AM_0
 10
142.3004087195292
 20
528.07075358089992
 30
0.0
 11
139.3004087195292
 21
528.07075358089992
 31
0.0
  0
LINE
  5
5E21
  8
AM_0
 10
142.3004087195292
 20
536.07075358089992
 30
0.0
 11
139.3004087195292
 21
536.07075358089992
 31
0.0
  0
LINE
  5
5E22
  8
AM_0
 10
142.3004087195292
 20
538.07075358089992
 30
0.0
 11
139.3004087195292
 21
538.07075358089992
 31
0.0
  0
LINE
  5
5E23
  8
AM_0
 10
142.3004087195292
 20
546.07075358089992
 30
0.0
 11
139.3004087195292
 21
546.07075358089992
 31
0.0
  0
LINE
  5
5E24
  8
AM_0
 10
142.3004087195292
 20
548.07075358089992
 30
0.0
 11
139.3004087195292
 21
548.07075358089992
 31
0.0
  0
LINE
  5
5E25
  8
AM_0
 10
140.3004087195292
 20
536.46076358089999
 30
0.0
 11
140.3004087195292
 21
537.68073358089975
 31
0.0
  0
LINE
  5
5E26
  8
AM_0
 10
140.3004087195292
 20
546.46076358089999
 30
0.0
 11
140.3004087195292
 21
547.62079358089989
 31
0.0
  0
LINE
  5
5E27
  8
AM_0
 10
140.3004087195292
 20
526.44074358089995
 30
0.0
 11
140.3004087195292
 21
527.81074358089995
 31
0.0
  0
LINE
  5
5E28
  8
AM_0
 10
140.3004087195292
 20
516.68073358089975
 30
0.0
 11
140.3004087195292
 21
517.74079358089966
 31
0.0
  0
LINE
  5
5E29
  8
AM_0
 10
136.80040871952909
 20
532.07075358089992
 30
0.0
 11
136.80040871952909
 21
552.07075358089992
 31
0.0
  0
LINE
  5
5E2A
  8
AM_0
 10
136.80040871952909
 20
532.07072358089999
 30
0.0
 11
138.30040871952909
 21
531.94071358089991
 31
0.0
  0
LINE
  5
5E2B
  8
AM_0
 10
136.80040871952909
 20
536.9207235808999
 30
0.0
 11
138.30040871952909
 21
536.9207235808999
 31
0.0
  0
LINE
  5
5E2C
  8
AM_0
 10
136.80040871952909
 20
534.79072358089957
 30
0.0
 11
138.30040871952909
 21
534.79072358089957
 31
0.0
  0
LINE
  5
5E2D
  8
AM_0
 10
153.98039871952909
 20
518.7007535808998
 30
0.0
 11
221.32042871952919
 21
518.7007535808998
 31
0.0
  0
LINE
  5
5E2E
  8
AM_0
 10
209.300408719529
 20
518.0707535808998
 30
0.0
 11
154.6603987195291
 21
518.0707535808998
 31
0.0
  0
LINE
  5
5E2F
  8
AM_0
 10
209.300408719529
 20
516.07075358089992
 30
0.0
 11
154.6603987195291
 21
516.07075358089992
 31
0.0
  0
LINE
  5
5E30
  8
AM_0
 10
209.300408719529
 20
515.35078358089982
 30
0.0
 11
257.12041871952903
 21
515.35078358089982
 31
0.0
  0
LINE
  5
5E31
  8
AM_0
 10
144.3004087195292
 20
605.07075358089992
 30
0.0
 11
144.3004087195292
 21
499.07075358089998
 31
0.0
  0
LINE
  5
5E32
  8
AM_0
 10
152.300408719529
 20
605.07075358089992
 30
0.0
 11
152.300408719529
 21
499.07075358089998
 31
0.0
  0
LINE
  5
5E33
  8
AM_0
 10
138.79039871952921
 20
510.97074358089969
 30
0.0
 11
138.77037871952899
 21
510.98072358089968
 31
0.0
  0
LINE
  5
5E34
  8
AM_0
 10
143.3004087195292
 20
602.07075358089992
 30
0.0
 11
143.3004087195292
 21
502.07075358089958
 31
0.0
  0
LINE
  5
5E35
  8
AM_0
 10
143.3004087195292
 20
602.07075358089992
 30
0.0
 11
144.3004087195292
 21
602.07075358089992
 31
0.0
  0
LINE
  5
5E36
  8
AM_0
 10
144.3004087195292
 20
605.07075358089992
 30
0.0
 11
152.300408719529
 21
605.07075358089992
 31
0.0
  0
LINE
  5
5E37
  8
AM_0
 10
145.0004187195288
 20
595.2606935808999
 30
0.0
 11
151.23039871952921
 21
595.2606935808999
 31
0.0
  0
LINE
  5
5E38
  8
AM_0
 10
260.300408719529
 20
598.07075358089992
 30
0.0
 11
268.300408719529
 21
598.07075358089992
 31
0.0
  0
LINE
  5
5E39
  8
AM_0
 10
260.300408719529
 20
584.01069358089967
 30
0.0
 11
268.300408719529
 21
584.01069358089967
 31
0.0
  0
LINE
  5
5E3A
  8
AM_0
 10
260.300408719529
 20
608.07075358089992
 30
0.0
 11
268.300408719529
 21
608.07075358089992
 31
0.0
  0
LINE
  5
5E3B
  8
AM_0
 10
155.5104287195289
 20
608.35078358089993
 30
0.0
 11
252.430418719529
 21
608.35078358089993
 31
0.0
  0
LINE
  5
5E3C
  8
AM_0
 10
152.300408719529
 20
600.1708135808999
 30
0.0
 11
153.54039871952909
 21
606.73081358089985
 31
0.0
  0
LINE
  5
5E3D
  8
AM_0
 10
157.660458719529
 20
588.72077358089985
 30
0.0
 11
152.30046871952899
 21
600.17075358089994
 31
0.0
  0
LINE
  5
5E3E
  8
AM_0
 10
157.6603987195291
 20
515.4207235808999
 30
0.0
 11
152.30046871952899
 21
503.98081358089991
 31
0.0
  0
LINE
  5
5E3F
  8
AM_0
 10
155.550408719529
 20
611.20075358089969
 30
0.0
 11
252.430418719529
 21
611.20075358089969
 31
0.0
  0
LINE
  5
5E40
  8
AM_0
 10
155.57042871952899
 20
613.05073358089976
 30
0.0
 11
252.430418719529
 21
613.05073358089976
 31
0.0
  0
LINE
  5
5E41
  8
AM_0
 10
155.59044871952901
 20
613.96076358089988
 30
0.0
 11
252.43047871952911
 21
613.96076358089988
 31
0.0
  0
LINE
  5
5E42
  8
AM_0
 10
152.30046871952899
 20
601.5107835808999
 30
0.0
 11
153.58043871952901
 21
609.52073358090001
 31
0.0
  0
LINE
  5
5E43
  8
AM_0
 10
152.30046871952899
 20
602.86072358089962
 30
0.0
 11
153.59044871952909
 21
611.35081358089985
 31
0.0
  0
LINE
  5
5E44
  8
AM_0
 10
152.300408719529
 20
602.86075358089977
 30
0.0
 11
153.610408719529
 21
612.24079358089989
 31
0.0
  0
LINE
  5
5E45
  8
AM_0
 10
258.50047871952921
 20
591.41071358089994
 30
0.0
 11
254.360468719529
 21
606.87073358089992
 31
0.0
  0
LINE
  5
5E46
  8
AM_0
 10
254.84044871952909
 20
605.07075358089992
 30
0.0
 11
260.300408719529
 21
605.07075358089992
 31
0.0
  0
LINE
  5
5E47
  8
AM_0
 10
138.30040871952909
 20
504.05073358089999
 30
0.0
 11
138.30040871952909
 21
547.0707535808998
 31
0.0
  0
LINE
  5
5E48
  8
AM_0
 10
140.57042871952899
 20
502.32075358089958
 30
0.0
 11
142.800408719529
 21
502.32075358089958
 31
0.0
  0
LINE
  5
5E49
  8
AM_0
 10
140.07042871952899
 20
502.46076358089971
 30
0.0
 11
138.80046871952899
 21
503.19074358089989
 31
0.0
  0
LINE
  5
5E4A
  8
AM_0
 10
140.0604787195289
 20
504.57075358089958
 30
0.0
 11
138.7804487195292
 21
505.34077358089991
 31
0.0
  0
LINE
  5
5E4B
  8
AM_0
 10
140.05034871952921
 20
509.1107235808999
 30
0.0
 11
138.750358719529
 21
509.9607335808999
 31
0.0
  0
LINE
  5
5E4C
  8
AM_0
 10
140.58043871952901
 20
504.43073358089981
 30
0.0
 11
143.3004087195292
 21
504.43073358089981
 31
0.0
  0
LINE
  5
5E4D
  8
AM_0
 10
140.600458719529
 20
508.9507535808998
 30
0.0
 11
143.3004087195292
 21
508.9507535808998
 31
0.0
  0
LINE
  5
5E4E
  8
AM_0
 10
140.57042871952899
 20
510.09077358089968
 30
0.0
 11
142.3004087195292
 21
510.09077358089968
 31
0.0
  0
LINE
  5
5E4F
  8
AM_0
 10
140.550408719529
 20
505.5707535808998
 30
0.0
 11
142.3004087195292
 21
505.5707535808998
 31
0.0
  0
LINE
  5
5E50
  8
AM_0
 10
140.54039871952921
 20
503.4707735808999
 30
0.0
 11
142.800408719529
 21
503.4707735808999
 31
0.0
  0
LINE
  5
5E51
  8
AM_0
 10
140.07042871952899
 20
510.22080358089988
 30
0.0
 11
138.79045871952911
 21
510.97077358089967
 31
0.0
  0
LINE
  5
5E52
  8
AM_0
 10
140.0903887195291
 20
503.5807335808999
 30
0.0
 11
138.85039871952921
 21
504.21073358089973
 31
0.0
  0
LINE
  5
5E53
  8
AM_0
 10
140.08043871952901
 20
505.69074358089989
 30
0.0
 11
138.83043871952901
 21
506.35074358089992
 31
0.0
  0
LINE
  5
5E54
  8
AM_0
 10
140.3004087195292
 20
509.24079358089989
 30
0.0
 11
140.3004087195292
 21
509.71076358089988
 31
0.0
  0
LINE
  5
5E55
  8
AM_0
 10
140.3004087195292
 20
504.6707235808999
 30
0.0
 11
140.3004087195292
 21
505.22077358089967
 31
0.0
  0
LINE
  5
5E56
  8
AM_0
 10
140.3004087195292
 20
502.57075358089958
 30
0.0
 11
140.3004087195292
 21
503.10078358089987
 31
0.0
  0
LINE
  5
5E57
  8
AM_0
 10
143.3004087195292
 20
502.07075358089958
 30
0.0
 11
144.3004087195292
 21
502.07075358089958
 31
0.0
  0
LINE
  5
5E58
  8
AM_0
 10
144.3004087195292
 20
499.07075358089998
 30
0.0
 11
152.300408719529
 21
499.07075358089998
 31
0.0
  0
LINE
  5
5E59
  8
AM_0
 10
145.0004187195288
 20
508.88080358089991
 30
0.0
 11
151.23039871952921
 21
508.88080358089991
 31
0.0
  0
LINE
  5
5E5A
  8
AM_0
 10
260.300408719529
 20
506.07075358089958
 30
0.0
 11
268.300408719529
 21
506.07075358089958
 31
0.0
  0
LINE
  5
5E5B
  8
AM_0
 10
260.300408719529
 20
496.07075358089958
 30
0.0
 11
268.300408719529
 21
496.07075358089958
 31
0.0
  0
LINE
  5
5E5C
  8
AM_0
 10
155.5104287195289
 20
495.79072358089968
 30
0.0
 11
252.430418719529
 21
495.79072358089968
 31
0.0
  0
LINE
  5
5E5D
  8
AM_0
 10
152.300408719529
 20
503.98072358089991
 30
0.0
 11
153.540458719529
 21
497.42072358089979
 31
0.0
  0
LINE
  5
5E5E
  8
AM_0
 10
155.206658719529
 20
492.94074358089989
 30
0.0
 11
177.69853871952901
 21
492.94074358089989
 31
0.0
  0
LINE
  5
5E5F
  8
AM_0
 10
152.300408719529
 20
502.63071358089968
 30
0.0
 11
153.58043871952901
 21
494.63080358089991
 31
0.0
  0
LINE
  5
5E60
  8
AM_0
 10
152.300408719529
 20
501.29081358089968
 30
0.0
 11
153.30968871952899
 21
494.64063358089982
 31
0.0
  0
LINE
  5
5E61
  8
AM_0
 10
152.30046871952899
 20
501.29078358089998
 30
0.0
 11
153.225888719529
 21
494.66419358089968
 31
0.0
  0
LINE
  5
5E62
  8
AM_0
 10
258.5061287195291
 20
512.75190358089969
 30
0.0
 11
254.360408719529
 21
497.27076358089988
 31
0.0
  0
LINE
  5
5E63
  8
AM_0
 10
254.84245871952891
 20
499.07075358089998
 30
0.0
 11
260.300408719529
 21
499.07075358089998
 31
0.0
  0
LINE
  5
5E64
  8
AM_0
 10
260.300408719529
 20
520.13080358089985
 30
0.0
 11
268.300408719529
 21
520.13080358089985
 31
0.0
  0
LINE
  5
5E65
  8
AM_0
 10
259.300408719529
 20
499.07075358089998
 30
0.0
 11
253.574668719529
 21
490.25385358089989
 31
0.0
  0
LINE
  5
5E66
  8
AM_0
 10
240.81401871952909
 20
489.57075358089958
 30
0.0
 11
252.3166487195291
 21
489.57075358089958
 31
0.0
  0
LINE
  5
5E67
  8
AM_0
 10
238.28044871952901
 20
579.57075358089992
 30
0.0
 11
238.28044871952901
 21
584.43073358089975
 31
0.0
  0
LINE
  5
5E68
  8
AM_0
 10
222.3204287195291
 20
579.57075358089992
 30
0.0
 11
222.3204287195291
 21
584.43073358089975
 31
0.0
  0
LINE
  5
5E69
  8
AM_0
 10
237.8004087195292
 20
579.57075358089992
 30
0.0
 11
237.8004087195292
 21
584.57075358089969
 31
0.0
  0
LINE
  5
5E6A
  8
AM_0
 10
222.800408719529
 20
579.57075358089992
 30
0.0
 11
222.800408719529
 21
584.57075358089969
 31
0.0
  0
LINE
  5
5E6B
  8
AM_0
 10
194.300408719529
 20
565.07075358089992
 30
0.0
 11
257.300408719529
 21
565.07075358089992
 31
0.0
  0
LINE
  5
5E6C
  8
AM_0
 10
194.300408719529
 20
531.57075358089992
 30
0.0
 11
257.300408719529
 21
531.57075358089992
 31
0.0
  0
LINE
  5
5E6D
  8
AM_0
 10
194.300408719529
 20
572.57075358089992
 30
0.0
 11
257.300408719529
 21
572.57075358089992
 31
0.0
  0
LINE
  5
5E6E
  8
AM_0
 10
257.300408719529
 20
572.57075358089992
 30
0.0
 11
257.300408719529
 21
531.57075358089992
 31
0.0
  0
LINE
  5
5E6F
  8
AM_0
 10
194.300408719529
 20
572.57075358089992
 30
0.0
 11
194.300408719529
 21
531.57075358089992
 31
0.0
  0
LINE
  5
5E70
  8
AM_0
 10
239.300408719529
 20
578.56074358089995
 30
0.0
 11
257.34612871952902
 21
578.56074358089995
 31
0.0
  0
LINE
  5
5E71
  8
AM_0
 10
239.300408719529
 20
525.59077358089996
 30
0.0
 11
257.33464871952913
 21
525.59077358089996
 31
0.0
  0
LINE
  5
5E72
  8
AM_0
 10
238.28044871952901
 20
524.57075358089992
 30
0.0
 11
238.28044871952901
 21
519.71076358089999
 31
0.0
  0
LINE
  5
5E73
  8
AM_0
 10
222.3204287195291
 20
524.57075358089992
 30
0.0
 11
222.3204287195291
 21
519.71076358089999
 31
0.0
  0
LINE
  5
5E74
  8
AM_0
 10
237.8004087195292
 20
524.57075358089992
 30
0.0
 11
237.8004087195292
 21
519.57075358089992
 31
0.0
  0
LINE
  5
5E75
  8
AM_0
 10
222.800408719529
 20
524.57075358089992
 30
0.0
 11
222.800408719529
 21
519.57075358089992
 31
0.0
  0
LINE
  5
5E76
  8
AM_0
 10
253.6332387195292
 20
526.0707535808998
 30
0.0
 11
239.300408719529
 21
526.0707535808998
 31
0.0
  0
LINE
  5
5E77
  8
AM_0
 10
253.64757871952921
 20
578.07075358089992
 30
0.0
 11
239.300408719529
 21
578.07075358089992
 31
0.0
  0
LINE
  5
5E78
  8
AM_0
 10
239.28044871952901
 20
585.43073358089975
 30
0.0
 11
257.12041871952903
 21
585.43073358089975
 31
0.0
  0
ARC
  5
5E79
  8
AM_0
 10
259.95360871952897
 20
597.40351358089993
 30
0.0
 40
1.502775999999999
 50
194.75642999999971
 51
269.87757999999872
  0
ARC
  5
5E7A
  8
AM_0
 10
259.95360871952897
 20
596.49348358089992
 30
0.0
 40
1.502775999999999
 50
194.75642999999971
 51
269.87757999999872
  0
ARC
  5
5E7B
  8
AM_0
 10
259.95360871952897
 20
594.64350358089985
 30
0.0
 40
1.502775999999999
 50
194.75642999999971
 51
269.87757999999872
  0
ARC
  5
5E7C
  8
AM_0
 10
252.4255887195292
 20
611.95600358089962
 30
0.0
 40
2.0047290000000002
 50
15.173495999996319
 51
89.861678000000197
  0
ARC
  5
5E7D
  8
AM_0
 10
252.4255887195292
 20
611.04597358089961
 30
0.0
 40
2.0047290000000002
 50
15.173495999996319
 51
89.861678000000197
  0
ARC
  5
5E7E
  8
AM_0
 10
252.4255887195292
 20
609.19599358089999
 30
0.0
 40
2.0047290000000002
 50
15.173495999996319
 51
89.861678000000197
  0
ARC
  5
5E7F
  8
AM_0
 10
259.95360871952897
 20
512.34797358089975
 30
0.0
 40
1.502775999999999
 50
90.122413000001615
 51
165.2435700000002
  0
ARC
  5
5E80
  8
AM_0
 10
139.2936387195289
 20
600.08869358089964
 30
0.0
 40
0.99319202
 50
119.7733799999972
 51
179.87958999999799
  0
ARC
  5
5E81
  8
AM_0
 10
139.2960187195292
 20
599.05048358089994
 30
0.0
 40
0.995579
 50
116.5870899999978
 51
179.98263999999989
  0
ARC
  5
5E82
  8
AM_0
 10
140.56243871952901
 20
600.8249035808999
 30
0.0
 40
0.9959030199999999
 50
89.541266999999124
 51
119.6071699999965
  0
ARC
  5
5E83
  8
AM_0
 10
140.52519871952899
 20
599.67670358089993
 30
0.0
 40
0.99411702
 50
89.122643999998516
 51
115.93498000000299
  0
ARC
  5
5E84
  8
AM_0
 10
140.56926871952879
 20
598.71650358090017
 30
0.0
 40
0.99427301
 50
89.356065999996758
 51
120.78090999999731
  0
ARC
  5
5E85
  8
AM_0
 10
140.53551871952899
 20
597.57538358090005
 30
0.0
 40
0.99545902
 50
89.141290999999924
 51
117.2038199999995
  0
ARC
  5
5E86
  8
AM_0
 10
140.60704871952899
 20
594.20453358089992
 30
0.0
 40
0.99617702
 50
90.381317999995943
 51
123.9704900000018
  0
ARC
  5
5E87
  8
AM_0
 10
140.57982871952899
 20
593.06428358090011
 30
0.0
 40
0.99648702
 50
90.540720999995386
 51
120.7437700000024
  0
ARC
  5
5E88
  8
AM_0
 10
139.294488719529
 20
592.31391358089991
 30
0.0
 40
0.99404597
 50
120.4681999999988
 51
180.18564000000021
  0
ARC
  5
5E89
  8
AM_0
 10
139.2952187195288
 20
593.34833358089986
 30
0.0
 40
0.9948369899999999
 50
123.2049600000056
 51
180.43785999999801
  0
ARC
  5
5E8A
  8
AM_0
 10
139.2936387195289
 20
596.91218358089975
 30
0.0
 40
0.9932109699999999
 50
117.7993199999962
 51
180.08187000000001
  0
ARC
  5
5E8B
  8
AM_0
 10
139.2948587195288
 20
597.94977358089977
 30
0.0
 40
0.9944329899999999
 50
121.152129999997
 51
179.94050999999911
  0
ARC
  5
5E8C
  8
AM_0
 10
140.50139871952939
 20
586.76533358089989
 30
0.0
 40
0.9954450099999999
 50
90.056904999996419
 51
113.127449999997
  0
ARC
  5
5E8D
  8
AM_0
 10
140.43956871952901
 20
584.81806358089989
 30
0.0
 40
0.9927430199999999
 50
89.374554999995524
 51
106.33207000000171
  0
ARC
  5
5E8E
  8
AM_0
 10
139.29668871952919
 20
584.46650358089994
 30
0.0
 40
0.9962710099999999
 50
106.6979199999999
 51
180.33004999999989
  0
ARC
  5
5E8F
  8
AM_0
 10
139.29680871952911
 20
586.25226358089992
 30
0.0
 40
0.9963999999999998
 50
112.8173600000008
 51
180.0904199999996
  0
ARC
  5
5E90
  8
AM_0
 10
139.29552871952899
 20
577.07563358089965
 30
0.0
 40
0.99507803
 50
89.715886999998034
 51
180.28410999999991
  0
ARC
  5
5E91
  8
AM_0
 10
139.300658719529
 20
577.07099358089999
 30
0.0
 40
1.000203
 50
180.01164999999551
 51
269.9883500000044
  0
ARC
  5
5E92
  8
AM_0
 10
139.29552871952899
 20
567.07563358089988
 30
0.0
 40
0.99508202
 50
89.716099000001435
 51
180.2839099999978
  0
ARC
  5
5E93
  8
AM_0
 10
139.300658719529
 20
567.07099358089977
 30
0.0
 40
1.0001999999999991
 50
180.01143000000161
 51
269.98856999999839
  0
ARC
  5
5E94
  8
AM_0
 10
139.29552871952899
 20
557.07563358089965
 30
0.0
 40
0.9950849999999999
 50
89.716311000000914
 51
180.28368999999961
  0
ARC
  5
5E95
  8
AM_0
 10
139.300658719529
 20
557.07099358089988
 30
0.0
 40
1.0001959999999981
 50
180.0112199999958
 51
269.98877999999758
  0
ARC
  5
5E96
  8
AM_0
 10
142.3005887195288
 20
555.07087358089984
 30
0.0
 40
0.9998249999999999
 50
359.98994999999883
 51
90.010050000001243
  0
ARC
  5
5E97
  8
AM_0
 10
142.29546871952911
 20
559.07563358089988
 30
0.0
 40
1.0049469
 50
270.28134999999719
 51
359.71866000000068
  0
ARC
  5
5E98
  8
AM_0
 10
142.3005887195288
 20
565.07087358089984
 30
0.0
 40
0.9998210099999999
 50
359.98975000000149
 51
90.010254999998992
  0
ARC
  5
5E99
  8
AM_0
 10
142.29546871952911
 20
569.07563358089965
 30
0.0
 40
1.004939
 50
270.28091000000421
 51
359.71909999999991
  0
ARC
  5
5E9A
  8
AM_0
 10
142.3005887195288
 20
575.07087358089984
 30
0.0
 40
0.9998289899999999
 50
359.99019000000038
 51
90.009811000000937
  0
ARC
  5
5E9B
  8
AM_0
 10
142.29546871952911
 20
579.07563358089988
 30
0.0
 40
1.004942999999999
 50
270.28111000000013
 51
359.71888999999987
  0
ARC
  5
5E9C
  8
AM_0
 10
142.3021187195292
 20
584.81244358089975
 30
0.0
 40
0.9982839799999999
 50
359.90142000000009
 51
90.098576000001358
  0
ARC
  5
5E9D
  8
AM_0
 10
142.29808871952901
 20
593.0584235808999
 30
0.0
 40
1.002353
 50
0.1343268199984526
 51
89.865672999999376
  0
ARC
  5
5E9E
  8
AM_0
 10
142.5958787195288
 20
588.46528358089995
 30
0.0
 40
0.704566
 50
270.3700999999968
 51
359.62990999999778
  0
ARC
  5
5E9F
  8
AM_0
 10
142.3013887195288
 20
597.57172358089997
 30
0.0
 40
0.9990100299999999
 50
359.94319000000121
 51
90.056808999996804
  0
ARC
  5
5EA0
  8
AM_0
 10
142.80211871952901
 20
600.17243358089991
 30
0.0
 40
0.4983060100000002
 50
359.80488999999778
 51
90.195107000000036
  0
ARC
  5
5EA1
  8
AM_0
 10
142.7958287195292
 20
602.32538358089994
 30
0.0
 40
0.50463498
 50
270.52383000000037
 51
359.47616999999963
  0
ARC
  5
5EA2
  8
AM_0
 10
154.84502871952901
 20
517.07075358089992
 30
0.0
 40
1.000013899999999
 50
89.691659999999231
 51
270.30834000000078
  0
ARC
  5
5EA3
  8
AM_0
 10
257.12041871952903
 20
587.11579358089955
 30
0.0
 40
1.6750020000000001
 50
269.999989999999
 51
90.00000299999769
  0
ARC
  5
5EA4
  8
AM_0
 10
253.64043871952899
 20
587.07075358089992
 30
0.0
 40
1.0
 50
269.999989999999
 51
90.00000299999769
  0
ARC
  5
5EA5
  8
AM_0
 10
253.64043871952899
 20
517.07075358089992
 30
0.0
 40
1.0
 50
269.999989999999
 51
90.00000299999769
  0
ARC
  5
5EA6
  8
AM_0
 10
257.12041871952903
 20
517.02570358089986
 30
0.0
 40
1.6750020000000001
 50
269.999989999999
 51
90.00000299999769
  0
ARC
  5
5EA7
  8
AM_0
 10
142.29704871952899
 20
519.33405358089988
 30
0.0
 40
1.003352
 50
270.19110999999691
 51
359.80890000000107
  0
ARC
  5
5EA8
  8
AM_0
 10
142.29546871952911
 20
529.07563358089965
 30
0.0
 40
1.0049469
 50
270.28136999999919
 51
359.71863000000081
  0
ARC
  5
5EA9
  8
AM_0
 10
142.3005887195288
 20
525.07087358089984
 30
0.0
 40
0.9998239899999999
 50
359.98991999999532
 51
90.01007700000045
  0
ARC
  5
5EAA
  8
AM_0
 10
142.60094871952921
 20
515.68134358089992
 30
0.0
 40
0.6994530000000001
 50
359.95517000000092
 51
90.044828999997534
  0
ARC
  5
5EAB
  8
AM_0
 10
140.50340871952901
 20
517.38593358089986
 30
0.0
 40
1.005233
 50
246.9863899999973
 51
269.82924999999938
  0
ARC
  5
5EAC
  8
AM_0
 10
140.4409787195288
 20
519.33344358089994
 30
0.0
 40
1.002699
 50
253.752720000002
 51
270.54064000000108
  0
ARC
  5
5EAD
  8
AM_0
 10
139.29680871952911
 20
519.68513358089979
 30
0.0
 40
0.99638802
 50
180.24990999999889
 51
253.29664000000031
  0
ARC
  5
5EAE
  8
AM_0
 10
139.29692871952921
 20
517.89924358089957
 30
0.0
 40
0.9965090199999998
 50
179.9137499999965
 51
247.17845000000341
  0
ARC
  5
5EAF
  8
AM_0
 10
139.300658719529
 20
527.07099358089965
 30
0.0
 40
1.0001959999999981
 50
180.01124999999951
 51
269.98875000000061
  0
ARC
  5
5EB0
  8
AM_0
 10
139.29552871952899
 20
527.07563358089965
 30
0.0
 40
0.9950849999999999
 50
89.716282999996153
 51
180.28371999999919
  0
ARC
  5
5EB1
  8
AM_0
 10
139.300658719529
 20
537.07099358089988
 30
0.0
 40
1.0001999999999991
 50
180.01145999999861
 51
269.98854000000142
  0
ARC
  5
5EB2
  8
AM_0
 10
139.29552871952899
 20
537.07563358089965
 30
0.0
 40
0.9950810099999999
 50
89.716072000003336
 51
180.2839200000044
  0
ARC
  5
5EB3
  8
AM_0
 10
139.300658719529
 20
547.07099358089999
 30
0.0
 40
1.0002040000000001
 50
180.01165999999679
 51
269.98832000000078
  0
ARC
  5
5EB4
  8
AM_0
 10
139.29552871952899
 20
547.07563358089988
 30
0.0
 40
0.9950770099999999
 50
89.715859999999481
 51
180.28414000000049
  0
ARC
  5
5EB5
  8
AM_0
 10
142.29546871952911
 20
549.07563358089965
 30
0.0
 40
1.004942999999999
 50
270.28113999999943
 51
359.71886999999822
  0
ARC
  5
5EB6
  8
AM_0
 10
142.3005887195288
 20
545.07087358089984
 30
0.0
 40
0.9998279799999998
 50
359.99015999999688
 51
90.009838000000187
  0
ARC
  5
5EB7
  8
AM_0
 10
142.29546871952911
 20
539.07563358089976
 30
0.0
 40
1.004939
 50
270.280940000003
 51
359.71907000000078
  0
ARC
  5
5EB8
  8
AM_0
 10
142.3005887195288
 20
535.07087358089984
 30
0.0
 40
0.9998210099999999
 50
359.98971999999799
 51
90.010282000004793
  0
ARC
  5
5EB9
  8
AM_0
 10
153.97301871952919
 20
587.11579358089955
 30
0.0
 40
1.6750160000000001
 50
89.746144999997981
 51
270.25387000000092
  0
ARC
  5
5EBA
  8
AM_0
 10
154.84502871952901
 20
587.07075358089992
 30
0.0
 40
1.000013899999999
 50
89.691659999999231
 51
270.30834000000078
  0
ARC
  5
5EBB
  8
AM_0
 10
154.84502871952901
 20
577.07075358089992
 30
0.0
 40
1.000013899999999
 50
89.691659999999231
 51
270.30834000000078
  0
ARC
  5
5EBC
  8
AM_0
 10
154.84502871952901
 20
567.07075358089992
 30
0.0
 40
1.000013899999999
 50
89.691659999999231
 51
270.30834000000078
  0
ARC
  5
5EBD
  8
AM_0
 10
154.84502871952901
 20
557.07075358089992
 30
0.0
 40
1.000013899999999
 50
89.691659999999231
 51
270.30834000000078
  0
ARC
  5
5EBE
  8
AM_0
 10
154.84502871952901
 20
547.0707535808998
 30
0.0
 40
1.000013899999999
 50
89.691659999999231
 51
270.30834000000078
  0
ARC
  5
5EBF
  8
AM_0
 10
154.84502871952901
 20
537.07075358089992
 30
0.0
 40
1.000013899999999
 50
89.691659999999231
 51
270.30834000000078
  0
ARC
  5
5EC0
  8
AM_0
 10
154.84502871952901
 20
527.07075358089992
 30
0.0
 40
1.000013899999999
 50
89.691659999999231
 51
270.30834000000078
  0
ARC
  5
5EC1
  8
AM_0
 10
153.76042871952899
 20
577.09577358089985
 30
0.0
 40
1.465004
 50
90.00000299999769
 51
270.0
  0
ARC
  5
5EC2
  8
AM_0
 10
153.63042871952899
 20
567.08076358089988
 30
0.0
 40
1.3300049999999981
 50
90.00000299999769
 51
270.0
  0
ARC
  5
5EC3
  8
AM_0
 10
153.56456871952901
 20
557.0757535808998
 30
0.0
 40
1.2650129999999991
 50
89.735579000001735
 51
270.2644100000025
  0
ARC
  5
5EC4
  8
AM_0
 10
153.56456871952901
 20
547.0707535808998
 30
0.0
 40
1.2700129999999981
 50
89.736617000001587
 51
270.26336999999921
  0
ARC
  5
5EC5
  8
AM_0
 10
153.63042871952899
 20
537.06074358089995
 30
0.0
 40
1.3300049999999981
 50
90.00000299999769
 51
270.0
  0
ARC
  5
5EC6
  8
AM_0
 10
153.76042871952899
 20
527.0457235808999
 30
0.0
 40
1.465004
 50
90.00000299999769
 51
270.0
  0
ARC
  5
5EC7
  8
AM_0
 10
153.973568719529
 20
517.02570358089986
 30
0.0
 40
1.675014
 50
89.766499000003279
 51
270.2335099999994
  0
ARC
  5
5EC8
  8
AM_0
 10
142.29717871952909
 20
511.0974835808999
 30
0.0
 40
1.0032760000000001
 50
334.19810000000479
 51
359.6181099999983
  0
ARC
  5
5EC9
  8
AM_0
 10
139.298888719529
 20
511.83002358089999
 30
0.0
 40
0.9984580299999999
 50
179.95957999999851
 51
239.38657000000219
  0
ARC
  5
5ECA
  8
AM_0
 10
155.49913871952899
 20
606.35663358090005
 30
0.0
 40
1.994108999999999
 50
89.675547999996226
 51
169.18776999999901
  0
ARC
  5
5ECB
  8
AM_0
 10
155.550658719529
 20
609.20551358089995
 30
0.0
 40
1.995282999999997
 50
90.006203999996856
 51
170.90835000000069
  0
ARC
  5
5ECC
  8
AM_0
 10
155.564998719529
 20
611.05402358089975
 30
0.0
 40
1.9967330000000001
 50
89.843966999998912
 51
171.45388000000381
  0
ARC
  5
5ECD
  8
AM_0
 10
155.58690871952899
 20
611.96515358089994
 30
0.0
 40
1.995633
 50
89.899708000002292
 51
172.06112999999939
  0
ARC
  5
5ECE
  8
AM_0
 10
252.43053871952901
 20
606.35248358089984
 30
0.0
 40
1.9982919999999991
 50
15.032547999996
 51
90.002632000001341
  0
ARC
  5
5ECF
  8
AM_0
 10
259.95360871952897
 20
591.79352358089977
 30
0.0
 40
1.502775999999999
 50
194.75642999999971
 51
269.87757999999872
  0
ARC
  5
5ED0
  8
AM_0
 10
252.4255887195292
 20
497.79548358089988
 30
0.0
 40
2.0047290000000002
 50
270.13832000000423
 51
344.82650000000189
  0
ARC
  5
5ED1
  8
AM_0
 10
139.29802871952921
 20
504.05536358089989
 30
0.0
 40
0.9976310099999999
 50
180.2678099999986
 51
240.07924000000381
  0
ARC
  5
5ED2
  8
AM_0
 10
139.29613871952901
 20
505.10114358089999
 30
0.0
 40
0.9956849800000001
 50
180.02113
 51
243.4091400000006
  0
ARC
  5
5ED3
  8
AM_0
 10
140.5811087195288
 20
503.32184358089989
 30
0.0
 40
1.001123999999999
 50
239.32781999999969
 51
269.38768000000198
  0
ARC
  5
5ED4
  8
AM_0
 10
140.54625871952879
 20
504.47004358089981
 30
0.0
 40
0.9993420200000001
 50
242.86200000000241
 51
269.6654599999984
  0
ARC
  5
5ED5
  8
AM_0
 10
140.57182871952921
 20
505.43439358089989
 30
0.0
 40
1.0037439999999991
 50
239.3711300000019
 51
270.49190000000061
  0
ARC
  5
5ED6
  8
AM_0
 10
140.555598719529
 20
506.5713635808998
 30
0.0
 40
1.0006820000000001
 50
241.65062000000049
 51
269.70392999999558
  0
ARC
  5
5ED7
  8
AM_0
 10
140.59319871952911
 20
509.95124358089998
 30
0.0
 40
1.000521999999999
 50
237.14618000000229
 51
270.41343999999719
  0
ARC
  5
5ED8
  8
AM_0
 10
140.56377871952901
 20
511.09174358090002
 30
0.0
 40
1.0010449999999991
 50
240.47187000000389
 51
270.37970999999948
  0
ARC
  5
5ED9
  8
AM_0
 10
139.298888719529
 20
511.83002358089999
 30
0.0
 40
0.9984580299999999
 50
179.95957999999851
 51
239.38657000000219
  0
ARC
  5
5EDA
  8
AM_0
 10
139.2994987195288
 20
510.79548358089988
 30
0.0
 40
0.9990889999999998
 50
179.6950899999965
 51
236.66209000000109
  0
ARC
  5
5EDB
  8
AM_0
 10
139.2981487195288
 20
507.23200358089969
 30
0.0
 40
0.9977070099999998
 50
180.074020000004
 51
242.04481000000081
  0
ARC
  5
5EDC
  8
AM_0
 10
139.29918871952901
 20
506.19428358089988
 30
0.0
 40
0.9987969999999998
 50
179.62728000000101
 51
238.70794999999561
  0
ARC
  5
5EDD
  8
AM_0
 10
142.2979687195288
 20
511.09321358089989
 30
0.0
 40
1.002470999999999
 50
270.14107000000013
 51
359.85892999999987
  0
ARC
  5
5EDE
  8
AM_0
 10
142.29631871952901
 20
506.57490358089979
 30
0.0
 40
1.004119999999999
 50
270.23460999999998
 51
359.76539000000002
  0
ARC
  5
5EDF
  8
AM_0
 10
142.79704871952899
 20
503.97419358089991
 30
0.0
 40
0.5033929900000002
 50
270.38491000000062
 51
359.61509999999811
  0
ARC
  5
5EE0
  8
AM_0
 10
142.8008987195291
 20
501.8212335808999
 30
0.0
 40
0.49952301
 50
359.9452300000014
 51
90.054773999999625
  0
ARC
  5
5EE1
  8
AM_0
 10
155.50530871952901
 20
497.78998358089962
 30
0.0
 40
1.9992490000000001
 50
190.643100000001
 51
270.14743000000129
  0
ARC
  5
5EE2
  8
AM_0
 10
155.5566387195291
 20
494.94111358089998
 30
0.0
 40
2.000420099999999
 50
188.9268200000011
 51
269.82270999999599
  0
ARC
  5
5EE3
  8
AM_0
 10
240.81401871952909
 20
488.0707535808998
 30
0.0
 40
1.5
 50
90.00000299999769
 51
178.4999999999973
  0
ARC
  5
5EE4
  8
AM_0
 10
252.3166487195291
 20
491.0707535808998
 30
0.0
 40
1.5
 50
269.999989999999
 51
326.99999999999892
  0
ARC
  5
5EE5
  8
AM_0
 10
155.28703871952899
 20
494.94074358089989
 30
0.0
 40
2.0
 50
188.62961999999749
 51
269.999989999999
  0
ARC
  5
5EE6
  8
AM_0
 10
155.206658719529
 20
494.94074358089989
 30
0.0
 40
2.0
 50
187.9504400000034
 51
269.999989999999
  0
ARC
  5
5EE7
  8
AM_0
 10
177.69853871952901
 20
491.44074358089989
 30
0.0
 40
1.5
 50
1.5000027000022329
 51
90.00000299999769
  0
ARC
  5
5EE8
  8
AM_0
 10
188.73912871952891
 20
567.07075358089992
 30
0.0
 40
1.0000056999999991
 50
269.999989999999
 51
90.00000299999769
  0
ARC
  5
5EE9
  8
AM_0
 10
188.73912871952891
 20
557.07075358089992
 30
0.0
 40
1.0000056999999991
 50
269.999989999999
 51
90.00000299999769
  0
ARC
  5
5EEA
  8
AM_0
 10
188.73912871952891
 20
547.0707535808998
 30
0.0
 40
1.0000056999999991
 50
269.999989999999
 51
90.00000299999769
  0
ARC
  5
5EEB
  8
AM_0
 10
188.73912871952891
 20
537.07075358089992
 30
0.0
 40
1.0000056999999991
 50
269.999989999999
 51
90.00000299999769
  0
ARC
  5
5EEC
  8
AM_0
 10
239.300408719529
 20
519.57075358089992
 30
0.0
 40
1.5
 50
179.999989999999
 51
270.0
  0
ARC
  5
5EED
  8
AM_0
 10
221.3004087195292
 20
519.57075358089992
 30
0.0
 40
1.5
 50
269.999989999999
 51
0.0000006832495047
  0
ARC
  5
5EEE
  8
AM_0
 10
221.32042871952919
 20
519.71076358089999
 30
0.0
 40
1.0
 50
269.999989999999
 51
0.0000006832495047
  0
ARC
  5
5EEF
  8
AM_0
 10
239.28044871952901
 20
519.71076358089999
 30
0.0
 40
1.0
 50
179.999989999999
 51
270.0
  0
CIRCLE
  5
5EF0
  8
AM_0
 10
227.800408719529
 20
580.57075358089969
 30
0.0
 40
1.1000000000000001
  0
CIRCLE
  5
5EF1
  8
AM_0
 10
227.800408719529
 20
580.57075358089969
 30
0.0
 40
1.149999999999999
  0
CIRCLE
  5
5EF2
  8
AM_0
 10
232.800408719529
 20
580.57075358089969
 30
0.0
 40
1.0
  0
ARC
  5
5EF3
  8
AM_0
 10
221.3004087195292
 20
579.57075358089992
 30
0.0
 40
1.02
 50
269.999989999999
 51
0.0000006832429909
  0
ARC
  5
5EF4
  8
AM_0
 10
239.300408719529
 20
579.57075358089992
 30
0.0
 40
1.02
 50
179.999989999999
 51
270.0
  0
ARC
  5
5EF5
  8
AM_0
 10
221.3004087195292
 20
579.57075358089992
 30
0.0
 40
1.5
 50
269.999989999999
 51
0.0000006832495047
  0
ARC
  5
5EF6
  8
AM_0
 10
239.300408719529
 20
579.57075358089992
 30
0.0
 40
1.5
 50
179.999989999999
 51
270.0
  0
CIRCLE
  5
5EF7
  8
AM_0
 10
232.800408719529
 20
523.57075358089992
 30
0.0
 40
1.0
  0
CIRCLE
  5
5EF8
  8
AM_0
 10
227.800408719529
 20
523.57075358089992
 30
0.0
 40
1.149999999999999
  0
CIRCLE
  5
5EF9
  8
AM_0
 10
227.800408719529
 20
523.57075358089992
 30
0.0
 40
1.1000000000000001
  0
ARC
  5
5EFA
  8
AM_0
 10
221.3004087195292
 20
524.57075358089992
 30
0.0
 40
1.02
 50
0.0
 51
90.00000299999769
  0
ARC
  5
5EFB
  8
AM_0
 10
239.300408719529
 20
524.57075358089992
 30
0.0
 40
1.02
 50
90.00000299999769
 51
180.00001000000091
  0
ARC
  5
5EFC
  8
AM_0
 10
221.3004087195292
 20
524.57075358089992
 30
0.0
 40
1.5
 50
0.0
 51
90.00000299999769
  0
ARC
  5
5EFD
  8
AM_0
 10
239.300408719529
 20
524.57075358089992
 30
0.0
 40
1.5
 50
90.00000299999769
 51
180.00001000000091
  0
ARC
  5
5EFE
  8
AM_0
 10
189.9653887195291
 20
537.06074358089995
 30
0.0
 40
1.3300148000000001
 50
269.7294199999987
 51
90.270567000000995
  0
ARC
  5
5EFF
  8
AM_0
 10
190.02733871952901
 20
547.0707535808998
 30
0.0
 40
1.2700266
 50
269.62932000000001
 51
90.370670000004694
  0
ARC
  5
5F00
  8
AM_0
 10
190.02733871952901
 20
557.08076358089966
 30
0.0
 40
1.2700266
 50
269.62932000000001
 51
90.370670000004694
  0
ARC
  5
5F01
  8
AM_0
 10
189.9653887195291
 20
567.08576358089988
 30
0.0
 40
1.3350147999999991
 50
269.7304299999999
 51
90.269556000001344
  0
ARC
  5
5F02
  8
AM_0
 10
253.64037871952911
 20
577.07075358089992
 30
0.0
 40
1.0000255999999981
 50
269.5894700000033
 51
90.410530999997775
  0
ARC
  5
5F03
  8
AM_0
 10
257.34038871952902
 20
577.10078358089993
 30
0.0
 40
1.460011199999999
 50
269.77524999999667
 51
90.224749999996845
  0
ARC
  5
5F04
  8
AM_0
 10
253.64037871952911
 20
527.07075358089992
 30
0.0
 40
1.0000255999999981
 50
269.5894700000033
 51
90.410530999997775
  0
ARC
  5
5F05
  8
AM_0
 10
257.34038871952902
 20
527.04072358089957
 30
0.0
 40
1.460011199999999
 50
269.77524999999667
 51
90.224749999996845
  0
ARC
  5
5F06
  8
AM_0
 10
239.28044871952901
 20
584.43073358089975
 30
0.0
 40
1.0
 50
90.00000299999769
 51
180.00001000000091
  0
ARC
  5
5F07
  8
AM_0
 10
239.300408719529
 20
584.57075358089969
 30
0.0
 40
1.5
 50
90.00000299999769
 51
180.00001000000091
  0
ARC
  5
5F08
  8
AM_0
 10
221.3004087195292
 20
584.57075358089969
 30
0.0
 40
1.5
 50
0.0
 51
90.00000299999769
  0
ARC
  5
5F09
  8
AM_0
 10
221.32042871952919
 20
584.43073358089975
 30
0.0
 40
1.0
 50
0.0
 51
90.00000299999769
  0
POLYLINE
  5
5F0A
  8
AM_0
 66
     1
 10
0.0
 20
0.0
 30
0.0
  0
VERTEX
  5
5F0B
  8
AM_0
 10
154.6603987195291
 20
552.07075358089992
 30
0.0
 42
0.00039106593
  0
VERTEX
  5
5F0C
  8
AM_0
 10
154.658038719529
 20
551.75961358089967
 30
0.0
 42
0.00040574899
  0
VERTEX
  5
5F0D
  8
AM_0
 10
154.65616871952901
 20
551.4485035808998
 30
0.0
 42
0.0003534546
  0
VERTEX
  5
5F0E
  8
AM_0
 10
154.65477871952911
 20
551.1374035808999
 30
0.0
 42
0.00034407327
  0
VERTEX
  5
5F0F
  8
AM_0
 10
154.65379871952899
 20
550.82626358089965
 30
0.0
 42
0.00045699408
  0
VERTEX
  5
5F10
  8
AM_0
 10
154.6533387195291
 20
550.51515358090001
 30
0.0
 42
0.00035571853
  0
VERTEX
  5
5F11
  8
AM_0
 10
154.65337871952909
 20
550.20405358089977
 30
0.0
 42
0.00038547362
  0
VERTEX
  5
5F12
  8
AM_0
 10
154.65386871952899
 20
549.89291358089997
 30
0.0
 42
0.00035501498
  0
VERTEX
  5
5F13
  8
AM_0
 10
154.65482871952901
 20
549.58181358089985
 30
0.0
 42
0.00040118614
  0
VERTEX
  5
5F14
  8
AM_0
 10
154.656248719529
 20
549.27057358089985
 30
0.0
 42
0.00038319871
  0
VERTEX
  5
5F15
  8
AM_0
 10
154.6581587195291
 20
548.9594435808998
 30
0.0
 42
0.00040742136
  0
VERTEX
  5
5F16
  8
AM_0
 10
154.66055871952909
 20
548.64821358090001
 30
0.0
 42
0.0003578071
  0
VERTEX
  5
5F17
  8
AM_0
 10
154.66344871952899
 20
548.33710358089957
 30
0.0
  0
SEQEND
  5
5F18
  8
AM_0
  0
POLYLINE
  5
5F19
  8
AM_0
 66
     1
 10
0.0
 20
0.0
 30
0.0
  0
VERTEX
  5
5F1A
  8
AM_0
 10
154.70445871952899
 20
545.80036358089978
 30
0.0
 42
0.00076695232
  0
VERTEX
  5
5F1B
  8
AM_0
 10
154.71925871952891
 20
545.18260358089981
 30
0.0
 42
0.00073263044
  0
VERTEX
  5
5F1C
  8
AM_0
 10
154.73589871952919
 20
544.56500358089977
 30
0.0
 42
0.0007652599
  0
VERTEX
  5
5F1D
  8
AM_0
 10
154.754388719529
 20
543.94733358089968
 30
0.0
 42
0.00075144485
  0
VERTEX
  5
5F1E
  8
AM_0
 10
154.77475871952919
 20
543.32973358089987
 30
0.0
 42
0.00078594403
  0
VERTEX
  5
5F1F
  8
AM_0
 10
154.797008719529
 20
542.71230358089997
 30
0.0
 42
0.00073349202
  0
VERTEX
  5
5F20
  8
AM_0
 10
154.82115871952891
 20
542.09492358089983
 30
0.0
 42
0.0007358075
  0
VERTEX
  5
5F21
  8
AM_0
 10
154.8470987195291
 20
541.47752358089986
 30
0.0
 42
0.00078592699
  0
VERTEX
  5
5F22
  8
AM_0
 10
154.87492871952901
 20
540.86013358089997
 30
0.0
 42
0.00074823144
  0
VERTEX
  5
5F23
  8
AM_0
 10
154.90465871952901
 20
540.24274358089986
 30
0.0
 42
0.00074896603
  0
VERTEX
  5
5F24
  8
AM_0
 10
154.93621871952899
 20
539.62561358089965
 30
0.0
 42
0.00076039765
  0
VERTEX
  5
5F25
  8
AM_0
 10
154.9696387195292
 20
539.00858358089988
 30
0.0
 42
0.00075616128
  0
VERTEX
  5
5F26
  8
AM_0
 10
155.00493871952901
 20
538.39155358089977
 30
0.0
  0
SEQEND
  5
5F27
  8
AM_0
  0
POLYLINE
  5
5F28
  8
AM_0
 66
     1
 10
0.0
 20
0.0
 30
0.0
  0
VERTEX
  5
5F29
  8
AM_0
 10
155.17864871952901
 20
535.73017358089999
 30
0.0
 42
0.00073721992
  0
VERTEX
  5
5F2A
  8
AM_0
 10
155.22279871952901
 20
535.12776358089968
 30
0.0
 42
0.00074398496
  0
VERTEX
  5
5F2B
  8
AM_0
 10
155.26872871952901
 20
534.52549358089982
 30
0.0
 42
0.00073322625
  0
VERTEX
  5
5F2C
  8
AM_0
 10
155.31645871952901
 20
533.92316358089988
 30
0.0
 42
0.00073594289
  0
VERTEX
  5
5F2D
  8
AM_0
 10
155.365938719529
 20
533.32117358089988
 30
0.0
 42
0.00074742568
  0
VERTEX
  5
5F2E
  8
AM_0
 10
155.41720871952899
 20
532.71931358089989
 30
0.0
 42
0.00073216749
  0
VERTEX
  5
5F2F
  8
AM_0
 10
155.47026871952909
 20
532.11750358089967
 30
0.0
 42
0.00074184065
  0
VERTEX
  5
5F30
  8
AM_0
 10
155.52508871952901
 20
531.51597358089987
 30
0.0
 42
0.00072077528
  0
VERTEX
  5
5F31
  8
AM_0
 10
155.5816687195292
 20
530.91474358089988
 30
0.0
 42
0.00074978179
  0
VERTEX
  5
5F32
  8
AM_0
 10
155.64000871952891
 20
530.3135435808997
 30
0.0
 42
0.00074288888
  0
VERTEX
  5
5F33
  8
AM_0
 10
155.70015871952901
 20
529.71252358089976
 30
0.0
 42
0.00072503679
  0
VERTEX
  5
5F34
  8
AM_0
 10
155.762068719529
 20
529.11178358089956
 30
0.0
 42
0.00074640584
  0
VERTEX
  5
5F35
  8
AM_0
 10
155.825738719529
 20
528.51118358089957
 30
0.0
  0
SEQEND
  5
5F36
  8
AM_0
  0
POLYLINE
  5
5F37
  8
AM_0
 66
     1
 10
0.0
 20
0.0
 30
0.0
  0
VERTEX
  5
5F38
  8
AM_0
 10
156.16130871952899
 20
525.58771358089984
 30
0.0
 42
0.0006890001
  0
VERTEX
  5
5F39
  8
AM_0
 10
156.23218871952881
 20
525.01296358089985
 30
0.0
 42
0.00070644651
  0
VERTEX
  5
5F3A
  8
AM_0
 10
156.304688719529
 20
524.43828358089968
 30
0.0
 42
0.0006924559
  0
VERTEX
  5
5F3B
  8
AM_0
 10
156.37877871952909
 20
523.86396358089996
 30
0.0
 42
0.00069587797
  0
VERTEX
  5
5F3C
  8
AM_0
 10
156.45445871952899
 20
523.28982358089957
 30
0.0
 42
0.00071687041
  0
VERTEX
  5
5F3D
  8
AM_0
 10
156.53176871952891
 20
522.71582358089961
 30
0.0
 42
0.00069759113
  0
VERTEX
  5
5F3E
  8
AM_0
 10
156.6107087195289
 20
522.14203358089992
 30
0.0
 42
0.00071003142
  0
VERTEX
  5
5F3F
  8
AM_0
 10
156.69124871952911
 20
521.56856358089976
 30
0.0
 42
0.00069954544
  0
VERTEX
  5
5F40
  8
AM_0
 10
156.77338871952901
 20
520.99546358089981
 30
0.0
 42
0.0007188852
  0
VERTEX
  5
5F41
  8
AM_0
 10
156.857168719529
 20
520.42243358090002
 30
0.0
 42
0.00071266165
  0
VERTEX
  5
5F42
  8
AM_0
 10
156.94259871952909
 20
519.84967358089955
 30
0.0
 42
0.00071614577
  0
VERTEX
  5
5F43
  8
AM_0
 10
157.029628719529
 20
519.27732358089986
 30
0.0
 42
0.00072290806
  0
VERTEX
  5
5F44
  8
AM_0
 10
157.11833871952899
 20
518.70502358089993
 30
0.0
  0
SEQEND
  5
5F45
  8
AM_0
  0
POLYLINE
  5
5F46
  8
AM_0
 66
     1
 10
0.0
 20
0.0
 30
0.0
  0
VERTEX
  5
5F47
  8
AM_0
 10
154.6603987195291
 20
552.07075358089992
 30
0.0
 42
-0.00039106653
  0
VERTEX
  5
5F48
  8
AM_0
 10
154.658038719529
 20
552.38188358089997
 30
0.0
 42
-0.00040574511
  0
VERTEX
  5
5F49
  8
AM_0
 10
154.65616871952901
 20
552.69299358089995
 30
0.0
 42
-0.00035346331
  0
VERTEX
  5
5F4A
  8
AM_0
 10
154.65477871952911
 20
553.00410358089994
 30
0.0
 42
-0.00034406545
  0
VERTEX
  5
5F4B
  8
AM_0
 10
154.65379871952899
 20
553.31524358089985
 30
0.0
 42
-0.00045699059
  0
VERTEX
  5
5F4C
  8
AM_0
 10
154.6533387195291
 20
553.62634358089986
 30
0.0
 42
-0.00035573431
  0
VERTEX
  5
5F4D
  8
AM_0
 10
154.65337871952909
 20
553.93744358089998
 30
0.0
 42
-0.00038545888
  0
VERTEX
  5
5F4E
  8
AM_0
 10
154.65386871952899
 20
554.24858358089978
 30
0.0
 42
-0.00035501203
  0
VERTEX
  5
5F4F
  8
AM_0
 10
154.65482871952901
 20
554.55969358089976
 30
0.0
 42
-0.00040120778
  0
VERTEX
  5
5F50
  8
AM_0
 10
154.656248719529
 20
554.87092358089967
 30
0.0
 42
-0.00038317821
  0
VERTEX
  5
5F51
  8
AM_0
 10
154.6581587195291
 20
555.18205358089995
 30
0.0
 42
-0.00040741862
  0
VERTEX
  5
5F52
  8
AM_0
 10
154.66055871952909
 20
555.49328358089986
 30
0.0
 42
-0.00035783324
  0
VERTEX
  5
5F53
  8
AM_0
 10
154.66344871952899
 20
555.80439358089995
 30
0.0
  0
SEQEND
  5
5F54
  8
AM_0
  0
POLYLINE
  5
5F55
  8
AM_0
 66
     1
 10
0.0
 20
0.0
 30
0.0
  0
VERTEX
  5
5F56
  8
AM_0
 10
154.70445871952899
 20
558.34113358089996
 30
0.0
 42
-0.00076691987
  0
VERTEX
  5
5F57
  8
AM_0
 10
154.71925871952891
 20
558.95889358089994
 30
0.0
 42
-0.00073262795
  0
VERTEX
  5
5F58
  8
AM_0
 10
154.73589871952919
 20
559.57649358089998
 30
0.0
 42
-0.0007652954
  0
VERTEX
  5
5F59
  8
AM_0
 10
154.754388719529
 20
560.19416358090007
 30
0.0
 42
-0.00077334627
  0
VERTEX
  5
5F5A
  8
AM_0
 10
154.7747987195292
 20
560.81176358089999
 30
0.0
 42
-0.00073282897
  0
VERTEX
  5
5F5B
  8
AM_0
 10
154.79705871952899
 20
561.42918358089992
 30
0.0
 42
-0.0007571179
  0
VERTEX
  5
5F5C
  8
AM_0
 10
154.82115871952891
 20
562.04670358089982
 30
0.0
 42
-0.00073783152
  0
VERTEX
  5
5F5D
  8
AM_0
 10
154.8470987195291
 20
562.66409358089982
 30
0.0
 42
-0.0007835518
  0
VERTEX
  5
5F5E
  8
AM_0
 10
154.87492871952901
 20
563.28136358089978
 30
0.0
 42
-0.00074826133
  0
VERTEX
  5
5F5F
  8
AM_0
 10
154.90465871952901
 20
563.89875358089989
 30
0.0
 42
-0.00074893555
  0
VERTEX
  5
5F60
  8
AM_0
 10
154.93621871952899
 20
564.51588358089998
 30
0.0
 42
-0.00076039841
  0
VERTEX
  5
5F61
  8
AM_0
 10
154.9696387195292
 20
565.13291358089987
 30
0.0
 42
-0.00075618789
  0
VERTEX
  5
5F62
  8
AM_0
 10
155.00493871952901
 20
565.74994358089998
 30
0.0
  0
SEQEND
  5
5F63
  8
AM_0
  0
POLYLINE
  5
5F64
  8
AM_0
 66
     1
 10
0.0
 20
0.0
 30
0.0
  0
VERTEX
  5
5F65
  8
AM_0
 10
155.17864871952901
 20
568.41132358089976
 30
0.0
 42
-0.0007337051
  0
VERTEX
  5
5F66
  8
AM_0
 10
155.22278871952909
 20
569.01373358089995
 30
0.0
 42
-0.00075211323
  0
VERTEX
  5
5F67
  8
AM_0
 10
155.26872871952901
 20
569.61613358089994
 30
0.0
 42
-0.0007297491
  0
VERTEX
  5
5F68
  8
AM_0
 10
155.31645871952901
 20
570.21833358089987
 30
0.0
 42
-0.00073593041
  0
VERTEX
  5
5F69
  8
AM_0
 10
155.365938719529
 20
570.82032358089987
 30
0.0
 42
-0.00074742739
  0
VERTEX
  5
5F6A
  8
AM_0
 10
155.41720871952899
 20
571.42218358089985
 30
0.0
 42
-0.00073217363
  0
VERTEX
  5
5F6B
  8
AM_0
 10
155.47026871952909
 20
572.02399358089986
 30
0.0
 42
-0.00073754168
  0
VERTEX
  5
5F6C
  8
AM_0
 10
155.52508871952901
 20
572.62553358089986
 30
0.0
 42
-0.00073075073
  0
VERTEX
  5
5F6D
  8
AM_0
 10
155.5816687195292
 20
573.22688358089999
 30
0.0
 42
-0.00074550816
  0
VERTEX
  5
5F6E
  8
AM_0
 10
155.64000871952891
 20
573.82795358089993
 30
0.0
 42
-0.00074288416
  0
VERTEX
  5
5F6F
  8
AM_0
 10
155.70015871952901
 20
574.42897358089976
 30
0.0
 42
-0.00072504001
  0
VERTEX
  5
5F70
  8
AM_0
 10
155.762068719529
 20
575.02971358089985
 30
0.0
 42
-0.00074640667
  0
VERTEX
  5
5F71
  8
AM_0
 10
155.825738719529
 20
575.63032358089981
 30
0.0
  0
SEQEND
  5
5F72
  8
AM_0
  0
POLYLINE
  5
5F73
  8
AM_0
 66
     1
 10
0.0
 20
0.0
 30
0.0
  0
VERTEX
  5
5F74
  8
AM_0
 10
156.16130871952899
 20
578.55378358090002
 30
0.0
 42
-0.00068898283
  0
VERTEX
  5
5F75
  8
AM_0
 10
156.23218871952881
 20
579.12853358090001
 30
0.0
 42
-0.00070644357
  0
VERTEX
  5
5F76
  8
AM_0
 10
156.304688719529
 20
579.70322358089993
 30
0.0
 42
-0.00069248074
  0
VERTEX
  5
5F77
  8
AM_0
 10
156.37877871952909
 20
580.27753358089967
 30
0.0
 42
-0.0006958566
  0
VERTEX
  5
5F78
  8
AM_0
 10
156.45445871952899
 20
580.85167358089996
 30
0.0
 42
-0.00071687219
  0
VERTEX
  5
5F79
  8
AM_0
 10
156.53176871952891
 20
581.42567358089968
 30
0.0
 42
-0.00069760022
  0
VERTEX
  5
5F7A
  8
AM_0
 10
156.6107087195289
 20
581.99946358090017
 30
0.0
 42
-0.00071002302
  0
VERTEX
  5
5F7B
  8
AM_0
 10
156.69124871952911
 20
582.57293358089987
 30
0.0
 42
-0.00069954889
  0
VERTEX
  5
5F7C
  8
AM_0
 10
156.77338871952901
 20
583.14603358089994
 30
0.0
 42
-0.00071887947
  0
VERTEX
  5
5F7D
  8
AM_0
 10
156.857168719529
 20
583.71906358089996
 30
0.0
 42
-0.00071266929
  0
VERTEX
  5
5F7E
  8
AM_0
 10
156.94259871952909
 20
584.29183358089949
 30
0.0
 42
-0.00071614429
  0
VERTEX
  5
5F7F
  8
AM_0
 10
157.029628719529
 20
584.86417358089955
 30
0.0
 42
-0.00072288978
  0
VERTEX
  5
5F80
  8
AM_0
 10
157.11833871952899
 20
585.43647358089981
 30
0.0
  0
SEQEND
  5
5F81
  8
AM_0
  0
LINE
  5
5F82
  8
ﾁｭｳｼﾝｾﾝ1
 10
349.30037871952891
 20
617.07075358089992
 30
0.0
 11
369.30037871952891
 21
617.07075358089992
 31
0.0
  0
LINE
  5
5F83
  8
ﾁｭｳｼﾝｾﾝ1
 10
359.30037871952891
 20
627.07075358089992
 30
0.0
 11
359.30037871952891
 21
607.07075358089992
 31
0.0
  0
LINE
  5
5F85
  8
ﾁｭｳｼﾝｾﾝ1
 10
349.30037871952891
 20
487.07075358089998
 30
0.0
 11
369.30037871952891
 21
487.07075358089998
 31
0.0
  0
LINE
  5
5F86
  8
ﾁｭｳｼﾝｾﾝ1
 10
359.30037871952891
 20
497.07075358089992
 30
0.0
 11
359.30037871952891
 21
477.07075358089992
 31
0.0
  0
LINE
  5
5F87
  8
ﾁｭｳｼﾝｾﾝ1
 10
279.30037871952908
 20
487.07075358089998
 30
0.0
 11
299.30037871952908
 21
487.07075358089998
 31
0.0
  0
LINE
  5
5F88
  8
ﾁｭｳｼﾝｾﾝ1
 10
289.30037871952908
 20
497.07075358089992
 30
0.0
 11
289.30037871952908
 21
477.07075358089992
 31
0.0
  0
LINE
  5
5F89
  8
ﾁｭｳｼﾝｾﾝ1
 10
279.30037871952908
 20
617.07075358089992
 30
0.0
 11
299.30037871952908
 21
617.07075358089992
 31
0.0
  0
LINE
  5
5F8A
  8
ﾁｭｳｼﾝｾﾝ1
 10
289.30037871952908
 20
627.07075358089992
 30
0.0
 11
289.30037871952908
 21
607.07075358089992
 31
0.0
  0
ARC
  5
5F8B
  8
AM_0
 10
370.30035871952919
 20
581.45750858089991
 30
0.0
 40
2.00000007
 50
179.999989999999
 51
240.00000999999969
  0
ARC
  5
5F8C
  8
AM_0
 10
370.30035871952919
 20
522.68400158089958
 30
0.0
 40
2.00000007
 50
120.0000000000005
 51
180.00001000000091
  0
LINE
  5
5F8D
  8
AM_0
 10
374.30032871952881
 20
585.57075058089993
 30
0.0
 11
379.30032871952881
 21
580.57075058089993
 31
0.0
  0
LINE
  5
5F8E
  8
AM_0
 10
369.80032871952892
 20
585.57075058089993
 30
0.0
 11
374.30032871952892
 21
585.57075058089993
 31
0.0
  0
LINE
  5
5F8F
  8
AM_0
 10
369.30032871952892
 20
585.07075058089993
 30
0.0
 11
369.30032871952841
 21
519.07075058090049
 31
0.0
  0
LINE
  5
5F90
  8
AM_0
 10
379.30032871952881
 20
580.57075058089993
 30
0.0
 11
379.30032871952892
 21
523.57075058089993
 31
0.0
  0
LINE
  5
5F91
  8
AM_0
 10
369.80032871952892
 20
518.57075058089981
 30
0.0
 11
374.30032871952881
 21
518.57075058089981
 31
0.0
  0
LINE
  5
5F92
  8
AM_0
 10
374.30032871952881
 20
518.57075058089981
 30
0.0
 11
379.30032871952881
 21
523.57075058089993
 31
0.0
  0
LINE
  5
5F93
  8
AM_0
 10
369.80032871952892
 20
585.57075058089993
 30
0.0
 11
369.30032871952892
 21
585.07075058089993
 31
0.0
1001
GENIUS_GENFIL_13
1070
     0
1040
0.5
1040
0.5
1040
20.0
1040
0.0
1002
{
1002
}
1001
GENIUS_GENOBJ-N-CHA_13
1002
{
1000
OWNER
1000
GEN
1002
}
1001
GENIUS_GENODEF_13
1002
{
1000
HIER
1070
     0
1002
}
1002
{
1000
MANEDIT
1070
     0
1002
}
1002
{
1000
NOSEL
1070
     0
1002
}
1002
{
1000
BEHIND
1070
     0
1002
}
1002
{
1000
OTHER
1070
     0
1002
}
1002
{
1000
REACTOR
1002
}
  0
LINE
  5
5F94
  8
AM_0
 10
369.30032871952892
 20
519.0707505808997
 30
0.0
 11
369.80032871952892
 21
518.57075058089981
 31
0.0
1001
GENIUS_GENFIL_13
1070
     0
1040
0.5
1040
0.5
1040
20.0
1040
0.0
1002
{
1002
}
1001
GENIUS_GENOBJ-N-CHA_13
1002
{
1000
OWNER
1000
GEN
1002
}
1001
GENIUS_GENODEF_13
1002
{
1000
HIER
1070
     0
1002
}
1002
{
1000
MANEDIT
1070
     0
1002
}
1002
{
1000
NOSEL
1070
     0
1002
}
1002
{
1000
BEHIND
1070
     0
1002
}
1002
{
1000
OTHER
1070
     0
1002
}
1002
{
1000
REACTOR
1002
}
  0
LINE
  5
5F95
  8
AM_0
 10
374.30032871952892
 20
585.57075058089993
 30
0.0
 11
374.30032871952881
 21
518.57075058089981
 31
0.0
  0
TEXT
  5
624B
  8
AM_0
 10
508.82263260876078
 20
554.470813409735
 30
0.0
 40
10.0
  1
VX02-080MW~VX02-100MW
  0
ENDSEC
  0
EOF
