  0
SECTION
  2
HEADER
  9
$ACADVER
  1
AC1009
  9
$INSBASE
 10
0.0
 20
0.0
 30
0.0
  9
$EXTMIN
 10
117.119226671894
 20
204.55431570698011
 30
-0.0015258207003583
  9
$EXTMAX
 10
712.87358275611575
 20
619.75802417428736
 30
0.0000000349246037
  9
$LIMMIN
 10
0.0
 20
0.0
  9
$LIMMAX
 10
853.5
 20
555.00000000000011
  9
$ORTHOMODE
 70
     0
  9
$REGENMODE
 70
     1
  9
$FILLMODE
 70
     1
  9
$QTEXTMODE
 70
     0
  9
$MIRRTEXT
 70
     1
  9
$DRAGMODE
 70
     2
  9
$LTSCALE
 40
3.0
  9
$OSMODE
 70
   551
  9
$ATTMODE
 70
     1
  9
$TEXTSIZE
 40
2.5
  9
$TRACEWID
 40
1.0
  9
$TEXTSTYLE
  7
STANDARD
  9
$CLAYER
  8
AM_0
  9
$CELTYPE
  6
BYLAYER
  9
$CECOLOR
 62
   256
  9
$DIMSCALE
 40
1.0
  9
$DIMASZ
 40
2.5
  9
$DIMEXO
 40
1.0
  9
$DIMDLI
 40
8.0
  9
$DIMRND
 40
0.0
  9
$DIMDLE
 40
0.0
  9
$DIMEXE
 40
0.6
  9
$DIMTP
 40
0.1
  9
$DIMTM
 40
0.1
  9
$DIMTXT
 40
2.5
  9
$DIMCEN
 40
0.0
  9
$DIMTSZ
 40
0.0
  9
$DIMTOL
 70
     0
  9
$DIMLIM
 70
     0
  9
$DIMTIH
 70
     0
  9
$DIMTOH
 70
     0
  9
$DIMSE1
 70
     0
  9
$DIMSE2
 70
     0
  9
$DIMTAD
 70
     1
  9
$DIMZIN
 70
     8
  9
$DIMBLK
  1

  9
$DIMASO
 70
     1
  9
$DIMSHO
 70
     1
  9
$DIMPOST
  1

  9
$DIMAPOST
  1
"
  9
$DIMALT
 70
     0
  9
$DIMALTD
 70
     2
  9
$DIMALTF
 40
0.0393701
  9
$DIMLFAC
 40
1.0
  9
$DIMTOFL
 70
     1
  9
$DIMTVP
 40
0.0
  9
$DIMTIX
 70
     0
  9
$DIMSOXD
 70
     0
  9
$DIMSAH
 70
     0
  9
$DIMBLK1
  1

  9
$DIMBLK2
  1

  9
$DIMSTYLE
  2
AM_ISO
  9
$DIMCLRD
 70
   256
  9
$DIMCLRE
 70
   256
  9
$DIMCLRT
 70
     4
  9
$DIMTFAC
 40
0.71
  9
$DIMGAP
 40
0.8
  9
$LUNITS
 70
     2
  9
$LUPREC
 70
     2
  9
$SKETCHINC
 40
1.0
  9
$FILLETRAD
 40
15.0
  9
$AUNITS
 70
     0
  9
$AUPREC
 70
     0
  9
$MENU
  1
.
  9
$ELEVATION
 40
0.0
  9
$PELEVATION
 40
0.0
  9
$THICKNESS
 40
0.0
  9
$LIMCHECK
 70
     0
  9
$BLIPMODE
 70
     0
  9
$CHAMFERA
 40
6.0
  9
$CHAMFERB
 40
3.0
  9
$SKPOLY
 70
     0
  9
$TDCREATE
 40
2452065.7887456599
  9
$TDUPDATE
 40
2458541.5990344789
  9
$TDINDWG
 40
0.1250371991
  9
$TDUSRTIMER
 40
0.1250371875
  9
$USRTIMER
 70
     1
  9
$ANGBASE
 50
0.0
  9
$ANGDIR
 70
     0
  9
$PDMODE
 70
     0
  9
$PDSIZE
 40
0.0
  9
$PLINEWID
 40
0.0
  9
$COORDS
 70
     1
  9
$SPLFRAME
 70
     0
  9
$SPLINETYPE
 70
     6
  9
$SPLINESEGS
 70
     8
  9
$ATTDIA
 70
     1
  9
$ATTREQ
 70
     1
  9
$HANDLING
 70
     1
  9
$HANDSEED
  5
43CB
  9
$SURFTAB1
 70
     6
  9
$SURFTAB2
 70
     6
  9
$SURFTYPE
 70
     6
  9
$SURFU
 70
     6
  9
$SURFV
 70
     6
  9
$UCSNAME
  2

  9
$UCSORG
 10
0.0
 20
0.0
 30
0.0
  9
$UCSXDIR
 10
1.0
 20
0.0
 30
0.0
  9
$UCSYDIR
 10
0.0
 20
1.0
 30
0.0
  9
$PUCSNAME
  2

  9
$PUCSORG
 10
0.0
 20
0.0
 30
0.0
  9
$PUCSXDIR
 10
1.0
 20
0.0
 30
0.0
  9
$PUCSYDIR
 10
0.0
 20
1.0
 30
0.0
  9
$USERI1
 70
     0
  9
$USERI2
 70
     0
  9
$USERI3
 70
     0
  9
$USERI4
 70
     0
  9
$USERI5
 70
     0
  9
$USERR1
 40
0.0
  9
$USERR2
 40
0.0
  9
$USERR3
 40
0.0
  9
$USERR4
 40
0.0
  9
$USERR5
 40
0.0
  9
$WORLDVIEW
 70
     1
  9
$SHADEDGE
 70
     3
  9
$SHADEDIF
 70
    70
  9
$TILEMODE
 70
     1
  9
$MAXACTVP
 70
    64
  9
$PLIMCHECK
 70
     0
  9
$PEXTMIN
 10
1.0000000000000000E+020
 20
1.0000000000000000E+020
 30
1.0000000000000000E+020
  9
$PEXTMAX
 10
-1.0000000000000000E+020
 20
-1.0000000000000000E+020
 30
-1.0000000000000000E+020
  9
$PLIMMIN
 10
0.0
 20
0.0
  9
$PLIMMAX
 10
420.0
 20
297.0
  9
$UNITMODE
 70
     0
  9
$VISRETAIN
 70
     1
  9
$PLINEGEN
 70
     0
  9
$PSLTSCALE
 70
     1
  0
ENDSEC
  0
SECTION
  2
TABLES
  0
TABLE
  2
VPORT
 70
     1
  0
VPORT
  2
*ACTIVE
 70
     0
 10
0.0
 20
0.0
 11
1.0
 21
1.0
 12
414.99640471400488
 22
412.15616994063367
 13
0.0
 23
0.0
 14
7.5
 24
7.5
 15
30.0
 25
30.0
 16
0.0
 26
0.0
 36
1.0
 17
0.0
 27
0.0
 37
0.0
 40
418.05407717532069
 41
1.7571592210767459
 42
50.0
 43
0.0
 44
0.0
 50
0.0
 51
0.0
 71
     0
 72
   100
 73
     1
 74
     3
 75
     0
 76
     0
 77
     0
 78
     0
  0
ENDTAB
  0
TABLE
  2
LTYPE
 70
    27
  0
LTYPE
  2
CONTINUOUS
 70
     0
  3
Solid line
 72
    65
 73
     0
 40
0.0
  0
LTYPE
  2
AM_ISO02W050
 70
     0
  3
__ __ __ __ __ __ __ __ __ __ __ __ __ __ __
 72
    65
 73
     2
 40
7.5
 49
6.0
 49
-1.5
  0
LTYPE
  2
AM_ISO08W050
 70
     0
  3
____ . ____ . ____ . ____ . ____ . ____ . ____
 72
    65
 73
     4
 40
18.0
 49
12.0
 49
-1.5
 49
3.0
 49
-1.5
  0
LTYPE
  2
AM_ISO09W050
 70
     0
  3
_____ . . _____ . . _____ . . ____ .. ____
 72
    65
 73
     6
 40
22.5
 49
12.0
 49
-1.5
 49
3.0
 49
-1.5
 49
3.0
 49
-1.5
  0
LTYPE
  2
AMCONSTR
 70
     0
  3
_______________________
 72
    65
 73
     2
 40
9999.0
 49
9999.0
 49
0.0
  0
LTYPE
  2
AM_ISO08W050X2
 70
     0
  3
__ . __ . __ . __ . __ . __
 72
    65
 73
     4
 40
9.0
 49
6.0
 49
-0.75
 49
1.5
 49
-0.75
  0
LTYPE
  2
AM_ISO02W050X2
 70
     0
  3
 _ _ _ _ _ _ _ _ _ _ _ _
 72
    65
 73
     2
 40
3.75
 49
3.0
 49
-0.75
  0
LTYPE
  2
AMZIGZAG
 70
     0
  3
/\/-/\/-/\/-/\/-/\/-/\/
 72
    65
 73
     2
 40
11.0001
 49
0.0001
 49
-11.0
  0
LTYPE
  2
ACISOWELD
 70
     0
  3
_ _ _ _ _
 72
    65
 73
     2
 40
2.0
 49
2.0
 49
-1.0
  0
LTYPE
  2
ACISOTGB
 70
     0
  3
__ . . __ . .
 72
    65
 73
     6
 40
9.0
 49
4.0
 49
-1.0
 49
1.0
 49
-1.0
 49
1.0
 49
-1.0
  0
LTYPE
  2
ACISOTGL
 70
     0
  3
_ _ _ _ _
 72
    65
 73
     2
 40
3.0
 49
2.0
 49
-1.0
  0
LTYPE
  2
CENTER
 70
     0
  3
__ . __
 72
    65
 73
     4
 40
7.0
 49
4.0
 49
-1.0
 49
1.0
 49
-1.0
  0
LTYPE
  2
HIDDEN
 70
     0
  3
Hidden __ __ __ __ __ __ __ __ __ __ __ __ __ _
 72
    65
 73
     2
 40
9.5249999999999986
 49
6.3499999999999979
 49
-3.174999999999998
  0
LTYPE
  2
PHANTOM2
 70
     0
  3
Phantom (.5x) ___ _ _ ___ _ _ ___ _ _ ___ _ _
 72
    65
 73
     6
 40
31.75
 49
15.875
 49
-3.174999999999998
 49
3.174999999999998
 49
-3.174999999999998
 49
3.174999999999998
 49
-3.174999999999998
  0
LTYPE
  2
ACANSTGBM
 70
     0
  3
__ . . __ . .
 72
    65
 73
     6
 40
9.0
 49
4.0
 49
-1.0
 49
1.0
 49
-1.0
 49
1.0
 49
-1.0
  0
LTYPE
  2
ACANSTGLM
 70
     0
  3
_ _ _ _ _
 72
    65
 73
     2
 40
3.0
 49
2.0
 49
-1.0
  0
LTYPE
  2
GEN7
 70
     0
  3
____ . ____ . ____ . ____ . ____ . ____ . ____
 72
    65
 73
     4
 40
14.25
 49
9.75
 49
-1.5
 49
1.5
 49
-1.5
  0
LTYPE
  2
GEN3B
 70
     0
  3
 - - - - -
 72
    65
 73
     2
 40
1.0
 49
0.5
 49
-0.5
  0
LTYPE
  2
GEN7A
 70
     0
  3
__ . __ . __
 72
    65
 73
     4
 40
7.375
 49
4.75
 49
-0.875
 49
0.875
 49
-0.875
  0
LTYPE
  2
ACJISTGB
 70
     0
  3
__ . . __ . .
 72
    65
 73
     6
 40
9.0
 49
4.0
 49
-1.0
 49
1.0
 49
-1.0
 49
1.0
 49
-1.0
  0
LTYPE
  2
ACJISTGL
 70
     0
  3
_ _ _ _ _
 72
    65
 73
     2
 40
3.0
 49
2.0
 49
-1.0
  0
LTYPE
  2
CENTER2
 70
     0
  3
Center (.5x) ___ _ ___ _ ___ _ ___ _ ___ _ ___
 72
    65
 73
     4
 40
1.125
 49
0.75
 49
-0.125
 49
0.125
 49
-0.125
  0
LTYPE
  2
HIDDEN2
 70
     0
  3
Hidden (.5x) _ _ _ _ _ _ _ _ _ _ _ _ _ _ _ _ _
 72
    65
 73
     2
 40
0.1875
 49
0.125
 49
-0.0625
  0
LTYPE
  2
AMZIGZAG2
 70
     0
  3
/\/-/\/-/\/-/\/-/\/-/\/
 72
    65
 73
     2
 40
0.4401
 49
0.0001
 49
-0.4400000000000001
  0
LTYPE
  2
ACANSTGB
 70
     0
  3
__ . . __ . .
 72
    65
 73
     6
 40
0.35433070866
 49
0.15748031496
 49
-0.03937007874
 49
0.03937007874
 49
-0.03937007874
 49
0.03937007874
 49
-0.03937007874
  0
LTYPE
  2
ACANSTGL
 70
     0
  3
_ _ _ _ _
 72
    65
 73
     2
 40
0.11811023622
 49
0.07874015748
 49
-0.03937007874
  0
ENDTAB
  0
TABLE
  2
LAYER
 70
     8
  0
LAYER
  2
0
 70
     0
 62
     7
  6
CONTINUOUS
  0
LAYER
  2
AM_0
 70
     0
 62
     7
  6
CONTINUOUS
  0
LAYER
  2
AM_5
 70
     0
 62
     2
  6
CONTINUOUS
  0
LAYER
  2
DEFPOINTS
 70
     0
 62
     7
  6
CONTINUOUS
  0
LAYER
  2
ｶｸﾚｾﾝ2
 70
     0
 62
     3
  6
GEN3B
  0
LAYER
  2
ﾁｭｳｼﾝｾﾝ
 70
     0
 62
     1
  6
GEN7
  0
LAYER
  2
ﾁｭｳｼﾝｾﾝ1
 70
     0
 62
     1
  6
GEN7A
  0
LAYER
  2
AM_0N
 70
     0
 62
     7
  6
CONTINUOUS
  0
ENDTAB
  0
TABLE
  2
STYLE
 70
    10
  0
STYLE
  2
STANDARD
 70
     0
 40
0.0
 41
0.8299999999999999
 50
0.0
 71
     0
 42
2.5
  3
txt.shx
  4
bigfont.shx
  0
STYLE
  2
ANNOTATIVE
 70
     0
 40
0.0
 41
1.0
 50
0.0
 71
     0
 42
0.2
  3
txt
  4

  0
STYLE
  2

 70
     1
 40
0.0
 41
1.0
 50
0.0
 71
     0
 42
2.5
  3
ltypeshp.shx
  4

  0
STYLE
  2
ACISOTS
 70
     0
 40
1.0
 41
1.0
 50
0.0
 71
     0
 42
2.5
  3
isocp.shx
  4
extfont.shx
  0
STYLE
  2
ACISOGDT
 70
     0
 40
0.0
 41
1.0
 50
0.0
 71
     0
 42
2.5
  3
amgdt.shx
  4

  0
STYLE
  2
ACANSTS
 70
     0
 40
1.0
 41
1.0
 50
0.0
 71
     0
 42
2.5
  3
romans.shx
  4
bigfont.shx
  0
STYLE
  2
ACANSGDT
 70
     0
 40
0.0
 41
1.0
 50
0.0
 71
     0
 42
2.5
  3
amgdt.shx
  4

  0
STYLE
  2
ACJISTS
 70
     0
 40
1.0
 41
1.0
 50
0.0
 71
     0
 42
2.5
  3
isocp.shx
  4
bigfont.shx
  0
STYLE
  2
ACJISGDT
 70
     0
 40
0.0
 41
1.0
 50
0.0
 71
     0
 42
2.5
  3
amgdt.shx
  4

  0
STYLE
  2

 70
     1
 40
0.0
 41
1.0
 50
0.0
 71
     0
 42
2.5
  3
genltshp.shx
  4

  0
ENDTAB
  0
TABLE
  2
VIEW
 70
     6
  0
VIEW
  2
AM_VIEW1
 70
     0
 40
277.50000000000011
 10
249.64779005524869
 20
416.25
 41
499.29558011049721
 11
0.0
 21
0.0
 31
1.0
 12
0.0
 22
0.0
 32
0.0
 42
50.0
 43
0.0
 44
0.0
 50
0.0
 71
     0
  0
VIEW
  2
AM_VIEW2
 70
     0
 40
277.50000000000011
 10
603.85220994475117
 20
416.25
 41
499.29558011049721
 11
0.0
 21
0.0
 31
1.0
 12
0.0
 22
0.0
 32
0.0
 42
50.0
 43
0.0
 44
0.0
 50
0.0
 71
     0
  0
VIEW
  2
AM_VIEW3
 70
     0
 40
277.50000000000011
 10
249.64779005524869
 20
138.75
 41
499.29558011049721
 11
0.0
 21
0.0
 31
1.0
 12
0.0
 22
0.0
 32
0.0
 42
50.0
 43
0.0
 44
0.0
 50
0.0
 71
     0
  0
VIEW
  2
AM_VIEW4
 70
     0
 40
277.50000000000011
 10
603.85220994475117
 20
138.75
 41
499.29558011049721
 11
0.0
 21
0.0
 31
1.0
 12
0.0
 22
0.0
 32
0.0
 42
50.0
 43
0.0
 44
0.0
 50
0.0
 71
     0
  0
VIEW
  2
AM_VIEW5
 70
     0
 40
277.50000000000011
 10
426.75
 20
277.50000000000011
 41
499.2955801104971
 11
0.0
 21
0.0
 31
1.0
 12
0.0
 22
0.0
 32
0.0
 42
50.0
 43
0.0
 44
0.0
 50
0.0
 71
     0
  0
VIEW
  2
AM_VIEW6
 70
     0
 40
554.99445000000014
 10
426.75
 20
277.5
 41
998.5811743093924
 11
0.0
 21
0.0
 31
1.0
 12
0.0
 22
0.0
 32
0.0
 42
50.0
 43
0.0
 44
0.0
 50
0.0
 71
     0
  0
ENDTAB
  0
TABLE
  2
UCS
 70
     0
  0
ENDTAB
  0
TABLE
  2
APPID
 70
    98
  0
APPID
  2
ACAD
 70
     0
  0
APPID
  2
ACADANNOTATIVE
 70
     0
  0
APPID
  2
MCAD_NO_VIS
 70
     0
  0
APPID
  2
ACAD_TEMP_GRAPHIC
 70
     0
  0
APPID
  2
ACATTRIBSERVICES
 70
     0
  0
APPID
  2
GENIUS_GENREC_14
 70
     0
  0
APPID
  2
GENIUS_GENOBJ-N-REC_13
 70
     0
  0
APPID
  2
GENIUS_GENODEF_13
 70
     0
  0
APPID
  2
GENIUS_GENOLIS_13
 70
     0
  0
APPID
  2
GENIUS_GENOBJ-N-TIT_13
 70
     0
  0
APPID
  2
GENIUS_GENOENT_13
 70
     0
  0
APPID
  2
GENIUS_GENTITLE_13
 70
     0
  0
APPID
  2
GENIUS_GENOREF_13
 70
     0
  0
APPID
  2
GENIUS_GENSCREG_15
 70
     0
  0
APPID
  2
GENIUS_GENOBJ-N-SDF_13
 70
     0
  0
APPID
  2
GENIUS_GENFIL_13
 70
     0
  0
APPID
  2
GENIUS_GENOBJ-N-CHA_13
 70
     0
  0
APPID
  2
GENIUS_GENDTOL_13
 70
     0
  0
APPID
  2
GENIUS_GENOBJ-N-FIL_13
 70
     0
  0
APPID
  2
AD_DRAW
 70
     0
  0
APPID
  2
DESIGNERASSEMBLIES
 70
     0
  0
APPID
  2
ASURF_PCURVE_APPNAME
 70
     0
  0
APPID
  2
GENIUS_GE3SECT_13
 70
     0
  0
APPID
  2
GENIUS_GENCFG_13
 70
     0
  0
APPID
  2
GENIUS_GE3CFG0_13
 70
     0
  0
APPID
  2
GENIUS_GENCFG0_13
 70
     0
  0
APPID
  2
GENIUS_GENCFG1_13
 70
     0
  0
APPID
  2
GENIUS_GENCFG2_13
 70
     0
  0
APPID
  2
GENIUS_GENCFG3_13
 70
     0
  0
APPID
  2
GENIUS_GENCFG4_13
 70
     0
  0
APPID
  2
GENIUS_GEVCFG0_13
 70
     0
  0
APPID
  2
GENIUS_GENHINW_13
 70
     0
  0
APPID
  2
GENIUS_FIRSTVISTXT_14
 70
     0
  0
APPID
  2
GENIUS_GENOBJ-N-LEADER_13
 70
     0
  0
APPID
  2
GEV_VCCNULL_SWITCH_OFF
 70
     0
  0
APPID
  2
GENIUS_GEFCFG0_13
 70
     0
  0
APPID
  2
GENIUS_GENZVEED_13
 70
     0
  0
APPID
  2
GENIUS_GENSCREG_13
 70
     0
  0
APPID
  2
GENIUS_DUMCFG0_13
 70
     0
  0
APPID
  2
GEVID936201362
 70
     0
  0
APPID
  2
GEVDC
 70
     0
  0
APPID
  2
GEVCON
 70
     0
  0
APPID
  2
VCC
 70
     0
  0
APPID
  2
GEVPT
 70
     0
  0
APPID
  2
GEVIT
 70
     0
  0
APPID
  2
GENBH
 70
     0
  0
APPID
  2
GEVMK
 70
     0
  0
APPID
  2
GENIUS_GENBH_13
 70
     0
  0
APPID
  2
GENIUS_GENOBJ-NBEHI-BHF_13
 70
     0
  0
APPID
  2
GENIUS_GENOBJ-NBEHI-BHB_13
 70
     0
  0
APPID
  2
GENIUS_GENOBJ-F-DESC_13
 70
     0
  0
APPID
  2
GENIUS_GEFDESC_14
 70
     0
  0
APPID
  2
GENIUS_GENOBJ-F-PART_13
 70
     0
  0
APPID
  2
GENIUS_GEFSTDP_13
 70
     0
  0
APPID
  2
GENIUS_GEFPARTINS_13
 70
     0
  0
APPID
  2
GENIUS_GENTRA_14
 70
     0
  0
APPID
  2
GENIUS_GENINF13_13
 70
     0
  0
APPID
  2
GENIUS_GENOBJ-N-INFOPT_13
 70
     0
  0
APPID
  2
GENIUS_GENOBJ-N-RSSYM_13
 70
     0
  0
APPID
  2
GENIUS_GENSYMENT_13
 70
     0
  0
APPID
  2
GENIUS_GENSCSYM_13
 70
     0
  0
APPID
  2
GENIUS_GEFINFNAM_13
 70
     0
  0
APPID
  2
GENIUS_GENOBJ-N-CEN_13
 70
     0
  0
APPID
  2
GENIUS_GENOBJ-N-CRS_13
 70
     0
  0
APPID
  2
GENIUS_GENOBJ-N-CRC_13
 70
     0
  0
APPID
  2
GENIUS_GENCRC_14
 70
     0
  0
APPID
  2
GEVID942827039
 70
     0
  0
APPID
  2
GEVID942827040
 70
     0
  0
APPID
  2
GEVID942827041
 70
     0
  0
APPID
  2
GENIUS_GENOBJ-F-SCPASSM_13
 70
     0
  0
APPID
  2
GENIUS_GENDIMSH_14
 70
     0
  0
APPID
  2
GEVID942827042
 70
     0
  0
APPID
  2
GEVID946020473
 70
     0
  0
APPID
  2
GEVID946020474
 70
     0
  0
APPID
  2
GEVID946020475
 70
     0
  0
APPID
  2
GENIUS_GENOBJ-N-HTC_13
 70
     0
  0
APPID
  2
GENIUS_GENHATCH_13
 70
     0
  0
APPID
  2
GEVID948854295
 70
     0
  0
APPID
  2
GEVID939402019
 70
     0
  0
APPID
  2
GEVID952919491
 70
     0
  0
APPID
  2
GEVID952919492
 70
     0
  0
APPID
  2
GENIUS_GEFWELD_13
 70
     0
  0
APPID
  2
GENIUS_GENOBJ-F-WELS_13
 70
     0
  0
APPID
  2
GEVID952919493
 70
     0
  0
APPID
  2
GENIUS_GENOBJ-N-RSBK_13
 70
     0
  0
APPID
  2
GENIUS_GENOBJ-N-LIB_13
 70
     0
  0
APPID
  2
GENIUS_GENSCALE_13
 70
     0
  0
APPID
  2
GEVID986376691
 70
     0
  0
APPID
  2
DCO15
 70
     0
  0
APPID
  2
ACADM_DIM_EDIT
 70
     0
  0
APPID
  2
AMDT_DM_ADJ
 70
     0
  0
APPID
  2
ACAD_PSEXT
 70
     0
  0
APPID
  2
ACAD_DSTYLE_DIMJAG
 70
     0
  0
APPID
  2
ACAD_DSTYLE_DIMBREAK
 70
     0
  0
APPID
  2
ACAD_NAV_VCDISPLAY
 70
     0
  0
APPID
  2
ACADANNOPO
 70
     0
  0
APPID
  2
ACAD_EXEMPT_FROM_CAD_STANDARDS
 70
     0
  0
APPID
  2
ACAD_MLEADERVER
 70
     0
  0
ENDTAB
  0
TABLE
  2
DIMSTYLE
 70
    22
  0
DIMSTYLE
  2
STANDARD
 70
     0
  3

  4

  5

  6

  7

 40
1.0
 41
0.18
 42
0.0625
 43
0.38
 44
0.18
 45
0.0
 46
0.0
 47
0.0
 48
0.0
140
0.18
141
0.09
142
0.0
143
25.399999999999999
144
1.0
145
0.0
146
1.0
147
0.09
 71
     0
 72
     0
 73
     1
 74
     1
 75
     0
 76
     0
 77
     0
 78
     0
170
     0
171
     2
172
     0
173
     0
174
     0
175
     0
176
     0
177
     0
178
     0
  0
DIMSTYLE
  2
ANNOTATIVE
 70
     0
  3

  4

  5

  6

  7

 40
1.0
 41
0.18
 42
0.0625
 43
0.38
 44
0.18
 45
0.0
 46
0.0
 47
0.0
 48
0.0
140
0.18
141
0.09
142
0.0
143
25.399999999999999
144
1.0
145
0.0
146
1.0
147
0.09
 71
     0
 72
     0
 73
     1
 74
     1
 75
     0
 76
     0
 77
     0
 78
     0
170
     0
171
     2
172
     0
173
     0
174
     0
175
     0
176
     0
177
     0
178
     0
  0
DIMSTYLE
  2
AM_ISO
 70
     0
  3

  4
"
  5

  6

  7

 40
1.0
 41
2.5
 42
1.0
 43
8.0
 44
0.6
 45
0.0
 46
0.0
 47
0.1
 48
0.1
140
2.5
141
0.0
142
0.0
143
0.0393701
144
1.0
145
0.0
146
0.71
147
0.8
 71
     0
 72
     0
 73
     0
 74
     0
 75
     0
 76
     0
 77
     1
 78
     8
170
     0
171
     2
172
     1
173
     0
174
     0
175
     0
176
   256
177
   256
178
     4
  0
DIMSTYLE
  2
AM_ISO$3
 70
     0
  3

  4
"
  5

  6

  7

 40
1.0
 41
2.5
 42
1.0
 43
8.0
 44
0.6
 45
0.0
 46
0.0
 47
0.1
 48
0.1
140
2.5
141
0.0
142
0.0
143
0.0393701
144
1.0
145
0.0
146
0.71
147
0.8
 71
     0
 72
     0
 73
     0
 74
     1
 75
     0
 76
     0
 77
     1
 78
     8
170
     0
171
     2
172
     0
173
     0
174
     0
175
     0
176
   256
177
   256
178
     4
  0
DIMSTYLE
  2
AM_ISO$4
 70
     0
  3

  4
"
  5

  6

  7

 40
1.0
 41
2.5
 42
1.0
 43
8.0
 44
0.6
 45
0.0
 46
0.0
 47
0.1
 48
0.1
140
2.5
141
0.0
142
0.0
143
0.0393701
144
1.0
145
0.0
146
0.71
147
0.8
 71
     0
 72
     0
 73
     0
 74
     1
 75
     0
 76
     0
 77
     1
 78
     8
170
     0
171
     2
172
     0
173
     0
174
     0
175
     0
176
   256
177
   256
178
     4
  0
DIMSTYLE
  2
AM_ISO$6
 70
     0
  3

  4
"
  5

  6

  7

 40
1.0
 41
2.5
 42
1.0
 43
8.0
 44
0.6
 45
0.0
 46
0.0
 47
0.1
 48
0.1
140
2.5
141
0.0
142
0.0
143
0.0393701
144
1.0
145
0.0
146
0.71
147
0.8
 71
     0
 72
     0
 73
     0
 74
     0
 75
     0
 76
     0
 77
     0
 78
     8
170
     0
171
     2
172
     1
173
     0
174
     0
175
     0
176
   256
177
   256
178
     4
  0
DIMSTYLE
  2
AM_ISO$7
 70
     0
  3

  4
"
  5

  6

  7

 40
1.0
 41
2.5
 42
1.0
 43
8.0
 44
0.6
 45
0.0
 46
0.0
 47
0.1
 48
0.1
140
2.5
141
0.0
142
0.0
143
0.0393701
144
1.0
145
0.0
146
0.71
147
0.8
 71
     0
 72
     0
 73
     0
 74
     0
 75
     0
 76
     0
 77
     1
 78
     8
170
     0
171
     2
172
     1
173
     0
174
     0
175
     0
176
   256
177
   256
178
     4
  0
DIMSTYLE
  2
AM_ISO$SF
 70
     0
  3

  4
"
  5

  6

  7

 40
1.0
 41
2.5
 42
1.0
 43
10.0
 44
1.0
 45
0.0
 46
0.0
 47
0.1
 48
0.1
140
3.5
141
0.0
142
0.0
143
0.0393701
144
1.0
145
0.0
146
0.71
147
1.5
 71
     0
 72
     0
 73
     0
 74
     0
 75
     1
 76
     1
 77
     1
 78
     8
170
     0
171
     2
172
     1
173
     0
174
     0
175
     0
176
   256
177
   256
178
     2
  0
DIMSTYLE
  2
AM_ISO$SH
 70
     0
  3

  4
"
  5

  6

  7

 40
1.0
 41
2.5
 42
1.0
 43
10.0
 44
1.0
 45
0.0
 46
0.0
 47
0.1
 48
0.1
140
3.5
141
0.0
142
0.0
143
0.0393701
144
2.0
145
0.0
146
0.71
147
1.5
 71
     0
 72
     0
 73
     0
 74
     0
 75
     1
 76
     1
 77
     1
 78
     8
170
     0
171
     2
172
     1
173
     1
174
     0
175
     0
176
   256
177
   256
178
     2
  0
DIMSTYLE
  2
AM_JIS
 70
     0
  3

  4
"
  5

  6

  7

 40
1.0
 41
2.5
 42
1.0
 43
7.0
 44
1.0
 45
0.0
 46
0.0
 47
0.1
 48
0.1000000001
140
2.5
141
0.0
142
0.0
143
0.0393701
144
1.0
145
0.0
146
0.71
147
1.0
 71
     0
 72
     0
 73
     0
 74
     0
 75
     0
 76
     0
 77
     3
 78
     8
170
     0
171
     2
172
     1
173
     0
174
     0
175
     0
176
   256
177
   256
178
     4
  0
DIMSTYLE
  2
AM_JIS$3
 70
     0
  3

  4
"
  5

  6

  7

 40
1.0
 41
2.5
 42
1.0
 43
7.0
 44
1.0
 45
0.0
 46
0.0
 47
0.1
 48
0.1000000001
140
2.5
141
0.0
142
0.0
143
0.0393701
144
1.0
145
0.0
146
0.71
147
1.0
 71
     0
 72
     0
 73
     0
 74
     1
 75
     0
 76
     0
 77
     3
 78
     8
170
     0
171
     2
172
     0
173
     0
174
     0
175
     0
176
   256
177
   256
178
     4
  0
DIMSTYLE
  2
AM_JIS$4
 70
     0
  3

  4
"
  5

  6

  7

 40
1.0
 41
2.5
 42
1.0
 43
7.0
 44
1.0
 45
0.0
 46
0.0
 47
0.1
 48
0.1000000001
140
2.5
141
0.0
142
0.0
143
0.0393701
144
1.0
145
0.0
146
0.71
147
1.0
 71
     0
 72
     0
 73
     0
 74
     0
 75
     0
 76
     0
 77
     3
 78
     8
170
     0
171
     2
172
     0
173
     0
174
     0
175
     0
176
   256
177
   256
178
     4
  0
DIMSTYLE
  2
AM_JIS$6
 70
     0
  3

  4
"
  5

  6

  7

 40
1.0
 41
2.5
 42
1.0
 43
7.0
 44
1.0
 45
0.0
 46
0.0
 47
0.1
 48
0.1000000001
140
2.5
141
0.0
142
0.0
143
0.0393701
144
1.0
145
0.0
146
0.71
147
1.0
 71
     0
 72
     0
 73
     0
 74
     0
 75
     0
 76
     0
 77
     0
 78
     8
170
     0
171
     2
172
     1
173
     0
174
     0
175
     0
176
   256
177
   256
178
     4
  0
DIMSTYLE
  2
AM_JIS$7
 70
     0
  3

  4
"
  5

  6

  7

 40
1.0
 41
2.5
 42
1.0
 43
7.0
 44
1.0
 45
0.0
 46
0.0
 47
0.1
 48
0.1000000001
140
2.5
141
0.0
142
0.0
143
0.0393701
144
1.0
145
0.0
146
0.71
147
1.0
 71
     0
 72
     0
 73
     0
 74
     0
 75
     0
 76
     0
 77
     3
 78
     8
170
     0
171
     2
172
     1
173
     0
174
     0
175
     0
176
   256
177
   256
178
     4
  0
DIMSTYLE
  2
AM_JIS$SF
 70
     0
  3

  4
"
  5

  6

  7

 40
1.0
 41
2.5
 42
1.0
 43
10.0
 44
1.0
 45
0.0
 46
0.0
 47
0.1
 48
0.1
140
3.5
141
0.0
142
0.0
143
0.0393701
144
1.0
145
0.0
146
0.71
147
1.5
 71
     0
 72
     0
 73
     0
 74
     0
 75
     1
 76
     1
 77
     3
 78
     8
170
     0
171
     2
172
     1
173
     0
174
     0
175
     0
176
   256
177
   256
178
     4
  0
DIMSTYLE
  2
AM_JIS$SH
 70
     0
  3

  4
"
  5

  6

  7

 40
1.0
 41
2.5
 42
1.0
 43
10.0
 44
1.0
 45
0.0
 46
0.0
 47
0.1
 48
0.1
140
3.5
141
0.0
142
0.0
143
0.0393701
144
1.0
145
0.0
146
0.71
147
1.5
 71
     0
 72
     0
 73
     0
 74
     0
 75
     1
 76
     0
 77
     3
 78
     8
170
     0
171
     2
172
     1
173
     1
174
     0
175
     0
176
   256
177
   256
178
     4
  0
DIMSTYLE
  2
AM_ANSI
 70
     0
  3

  4
mm
  5

  6

  7

 40
1.0
 41
0.12
 42
0.05
 43
0.5
 44
0.1
 45
0.0
 46
0.0
 47
0.1
 48
0.1
140
0.12
141
0.0
142
0.0
143
25.399999999999999
144
1.0
145
0.0
146
0.71
147
0.06
 71
     0
 72
     0
 73
     1
 74
     1
 75
     0
 76
     0
 77
     0
 78
     7
170
     0
171
     2
172
     0
173
     0
174
     0
175
     0
176
   256
177
   256
178
     2
  0
DIMSTYLE
  2
AM_ANSI$3
 70
     0
  3

  4
mm
  5

  6

  7

 40
1.0
 41
0.12
 42
0.05
 43
0.5
 44
0.1
 45
0.0
 46
0.0
 47
0.1
 48
0.1
140
0.12
141
0.0
142
0.0
143
25.399999999999999
144
1.0
145
0.0
146
0.71
147
0.06
 71
     0
 72
     0
 73
     1
 74
     1
 75
     0
 76
     0
 77
     0
 78
     7
170
     0
171
     2
172
     0
173
     0
174
     0
175
     0
176
   256
177
   256
178
     2
  0
DIMSTYLE
  2
AM_ANSI$4
 70
     0
  3

  4
mm
  5

  6

  7

 40
1.0
 41
0.12
 42
0.05
 43
0.5
 44
0.1
 45
0.0
 46
0.0
 47
0.1
 48
0.1
140
0.12
141
0.0
142
0.0
143
25.399999999999999
144
1.0
145
0.0
146
0.71
147
0.06
 71
     0
 72
     0
 73
     1
 74
     1
 75
     0
 76
     0
 77
     0
 78
     7
170
     0
171
     2
172
     0
173
     0
174
     0
175
     0
176
   256
177
   256
178
     2
  0
DIMSTYLE
  2
AM_ANSI$7
 70
     0
  3

  4
mm
  5

  6

  7

 40
1.0
 41
0.12
 42
0.05
 43
0.5
 44
0.1
 45
0.0
 46
0.0
 47
0.1
 48
0.1
140
0.12
141
0.0
142
0.0
143
25.399999999999999
144
1.0
145
0.0
146
0.71
147
0.06
 71
     0
 72
     0
 73
     1
 74
     1
 75
     0
 76
     0
 77
     0
 78
     7
170
     0
171
     2
172
     0
173
     0
174
     0
175
     0
176
   256
177
   256
178
     2
  0
DIMSTYLE
  2
AM_ANSI$SF
 70
     0
  3

  4
mm
  5

  6

  7

 40
1.0
 41
0.12
 42
0.05
 43
0.5
 44
0.1
 45
0.0
 46
0.0
 47
0.1
 48
0.1
140
0.12
141
0.0
142
0.0
143
25.399999999999999
144
1.0
145
0.0
146
0.71
147
0.06
 71
     0
 72
     0
 73
     1
 74
     1
 75
     1
 76
     1
 77
     0
 78
     7
170
     0
171
     2
172
     0
173
     0
174
     0
175
     0
176
   256
177
   256
178
     2
  0
DIMSTYLE
  2
AM_ANSI$SH
 70
     0
  3

  4
mm
  5

  6
GENAXEH
  7

 40
1.0
 41
0.12
 42
0.05
 43
0.5
 44
0.1
 45
0.0
 46
0.0
 47
0.1
 48
0.1
140
0.12
141
0.0
142
0.0
143
25.399999999999999
144
1.0
145
0.0
146
0.71
147
0.06
 71
     0
 72
     0
 73
     1
 74
     1
 75
     1
 76
     1
 77
     0
 78
     7
170
     0
171
     2
172
     0
173
     1
174
     0
175
     0
176
   256
177
   256
178
     2
  0
ENDTAB
  0
ENDSEC
  0
SECTION
  2
BLOCKS
  0
BLOCK
  8
0
  2
$MODEL_SPACE
 70
     0
 10
0.0
 20
0.0
 30
0.0
  3
$MODEL_SPACE
  1

  0
ENDBLK
  5
4245
  8
0
  0
BLOCK
 67
     1
  8
0
  2
$PAPER_SPACE
 70
     0
 10
0.0
 20
0.0
 30
0.0
  3
$PAPER_SPACE
  1

  0
ENDBLK
  5
4241
 67
     1
  8
0
  0
BLOCK
  8
0
  2
GENAXEH
 70
     0
 10
0.0
 20
0.0
 30
0.0
  3
GENAXEH
  1

  0
LINE
  5
73
  8
0
 10
-1.0
 20
0.0
 30
0.0
 11
1.0
 21
0.0
 31
0.0
  0
ENDBLK
  5
75
  8
0
  0
BLOCK
  8
0
  2
_OPEN30
 70
     0
 10
0.0
 20
0.0
 30
0.0
  3
_OPEN30
  1

  0
LINE
  5
31A
  8
0
 62
     0
 10
-1.0
 20
0.26794919
 30
0.0
 11
0.0
 21
0.0
 31
0.0
  0
LINE
  5
31B
  8
0
 62
     0
 10
0.0
 20
0.0
 30
0.0
 11
-1.0
 21
-0.26794919
 31
0.0
  0
LINE
  5
31C
  8
0
 62
     0
 10
0.0
 20
0.0
 30
0.0
 11
-1.0
 21
0.0
 31
0.0
  0
ENDBLK
  5
31E
  8
0
  0
BLOCK
  8
0
  2
_NONE
 70
     0
 10
0.0
 20
0.0
 30
0.0
  3
_NONE
  1

  0
ENDBLK
  5
579
  8
0
  0
BLOCK
  8
0
  2
*U5
 70
     1
 10
0.0
 20
0.0
 30
0.0
  3
*U5
  1

  0
TEXT
  5
41D2
  8
AM_0
 10
561.83094768296155
 20
543.31567079965646
 30
0.0
 40
10.0
  1
ＶＸ０４－００５～０１０ＭＷ
 41
0.8299999999999999
  0
ENDBLK
  5
41D4
  8
0
  0
BLOCK
  8
0
  2
_ACMFILLEDHALF
 70
     0
 10
0.0
 20
0.0
 30
0.0
  3
_ACMFILLEDHALF
  1

  0
TRACE
  5
4345
  8
AM_0
 62
     0
 10
-0.8
 20
0.0
 30
0.0
 11
-1.0
 21
0.166666666
 31
0.0
 12
0.0
 22
0.0
 32
0.0
 13
0.0
 23
0.0
 33
0.0
  0
LINE
  5
4346
  8
AM_0
 62
     0
 10
-1.0
 20
0.0
 30
0.0
 11
-0.8
 21
0.0
 31
0.0
  0
ENDBLK
  5
4344
  8
0
  0
ENDSEC
  0
SECTION
  2
ENTITIES
  0
LINE
  5
1918
  8
AM_0
 10
391.30240694414118
 20
306.59399138616999
 30
0.0
 11
413.30245694414123
 21
306.59399138616999
 31
0.0
  0
LINE
  5
191C
  8
ﾁｭｳｼﾝｾﾝ
 10
709.04930042132696
 20
277.59399138616988
 30
0.0
 11
517.03428348833665
 21
277.59399138616988
 31
0.0
  0
LINE
  5
191D
  8
ﾁｭｳｼﾝｾﾝ
 10
597.29971854842972
 20
294.59399238616982
 30
0.0
 11
688.4187694092243
 21
294.59399238616982
 31
0.0
  0
LINE
  5
191E
  8
ﾁｭｳｼﾝｾﾝ
 10
642.85924397882695
 20
206.3264863861699
 30
0.0
 11
642.85924397882707
 21
347.42378566460923
 31
0.0
  0
LINE
  5
191F
  8
ﾁｭｳｼﾝｾﾝ
 10
117.1537469441411
 20
277.5939913861701
 30
0.0
 11
316.42399796232212
 21
277.5939913861701
 31
0.0
  0
LINE
  5
1923
  8
ﾁｭｳｼﾝｾﾝ
 10
311.9530369441411
 20
294.59399238616999
 30
0.0
 11
418.48981619408579
 21
294.59399238616999
 31
0.0
  0
LINE
  5
1924
  8
AM_0
 10
413.30245694414123
 20
285.09399138616999
 30
0.0
 11
413.30245694414123
 21
306.59399138616999
 31
0.0
  0
LINE
  5
1925
  8
AM_0
 10
389.30243694414162
 20
285.09399138616999
 30
0.0
 11
413.30245694414123
 21
285.09399138616999
 31
0.0
  0
LINE
  5
1926
  8
AM_0
 10
389.30243694414122
 20
304.09399038616988
 30
0.0
 11
413.30245694414123
 21
304.09399038616999
 31
0.0
  0
LINE
  5
1927
  8
AM_0
 10
645.85924397882707
 20
306.59399238616982
 30
0.0
 11
639.85924397882729
 21
306.59399238616982
 31
0.0
  0
LINE
  5
1928
  8
AM_0
 10
645.85924397882707
 20
300.59399238616982
 30
0.0
 11
645.85924397882707
 21
306.59399238616982
 31
0.0
  0
LINE
  5
1929
  8
AM_0
 10
639.85924397882729
 20
300.59399238616982
 30
0.0
 11
645.85924397882707
 21
300.59399238616982
 31
0.0
  0
LINE
  5
192A
  8
AM_0
 10
639.85924397882729
 20
306.59399238616982
 30
0.0
 11
639.85924397882729
 21
300.59399238616982
 31
0.0
  0
LINE
  5
192B
  8
AM_0
 10
323.30245694414123
 20
337.59400638617012
 30
0.0
 11
323.30245694414123
 21
227.59400538617001
 31
0.0
  0
LINE
  5
192C
  8
AM_0
 10
335.30245694414123
 20
322.21945638617001
 30
0.0
 11
335.30245694414123
 21
309.67245138616988
 31
0.0
  0
LINE
  5
1933
  8
AM_0
 10
697.84050797882719
 20
313.05920238616972
 30
0.0
 11
697.84050797882719
 21
318.83269938616968
 31
0.0
  0
LINE
  5
1934
  8
AM_0
 10
692.84052497882715
 20
310.17245238616982
 30
0.0
 11
697.84052297882715
 21
313.05923238616981
 31
0.0
  0
LINE
  5
1935
  8
AM_0
 10
618.75019097882728
 20
213.61608438616989
 30
0.0
 11
623.75018897882705
 21
216.5028313861699
 31
0.0
  0
LINE
  5
1936
  8
AM_0
 10
623.75017397882709
 20
216.50281638616991
 30
0.0
 11
623.75017397882709
 21
222.27634638616971
 31
0.0
  0
LINE
  5
1937
  8
AM_0
 10
623.75018897882705
 20
222.2763313861698
 30
0.0
 11
618.75019097882728
 21
225.16308138616989
 31
0.0
  0
LINE
  5
1938
  8
AM_0
 10
618.75020597882713
 20
225.16308138616989
 30
0.0
 11
613.75020497882724
 21
222.2763313861698
 31
0.0
  0
LINE
  5
1939
  8
AM_0
 10
661.96829897882697
 20
216.5028313861699
 30
0.0
 11
666.96829997882685
 21
213.61608438616989
 31
0.0
  0
LINE
  5
193A
  8
AM_0
 10
666.96831497882715
 20
213.61608438616989
 30
0.0
 11
671.96831597882726
 21
216.5028313861699
 31
0.0
  0
LINE
  5
193B
  8
AM_0
 10
687.84050897882707
 20
318.83269938616968
 30
0.0
 11
687.84050897882707
 21
313.05920238616972
 31
0.0
  0
LINE
  5
193C
  8
AM_0
 10
687.84050897882707
 20
313.05920238616972
 30
0.0
 11
692.84049197882723
 21
310.17245238616982
 31
0.0
  0
LINE
  5
193D
  8
AM_0
 10
661.96829897882697
 20
222.27634638616971
 30
0.0
 11
661.96829897882697
 21
216.50281638616991
 31
0.0
  0
LINE
  5
193E
  8
AM_0
 10
671.9683009788273
 20
216.50281638616991
 30
0.0
 11
671.9683009788273
 21
222.27634638616971
 31
0.0
  0
LINE
  5
193F
  8
AM_0
 10
692.84052497882715
 20
321.71947638616979
 30
0.0
 11
687.84052397882715
 21
318.83272938616972
 31
0.0
  0
LINE
  5
1940
  8
AM_0
 10
587.87799497882725
 20
313.05920238616972
 30
0.0
 11
592.87799597882713
 21
310.17245238616982
 31
0.0
  0
LINE
  5
1941
  8
AM_0
 10
587.87799497882725
 20
318.83269938616968
 30
0.0
 11
587.87799497882725
 21
313.05920238616972
 31
0.0
  0
LINE
  5
1942
  8
AM_0
 10
592.87799597882713
 20
321.71947638616979
 30
0.0
 11
587.87799497882725
 21
318.83272938616972
 31
0.0
  0
LINE
  5
1943
  8
AM_0
 10
597.87799697882724
 20
318.83269938616968
 30
0.0
 11
592.87799597882713
 21
321.71944638616981
 31
0.0
  0
LINE
  5
1944
  8
AM_0
 10
597.87799697882724
 20
313.05920238616972
 30
0.0
 11
597.87799697882724
 21
318.83269938616968
 31
0.0
  0
LINE
  5
1945
  8
AM_0
 10
666.96831497882715
 20
225.1630963861698
 30
0.0
 11
661.96831397882715
 21
222.27634638616971
 31
0.0
  0
LINE
  5
1946
  8
AM_0
 10
592.87799597882713
 20
310.1724823861698
 30
0.0
 11
597.87799697882724
 21
313.05923238616981
 31
0.0
  0
LINE
  5
1947
  8
AM_0
 10
671.9683009788273
 20
222.2763313861698
 30
0.0
 11
666.96829997882685
 21
225.16308138616989
 31
0.0
  0
LINE
  5
1948
  8
AM_0
 10
613.75018997882705
 20
216.5028313861699
 30
0.0
 11
618.75019097882728
 21
213.61608438616989
 31
0.0
  0
LINE
  5
1949
  8
AM_0
 10
697.84050797882719
 20
318.83272938616972
 30
0.0
 11
692.84050697882708
 21
321.71947638616979
 31
0.0
  0
LINE
  5
194A
  8
AM_0
 10
613.75018997882705
 20
222.27634638616971
 30
0.0
 11
613.75018997882705
 21
216.50281638616991
 31
0.0
  0
LINE
  5
194F
  8
AM_0
 10
335.30245694414123
 20
321.71944638616998
 30
0.0
 11
338.30245694414123
 21
321.71944638616998
 31
0.0
  0
LINE
  5
1950
  8
AM_0
 10
335.30245694414123
 20
310.17242238617001
 30
0.0
 11
338.30245694414123
 21
310.17242238617001
 31
0.0
  0
LINE
  5
1951
  8
AM_0
 10
335.30245694414123
 20
313.05917238617002
 30
0.0
 11
338.30245694414123
 21
313.05917238617002
 31
0.0
  0
LINE
  5
1952
  8
AM_0
 10
335.30245694414123
 20
318.83269938617002
 30
0.0
 11
338.30245694414123
 21
318.83269938617002
 31
0.0
  0
LINE
  5
1953
  8
AM_0
 10
339.3024469441412
 20
311.17245138617
 30
0.0
 11
339.3024469441412
 21
320.71948638616999
 31
0.0
  0
LINE
  5
1954
  8
AM_0
 10
391.30240694414118
 20
304.09399038616999
 30
0.0
 11
391.3024069441413
 21
306.5939913861701
 31
0.0
  0
LINE
  5
1955
  8
AM_0
 10
334.3024669441412
 20
322.21945638617001
 30
0.0
 11
335.30245694414123
 21
322.21945638617001
 31
0.0
  0
LINE
  5
1956
  8
AM_0
 10
334.3024669441412
 20
309.67245138616988
 30
0.0
 11
335.30245694414123
 21
309.67245138616988
 31
0.0
  0
LINE
  5
1957
  8
AM_0
 10
376.30246694414109
 20
324.59398638617
 30
0.0
 11
379.3024669441412
 21
324.59398638617
 31
0.0
  0
LINE
  5
1958
  8
AM_0
 10
336.30244694414131
 20
306.22485138616997
 30
0.0
 11
359.95426694414118
 21
306.22485138616997
 31
0.0
  0
LINE
  5
1959
  8
AM_0
 10
371.30245694414123
 20
307.51141038616998
 30
0.0
 11
363.30244694414131
 21
307.51141038616998
 31
0.0
  0
LINE
  5
195A
  8
AM_0
 10
339.3024469441412
 20
321.11539638617
 30
0.0
 11
366.3024469441412
 21
321.11539638617
 31
0.0
  0
LINE
  5
195C
  8
AM_0
 10
381.80245694414123
 20
219.59398938616999
 30
0.0
 11
363.30244694414131
 21
219.59398938616999
 31
0.0
  0
LINE
  5
195E
  8
AM_0
 10
300.30244694414131
 20
209.59398738617
 30
0.0
 11
300.30244694414131
 21
218.09398938616999
 31
0.0
  0
LINE
  5
195F
  8
AM_0
 10
383.30245694414123
 20
209.59398738617
 30
0.0
 11
383.30245694414123
 21
218.09398938616999
 31
0.0
  0
LINE
  5
1960
  8
AM_0
 10
300.30244694414131
 20
209.59398738617
 30
0.0
 11
320.30245694414123
 21
209.59398738617
 31
0.0
  0
LINE
  5
1961
  8
AM_0
 10
323.3024269441413
 20
337.59400638617012
 30
0.0
 11
366.43327694414108
 21
336.46456638617002
 31
0.0
  0
LINE
  5
1966
  8
AM_0
 10
381.3024469441412
 20
322.59400638616989
 30
0.0
 11
381.3024469441412
 21
222.78438738617001
 31
0.0
  0
LINE
  5
1967
  8
AM_0
 10
319.63471694414119
 20
219.59398938616999
 30
0.0
 11
301.8024469441412
 21
219.59398938616999
 31
0.0
  0
LINE
  5
1968
  8
AM_0
 10
363.30244694414131
 20
209.59398738617
 30
0.0
 11
383.30245694414123
 21
209.59398738617
 31
0.0
  0
LINE
  5
1969
  8
AM_0
 10
320.30245694414123
 20
209.59398738617
 30
0.0
 11
320.30245694414123
 21
209.59398738617
 31
0.0
  0
LINE
  5
196A
  8
AM_0
 10
321.30244694414131
 20
210.59398938616999
 30
0.0
 11
362.30245694414123
 21
210.59398938616999
 31
0.0
  0
LINE
  5
196B
  8
AM_0
 10
363.30244694414131
 20
209.59398738617
 30
0.0
 11
363.30244694414131
 21
209.59398738617
 31
0.0
  0
LINE
  5
196C
  8
AM_0
 10
366.3024469441412
 20
241.36139838617001
 30
0.0
 11
358.3024669441412
 21
241.36139838617001
 31
0.0
  0
LINE
  5
196D
  8
AM_0
 10
371.30245694414123
 20
331.46629638616997
 30
0.0
 11
371.30245694414123
 21
246.36141438617
 31
0.0
  0
LINE
  5
196E
  8
AM_0
 10
326.30245694414123
 20
282.34481538617001
 30
0.0
 11
326.30245694414123
 21
253.76984838617
 31
0.0
  0
LINE
  5
196F
  8
AM_0
 10
358.3024669441412
 20
224.59397238617001
 30
0.0
 11
358.3024669441412
 21
302.51140938616999
 31
0.0
  0
LINE
  5
1970
  8
AM_0
 10
334.3024669441412
 20
325.81594638617003
 30
0.0
 11
334.3024669441412
 21
306.4322173861699
 31
0.0
  0
LINE
  5
1971
  8
AM_0
 10
326.28187694414129
 20
253.41933738617001
 30
0.0
 11
322.61413694414131
 21
222.24346338616999
 31
0.0
  0
LINE
  5
1973
  8
AM_0
 10
295.2548269441412
 20
320.20084638616999
 30
0.0
 11
334.3024669441412
 21
320.20084638616999
 31
0.0
  0
LINE
  5
1974
  8
AM_0
 10
694.85926097882725
 20
301.82940438616981
 30
0.0
 11
694.85926097882725
 21
259.59399138616988
 31
0.0
  0
LINE
  5
1975
  8
AM_0
 10
572.85925697882715
 20
219.5939743861698
 30
0.0
 11
583.6069399788272
 21
287.03649438616992
 31
0.0
  0
LINE
  5
1976
  8
AM_0
 10
685.35924497882729
 20
282.09399138616988
 30
0.0
 11
685.35924497882729
 21
222.5939893861698
 31
0.0
  0
LINE
  5
1977
  8
AM_0
 10
712.85926097882725
 20
219.5939893861698
 30
0.0
 11
712.85926097882725
 21
209.5939873861698
 31
0.0
  0
LINE
  5
1978
  8
AM_0
 10
572.85925697882715
 20
219.5939893861698
 30
0.0
 11
572.85925697882715
 21
209.5939873861698
 31
0.0
  0
LINE
  5
1979
  8
AM_0
 10
700.35924797882706
 20
219.5939893861698
 30
0.0
 11
684.85924697882729
 21
219.5939893861698
 31
0.0
  0
LINE
  5
197A
  8
AM_0
 10
672.85924697882729
 20
229.0939723861699
 30
0.0
 11
612.85924397882707
 21
229.0939723861699
 31
0.0
  0
LINE
  5
197B
  8
AM_0
 10
585.35925797882715
 20
219.5939893861698
 30
0.0
 11
600.85925897882726
 21
219.5939893861698
 31
0.0
  0
LINE
  5
197C
  8
AM_0
 10
681.85924697882717
 20
210.5939893861698
 30
0.0
 11
642.85924397882695
 21
210.5939893861698
 31
0.0
  0
LINE
  5
197D
  8
AM_0
 10
712.85926097882725
 20
209.5939873861698
 30
0.0
 11
682.85926097882725
 21
209.5939873861698
 31
0.0
  0
LINE
  5
197E
  8
AM_0
 10
603.85925897882726
 20
210.5939893861698
 30
0.0
 11
642.85924397882695
 21
210.5939893861698
 31
0.0
  0
LINE
  5
197F
  8
AM_0
 10
711.35926097882725
 20
219.5939893861698
 30
0.0
 11
700.35924797882706
 21
219.5939893861698
 31
0.0
  0
LINE
  5
1980
  8
AM_0
 10
574.35925697882726
 20
219.5939893861698
 30
0.0
 11
585.35925797882715
 21
219.5939893861698
 31
0.0
  0
LINE
  5
1981
  8
AM_0
 10
572.85925697882715
 20
209.5939873861698
 30
0.0
 11
602.85925997882725
 21
209.5939873861698
 31
0.0
  0
LINE
  5
1982
  8
AM_0
 10
602.85925997882725
 20
217.5939883861698
 30
0.0
 11
602.85925997882725
 21
209.5939873861698
 31
0.0
  0
LINE
  5
1983
  8
AM_0
 10
600.35925797882715
 20
282.09399138616988
 30
0.0
 11
600.35925797882715
 21
222.5939893861698
 31
0.0
  0
LINE
  5
1984
  8
AM_0
 10
677.85924497882729
 20
224.0939893861698
 30
0.0
 11
677.85924497882729
 21
215.0939893861698
 31
0.0
  0
LINE
  5
1985
  8
AM_0
 10
607.85925797882715
 20
224.0939893861698
 30
0.0
 11
607.85925797882715
 21
215.0939893861698
 31
0.0
  0
LINE
  5
1986
  8
AM_0
 10
712.85924597882695
 20
219.5939743861698
 30
0.0
 11
702.11159597882715
 21
287.03646438616983
 31
0.0
  0
LINE
  5
1987
  8
AM_0
 10
682.85926097882725
 20
209.5939873861698
 30
0.0
 11
682.85926097882725
 21
217.5939883861698
 31
0.0
  0
LINE
  5
1988
  8
AM_0
 10
590.85925997882725
 20
301.82940438616981
 30
0.0
 11
590.85925997882725
 21
259.59399138616988
 31
0.0
  0
LINE
  5
1989
  8
AM_0
 10
603.85925897882726
 20
212.0939893861698
 30
0.0
 11
604.85925797882715
 21
212.0939893861698
 31
0.0
  0
LINE
  5
198A
  8
AM_0
 10
681.85924697882717
 20
212.0939893861698
 30
0.0
 11
680.85924497882706
 21
212.0939893861698
 31
0.0
  0
LINE
  5
1991
  8
AM_0
 10
285.80239694414098
 20
341.09398638617
 30
0.0
 11
289.82857694414122
 21
340.98859638616989
 31
0.0
  0
LINE
  5
1992
  8
AM_0
 10
293.80249694414118
 20
228.09398838617
 30
0.0
 11
293.80249694414118
 21
237.59769738617001
 31
0.0
  0
LINE
  5
1993
  8
AM_0
 10
291.77626694414118
 20
216.76845738617001
 30
0.0
 11
295.75006694414122
 21
216.87252138617001
 31
0.0
  0
LINE
  5
1994
  8
AM_0
 10
290.8024969441413
 20
215.19909138617001
 30
0.0
 11
290.8024969441413
 21
226.09400538617001
 31
0.0
  0
LINE
  5
1995
  8
AM_0
 10
285.80245694414111
 20
214.09402038617
 30
0.0
 11
289.82863694414118
 21
214.19944338617
 31
0.0
  0
LINE
  5
1996
  8
AM_0
 10
291.77626694414118
 20
338.41954638617
 30
0.0
 11
323.3024269441413
 21
337.59403638616999
 31
0.0
  0
LINE
  5
1997
  8
AM_0
 10
295.75006694414122
 20
216.87252138617001
 30
0.0
 11
300.30244694414131
 21
216.99172338617001
 31
0.0
  0
LINE
  5
1998
  8
AM_0
 10
285.80245694414111
 20
226.09400538617001
 30
0.0
 11
291.80245694414111
 21
226.09400538617001
 31
0.0
  0
LINE
  5
1999
  8
AM_0
 10
285.80245694414111
 20
329.09398638617
 30
0.0
 11
291.80245694414111
 21
329.09398638617
 31
0.0
  0
LINE
  5
199A
  8
AM_0
 10
285.80245694414111
 20
315.59029938616999
 30
0.0
 11
291.80245694414111
 21
315.59029938616999
 31
0.0
  0
LINE
  5
199B
  8
AM_0
 10
285.80245694414111
 20
239.59768338616999
 30
0.0
 11
291.80245694414111
 21
239.59768338616999
 31
0.0
  0
LINE
  5
199C
  8
AM_0
 10
293.80249694414118
 20
317.59030038616999
 30
0.0
 11
293.80249694414118
 21
327.09400638616989
 31
0.0
  0
LINE
  5
199D
  8
AM_0
 10
290.8024969441413
 20
239.59768338616999
 30
0.0
 11
290.8024969441413
 21
315.59029938616999
 31
0.0
  0
LINE
  5
199E
  8
AM_0
 10
290.8024969441413
 20
329.09398638617
 30
0.0
 11
290.8024969441413
 21
339.98887638616992
 31
0.0
  0
LINE
  5
199F
  8
AM_0
 10
632.85925997882725
 20
337.11670638616988
 30
0.0
 11
632.85925997882725
 21
343.59397638616991
 31
0.0
  0
LINE
  5
19A0
  8
AM_0
 10
622.85925797882715
 20
335.67163638616972
 30
0.0
 11
622.85925797882715
 21
342.23098638616972
 31
0.0
  0
LINE
  5
19A1
  8
AM_0
 10
612.85924397882707
 20
333.21703638616992
 30
0.0
 11
612.85924397882707
 21
340.51099638616972
 31
0.0
  0
LINE
  5
19A2
  8
AM_0
 10
583.76825597882726
 20
322.59394638616982
 30
0.0
 11
589.63046897882725
 21
322.59394638616982
 31
0.0
  0
LINE
  5
19A3
  8
AM_0
 10
703.54582997882721
 20
302.59396038616973
 30
0.0
 11
706.7612539788272
 21
302.59396038616973
 31
0.0
  0
LINE
  5
19A4
  8
AM_0
 10
652.85926097882725
 20
337.11670638616988
 30
0.0
 11
652.85926097882725
 21
343.59397638616991
 31
0.0
  0
LINE
  5
19A5
  8
AM_0
 10
701.95026497882725
 20
322.59394638616982
 30
0.0
 11
696.08803697882706
 21
322.59394638616982
 31
0.0
  0
LINE
  5
19A6
  8
AM_0
 10
662.85925997882725
 20
335.67160638616991
 30
0.0
 11
662.85925997882725
 21
342.23098638616972
 31
0.0
  0
LINE
  5
19A7
  8
AM_0
 10
672.85924697882729
 20
333.21703638616992
 30
0.0
 11
672.85924697882729
 21
340.51099638616972
 31
0.0
  0
LINE
  5
19A8
  8
AM_0
 10
705.79001897882722
 20
282.59398938616971
 30
0.0
 11
707.9788309788272
 21
282.59398938616971
 31
0.0
  0
LINE
  5
19A9
  8
AM_0
 10
706.35926297882725
 20
312.59396238616972
 30
0.0
 11
702.22417697882724
 21
312.59396238616972
 31
0.0
  0
LINE
  5
19AA
  8
AM_0
 10
704.66791697882695
 20
292.59399138616982
 30
0.0
 11
707.9788309788272
 21
292.59399138616982
 31
0.0
  0
LINE
  5
19AB
  8
AM_0
 10
285.80245694414111
 20
341.09398638617
 30
0.0
 11
285.80245694414111
 21
214.09392738617001
 31
0.0
  0
LINE
  5
19AC
  8
AM_0
 10
572.85925697882715
 20
219.5939893861698
 30
0.0
 11
582.98398397882715
 21
309.82421538616973
 31
0.0
  0
LINE
  5
19AD
  8
AM_0
 10
712.85924597882695
 20
219.5939893861698
 30
0.0
 11
702.7345069788272
 21
309.82421538616973
 31
0.0
  0
LINE
  5
19AE
  8
AM_0
 10
336.30244694414131
 20
306.22485138616997
 30
0.0
 11
336.30244694414131
 21
219.59398938616999
 31
0.0
  0
LINE
  5
19AF
  8
AM_0
 10
336.30244694414131
 20
337.14883638616999
 30
0.0
 11
336.30244694414131
 21
321.71944638616998
 31
0.0
  0
LINE
  5
19B0
  8
AM_0
 10
348.08815694414108
 20
301.93331538617002
 30
0.0
 11
336.30244694414131
 21
219.59398938616999
 31
0.0
  0
LINE
  5
19B1
  8
AM_0
 10
348.01207694414109
 20
322.01392638617
 30
0.0
 11
336.30244694414131
 21
337.25359638616987
 31
0.0
  0
LINE
  5
19B2
  8
AM_0
 10
174.8024469441412
 20
231.24399738617001
 30
0.0
 11
139.80243694414111
 21
233.27399838617001
 31
0.0
  0
LINE
  5
19B3
  8
AM_0
 10
174.8024469441412
 20
323.94400638616997
 30
0.0
 11
139.80243694414111
 21
321.91399638617003
 31
0.0
  0
LINE
  5
19B4
  8
AM_0
 10
127.0824669441413
 20
229.95400638616999
 30
0.0
 11
129.8024469441412
 21
229.95400638616999
 31
0.0
  0
LINE
  5
19B5
  8
AM_0
 10
126.5724669441412
 20
227.98402038616999
 30
0.0
 11
125.3024469441412
 21
228.71401338617
 31
0.0
  0
LINE
  5
19B6
  8
AM_0
 10
129.8024469441412
 20
220.16399538617
 30
0.0
 11
132.62244694414119
 21
220.09398738617
 31
0.0
  0
LINE
  5
19B7
  8
AM_0
 10
126.5524569441411
 20
234.63401238617001
 30
0.0
 11
125.2524669441412
 21
235.4839873861699
 31
0.0
  0
LINE
  5
19B8
  8
AM_0
 10
126.5624469441412
 20
230.09401938617
 30
0.0
 11
125.2824369441412
 21
230.86402338616989
 31
0.0
  0
LINE
  5
19B9
  8
AM_0
 10
127.0724769441411
 20
227.84398938616991
 30
0.0
 11
129.30249694414121
 21
227.84398938616991
 31
0.0
  0
LINE
  5
19BA
  8
AM_0
 10
127.0424469441412
 20
228.99399738617001
 30
0.0
 11
129.30249694414121
 21
228.99399738617001
 31
0.0
  0
LINE
  5
19BB
  8
AM_0
 10
126.5924769441411
 20
229.10399838616999
 30
0.0
 11
125.3524269441411
 21
229.73400438617
 31
0.0
  0
LINE
  5
19BC
  8
AM_0
 10
127.0724769441411
 20
235.61399238617
 30
0.0
 11
128.80245694414111
 21
235.61399238617
 31
0.0
  0
LINE
  5
19BD
  8
AM_0
 10
127.1025069441412
 20
234.47397738616999
 30
0.0
 11
129.8024469441412
 21
234.47397738616999
 31
0.0
  0
LINE
  5
19BE
  8
AM_0
 10
127.0524969441412
 20
231.09398838617
 30
0.0
 11
128.80245694414111
 21
231.09398838617
 31
0.0
  0
LINE
  5
19BF
  8
AM_0
 10
126.57240694414121
 20
235.74401238616991
 30
0.0
 11
125.2924269441411
 21
236.49399738617001
 31
0.0
  0
LINE
  5
19C0
  8
AM_0
 10
277.80249694414118
 20
214.09400238616999
 30
0.0
 11
285.80245694414123
 21
214.09400238616999
 31
0.0
  0
LINE
  5
19C1
  8
AM_0
 10
277.80249694414118
 20
225.5539963861699
 30
0.0
 11
285.80245694414123
 21
225.55399638617001
 31
0.0
  0
LINE
  5
19C2
  8
AM_0
 10
174.8024469441412
 20
231.24399738617001
 30
0.0
 11
276.8024469441412
 21
231.24399738617001
 31
0.0
  0
LINE
  5
19C3
  8
AM_0
 10
276.51246694414118
 20
226.56399138616999
 30
0.0
 11
274.10250694414123
 21
226.56399138616999
 31
0.0
  0
LINE
  5
19C4
  8
AM_0
 10
273.60243694414112
 20
218.67399138617
 30
0.0
 11
275.04243694414117
 21
225.37398738617
 31
0.0
  0
LINE
  5
19C5
  8
AM_0
 10
271.51245694414121
 20
217.09400538617001
 30
0.0
 11
276.8024469441412
 21
217.09400538617001
 31
0.0
  0
LINE
  5
19C7
  8
AM_0
 10
134.4824469441412
 20
244.22398038617001
 30
0.0
 11
177.8024469441412
 21
244.22398038617001
 31
0.0
  0
LINE
  5
19C8
  8
AM_0
 10
177.8024469441412
 20
241.59398838617
 30
0.0
 11
135.3525069441412
 21
241.59398838617
 31
0.0
  0
LINE
  5
19CA
  8
AM_0
 10
134.4824469441412
 20
240.87400338616999
 30
0.0
 11
177.8024469441412
 21
240.87400338616999
 31
0.0
  0
LINE
  5
19CB
  8
AM_0
 10
129.8024469441412
 20
243.29398638616999
 30
0.0
 11
132.9724869441412
 21
243.29398638616999
 31
0.0
  0
LINE
  5
19CC
  8
AM_0
 10
135.9724869441412
 20
219.33399438616999
 30
0.0
 11
149.30244694414111
 21
219.33399438616999
 31
0.0
  0
LINE
  5
19CD
  8
AM_0
 10
152.80245694414111
 20
215.73398838617001
 30
0.0
 11
269.61243694414122
 21
215.73398838617001
 31
0.0
  0
LINE
  5
19CE
  8
AM_0
 10
135.9124269441412
 20
214.29400038617001
 30
0.0
 11
149.4124269441412
 21
214.29400038617001
 31
0.0
  0
LINE
  5
19CF
  8
AM_0
 10
136.03248694414111
 20
224.61397938616989
 30
0.0
 11
149.30244694414111
 21
224.61397938616989
 31
0.0
  0
LINE
  5
19D0
  8
AM_0
 10
133.52241694414121
 20
229.24399938617
 30
0.0
 11
134.06244694414119
 21
226.25399238617001
 31
0.0
  0
LINE
  5
19D1
  8
AM_0
 10
126.8024469441412
 20
234.76400238617001
 30
0.0
 11
126.8024469441412
 21
235.23398838617001
 31
0.0
  0
LINE
  5
19D2
  8
AM_0
 10
129.8024469441412
 20
229.24398438617001
 30
0.0
 11
139.80249694414121
 21
229.24398438617001
 31
0.0
  0
LINE
  5
19D3
  8
AM_0
 10
126.8024469441412
 20
230.19397938617001
 30
0.0
 11
126.8024469441412
 21
230.74398438617001
 31
0.0
  0
LINE
  5
19D4
  8
AM_0
 10
126.58239694414119
 20
231.21398538617001
 30
0.0
 11
125.33247694414111
 21
231.87398838617
 31
0.0
  0
LINE
  5
19D5
  8
AM_0
 10
139.80249694414121
 20
229.24398438617001
 30
0.0
 11
139.80249694414121
 21
243.29398638616999
 31
0.0
  0
LINE
  5
19D6
  8
AM_0
 10
126.8024469441412
 20
228.09398838617
 30
0.0
 11
126.8024469441412
 21
228.62398638617
 31
0.0
  0
LINE
  5
19D7
  8
AM_0
 10
271.5424269441412
 20
217.21399938617
 30
0.0
 11
275.00244694414118
 21
230.13399738616999
 31
0.0
  0
LINE
  5
19D8
  8
AM_0
 10
133.97241694414129
 20
215.80399638617001
 30
0.0
 11
133.08240694414121
 21
219.34398738617
 31
0.0
  0
LINE
  5
19D9
  8
AM_0
 10
133.99245694414111
 20
217.46399838617
 30
0.0
 11
133.0724169441412
 21
221.3440033861699
 31
0.0
  0
LINE
  5
19DA
  8
AM_0
 10
207.8024469441412
 20
213.68398638617001
 30
0.0
 11
207.8024469441412
 21
215.73398838617001
 31
0.0
  0
LINE
  5
19DB
  8
AM_0
 10
150.80244694414111
 20
215.70400338617
 30
0.0
 11
150.80244694414111
 21
223.11397638617001
 31
0.0
  0
LINE
  5
19DC
  8
AM_0
 10
131.63244694414121
 20
220.47399438617001
 30
0.0
 11
133.28247694414111
 21
220.47399438617001
 31
0.0
  0
LINE
  5
19DF
  8
AM_0
 10
174.8024469441412
 20
323.94397638616999
 30
0.0
 11
276.8024469441412
 21
323.94397638616999
 31
0.0
  0
LINE
  5
19E0
  8
AM_0
 10
276.8024469441412
 20
340.09399638616998
 30
0.0
 11
276.8024469441412
 21
215.09398938616999
 31
0.0
  0
LINE
  5
19E2
  8
AM_0
 10
277.80249694414118
 20
341.09398638617
 30
0.0
 11
285.80245694414123
 21
341.09398638617
 31
0.0
  0
LINE
  5
19E4
  8
AM_0
 10
276.8024469441412
 20
314.74398438616998
 30
0.0
 11
285.80245694414111
 21
314.74398438616998
 31
0.0
  0
LINE
  5
19E5
  8
AM_0
 10
277.80249694414118
 20
329.63395638616993
 30
0.0
 11
285.80245694414123
 21
329.63395638616998
 31
0.0
  0
LINE
  5
19E6
  8
AM_0
 10
276.8024469441412
 20
240.44399538617
 30
0.0
 11
285.80245694414111
 21
240.44399538617
 31
0.0
  0
LINE
  5
19E8
  8
AM_0
 10
129.80238694414109
 20
335.02402638617002
 30
0.0
 11
132.6223869441412
 21
335.09401638616993
 31
0.0
  0
LINE
  5
19E9
  8
AM_0
 10
129.8024469441412
 20
335.02399638616993
 30
0.0
 11
129.8024469441412
 21
277.5939913861701
 31
0.0
  0
LINE
  5
19EA
  8
AM_0
 10
124.8024969441412
 20
325.61398638616998
 30
0.0
 11
124.8024969441412
 21
282.59398938616988
 31
0.0
  0
LINE
  5
19EB
  8
AM_0
 10
127.0724769441411
 20
327.34399638616998
 30
0.0
 11
129.30249694414121
 21
327.34399638616998
 31
0.0
  0
LINE
  5
19ED
  8
AM_0
 10
127.0024569441411
 20
313.28399538616998
 30
0.0
 11
129.10242694414109
 21
313.28399538616998
 31
0.0
  0
LINE
  5
19EE
  8
AM_0
 10
126.5724669441412
 20
327.21397638616997
 30
0.0
 11
125.3024469441412
 21
326.47399638616997
 31
0.0
  0
LINE
  5
19EF
  8
AM_0
 10
126.5623869441411
 20
325.09399638616998
 30
0.0
 11
125.2824369441412
 21
324.32401638617011
 31
0.0
  0
LINE
  5
19F0
  8
AM_0
 10
126.5524569441411
 20
320.55394638617003
 30
0.0
 11
125.2524669441412
 21
319.70398638617002
 31
0.0
  0
LINE
  5
19F1
  8
AM_0
 10
126.61242694414111
 20
313.20400638617002
 30
0.0
 11
125.4124269441412
 21
312.69399738617
 31
0.0
  0
LINE
  5
19F2
  8
AM_0
 10
127.0824669441413
 20
325.23397638617001
 30
0.0
 11
129.8024469441412
 21
325.23397638617001
 31
0.0
  0
LINE
  5
19F3
  8
AM_0
 10
127.1025069441412
 20
320.72398638617
 30
0.0
 11
129.8024469441412
 21
320.72398638617
 31
0.0
  0
LINE
  5
19F4
  8
AM_0
 10
126.9524769441411
 20
311.33398038617003
 30
0.0
 11
128.80245694414111
 21
311.33398038617003
 31
0.0
  0
LINE
  5
19F5
  8
AM_0
 10
127.0724769441411
 20
319.58398638617001
 30
0.0
 11
128.80245694414111
 21
319.58398638617001
 31
0.0
  0
LINE
  5
19F6
  8
AM_0
 10
127.0524969441412
 20
324.09400638617001
 30
0.0
 11
128.80245694414111
 21
324.09400638617001
 31
0.0
  0
LINE
  5
19F7
  8
AM_0
 10
127.0424469441412
 20
326.19397638616999
 30
0.0
 11
129.30249694414121
 21
326.19397638616999
 31
0.0
  0
LINE
  5
19F8
  8
AM_0
 10
126.5724669441412
 20
319.44397638616988
 30
0.0
 11
125.2924269441411
 21
318.6939673861699
 31
0.0
  0
LINE
  5
19F9
  8
AM_0
 10
126.6624969441412
 20
311.29397238617003
 30
0.0
 11
125.5124769441411
 21
310.94399838616999
 31
0.0
  0
LINE
  5
19FA
  8
AM_0
 10
126.5924769441411
 20
326.09398638617
 30
0.0
 11
125.3524269441411
 21
325.46398638617001
 31
0.0
  0
LINE
  5
19FB
  8
AM_0
 10
126.58239694414119
 20
323.98399638617002
 30
0.0
 11
125.3324169441413
 21
323.31400638616998
 31
0.0
  0
LINE
  5
19FC
  8
AM_0
 10
128.80245694414111
 20
303.59399238616999
 30
0.0
 11
125.8024569441411
 21
303.59399238616999
 31
0.0
  0
LINE
  5
19FD
  8
AM_0
 10
128.80245694414111
 20
301.59399138616999
 30
0.0
 11
125.8024569441411
 21
301.59399138616999
 31
0.0
  0
LINE
  5
19FE
  8
AM_0
 10
128.80245694414111
 20
293.59399038616999
 30
0.0
 11
125.8024569441411
 21
293.59399038616999
 31
0.0
  0
LINE
  5
19FF
  8
AM_0
 10
128.80245694414111
 20
291.59399238616999
 30
0.0
 11
125.8024569441411
 21
291.59399238616999
 31
0.0
  0
LINE
  5
1A00
  8
AM_0
 10
128.80245694414111
 20
283.59399138616999
 30
0.0
 11
125.8024569441411
 21
283.59399138616999
 31
0.0
  0
LINE
  5
1A01
  8
AM_0
 10
128.80245694414111
 20
281.59399038616988
 30
0.0
 11
125.8024569441411
 21
281.59399038616988
 31
0.0
  0
LINE
  5
1A02
  8
AM_0
 10
126.8024469441412
 20
293.20397538616987
 30
0.0
 11
126.8024469441412
 21
291.99398538616998
 31
0.0
  0
LINE
  5
1A03
  8
AM_0
 10
126.8024469441412
 20
283.20400638617002
 30
0.0
 11
126.8024469441412
 21
282.04397238616991
 31
0.0
  0
LINE
  5
1A04
  8
AM_0
 10
126.8024469441412
 20
303.22399638616997
 30
0.0
 11
126.8024469441412
 21
301.85400138617001
 31
0.0
  0
LINE
  5
1A05
  8
AM_0
 10
126.8024469441412
 20
312.98400738616999
 30
0.0
 11
126.8024469441412
 21
311.92400838616999
 31
0.0
  0
LINE
  5
1A06
  8
AM_0
 10
126.8024469441412
 20
320.42398638616987
 30
0.0
 11
126.8024469441412
 21
319.95400638617002
 31
0.0
  0
LINE
  5
1A07
  8
AM_0
 10
126.8024469441412
 20
324.99397638617
 30
0.0
 11
126.8024469441412
 21
324.44398638617002
 31
0.0
  0
LINE
  5
1A08
  8
AM_0
 10
126.8024469441412
 20
327.09400638616989
 30
0.0
 11
126.8024469441412
 21
326.56399638617
 31
0.0
  0
LINE
  5
1A09
  8
AM_0
 10
123.3024969441412
 20
297.59399238616999
 30
0.0
 11
123.3024969441412
 21
277.5939913861701
 31
0.0
  0
LINE
  5
1A0A
  8
AM_0
 10
123.30243694414111
 20
297.59402238616991
 30
0.0
 11
124.80243694414111
 21
297.72399738617003
 31
0.0
  0
LINE
  5
1A0B
  8
AM_0
 10
123.3024969441412
 20
294.87398838617003
 30
0.0
 11
124.8024969441412
 21
294.87398838617003
 31
0.0
  0
LINE
  5
1A12
  8
AM_0
 10
139.80249694414121
 20
325.94398638617002
 30
0.0
 11
139.80249694414121
 21
311.90398938617
 31
0.0
  0
LINE
  5
1A13
  8
AM_0
 10
129.8024469441412
 20
311.90398938617
 30
0.0
 11
139.80249694414121
 21
311.90398938617
 31
0.0
  0
LINE
  5
1A14
  8
AM_0
 10
129.8024469441412
 20
320.28400638617001
 30
0.0
 11
139.80249694414121
 21
320.28400638617001
 31
0.0
  0
LINE
  5
1A15
  8
AM_0
 10
129.8024469441412
 20
325.94398638617002
 30
0.0
 11
139.80249694414121
 21
325.94398638617002
 31
0.0
  0
LINE
  5
1A22
  8
AM_0
 10
176.8024469441412
 20
263.59400538617001
 30
0.0
 11
135.3525069441412
 21
263.59400538617001
 31
0.0
  0
LINE
  5
1A28
  8
AM_0
 10
152.80245694414111
 20
339.45400638617002
 30
0.0
 11
269.61243694414122
 21
339.45400638617002
 31
0.0
  0
LINE
  5
1A29
  8
AM_0
 10
136.03248694414111
 20
330.57400638617003
 30
0.0
 11
149.30244694414111
 21
330.57400638617003
 31
0.0
  0
LINE
  5
1A2A
  8
AM_0
 10
133.5224769441412
 20
325.94401638616989
 30
0.0
 11
134.06244694414119
 21
328.93402638616988
 31
0.0
  0
LINE
  5
1A2B
  8
AM_0
 10
135.9724869441412
 20
335.86396638616998
 30
0.0
 11
149.30244694414111
 21
335.86396638616998
 31
0.0
  0
LINE
  5
1A2D
  8
AM_0
 10
135.9424569441411
 20
339.2639863861699
 30
0.0
 11
149.30244694414111
 21
339.2639863861699
 31
0.0
  0
LINE
  5
1A2E
  8
AM_0
 10
135.9124269441412
 20
340.89397638616998
 30
0.0
 11
149.4124269441412
 21
340.89397638616998
 31
0.0
  0
LINE
  5
1A2F
  8
AM_0
 10
152.80245694414111
 20
343.51399638616988
 30
0.0
 11
205.80249694414121
 21
343.51399638616988
 31
0.0
  0
LINE
  5
1A30
  8
AM_0
 10
152.80245694414111
 20
342.83398638617001
 30
0.0
 11
205.80249694414121
 21
342.83398638617001
 31
0.0
  0
LINE
  5
1A31
  8
AM_0
 10
152.80245694414111
 20
341.48401638617003
 30
0.0
 11
205.80249694414121
 21
341.48401638617003
 31
0.0
  0
LINE
  5
1A32
  8
AM_0
 10
131.5924269441411
 20
328.63399638617
 30
0.0
 11
134.00244694414121
 21
328.63399638617
 31
0.0
  0
LINE
  5
1A33
  8
AM_0
 10
134.01240694414111
 20
334.28401638616998
 30
0.0
 11
133.0523769441412
 21
329.8140163861699
 31
0.0
  0
LINE
  5
1A34
  8
AM_0
 10
131.61243694414119
 20
332.69398638617002
 30
0.0
 11
133.67250694414111
 21
332.69398638617002
 31
0.0
  0
LINE
  5
1A35
  8
AM_0
 10
177.8024469441412
 20
313.5939913861701
 30
0.0
 11
144.35250694414111
 21
313.59399138616999
 31
0.0
  0
LINE
  5
1A36
  8
AM_0
 10
177.8024469441412
 20
311.59399038617011
 30
0.0
 11
144.35250694414111
 21
311.59399038616999
 31
0.0
  0
LINE
  5
1A37
  8
AM_0
 10
176.8024469441412
 20
303.59399238616999
 30
0.0
 11
144.35250694414111
 21
303.59399238616999
 31
0.0
  0
LINE
  5
1A38
  8
AM_0
 10
133.99245694414111
 20
337.72399638616997
 30
0.0
 11
133.0724769441411
 21
333.84400638617012
 31
0.0
  0
LINE
  5
1A39
  8
AM_0
 10
176.8024469441412
 20
301.59399138616999
 30
0.0
 11
144.35250694414111
 21
301.59399138616999
 31
0.0
  0
LINE
  5
1A3A
  8
AM_0
 10
131.63244694414121
 20
334.71397638616997
 30
0.0
 11
133.28247694414111
 21
334.71397638616997
 31
0.0
  0
LINE
  5
1A3B
  8
AM_0
 10
133.97241694414129
 20
339.38398638617002
 30
0.0
 11
133.08240694414121
 21
335.85400638617
 31
0.0
  0
LINE
  5
1A3C
  8
AM_0
 10
176.8024469441412
 20
293.59399038616999
 30
0.0
 11
135.3525069441412
 21
293.59399038616999
 31
0.0
  0
LINE
  5
1A3D
  8
AM_0
 10
150.80244694414111
 20
339.48397638617001
 30
0.0
 11
150.80244694414111
 21
332.07400638617003
 31
0.0
  0
LINE
  5
1A3E
  8
AM_0
 10
176.8024469441412
 20
291.59399238616987
 30
0.0
 11
135.3525069441412
 21
291.59399238616999
 31
0.0
  0
LINE
  5
1A3F
  8
AM_0
 10
148.4037758477952
 20
283.5939913861701
 30
0.0
 11
135.3525069441412
 21
283.59399138616999
 31
0.0
  0
LINE
  5
1A40
  8
AM_0
 10
207.8024469441412
 20
341.51398638617002
 30
0.0
 11
207.8024469441412
 21
339.45400638617002
 31
0.0
  0
LINE
  5
1A41
  8
AM_0
 10
148.4037758477952
 20
281.59399038616988
 30
0.0
 11
135.3525069441412
 21
281.59399038616988
 31
0.0
  0
LINE
  5
1A42
  8
AM_0
 10
271.5424269441412
 20
337.97398638617
 30
0.0
 11
275.00244694414118
 21
325.05400638616999
 31
0.0
  0
LINE
  5
1A43
  8
AM_0
 10
271.51245694414121
 20
338.09398638617
 30
0.0
 11
276.8024469441412
 21
338.09398638617
 31
0.0
  0
LINE
  5
1A44
  8
AM_0
 10
276.51246694414118
 20
328.63399638617
 30
0.0
 11
274.10250694414123
 21
328.63399638617
 31
0.0
  0
LINE
  5
1A45
  8
AM_0
 10
273.60249694414119
 20
336.51400638617002
 30
0.0
 11
275.04249694414108
 21
329.8140163861699
 31
0.0
  0
LINE
  5
1A46
  8
AM_0
 10
129.8024469441412
 20
220.16399538617
 30
0.0
 11
129.8024469441412
 21
277.5939913861701
 31
0.0
  0
LINE
  5
1A47
  8
AM_0
 10
124.8024969441412
 20
229.0039783861699
 30
0.0
 11
124.8024969441412
 21
272.59400538617001
 31
0.0
  0
LINE
  5
1A48
  8
AM_0
 10
127.0024569441411
 20
241.90398738617
 30
0.0
 11
129.10242694414109
 21
241.90398738617
 31
0.0
  0
LINE
  5
1A49
  8
AM_0
 10
126.61242694414111
 20
241.98400338617
 30
0.0
 11
125.41248694414109
 21
242.5039783861699
 31
0.0
  0
LINE
  5
1A4A
  8
AM_0
 10
126.9524769441411
 20
243.85399938616999
 30
0.0
 11
128.80245694414111
 21
243.85399938616999
 31
0.0
  0
LINE
  5
1A4B
  8
AM_0
 10
126.66243694414121
 20
243.8940073861699
 30
0.0
 11
125.5124769441411
 21
244.25400738617
 31
0.0
  0
LINE
  5
1A4C
  8
AM_0
 10
128.80245694414111
 20
251.59400538617001
 30
0.0
 11
125.8024569441411
 21
251.59400538617001
 31
0.0
  0
LINE
  5
1A4D
  8
AM_0
 10
128.80245694414111
 20
253.59398838617
 30
0.0
 11
125.8024569441411
 21
253.59398838617
 31
0.0
  0
LINE
  5
1A4E
  8
AM_0
 10
128.80245694414111
 20
261.59398938616988
 30
0.0
 11
125.8024569441411
 21
261.59398938616988
 31
0.0
  0
LINE
  5
1A4F
  8
AM_0
 10
128.80245694414111
 20
263.59400538617001
 30
0.0
 11
125.8024569441411
 21
263.59400538617001
 31
0.0
  0
LINE
  5
1A50
  8
AM_0
 10
128.80245694414111
 20
271.59399138616999
 30
0.0
 11
125.8024569441411
 21
271.59399138616999
 31
0.0
  0
LINE
  5
1A51
  8
AM_0
 10
128.80245694414111
 20
273.59398938616988
 30
0.0
 11
125.8024569441411
 21
273.59398938616988
 31
0.0
  0
LINE
  5
1A52
  8
AM_0
 10
126.8024469441412
 20
261.98400438617
 30
0.0
 11
126.8024469441412
 21
263.20399038616989
 31
0.0
  0
LINE
  5
1A53
  8
AM_0
 10
126.8024469441412
 20
271.98398838616998
 30
0.0
 11
126.8024469441412
 21
273.1440073861699
 31
0.0
  0
LINE
  5
1A54
  8
AM_0
 10
126.8024469441412
 20
251.9639833861699
 30
0.0
 11
126.8024469441412
 21
253.33398138617
 31
0.0
  0
LINE
  5
1A55
  8
AM_0
 10
126.8024469441412
 20
242.20399038616989
 30
0.0
 11
126.8024469441412
 21
243.26398638616999
 31
0.0
  0
LINE
  5
1A56
  8
AM_0
 10
123.3024969441412
 20
257.59400538617001
 30
0.0
 11
123.3024969441412
 21
277.5939913861701
 31
0.0
  0
LINE
  5
1A57
  8
AM_0
 10
123.30243694414111
 20
257.59399038616988
 30
0.0
 11
124.80243694414111
 21
257.4639853861699
 31
0.0
  0
LINE
  5
1A58
  8
AM_0
 10
123.3024969441412
 20
260.31399138617002
 30
0.0
 11
124.8024969441412
 21
260.31399138617002
 31
0.0
  0
LINE
  5
1A59
  8
AM_0
 10
152.80245694414111
 20
211.67398938617001
 30
0.0
 11
205.80249694414121
 21
211.67398938617001
 31
0.0
  0
LINE
  5
1A5A
  8
AM_0
 10
135.9424569441411
 20
215.92400538616999
 30
0.0
 11
149.30244694414111
 21
215.92400538616999
 31
0.0
  0
LINE
  5
1A5B
  8
AM_0
 10
129.8024469441412
 20
234.90398538617001
 30
0.0
 11
139.80249694414121
 21
234.90398538617001
 31
0.0
  0
LINE
  5
1A5C
  8
AM_0
 10
152.80245694414111
 20
212.35399938616999
 30
0.0
 11
205.80249694414121
 21
212.35399938616999
 31
0.0
  0
LINE
  5
1A5D
  8
AM_0
 10
131.61243694414119
 20
222.49398138616999
 30
0.0
 11
133.67250694414111
 21
222.49398138616999
 31
0.0
  0
LINE
  5
1A5E
  8
AM_0
 10
131.5924269441411
 20
226.56399138616999
 30
0.0
 11
134.00244694414121
 21
226.56399138616999
 31
0.0
  0
LINE
  5
1A5F
  8
AM_0
 10
134.01246694414121
 20
220.91399538617
 30
0.0
 11
133.05243694414111
 21
225.37398738617
 31
0.0
  0
LINE
  5
1A60
  8
AM_0
 10
152.80245694414111
 20
213.70399038617001
 30
0.0
 11
205.80249694414121
 21
213.70399038617001
 31
0.0
  0
LINE
  5
1A61
  8
AM_0
 10
134.26245694414109
 20
251.10398538617011
 30
0.0
 11
176.8024469441412
 21
251.10398538617
 31
0.0
  0
LINE
  5
1A62
  8
AM_0
 10
177.8024469441412
 20
243.59398938616999
 30
0.0
 11
135.79248694414119
 21
243.59398938616999
 31
0.0
  0
LINE
  5
1A63
  8
AM_0
 10
143.4824469441412
 20
314.31399138617002
 30
0.0
 11
177.8024469441412
 21
314.31399138617002
 31
0.0
  0
LINE
  5
1A64
  8
AM_0
 10
143.4824469441412
 20
310.96398738617
 30
0.0
 11
177.8024469441412
 21
310.96398738617
 31
0.0
  0
LINE
  5
1A65
  8
AM_0
 10
143.26245694414109
 20
304.08398238617002
 30
0.0
 11
176.8024469441412
 21
304.08398238617002
 31
0.0
  0
LINE
  5
1A66
  8
AM_0
 10
143.26245694414109
 20
301.15398738616989
 30
0.0
 11
176.8024469441412
 21
301.15398738616989
 31
0.0
  0
LINE
  5
1A67
  8
AM_0
 10
134.13246694414121
 20
293.93398638616992
 30
0.0
 11
176.8024469441412
 21
293.93398638616992
 31
0.0
  0
LINE
  5
1A68
  8
AM_0
 10
134.13246694414121
 20
291.27398238616991
 30
0.0
 11
176.8024469441412
 21
291.27398238616991
 31
0.0
  0
LINE
  5
1A69
  8
AM_0
 10
134.07246694414121
 20
283.86397938617
 30
0.0
 11
148.4037758477952
 21
283.86397938617
 31
0.0
  0
LINE
  5
1A6A
  8
AM_0
 10
134.07246694414121
 20
281.33398038617008
 30
0.0
 11
148.4037758477952
 21
281.33398038617008
 31
0.0
  0
LINE
  5
1A6B
  8
AM_0
 10
150.80244694414111
 20
314.83398138617002
 30
0.0
 11
150.80244694414111
 21
314.76397338616999
 31
0.0
  0
LINE
  5
1A6F
  8
AM_0
 10
134.07246694414121
 20
273.86399538617002
 30
0.0
 11
148.4037758477952
 21
273.86399538617002
 31
0.0
  0
LINE
  5
1A70
  8
AM_0
 10
148.4037758477952
 20
271.59399138616999
 30
0.0
 11
135.3525069441412
 21
271.59399138616999
 31
0.0
  0
LINE
  5
1A71
  8
AM_0
 10
148.4037758477952
 20
273.59398938616988
 30
0.0
 11
135.3525069441412
 21
273.59398938616988
 31
0.0
  0
LINE
  5
1A74
  8
AM_0
 10
134.13246694414121
 20
263.91399738617002
 30
0.0
 11
176.8024469441412
 21
263.91399738617002
 31
0.0
  0
LINE
  5
1A75
  8
AM_0
 10
123.3024969441412
 20
292.74398538616998
 30
0.0
 11
127.58247694414111
 21
292.74398538616998
 31
0.0
  0
LINE
  5
1A78
  8
AM_0
 10
176.8024469441412
 20
261.59398938616988
 30
0.0
 11
135.3525069441412
 21
261.59398938616988
 31
0.0
  0
LINE
  5
1A79
  8
AM_0
 10
134.13246694414121
 20
261.25397838616988
 30
0.0
 11
176.8024469441412
 21
261.25397838616999
 31
0.0
  0
LINE
  5
1A7A
  8
AM_0
 10
176.8024469441412
 20
253.59398838617
 30
0.0
 11
135.3525069441412
 21
253.59398838617
 31
0.0
  0
LINE
  5
1A7B
  8
AM_0
 10
134.26245694414109
 20
254.03399238617001
 30
0.0
 11
176.8024469441412
 21
254.03399238617001
 31
0.0
  0
LINE
  5
1A7C
  8
AM_0
 10
176.8024469441412
 20
251.59400538617001
 30
0.0
 11
135.3525069441412
 21
251.59400538617001
 31
0.0
  0
LINE
  5
1A7E
  8
AM_0
 10
134.07246694414121
 20
271.32400038616998
 30
0.0
 11
148.4037758477952
 21
271.32400038616998
 31
0.0
  0
LINE
  5
1A7F
  8
AM_0
 10
123.3024969441412
 20
262.44397938616999
 30
0.0
 11
127.88244694414129
 21
262.44397938616999
 31
0.0
  0
CIRCLE
  5
1A9C
  8
AM_0
 10
642.85924397882707
 20
294.59399238616982
 30
0.0
 40
2.4999998400000001
  0
CIRCLE
  5
1A9D
  8
AM_5
 10
642.85924397882707
 20
294.59399238616982
 30
0.0
 40
3.0
  0
ARC
  5
1A9E
  8
AM_0
 10
642.85924397882707
 20
294.59399238616982
 30
0.0
 40
9.5000003999999993
 50
108.40848
 51
71.59151199999998
  0
CIRCLE
  5
1AA2
  8
AM_0
 10
692.84049197882734
 20
315.9459493861699
 30
0.0
 40
4.9999998000000003
  0
CIRCLE
  5
1AA3
  8
AM_0
 10
618.75019097882705
 20
219.38959638616981
 30
0.0
 40
4.9999998000000003
  0
CIRCLE
  5
1AA4
  8
AM_0
 10
592.87799597882724
 20
315.9459493861699
 30
0.0
 40
4.9999998000000003
  0
CIRCLE
  5
1AA5
  8
AM_0
 10
666.96831497882715
 20
219.38959638616981
 30
0.0
 40
4.9999998000000003
  0
ARC
  5
1AAA
  8
AM_0
 10
338.30245694414123
 20
319.83268638617
 30
0.0
 40
1.0000000199999981
 50
270.0
 51
0.0
  0
ARC
  5
1AAB
  8
AM_0
 10
338.30245694414123
 20
314.05920138617
 30
0.0
 40
1.0000000199999981
 50
270.0
 51
0.0
  0
ARC
  5
1AAC
  8
AM_0
 10
338.30245694414123
 20
311.17245138617
 30
0.0
 40
1.0000000199999981
 50
270.0
 51
0.0
  0
ARC
  5
1AAD
  8
AM_0
 10
338.30245694414123
 20
312.05920038617001
 30
0.0
 40
1.0000000199999981
 50
0.0
 51
90.000003000000007
  0
ARC
  5
1AAE
  8
AM_0
 10
338.30245694414123
 20
317.83270038617002
 30
0.0
 40
1.0000000199999981
 50
0.0
 51
90.000003000000007
  0
ARC
  5
1AAF
  8
AM_0
 10
338.30245694414123
 20
320.71948638616999
 30
0.0
 40
1.0000000199999981
 50
0.0
 51
90.000003000000007
  0
ARC
  5
1AB1
  8
AM_0
 10
301.8024469441412
 20
218.09398938616999
 30
0.0
 40
1.5000000299999989
 50
90.000003000000007
 51
180.00001
  0
ARC
  5
1AB2
  8
AM_0
 10
381.80245694414123
 20
218.09398938616999
 30
0.0
 40
1.5000000299999989
 50
0.0
 51
90.000003000000007
  0
ARC
  5
1AB4
  8
AM_0
 10
386.30245694414123
 20
222.78438738617001
 30
0.0
 40
5.0000001000000003
 50
179.99999
 51
226.18692999999999
  0
ARC
  5
1AB5
  8
AM_0
 10
363.30244694414131
 20
302.51140938616999
 30
0.0
 40
5.0000001000000003
 50
90.000003000000007
 51
180.00001
  0
ARC
  5
1AB7
  8
AM_0
 10
376.30246694414109
 20
329.59396638617
 30
0.0
 40
5.0000001000000003
 50
180.00001
 51
270.0
  0
ARC
  5
1AB8
  8
AM_0
 10
379.3024669441412
 20
322.59400638616989
 30
0.0
 40
2.00000007
 50
0.0
 51
90.000003000000007
  0
ARC
  5
1AB9
  8
AM_0
 10
366.3024469441412
 20
316.11538338616998
 30
0.0
 40
5.0000001000000003
 50
0.0
 51
90.000003000000007
  0
ARC
  5
1ABA
  8
AM_0
 10
366.3024469441412
 20
331.46629638616997
 30
0.0
 40
5.0000001000000003
 50
0.0
 51
88.499996999999965
  0
ARC
  5
1ABB
  8
AM_0
 10
363.30244694414131
 20
224.59397238617001
 30
0.0
 40
5.0000001000000003
 50
180.00001
 51
270.0
  0
ARC
  5
1ABC
  8
AM_0
 10
366.3024469441412
 20
246.36141438617
 30
0.0
 40
5.0000001000000003
 50
270.0
 51
0.0
  0
ARC
  5
1ABD
  8
AM_0
 10
362.30245694414123
 20
209.59398738617
 30
0.0
 40
1.0000000199999981
 50
0.0
 51
90.000003000000007
  0
ARC
  5
1ABE
  8
AM_0
 10
321.30244694414131
 20
209.59398738617
 30
0.0
 40
1.0000000199999981
 50
90.000003000000007
 51
180.00001
  0
ARC
  5
1ABF
  8
AM_0
 10
323.30245694414123
 20
253.76984838617
 30
0.0
 40
3.0
 50
353.29016000000001
 51
0.0
  0
ARC
  5
1AC0
  8
AM_0
 10
319.63471694414119
 20
222.59398938616999
 30
0.0
 40
3.0
 50
270.0
 51
353.29016000000001
  0
ARC
  5
1AC2
  8
AM_0
 10
335.30245694414123
 20
325.81594638617003
 30
0.0
 40
1.0000000199999981
 50
90.000003000000007
 51
180.00001
  0
ARC
  5
1AC3
  8
AM_0
 10
335.30245694414123
 20
306.4322173861699
 30
0.0
 40
1.0000000199999981
 50
179.99999
 51
270.0
  0
ARC
  5
1AC4
  8
AM_0
 10
672.85924697882729
 20
224.0939893861698
 30
0.0
 40
5.0000001000000003
 50
0.0
 51
90.000003000000007
  0
ARC
  5
1AC5
  8
AM_0
 10
684.85924697882729
 20
217.5939883861698
 30
0.0
 40
2.00000007
 50
90.000003000000007
 51
180.00001
  0
ARC
  5
1AC6
  8
AM_0
 10
693.7952059788272
 20
303.1777303861698
 30
0.0
 40
3.0
 50
26.669156999999991
 51
87.412548999999956
  0
ARC
  5
1AC7
  8
AM_0
 10
694.42722497882721
 20
317.16348138616968
 30
0.0
 40
11.000000399999999
 50
149.84220999999999
 51
285.16365000000002
  0
ARC
  5
1AC8
  8
AM_0
 10
633.87314597882687
 20
226.0939723861699
 30
0.0
 40
3.0
 50
356.81526000000002
 51
90.000003000000007
  0
ARC
  5
1AC9
  8
AM_0
 10
642.85924397882707
 20
277.59399138616988
 30
0.0
 40
60.000002999999992
 50
48.330844999999989
 51
131.6691499999998
  0
ARC
  5
1ACA
  8
AM_0
 10
642.85924397882707
 20
277.59399138616988
 30
0.0
 40
60.000002999999992
 50
9.0545418999999807
 51
26.669156999999991
  0
ARC
  5
1ACB
  8
AM_0
 10
642.85924397882707
 20
277.59399138616988
 30
0.0
 40
60.000002999999992
 50
171.12478999999999
 51
172.44926000000001
  0
ARC
  5
1ACC
  8
AM_0
 10
591.92328497882716
 20
303.1777303861698
 30
0.0
 40
3.0
 50
92.587449000000007
 51
153.33085
  0
ARC
  5
1ACE
  8
AM_0
 10
642.85924397882707
 20
282.09399138616988
 30
0.0
 40
42.500000999999997
 50
0.0
 51
180.00001
  0
ARC
  5
1ACF
  8
AM_0
 10
591.29129597882729
 20
317.16348138616968
 30
0.0
 40
11.000000399999999
 50
254.83636000000001
 51
30.157795000000011
  0
ARC
  5
1AD0
  8
AM_0
 10
711.35926097882725
 20
218.0939893861698
 30
0.0
 40
1.5000000299999989
 50
0.0
 51
90.000003000000007
  0
ARC
  5
1AD1
  8
AM_0
 10
600.85925897882726
 20
217.5939883861698
 30
0.0
 40
2.00000007
 50
0.0
 51
90.000003000000007
  0
ARC
  5
1AD2
  8
AM_0
 10
604.85925797882715
 20
215.0939893861698
 30
0.0
 40
3.0
 50
270.0
 51
0.0
  0
ARC
  5
1AD3
  8
AM_0
 10
680.75446397882729
 20
320.17276638616988
 30
0.0
 40
3.0
 50
347.5874500000001
 51
48.330844999999989
  0
ARC
  5
1AD4
  8
AM_0
 10
642.85924397882695
 20
225.5939893861698
 30
0.0
 40
6.0000002999999991
 50
176.81526999999991
 51
3.184735999999992
  0
ARC
  5
1AD5
  8
AM_0
 10
574.35925697882726
 20
218.0939893861698
 30
0.0
 40
1.5000000299999989
 50
90.000003000000007
 51
180.00001
  0
ARC
  5
1AD6
  8
AM_0
 10
604.96405697882733
 20
320.17276638616988
 30
0.0
 40
3.0
 50
131.6691499999998
 51
192.41255000000001
  0
ARC
  5
1AD7
  8
AM_0
 10
642.85924397882707
 20
277.59399138616988
 30
0.0
 40
60.000002999999992
 50
153.33085
 51
170.94545999999991
  0
ARC
  5
1AD9
  8
AM_0
 10
688.35924497882695
 20
222.5939893861698
 30
0.0
 40
3.0
 50
179.99999
 51
270.0
  0
ARC
  5
1ADA
  8
AM_0
 10
597.35925797882715
 20
222.5939893861698
 30
0.0
 40
3.0
 50
270.0
 51
0.0
  0
ARC
  5
1ADB
  8
AM_0
 10
682.85926097882725
 20
307.59399138616988
 30
0.0
 40
20.000000700000001
 50
6.402379799999995
 51
61.927514999999971
  0
ARC
  5
1ADC
  8
AM_0
 10
612.85924397882695
 20
224.0939893861698
 30
0.0
 40
5.0000001000000003
 50
90.000003000000007
 51
180.00001
  0
ARC
  5
1ADD
  8
AM_0
 10
689.85924497882718
 20
301.82940438616981
 30
0.0
 40
5.0000001000000003
 50
0.0
 51
73.411384999999981
  0
ARC
  5
1ADE
  8
AM_0
 10
680.85924497882706
 20
215.0939893861698
 30
0.0
 40
3.0
 50
179.99999
 51
270.0
  0
ARC
  5
1ADF
  8
AM_0
 10
681.85924697882717
 20
209.5939873861698
 30
0.0
 40
1.0000000199999981
 50
0.0
 51
90.000003000000007
  0
ARC
  5
1AE0
  8
AM_0
 10
603.85925897882726
 20
209.5939873861698
 30
0.0
 40
1.0000000199999981
 50
90.000003000000007
 51
180.00001
  0
ARC
  5
1AE1
  8
AM_0
 10
680.5928899788272
 20
325.2016363861697
 30
0.0
 40
5.0000001000000003
 50
329.84219999999988
 51
67.831202999999988
  0
ARC
  5
1AE2
  8
AM_0
 10
662.85924497882718
 20
259.59399138616988
 30
0.0
 40
32.000000999999997
 50
314.67826000000002
 51
0.0
  0
ARC
  5
1AE3
  8
AM_0
 10
595.85925797882715
 20
301.82940438616981
 30
0.0
 40
5.0000001000000003
 50
106.58861
 51
180.00001
  0
ARC
  5
1AE4
  8
AM_0
 10
622.85925797882715
 20
259.59399138616988
 30
0.0
 40
32.000000999999997
 50
179.99999
 51
225.32174000000001
  0
ARC
  5
1AE5
  8
AM_0
 10
605.12561597882734
 20
325.2016363861697
 30
0.0
 40
5.0000001000000003
 50
112.1688
 51
210.15779000000001
  0
ARC
  5
1AE6
  8
AM_0
 10
602.85925997882703
 20
307.59399138616988
 30
0.0
 40
20.000000700000001
 50
118.0724799999999
 51
173.59762000000001
  0
ARC
  5
1AE7
  8
AM_0
 10
642.85924397882695
 20
232.5939883861698
 30
0.0
 40
105.00000300000001
 50
61.927514999999971
 51
118.0724799999999
  0
ARC
  5
1AE8
  8
AM_0
 10
681.85924697882717
 20
211.0939873861698
 30
0.0
 40
1.0000000199999981
 50
0.0
 51
90.000003000000007
  0
ARC
  5
1AE9
  8
AM_0
 10
603.85925897882726
 20
211.0939873861698
 30
0.0
 40
1.0000000199999981
 50
90.000003000000007
 51
180.00001
  0
ARC
  5
1AEA
  8
AM_0
 10
651.8453599788271
 20
226.0939723861699
 30
0.0
 40
3.0
 50
90.000003000000007
 51
183.18473999999989
  0
ARC
  5
1AEB
  8
AM_0
 10
291.80245694414111
 20
339.41920638616989
 30
0.0
 40
1.0000000199999981
 50
179.99999
 51
268.50000999999997
  0
ARC
  5
1AEC
  8
AM_0
 10
289.80244694414131
 20
339.98887638616992
 30
0.0
 40
1.0000000199999981
 50
0.0
 51
88.499996999999965
  0
ARC
  5
1AED
  8
AM_0
 10
289.80244694414131
 20
215.19909138617001
 30
0.0
 40
1.0000000199999981
 50
271.5
 51
0.0
  0
ARC
  5
1AEE
  8
AM_0
 10
291.80245694414111
 20
215.76877938617
 30
0.0
 40
1.0000000199999981
 50
91.500000999999969
 51
180.00001
  0
ARC
  5
1AEF
  8
AM_0
 10
291.80245694414111
 20
237.59769738617001
 30
0.0
 40
2.00000007
 50
0.0
 51
90.000003000000007
  0
ARC
  5
1AF0
  8
AM_0
 10
291.80245694414111
 20
228.09398838617
 30
0.0
 40
2.00000007
 50
270.0
 51
0.0
  0
ARC
  5
1AF1
  8
AM_0
 10
291.80245694414111
 20
317.59030038616999
 30
0.0
 40
2.00000007
 50
270.0
 51
0.0
  0
ARC
  5
1AF2
  8
AM_0
 10
291.80245694414111
 20
327.09400638616989
 30
0.0
 40
2.00000007
 50
0.0
 51
90.000003000000007
  0
ARC
  5
1AF3
  8
AM_0
 10
587.10605297882705
 20
301.72054638616999
 30
0.0
 40
5.0000001000000003
 50
74.836354
 51
173.59762000000001
  0
ARC
  5
1AF4
  8
AM_0
 10
698.6124349788272
 20
301.72054638616999
 30
0.0
 40
5.0000001000000003
 50
6.402379799999995
 51
105.1636399999999
  0
ARC
  5
1AF5
  8
AM_0
 10
335.30245694414123
 20
304.4322163861699
 30
0.0
 40
1.0000000199999981
 50
0.0
 51
90.000003000000007
  0
ARC
  5
1AF6
  8
AM_0
 10
335.30245694414123
 20
327.81598638616998
 30
0.0
 40
1.0000000199999981
 50
270.0
 51
0.0
  0
ARC
  5
1AF7
  8
AM_0
 10
353.03773694414122
 20
301.22485038616998
 30
0.0
 40
5.0000001000000003
 50
90.000003000000007
 51
171.85424
  0
ARC
  5
1AF8
  8
AM_0
 10
125.79567694414111
 20
325.61191638616998
 30
0.0
 40
0.9931920599999999
 50
119.7734
 51
179.87956
  0
ARC
  5
1AF9
  8
AM_0
 10
125.79804694414121
 20
324.57367638617001
 30
0.0
 40
0.9955880999999999
 50
116.58749
 51
179.98224999999999
  0
ARC
  5
1AFA
  8
AM_0
 10
127.0644669441412
 20
326.34811638616998
 30
0.0
 40
0.9959119799999999
 50
89.541443999999998
 51
119.60699
  0
ARC
  5
1AFB
  8
AM_0
 10
127.02723694414119
 20
325.19998638617
 30
0.0
 40
0.99412809
 50
89.122808000000006
 51
115.93481
  0
ARC
  5
1AFC
  8
AM_0
 10
127.0713069441413
 20
324.23977638616998
 30
0.0
 40
0.9942600299999999
 50
89.355881999999966
 51
120.78109000000001
  0
ARC
  5
1AFD
  8
AM_0
 10
127.0375569441412
 20
323.09863638617003
 30
0.0
 40
0.99546798
 50
89.141447999999983
 51
117.20366
  0
ARC
  5
1AFE
  8
AM_0
 10
127.10907694414109
 20
319.72777638616998
 30
0.0
 40
0.9962120399999999
 50
90.381906000000001
 51
123.9699
  0
ARC
  5
1AFF
  8
AM_0
 10
127.0818669441412
 20
318.58749138616997
 30
0.0
 40
0.9965200799999999
 50
90.541213000000027
 51
120.74328
  0
ARC
  5
1B00
  8
AM_0
 10
125.7965169441412
 20
317.83718538617001
 30
0.0
 40
0.9940760400000001
 50
120.4692
 51
180.18464
  0
ARC
  5
1B01
  8
AM_0
 10
125.7972669441412
 20
318.87157938617003
 30
0.0
 40
0.9948280200000002
 50
123.20469
 51
180.43813
  0
ARC
  5
1B02
  8
AM_0
 10
125.79567694414111
 20
322.43542638616998
 30
0.0
 40
0.99321207
 50
117.79934
 51
180.08183
  0
ARC
  5
1B04
  8
AM_0
 10
125.7968769441411
 20
323.47294638617001
 30
0.0
 40
0.99443607
 50
121.15217
 51
179.94049000000001
  0
ARC
  5
1B05
  8
AM_0
 10
127.0034469441412
 20
312.28851138617
 30
0.0
 40
0.9954800999999999
 50
90.057320999999988
 51
113.12703
  0
ARC
  5
1B06
  8
AM_0
 10
142.94313694414109
 20
236.37487338617001
 30
0.0
 40
1.00423602
 50
314.93782999999991
 51
5.6649238999999989
  0
ARC
  5
1B0A
  8
AM_0
 10
126.9416169441413
 20
310.34127438617003
 30
0.0
 40
0.992772
 50
89.374808000000016
 51
106.33181999999999
  0
ARC
  5
1B0B
  8
AM_0
 10
125.7987069441411
 20
309.98974338617001
 30
0.0
 40
0.9962600700000001
 50
106.69749
 51
180.33049
  0
ARC
  5
1B0C
  8
AM_0
 10
125.79885694414109
 20
311.7755713861701
 30
0.0
 40
0.99640008
 50
112.81739
 51
180.09039999999999
  0
ARC
  5
1B0D
  8
AM_0
 10
125.79750694414111
 20
302.59890438616998
 30
0.0
 40
0.9950800799999999
 50
89.71592099999998
 51
180.2840699999999
  0
ARC
  5
1B0E
  8
AM_0
 10
125.8026369441412
 20
302.59420338617002
 30
0.0
 40
1.000203989999999
 50
180.01167000000001
 51
269.9883200000001
  0
ARC
  5
1B0F
  8
AM_0
 10
125.79750694414111
 20
292.59890538616997
 30
0.0
 40
0.99508401
 50
89.716132999999985
 51
180.28387000000001
  0
ARC
  5
1B10
  8
AM_0
 10
125.8026369441412
 20
292.59420438617002
 30
0.0
 40
1.0002000600000001
 50
180.01146999999989
 51
269.98853000000003
  0
ARC
  5
1B11
  8
AM_0
 10
125.79750694414111
 20
282.5989333861699
 30
0.0
 40
0.9950879999999999
 50
89.716344999999961
 51
180.28364999999999
  0
ARC
  5
1B12
  8
AM_0
 10
125.8026369441412
 20
282.59417238616987
 30
0.0
 40
1.00019601
 50
180.01124999999999
 51
269.98874000000001
  0
ARC
  5
1B13
  8
AM_0
 10
128.8026369441412
 20
280.59414438617
 30
0.0
 40
0.9998480400000001
 50
359.99122
 51
90.008778999999976
  0
ARC
  5
1B14
  8
AM_0
 10
128.7975669441411
 20
284.59890438616998
 30
0.0
 40
1.00492398
 50
270.28001
 51
359.71999000000011
  0
ARC
  5
1B15
  8
AM_0
 10
128.8026369441412
 20
290.59414338616989
 30
0.0
 40
0.9998440499999999
 50
359.99101000000002
 51
90.008991000000023
  0
ARC
  5
1B16
  8
AM_0
 10
128.7975669441411
 20
294.59890338616998
 30
0.0
 40
1.0049280299999981
 50
270.28021999999999
 51
359.71978000000001
  0
ARC
  5
1B17
  8
AM_0
 10
128.8026369441412
 20
300.59414238616989
 30
0.0
 40
0.9998520899999999
 50
359.99144999999999
 51
90.008546999999993
  0
ARC
  5
1B18
  8
AM_0
 10
128.7975669441411
 20
304.59890538616997
 30
0.0
 40
1.0049319599999991
 50
270.28041999999999
 51
359.71958000000001
  0
ARC
  5
1B19
  8
AM_0
 10
128.8041669441412
 20
310.33569138617003
 30
0.0
 40
0.99829605
 50
359.90204000000011
 51
90.097960999999998
  0
ARC
  5
1B1A
  8
AM_0
 10
128.80005694414109
 20
318.58163238616999
 30
0.0
 40
1.0023759899999991
 50
0.13559199
 51
89.864409999999964
  0
ARC
  5
1B1B
  8
AM_0
 10
129.09792694414111
 20
313.98852138617002
 30
0.0
 40
0.70455201
 50
270.36910999999998
 51
359.63089000000002
  0
ARC
  5
1B1C
  8
AM_0
 10
128.8034769441411
 20
323.09500638616998
 30
0.0
 40
0.9990081
 50
359.94315
 51
90.056843000000015
  0
ARC
  5
1B1D
  8
AM_0
 10
129.3040869441412
 20
325.69564638616993
 30
0.0
 40
0.49836402
 50
359.81141000000002
 51
90.188598000000013
  0
ARC
  5
1B1E
  8
AM_0
 10
129.297876944141
 20
327.84859638617002
 30
0.0
 40
0.504636
 50
270.52375999999998
 51
359.47624000000002
  0
ARC
  5
1B1F
  8
AM_0
 10
277.80267694414118
 20
215.0941723861699
 30
0.0
 40
1.0001800499999991
 50
180.01031
 51
269.98968000000002
  0
ARC
  5
1B20
  8
AM_0
 10
269.60712694414121
 20
217.73937438617
 30
0.0
 40
2.0053919100000002
 50
270.15275000000003
 51
344.81207000000001
  0
ARC
  5
1B21
  8
AM_0
 10
277.80195694414118
 20
226.55346138616989
 30
0.0
 40
0.99947604
 50
179.97009
 51
270.02992
  0
ARC
  5
1B23
  8
AM_0
 10
136.02351694414119
 20
328.58155638617001
 30
0.0
 40
1.9924480200000001
 50
89.742107999999988
 51
169.81179
  0
ARC
  5
1B24
  8
AM_0
 10
135.9672969441412
 20
333.86470638616998
 30
0.0
 40
1.9992880199999981
 50
89.851815000000016
 51
167.89433
  0
ARC
  5
1B25
  8
AM_0
 10
131.58675694414109
 20
330.13420638616998
 30
0.0
 40
1.5002480099999991
 50
270.21661999999998
 51
347.67500000000001
  0
ARC
  5
1B26
  8
AM_0
 10
135.9345369441412
 20
337.26946638617
 30
0.0
 40
1.9945160699999991
 50
89.771334999999979
 51
166.82803999999999
  0
ARC
  5
1B27
  8
AM_0
 10
131.61090694414111
 20
334.19779638617001
 30
0.0
 40
1.5037760099999991
 50
270.05984000000001
 51
346.39312999999999
  0
ARC
  5
1B28
  8
AM_0
 10
131.6237469441412
 20
336.21718638617
 30
0.0
 40
1.503232049999998
 50
270.33132000000001
 51
346.01803000000001
  0
ARC
  5
1B29
  8
AM_0
 10
135.9090069441412
 20
338.89717638616997
 30
0.0
 40
1.996816109999999
 50
89.901436000000004
 51
165.88941
  0
ARC
  5
1B2A
  8
AM_0
 10
152.79786694414119
 20
337.45861638616998
 30
0.0
 40
1.9953641399999991
 50
89.866758999999988
 51
180.13323
  0
ARC
  5
1B2B
  8
AM_0
 10
152.79864694414121
 20
339.48778638617
 30
0.0
 40
1.99618809
 50
89.890486999999965
 51
180.10951
  0
ARC
  5
1B2C
  8
AM_0
 10
152.79603694414121
 20
340.84045638616999
 30
0.0
 40
1.993556189999999
 50
89.814515
 51
180.18548999999999
  0
ARC
  5
1B2D
  8
AM_0
 10
152.79798694414109
 20
341.51524638617002
 30
0.0
 40
1.998724049999999
 50
89.871137000000004
 51
165.55096
  0
ARC
  5
1B2E
  8
AM_0
 10
149.29578694414121
 20
332.08069638617002
 30
0.0
 40
1.5066999599999991
 50
270.25416000000001
 51
359.74583999999999
  0
ARC
  5
1B2F
  8
AM_0
 10
149.29962694414121
 20
337.36681638617
 30
0.0
 40
1.5028360199999991
 50
270.10793999999999
 51
359.89206000000001
  0
ARC
  5
1B30
  8
AM_0
 10
149.29761694414111
 20
340.76884638616991
 30
0.0
 40
1.5048719999999991
 50
270.18518
 51
359.81482
  0
ARC
  5
1B31
  8
AM_0
 10
149.4090669441411
 20
342.39700638617001
 30
0.0
 40
1.50301605
 50
270.12945000000002
 51
345.23653999999999
  0
ARC
  5
1B32
  8
AM_0
 10
205.80153694414119
 20
339.48304638616997
 30
0.0
 40
2.0009239199999991
 50
0.026462999
 51
89.973535999999982
  0
ARC
  5
1B33
  8
AM_0
 10
205.80414694414119
 20
340.83568638616993
 30
0.0
 40
1.9982920200000001
 50
359.95103
 51
90.048975000000013
  0
ARC
  5
1B34
  8
AM_0
 10
205.8006669441412
 20
341.51218638617001
 30
0.0
 40
2.0018279999999979
 50
0.052301
 51
89.947696999999977
  0
ARC
  5
1B35
  8
AM_0
 10
276.45270694414108
 20
325.44637638617002
 30
0.0
 40
1.50239199
 50
195.1400099999999
 51
269.99063999999998
  0
ARC
  5
1B36
  8
AM_0
 10
269.6120169441412
 20
337.45501638616997
 30
0.0
 40
1.99898796
 50
15.047801
 51
89.987373000000005
  0
ARC
  5
1B37
  8
AM_0
 10
277.79751694414119
 20
340.09894638616998
 30
0.0
 40
0.9950640599999999
 50
89.714938000000004
 51
180.28505999999999
  0
ARC
  5
1B38
  8
AM_0
 10
277.79682694414117
 20
328.63960638616999
 30
0.0
 40
0.99440004
 50
89.676490999999999
 51
180.32351
  0
ARC
  5
1B39
  8
AM_0
 10
276.50832694414117
 20
330.13444638616988
 30
0.0
 40
1.5004760399999979
 50
192.33223000000001
 51
270.15827999999999
  0
ARC
  5
1B3A
  8
AM_0
 10
271.64991694414118
 20
336.09751638617001
 30
0.0
 40
1.9964880300000001
 50
12.040875
 51
89.926440999999969
  0
ARC
  5
1B3B
  8
AM_0
 10
128.79915694414109
 20
244.85734038616999
 30
0.0
 40
1.0033640100000001
 50
270.19171
 51
359.80828000000002
  0
ARC
  5
1B3C
  8
AM_0
 10
128.7975669441411
 20
254.59890438617001
 30
0.0
 40
1.00492398
 50
270.28003999999999
 51
359.71996999999999
  0
ARC
  5
1B3D
  8
AM_0
 10
128.8026369441412
 20
250.59415638617
 30
0.0
 40
0.9998480400000001
 50
359.99119000000002
 51
90.008807000000004
  0
ARC
  5
1B3E
  8
AM_0
 10
129.10302694414119
 20
241.20455538617
 30
0.0
 40
0.69944001
 50
359.95416
 51
90.045839999999984
  0
ARC
  5
1B3F
  8
AM_0
 10
127.0054569441412
 20
242.90922138617
 30
0.0
 40
1.0052240100000001
 50
246.98629
 51
269.82936000000001
  0
ARC
  5
1B40
  8
AM_0
 10
126.9429969441412
 20
244.85668338617
 30
0.0
 40
1.00272801
 50
253.75297
 51
270.54039999999998
  0
ARC
  5
1B41
  8
AM_0
 10
125.79885694414109
 20
245.20833738617
 30
0.0
 40
0.99638007
 50
180.24949000000001
 51
253.29706999999999
  0
ARC
  5
1B42
  8
AM_0
 10
125.7989769441411
 20
243.42246438616999
 30
0.0
 40
0.9964760700000001
 50
179.91257999999999
 51
247.17966000000001
  0
ARC
  5
1B43
  8
AM_0
 10
125.8026369441412
 20
252.59418738617001
 30
0.0
 40
1.00019601
 50
180.01127999999991
 51
269.98872
  0
ARC
  5
1B44
  8
AM_0
 10
125.79750694414111
 20
252.59893338616999
 30
0.0
 40
0.99508401
 50
89.716324
 51
180.28368
  0
ARC
  5
1B45
  8
AM_0
 10
125.8026369441412
 20
262.59420438617002
 30
0.0
 40
1.0002000600000001
 50
180.01150000000001
 51
269.98851000000002
  0
ARC
  5
1B46
  8
AM_0
 10
125.79750694414111
 20
262.59891738617
 30
0.0
 40
0.99508401
 50
89.716106000000025
 51
180.28389000000001
  0
ARC
  5
1B47
  8
AM_0
 10
125.8026369441412
 20
272.59420338616991
 30
0.0
 40
1.000203989999999
 50
180.01169999999999
 51
269.98829999999998
  0
ARC
  5
1B48
  8
AM_0
 10
125.79750694414111
 20
272.59891938617
 30
0.0
 40
0.9950800799999999
 50
89.715893999999963
 51
180.2841
  0
ARC
  5
1B49
  8
AM_0
 10
128.79750694414111
 20
274.59892038616999
 30
0.0
 40
1.0049319599999991
 50
270.28044999999997
 51
359.71955000000008
  0
ARC
  5
1B4A
  8
AM_0
 10
128.8026369441412
 20
270.59414238617001
 30
0.0
 40
0.9998520899999999
 50
359.99142999999998
 51
90.008574000000024
  0
ARC
  5
1B4B
  8
AM_0
 10
128.7975669441411
 20
264.59890338616992
 30
0.0
 40
1.0049280299999981
 50
270.28023999999999
 51
359.71976000000001
  0
ARC
  5
1B4C
  8
AM_0
 10
128.8026369441412
 20
260.59414338617
 30
0.0
 40
0.9998440499999999
 50
359.99097999999998
 51
90.00901800000004
  0
ARC
  5
1B4D
  8
AM_0
 10
138.96075694414111
 20
319.18679538616999
 30
0.0
 40
5.004112499999998
 50
279.68356999999997
 51
354.57834000000008
  0
ARC
  5
1B4E
  8
AM_0
 10
139.42323694414119
 20
315.26107638616998
 30
0.0
 40
6.0049157999999991
 50
45.22730700000001
 51
86.379093999999981
  0
ARC
  5
1B4F
  8
AM_0
 10
142.94643694414111
 20
318.81426738617
 30
0.0
 40
1.001108069999999
 50
354.25024999999999
 51
45.146993999999992
  0
ARC
  5
1B50
  8
AM_0
 10
271.64490694414121
 20
219.09659838617
 30
0.0
 40
2.0026238699999981
 50
270.21534000000003
 51
347.81734
  0
ARC
  5
1B51
  8
AM_0
 10
276.5095269441411
 20
225.06467538616999
 30
0.0
 40
1.499328059999999
 50
89.888150999999993
 51
168.09384
  0
ARC
  5
1B52
  8
AM_0
 10
139.43244694414119
 20
239.94117138617
 30
0.0
 40
6.0085923000000001
 50
273.53095000000002
 51
314.61478
  0
ARC
  5
1B53
  8
AM_0
 10
138.9658269441411
 20
236.00591538616999
 30
0.0
 40
4.9985837999999987
 50
5.3731198999999981
 51
80.364975999999999
  0
ARC
  5
1B54
  8
AM_0
 10
125.8000569441411
 20
229.57865538617
 30
0.0
 40
0.9976240799999999
 50
180.26750999999999
 51
240.07954000000001
  0
ARC
  5
1B55
  8
AM_0
 10
125.7981069441411
 20
230.62435338616999
 30
0.0
 40
0.9956680199999999
 50
180.02043
 51
243.40983
  0
ARC
  5
1B56
  8
AM_0
 10
127.083156944141
 20
228.84507138616999
 30
0.0
 40
1.0011359699999991
 50
239.328
 51
269.38751000000002
  0
ARC
  5
1B57
  8
AM_0
 10
127.0482969441413
 20
229.99324938616999
 30
0.0
 40
0.999288
 50
242.86126999999999
 51
269.66618999999997
  0
ARC
  5
1B58
  8
AM_0
 10
127.07379694414119
 20
230.95765038616989
 30
0.0
 40
1.0036880100000001
 50
239.37027
 51
270.49275
  0
ARC
  5
1B59
  8
AM_0
 10
127.05762694414111
 20
232.09461438617001
 30
0.0
 40
1.00062801
 50
241.6498600000001
 51
269.70470999999998
  0
ARC
  5
1B5A
  8
AM_0
 10
127.0952169441411
 20
235.47449838617001
 30
0.0
 40
1.0005359999999981
 50
237.1464
 51
270.41322000000002
  0
ARC
  5
1B5B
  8
AM_0
 10
127.0658169441412
 20
236.61498438616999
 30
0.0
 40
1.0010120099999991
 50
240.47136
 51
270.3802
  0
ARC
  5
1B5C
  8
AM_0
 10
125.8015269441412
 20
236.31867438616999
 30
0.0
 40
0.99910005
 50
179.69542000000001
 51
236.66176999999999
  0
ARC
  5
1B5D
  8
AM_0
 10
125.8001769441412
 20
232.75528938617001
 30
0.0
 40
0.9977079899999999
 50
180.07405
 51
242.04476
  0
ARC
  5
1B5E
  8
AM_0
 10
125.80122694414111
 20
231.71749338616999
 30
0.0
 40
0.9987801
 50
179.62666999999999
 51
238.70855
  0
ARC
  5
1B5F
  8
AM_0
 10
128.79999694414121
 20
236.61645138617001
 30
0.0
 40
1.00246002
 50
270.14037999999999
 51
359.85962000000001
  0
ARC
  5
1B60
  8
AM_0
 10
125.8009269441411
 20
237.35329638617
 30
0.0
 40
0.9984600300000001
 50
179.95962
 51
239.38655
  0
ARC
  5
1B61
  8
AM_0
 10
128.79840694414111
 20
232.09807938617001
 30
0.0
 40
1.004084009999999
 50
270.23262999999997
 51
359.76737000000008
  0
ARC
  5
1B62
  8
AM_0
 10
129.2990169441411
 20
229.49738538617001
 30
0.0
 40
0.50340399
 50
270.38612999999998
 51
359.61387000000002
  0
ARC
  5
1B63
  8
AM_0
 10
129.3028569441411
 20
227.34443238617001
 30
0.0
 40
0.4995560100000002
 50
359.94911000000002
 51
90.050894000000014
  0
ARC
  5
1B64
  8
AM_0
 10
136.02852694414099
 20
226.61242038616999
 30
0.0
 40
1.998444029999999
 50
190.33240000000001
 51
270.11369000000002
  0
ARC
  5
1B65
  8
AM_0
 10
135.96735694414119
 20
221.33336838617001
 30
0.0
 40
1.9993920899999991
 50
192.1080399999999
 51
270.14582000000001
  0
ARC
  5
1B66
  8
AM_0
 10
131.5855869441412
 20
225.06490638616989
 30
0.0
 40
1.499099999999999
 50
11.89856
 51
89.736657999999963
  0
ARC
  5
1B67
  8
AM_0
 10
135.9394569441412
 20
217.92475338617001
 30
0.0
 40
2.0007560699999991
 50
193.3141599999999
 51
270.08645000000001
  0
ARC
  5
1B68
  8
AM_0
 10
131.6158569441412
 20
220.99648638617001
 30
0.0
 40
1.497512039999999
 50
13.418233000000001
 51
90.128792999999988
  0
ARC
  5
1B69
  8
AM_0
 10
131.63025694414111
 20
218.97586938616999
 30
0.0
 40
1.498128089999998
 50
14.224575
 51
89.916113999999993
  0
ARC
  5
1B6A
  8
AM_0
 10
135.91395694414109
 20
216.29713038617001
 30
0.0
 40
2.0031319199999991
 50
194.25158999999999
 51
269.95755000000003
  0
ARC
  5
1B6B
  8
AM_0
 10
152.80293694414109
 20
217.73443038617
 30
0.0
 40
2.000452109999999
 50
180.0129
 51
269.9871
  0
ARC
  5
1B6C
  8
AM_0
 10
152.80377694414119
 20
215.70530238616999
 30
0.0
 40
2.0013120899999981
 50
180.03756000000001
 51
269.96244000000002
  0
ARC
  5
1B6D
  8
AM_0
 10
152.80110694414111
 20
214.35260838617
 30
0.0
 40
1.9986199799999991
 50
179.96046999999999
 51
270.03953000000001
  0
ARC
  5
1B6E
  8
AM_0
 10
152.79639694414121
 20
213.68404638617
 30
0.0
 40
2.0000761200000001
 50
194.77498
 51
270.17353000000003
  0
ARC
  5
1B6F
  8
AM_0
 10
149.30091694414111
 20
223.11242238617001
 30
0.0
 40
1.5015680099999991
 50
0.059805003
 51
89.940196999999998
  0
ARC
  5
1B70
  8
AM_0
 10
149.29974694414119
 20
217.83127938617
 30
0.0
 40
1.50271599
 50
0.103436
 51
89.896566000000007
  0
ARC
  5
1B71
  8
AM_0
 10
149.30274694414121
 20
214.42423338616999
 30
0.0
 40
1.49975601
 50
359.99059
 51
90.009407999999965
  0
ARC
  5
1B72
  8
AM_0
 10
149.41401694414131
 20
212.79734238616999
 30
0.0
 40
1.49664405
 50
14.57574
 51
90.058278000000001
  0
ARC
  5
1B73
  8
AM_0
 10
205.7964669441412
 20
215.71001538617
 30
0.0
 40
2.0060480100000002
 50
270.17248999999998
 51
359.82751000000002
  0
ARC
  5
1B74
  8
AM_0
 10
205.79907694414129
 20
214.35735438616999
 30
0.0
 40
2.0033560499999989
 50
270.09593999999998
 51
359.90406000000002
  0
ARC
  5
1B75
  8
AM_0
 10
205.80054694414119
 20
213.68587638617001
 30
0.0
 40
2.0019000299999989
 50
270.05437999999998
 51
359.94562000000002
  0
ARC
  5
1B76
  8
AM_0
 10
276.44784694414119
 20
229.74801138616999
 30
0.0
 40
1.49599605
 50
89.821707000000004
 51
165.04766000000001
  0
ARC
  5
1B77
  8
AM_0
 10
151.79769694414111
 20
292.59399138616999
 30
0.0
 40
1.000011959999999
 50
89.726507999999981
 51
270.27348000000001
  0
ARC
  5
1B78
  8
AM_0
 10
151.79769694414111
 20
302.59399038616999
 30
0.0
 40
1.000011959999999
 50
89.726507999999981
 51
270.27348000000001
  0
ARC
  5
1B79
  8
AM_0
 10
151.79769694414111
 20
312.59399238616999
 30
0.0
 40
1.000011959999999
 50
89.726507999999981
 51
270.27348000000001
  0
ARC
  5
1B7A
  8
AM_0
 10
134.06667694414111
 20
282.59899638617009
 30
0.0
 40
1.26501207
 50
89.737716000000006
 51
270.26227999999998
  0
ARC
  5
1B7B
  8
AM_0
 10
134.13246694414121
 20
292.6039993861699
 30
0.0
 40
1.330008059999999
 50
90.000003000000007
 51
270.0
  0
ARC
  5
1B7C
  8
AM_0
 10
143.26245694414109
 20
302.61898638616998
 30
0.0
 40
1.465004009999999
 50
90.000003000000007
 51
270.0
  0
ARC
  5
1B7D
  8
AM_0
 10
143.47560694414119
 20
312.63897438616999
 30
0.0
 40
1.6750160999999979
 50
89.766540000000006
 51
270.23345999999998
  0
ARC
  5
1B7E
  8
AM_0
 10
135.3525069441412
 20
282.59398938616988
 30
0.0
 40
1.0000000199999981
 50
90.000003000000007
 51
270.0
  0
ARC
  5
1B7F
  8
AM_0
 10
135.3525069441412
 20
292.59399138616999
 30
0.0
 40
1.0000000199999981
 50
90.000003000000007
 51
270.0
  0
ARC
  5
1B80
  8
AM_0
 10
144.3477369441411
 20
312.59399238616999
 30
0.0
 40
1.000011959999999
 50
89.728448
 51
270.27154000000002
  0
ARC
  5
1B81
  8
AM_0
 10
144.3477369441411
 20
302.59399038616999
 30
0.0
 40
1.000011959999999
 50
89.728448
 51
270.27154000000002
  0
ARC
  5
1B86
  8
AM_0
 10
273.62244694414119
 20
312.63897438616999
 30
0.0
 40
1.675004159999999
 50
276.16905573844588
 51
83.830944261554208
  0
ARC
  5
1B89
  8
AM_0
 10
273.62244694414119
 20
242.54900538616999
 30
0.0
 40
1.675004159999999
 50
276.16905573844969
 51
83.830944261550343
  0
ARC
  5
1B8A
  8
AM_0
 10
135.3525069441412
 20
272.59400538617001
 30
0.0
 40
1.0000000199999981
 50
90.000003000000007
 51
270.0
  0
ARC
  5
1B8B
  8
AM_0
 10
151.79769694414111
 20
262.59399138616999
 30
0.0
 40
1.000011959999999
 50
89.726507999999981
 51
270.27348000000001
  0
ARC
  5
1B8C
  8
AM_0
 10
151.79769694414111
 20
252.59398938616991
 30
0.0
 40
1.000011959999999
 50
89.726507999999981
 51
270.27348000000001
  0
ARC
  5
1B8D
  8
AM_0
 10
134.13246694414121
 20
262.58399538616999
 30
0.0
 40
1.330008059999999
 50
90.000003000000007
 51
270.0
  0
ARC
  5
1B8E
  8
AM_0
 10
134.26245694414109
 20
252.56899638617
 30
0.0
 40
1.465004009999999
 50
90.000003000000007
 51
270.0
  0
ARC
  5
1B8F
  8
AM_0
 10
135.3477369441411
 20
242.59400538617001
 30
0.0
 40
1.000011959999999
 50
89.728461999999965
 51
270.27154000000002
  0
ARC
  5
1B91
  8
AM_0
 10
151.79769694414111
 20
242.59400538617001
 30
0.0
 40
1.000011959999999
 50
89.726507999999981
 51
270.27348000000001
  0
ARC
  5
1B92
  8
AM_0
 10
134.06667694414111
 20
272.59400538617001
 30
0.0
 40
1.2700120500000001
 50
89.738748000000001
 51
270.26123999999999
  0
ARC
  5
1B93
  8
AM_0
 10
134.47560694414119
 20
242.54900538616999
 30
0.0
 40
1.6750160999999979
 50
89.764983000000015
 51
270.23500999999999
  0
ARC
  5
1B94
  8
AM_0
 10
135.3525069441412
 20
262.59399138616999
 30
0.0
 40
1.0000000199999981
 50
90.000003000000007
 51
270.0
  0
ARC
  5
1B95
  8
AM_0
 10
135.3477369441411
 20
252.59398938616991
 30
0.0
 40
1.000011959999999
 50
89.728461999999965
 51
270.27154000000002
  0
LINE
  5
25BA
  8
ﾁｭｳｼﾝｾﾝ
 10
225.80244694414131
 20
328.59399138617022
 30
0.0
 11
225.80244694414131
 21
226.59399138616999
 31
0.0
  0
ARC
  5
25F6
  8
AM_0
 10
382.30246694414137
 20
273.56743938617001
 30
0.0
 40
1.0000000199999981
 50
90.001718873355244
 51
180.00001000000091
  0
ARC
  5
2617
  8
AM_0
 10
382.30246694414137
 20
315.62050638616989
 30
0.0
 40
1.0000000199999981
 50
179.999989999999
 51
269.99828112664488
  0
LINE
  5
263D
  8
ｶｸﾚｾﾝ2
 10
590.35924097882685
 20
219.59398938616991
 30
0.0
 11
590.35924097882685
 21
209.59397538616989
 31
0.0
  0
LINE
  5
263F
  8
ｶｸﾚｾﾝ2
 10
580.35924497882695
 20
219.59398938616991
 30
0.0
 11
580.35924497882695
 21
209.59397538616989
 31
0.0
  0
LINE
  5
266E
  8
ﾁｭｳｼﾝｾﾝ1
 10
700.35922997882687
 20
224.59398938616991
 30
0.0
 11
700.35922997882687
 21
204.5939753861698
 31
0.0
  0
LINE
  5
266F
  8
ｶｸﾚｾﾝ2
 10
695.35924397882695
 20
219.59398938616991
 30
0.0
 11
695.35924397882695
 21
209.59397538616989
 31
0.0
  0
LINE
  5
2670
  8
ｶｸﾚｾﾝ2
 10
705.35924597882695
 20
219.59398938616991
 30
0.0
 11
705.35924597882695
 21
209.59397538616969
 31
0.0
  0
LINE
  5
26B6
  8
AM_0
 10
269.80244694414131
 20
231.5939913861701
 30
0.0
 11
181.8024469441412
 21
231.5939913861701
 31
0.0
  0
ARC
  5
26B7
  8
AM_0
 10
199.8735147560067
 20
236.59399138616999
 30
0.0
 40
5.0
 50
225.0
 51
270.0
1001
GENIUS_GENOBJ-N-FIL_13
1002
{
1000
OWNER
1000
GEN
1002
}
1001
GENIUS_GENODEF_13
1002
{
1000
HIER
1070
     0
1002
}
1002
{
1000
MANEDIT
1070
     0
1002
}
1002
{
1000
NOSEL
1070
     0
1002
}
1002
{
1000
BEHIND
1070
     0
1002
}
1002
{
1000
OTHER
1070
     0
1002
}
1002
{
1000
REACTOR
1002
}
  0
LINE
  5
26B8
  8
AM_0
 10
251.07452488278349
 20
236.59399138616999
 30
0.0
 11
200.53036900549901
 21
236.59399138616999
 31
0.0
  0
ARC
  5
26B9
  8
AM_0
 10
251.07452488278349
 20
241.59399138616999
 30
0.0
 40
5.0
 50
270.0
 51
315.0
1001
GENIUS_GENOBJ-N-FIL_13
1002
{
1000
OWNER
1000
GEN
1002
}
1001
GENIUS_GENODEF_13
1002
{
1000
HIER
1070
     0
1002
}
1002
{
1000
MANEDIT
1070
     0
1002
}
1002
{
1000
NOSEL
1070
     0
1002
}
1002
{
1000
BEHIND
1070
     0
1002
}
1002
{
1000
OTHER
1070
     0
1002
}
1002
{
1000
REACTOR
1002
}
  0
ARC
  5
26BA
  8
AM_0
 10
269.80244694414131
 20
235.59399138616999
 30
0.0
 40
4.0
 50
270.0
 51
0.0
1001
GENIUS_GENOBJ-N-FIL_13
1002
{
1000
OWNER
1000
GEN
1002
}
1001
GENIUS_GENODEF_13
1002
{
1000
HIER
1070
     0
1002
}
1002
{
1000
MANEDIT
1070
     0
1002
}
1002
{
1000
NOSEL
1070
     0
1002
}
1002
{
1000
BEHIND
1070
     0
1002
}
1002
{
1000
OTHER
1070
     0
1002
}
1002
{
1000
REACTOR
1002
}
  0
LINE
  5
26BB
  8
AM_0
 10
269.80244694414108
 20
323.59399138617022
 30
0.0
 11
181.8024469441412
 21
323.59399138617022
 31
0.0
  0
ARC
  5
26BC
  8
AM_0
 10
251.73137913227569
 20
318.59399138617022
 30
0.0
 40
5.0
 50
45.0
 51
90.0
1001
GENIUS_GENOBJ-N-FIL_13
1002
{
1000
OWNER
1000
GEN
1002
}
1001
GENIUS_GENODEF_13
1002
{
1000
HIER
1070
     0
1002
}
1002
{
1000
MANEDIT
1070
     0
1002
}
1002
{
1000
NOSEL
1070
     0
1002
}
1002
{
1000
BEHIND
1070
     0
1002
}
1002
{
1000
OTHER
1070
     0
1002
}
1002
{
1000
REACTOR
1002
}
  0
ARC
  5
26BD
  8
AM_0
 10
199.8735147560069
 20
318.59399138617022
 30
0.0
 40
5.0
 50
90.0
 51
135.0
1001
GENIUS_GENODEF_13
1002
{
1000
HIER
1070
     0
1002
}
1002
{
1000
MANEDIT
1070
     0
1002
}
1002
{
1000
NOSEL
1070
     0
1002
}
1002
{
1000
BEHIND
1070
     0
1002
}
1002
{
1000
OTHER
1070
     0
1002
}
1002
{
1000
REACTOR
1002
}
1001
GENIUS_GENOBJ-N-FIL_13
1002
{
1000
OWNER
1000
GEN
1002
}
  0
LINE
  5
26BE
  8
AM_0
 10
251.07452488278341
 20
318.59399138617022
 30
0.0
 11
200.53036900549901
 21
318.59399138617022
 31
0.0
  0
ARC
  5
26BF
  8
AM_0
 10
200.53036900549901
 20
313.59399138617022
 30
0.0
 40
5.0
 50
90.0
 51
135.0
1001
GENIUS_GENODEF_13
1002
{
1000
HIER
1070
     0
1002
}
1002
{
1000
MANEDIT
1070
     0
1002
}
1002
{
1000
NOSEL
1070
     0
1002
}
1002
{
1000
BEHIND
1070
     0
1002
}
1002
{
1000
OTHER
1070
     0
1002
}
1002
{
1000
REACTOR
1002
}
1001
GENIUS_GENOBJ-N-FIL_13
1002
{
1000
OWNER
1000
GEN
1002
}
  0
ARC
  5
26C0
  8
AM_0
 10
181.8024469441412
 20
319.59399138617022
 30
0.0
 40
4.0
 50
90.0
 51
180.0
1001
GENIUS_GENODEF_13
1002
{
1000
HIER
1070
     0
1002
}
1002
{
1000
MANEDIT
1070
     0
1002
}
1002
{
1000
NOSEL
1070
     0
1002
}
1002
{
1000
BEHIND
1070
     0
1002
}
1002
{
1000
OTHER
1070
     0
1002
}
1002
{
1000
REACTOR
1002
}
1001
GENIUS_GENOBJ-N-FIL_13
1002
{
1000
OWNER
1000
GEN
1002
}
  0
LINE
  5
26C1
  8
AM_0
 10
177.8024469441412
 20
319.59399138617022
 30
0.0
 11
177.8024469441412
 21
235.59399138616999
 31
0.0
  0
ARC
  5
26C2
  8
AM_0
 10
182.8024469441412
 20
253.66505919803529
 30
0.0
 40
5.0
 50
180.0
 51
225.0
1001
GENIUS_GENOBJ-N-FIL_13
1002
{
1000
OWNER
1000
GEN
1002
}
1001
GENIUS_GENODEF_13
1002
{
1000
HIER
1070
     0
1002
}
1002
{
1000
MANEDIT
1070
     0
1002
}
1002
{
1000
NOSEL
1070
     0
1002
}
1002
{
1000
BEHIND
1070
     0
1002
}
1002
{
1000
OTHER
1070
     0
1002
}
1002
{
1000
REACTOR
1002
}
  0
ARC
  5
26C3
  8
AM_0
 10
182.8024469441412
 20
301.52292357430508
 30
0.0
 40
5.0
 50
135.0
 51
180.0
1001
GENIUS_GENOBJ-N-FIL_13
1002
{
1000
OWNER
1000
GEN
1002
}
1001
GENIUS_GENODEF_13
1002
{
1000
HIER
1070
     0
1002
}
1002
{
1000
MANEDIT
1070
     0
1002
}
1002
{
1000
NOSEL
1070
     0
1002
}
1002
{
1000
BEHIND
1070
     0
1002
}
1002
{
1000
OTHER
1070
     0
1002
}
1002
{
1000
REACTOR
1002
}
  0
LINE
  5
26C4
  8
AM_0
 10
182.8024469441412
 20
300.86606932481232
 30
0.0
 11
182.80244694414111
 21
254.32191344752781
 31
0.0
  0
ARC
  5
26C5
  8
AM_0
 10
187.80244694414111
 20
254.32191344752781
 30
0.0
 40
5.0
 50
180.0
 51
225.0
1001
GENIUS_GENOBJ-N-FIL_13
1002
{
1000
OWNER
1000
GEN
1002
}
1001
GENIUS_GENODEF_13
1002
{
1000
HIER
1070
     0
1002
}
1002
{
1000
MANEDIT
1070
     0
1002
}
1002
{
1000
NOSEL
1070
     0
1002
}
1002
{
1000
BEHIND
1070
     0
1002
}
1002
{
1000
OTHER
1070
     0
1002
}
1002
{
1000
REACTOR
1002
}
  0
ARC
  5
26C6
  8
AM_0
 10
181.8024469441412
 20
235.59399138616999
 30
0.0
 40
4.0
 50
180.0
 51
270.0
1001
GENIUS_GENODEF_13
1002
{
1000
HIER
1070
     0
1002
}
1002
{
1000
MANEDIT
1070
     0
1002
}
1002
{
1000
NOSEL
1070
     0
1002
}
1002
{
1000
BEHIND
1070
     0
1002
}
1002
{
1000
OTHER
1070
     0
1002
}
1002
{
1000
REACTOR
1002
}
1001
GENIUS_GENOBJ-N-FIL_13
1002
{
1000
OWNER
1000
GEN
1002
}
  0
LINE
  5
26C7
  8
AM_0
 10
273.80244694414131
 20
319.59399138617022
 30
0.0
 11
273.80244694414131
 21
235.59399138616999
 31
0.0
  0
ARC
  5
26C8
  8
AM_0
 10
268.80244694414142
 20
301.52292357430468
 30
0.0
 40
5.0
 50
0.0
 51
45.0
1001
GENIUS_GENOBJ-N-FIL_13
1002
{
1000
OWNER
1000
GEN
1002
}
1001
GENIUS_GENODEF_13
1002
{
1000
HIER
1070
     0
1002
}
1002
{
1000
MANEDIT
1070
     0
1002
}
1002
{
1000
NOSEL
1070
     0
1002
}
1002
{
1000
BEHIND
1070
     0
1002
}
1002
{
1000
OTHER
1070
     0
1002
}
1002
{
1000
REACTOR
1002
}
  0
ARC
  5
26C9
  8
AM_0
 10
268.80244694414142
 20
253.66505919803561
 30
0.0
 40
5.0
 50
315.0
 51
0.0
1001
GENIUS_GENOBJ-N-FIL_13
1002
{
1000
OWNER
1000
GEN
1002
}
1001
GENIUS_GENODEF_13
1002
{
1000
HIER
1070
     0
1002
}
1002
{
1000
MANEDIT
1070
     0
1002
}
1002
{
1000
NOSEL
1070
     0
1002
}
1002
{
1000
BEHIND
1070
     0
1002
}
1002
{
1000
OTHER
1070
     0
1002
}
1002
{
1000
REACTOR
1002
}
  0
LINE
  5
26CA
  8
AM_0
 10
255.2669130382084
 20
322.12952529210293
 30
0.0
 11
272.33798085007402
 21
305.05845748023751
 31
0.0
  0
LINE
  5
26CB
  8
AM_0
 10
254.61005878871609
 20
317.12952529210293
 30
0.0
 11
267.33798085007368
 21
304.40160323074531
 31
0.0
  0
ARC
  5
26CC
  8
AM_0
 10
251.07452488278341
 20
313.59399138617022
 30
0.0
 40
5.0
 50
45.0
 51
90.0
1001
GENIUS_GENOBJ-N-FIL_13
1002
{
1000
OWNER
1000
GEN
1002
}
1001
GENIUS_GENODEF_13
1002
{
1000
HIER
1070
     0
1002
}
1002
{
1000
MANEDIT
1070
     0
1002
}
1002
{
1000
NOSEL
1070
     0
1002
}
1002
{
1000
BEHIND
1070
     0
1002
}
1002
{
1000
OTHER
1070
     0
1002
}
1002
{
1000
REACTOR
1002
}
  0
LINE
  5
26CD
  8
AM_0
 10
268.80244694414108
 20
300.86606932481249
 30
0.0
 11
268.80244694414142
 21
254.32191344752781
 31
0.0
  0
ARC
  5
26CE
  8
AM_0
 10
263.80244694414108
 20
300.86606932481249
 30
0.0
 40
5.0
 50
0.0
 51
45.0
1001
GENIUS_GENODEF_13
1002
{
1000
HIER
1070
     0
1002
}
1002
{
1000
MANEDIT
1070
     0
1002
}
1002
{
1000
NOSEL
1070
     0
1002
}
1002
{
1000
BEHIND
1070
     0
1002
}
1002
{
1000
OTHER
1070
     0
1002
}
1002
{
1000
REACTOR
1002
}
1001
GENIUS_GENOBJ-N-FIL_13
1002
{
1000
OWNER
1000
GEN
1002
}
  0
ARC
  5
26CF
  8
AM_0
 10
269.80244694414108
 20
319.59399138617022
 30
0.0
 40
4.0
 50
0.0
 51
90.0
1001
GENIUS_GENODEF_13
1002
{
1000
HIER
1070
     0
1002
}
1002
{
1000
MANEDIT
1070
     0
1002
}
1002
{
1000
NOSEL
1070
     0
1002
}
1002
{
1000
BEHIND
1070
     0
1002
}
1002
{
1000
OTHER
1070
     0
1002
}
1002
{
1000
REACTOR
1002
}
1001
GENIUS_GENOBJ-N-FIL_13
1002
{
1000
OWNER
1000
GEN
1002
}
  0
LINE
  5
26D0
  8
ﾁｭｳｼﾝｾﾝ1
 10
268.80244694414267
 20
312.59399138616982
 30
0.0
 11
268.80244694414341
 21
324.59399138616982
 31
0.0
  0
LINE
  5
26D1
  8
ﾁｭｳｼﾝｾﾝ1
 10
274.80244694414313
 20
318.59399138616959
 30
0.0
 11
262.80244694414313
 21
318.59399138617022
 31
0.0
  0
LINE
  5
26D2
  8
AM_0
 10
174.3024469441412
 20
291.09399138617022
 30
0.0
 11
176.80244694414111
 21
291.09399138617039
 31
0.0
  0
LINE
  5
26D3
  8
AM_0
 10
176.8024469441412
 20
264.09399138617027
 30
0.0
 11
174.3024469441412
 21
264.09399138617027
 31
0.0
  0
LINE
  5
26D4
  8
AM_0
 10
163.40377584779509
 20
267.09399138617027
 30
0.0
 11
163.40377584779509
 21
288.09399138617022
 31
0.0
  0
LINE
  5
26D5
  8
AM_0
 10
148.4037758477952
 20
285.62561644018518
 30
0.0
 11
148.4037758477952
 21
269.56236633215428
 31
0.0
  0
LINE
  5
26D6
  8
AM_0
 10
161.40377584779509
 20
265.59399138617027
 30
0.0
 11
161.40377584779509
 21
289.59399138617022
 31
0.0
  0
LINE
  5
26D7
  8
AM_0
 10
151.90377584779509
 20
277.59399138617027
 30
0.0
 11
152.4037758477952
 21
277.09399138617027
 31
0.0
  0
LINE
  5
26D8
  8
AM_0
 10
158.90377584779509
 20
289.29399138617021
 30
0.0
 11
158.90377584779509
 21
265.89399138617023
 31
0.0
  0
LINE
  5
26D9
  8
AM_0
 10
168.80244694414111
 20
289.09399138617022
 30
0.0
 11
168.80244694414111
 21
266.09399138617027
 31
0.0
  0
LINE
  5
26DA
  8
AM_0
 10
162.9037758477952
 20
276.89399138616841
 30
0.0
 11
162.9037758477952
 21
278.29399138617117
 31
0.0
  0
LINE
  5
26DB
  8
AM_0
 10
165.00341157436631
 20
268.49399138617031
 30
0.0
 11
164.25341157436719
 21
286.6939913861703
 31
0.0
  0
LINE
  5
26DC
  8
AM_0
 10
164.05244694414111
 20
268.49399138617031
 30
0.0
 11
163.40377584779509
 21
284.23507665748627
 31
0.0
  0
LINE
  5
26DD
  8
AM_0
 10
164.8011395347132
 20
267.77833267380629
 30
0.0
 11
164.05387949130511
 21
287.40636314733729
 31
0.0
  0
LINE
  5
26DE
  8
AM_0
 10
164.25197902720319
 20
267.78161962500218
 30
0.0
 11
163.50341157436719
 21
287.44399138617018
 31
0.0
  0
LINE
  5
26DF
  8
AM_0
 10
161.40377584779509
 20
289.59399138617022
 30
0.0
 11
159.20377584779521
 21
289.59399138617022
 31
0.0
  0
ARC
  5
26E0
  8
AM_0
 10
173.30244694414131
 20
290.09399138617022
 30
0.0
 40
0.5
 50
269.99999999998693
 51
0.0
  0
ARC
  5
26E1
  8
AM_0
 10
174.30244694414131
 20
290.59399138617022
 30
0.0
 40
0.5
 50
90.0
 51
180.0
  0
LINE
  5
26E2
  8
AM_0
 10
173.8024469441412
 20
290.09399138617022
 30
0.0
 11
173.8024469441412
 21
290.59399138617022
 31
0.0
  0
LINE
  5
26E3
  8
AM_0
 10
164.80244694414111
 20
286.6939913861703
 30
0.0
 11
168.30244694414111
 21
286.69399138617018
 31
0.0
  0
LINE
  5
26E4
  8
AM_0
 10
173.8024469441412
 20
288.45006270757722
 30
0.0
 11
173.8024469441412
 21
278.73792006476208
 31
0.0
  0
LINE
  5
26E5
  8
AM_0
 10
169.30244694414111
 20
289.59399138617022
 30
0.0
 11
173.30244694414111
 21
289.59399138617022
 31
0.0
  0
LINE
  5
26E6
  8
AM_0
 10
173.3024469441412
 20
288.95006270757722
 30
0.0
 11
168.80244694414111
 21
288.95006270757722
 31
0.0
  0
ARC
  5
26E7
  8
AM_0
 10
173.30244694414131
 20
288.45006270757722
 30
0.0
 40
0.5
 50
0.0
 51
90.0
  0
ARC
  5
26E8
  8
AM_0
 10
168.30244694414111
 20
287.19399138617018
 30
0.0
 40
0.5
 50
270.0
 51
0.0
  0
ARC
  5
26E9
  8
AM_0
 10
169.30244694414111
 20
289.09399138617022
 30
0.0
 40
0.5
 50
90.0
 51
180.0
  0
LINE
  5
26EA
  8
AM_0
 10
173.3024469441412
 20
278.23792006476208
 30
0.0
 11
168.80244694414111
 21
278.23792006476208
 31
0.0
  0
ARC
  5
26EB
  8
AM_0
 10
173.3024469441412
 20
278.73792006476208
 30
0.0
 40
0.5
 50
270.0
 51
0.0
  0
LINE
  5
26EC
  8
AM_0
 10
162.9037758477952
 20
283.73916213846218
 30
0.0
 11
162.9037758477952
 21
282.56691895202931
 31
0.0
  0
LINE
  5
26ED
  8
AM_0
 10
164.33014400279211
 20
286.6939913861703
 30
0.0
 11
164.80244694414111
 21
286.6939913861703
 31
0.0
  0
LINE
  5
26EE
  8
AM_0
 10
164.2335515082529
 20
286.76810915290679
 30
0.0
 11
164.25341157436719
 21
286.6939913861703
 31
0.0
  0
ARC
  5
26EF
  8
AM_0
 10
164.33014400279231
 20
286.79399138617021
 30
0.0
 40
0.1000000000000346
 50
195.00019500644541
 51
270.0
  0
ARC
  5
26F0
  8
AM_0
 10
162.6037758477953
 20
286.88082436667821
 30
0.0
 40
0.3000000000000043
 50
270.0
 51
0.0
  0
LINE
  5
26F1
  8
AM_0
 10
161.40377584779509
 20
288.99399138617019
 30
0.0
 11
162.6237315509523
 21
288.91266100595931
 31
0.0
  0
LINE
  5
26F2
  8
AM_0
 10
161.40377584779509
 20
287.83773935033031
 30
0.0
 11
162.6037758477953
 21
287.83773935033031
 31
0.0
  0
LINE
  5
26F3
  8
AM_0
 10
162.9037758477952
 20
288.59399138617022
 30
0.0
 11
161.40377584779509
 21
288.59399138617022
 31
0.0
  0
ARC
  5
26F4
  8
AM_0
 10
162.9037758477952
 20
288.09399138617022
 30
0.0
 40
0.5
 50
0.0
 51
90.0
  0
LINE
  5
26F5
  8
AM_0
 10
162.9037758477952
 20
288.61332545860228
 30
0.0
 11
162.9037758477952
 21
288.59399138617022
 31
0.0
  0
LINE
  5
26F6
  8
AM_0
 10
162.9037758477952
 20
288.89399138617023
 30
0.0
 11
162.9037758477952
 21
288.61332545860228
 31
0.0
  0
LINE
  5
26F7
  8
AM_0
 10
162.6237315509523
 20
288.91266100595931
 30
0.0
 11
162.9037758477952
 21
288.89399138617023
 31
0.0
  0
ARC
  5
26F8
  8
AM_0
 10
162.6037758477953
 20
288.61332545860228
 30
0.0
 40
0.3000000000000007
 50
0.0
 51
86.185925165718274
  0
LINE
  5
26F9
  8
AM_0
 10
163.97571451571619
 20
287.44399138617018
 30
0.0
 11
164.05244694414219
 21
287.44399138617018
 31
0.0
  0
LINE
  5
26FA
  8
AM_0
 10
164.05244694414219
 20
287.44399138617018
 30
0.0
 11
164.07230701025529
 21
287.3698736194338
 31
0.0
  0
LINE
  5
26FB
  8
AM_0
 10
163.48355150825321
 20
287.3698736194338
 30
0.0
 11
163.50341157436719
 21
287.44399138617018
 31
0.0
  0
LINE
  5
26FC
  8
AM_0
 10
163.50341157436719
 20
287.44399138617018
 30
0.0
 11
163.58014400279211
 21
287.44399138617018
 31
0.0
  0
LINE
  5
26FD
  8
AM_0
 10
164.07230701025529
 20
287.3698736194338
 30
0.0
 11
164.2335515082529
 21
286.76810915290679
 31
0.0
  0
LINE
  5
26FE
  8
AM_0
 10
163.58014400279211
 20
287.44399138617018
 30
0.0
 11
163.97571451571619
 21
287.44399138617018
 31
0.0
  0
LINE
  5
26FF
  8
AM_0
 10
163.40377584779611
 20
287.07215085460928
 30
0.0
 11
163.48355150825321
 21
287.3698736194338
 31
0.0
  0
ARC
  5
2700
  8
AM_0
 10
163.97571451571631
 20
287.34399138617022
 30
0.0
 40
0.0999999999999866
 50
15.00019500657341
 51
90.0
  0
ARC
  5
2701
  8
AM_0
 10
163.58014400279231
 20
287.34399138617022
 30
0.0
 40
0.1000000000000014
 50
90.0
 51
164.99980499342661
  0
LINE
  5
2702
  8
AM_0
 10
162.9037758477952
 20
287.53773935033018
 30
0.0
 11
162.9037758477952
 21
286.88082436667821
 31
0.0
  0
ARC
  5
2703
  8
AM_0
 10
162.6037758477953
 20
287.53773935033018
 30
0.0
 40
0.3000000000000007
 50
0.0
 51
90.0
  0
LINE
  5
2704
  8
AM_0
 10
161.40377584779509
 20
284.0391621384623
 30
0.0
 11
162.6037758477953
 21
284.0391621384623
 31
0.0
  0
LINE
  5
2705
  8
AM_0
 10
162.6037758477953
 20
286.58082436667831
 30
0.0
 11
161.40377584779509
 21
286.58082436667831
 31
0.0
  0
LINE
  5
2706
  8
AM_0
 10
164.25341157436719
 20
286.6939913861703
 30
0.0
 11
164.33014400279211
 21
286.6939913861703
 31
0.0
  0
ARC
  5
2707
  8
AM_0
 10
162.6037758477953
 20
283.73916213846218
 30
0.0
 40
0.3000000000000007
 50
0.0
 51
90.0
  0
LINE
  5
2708
  8
AM_0
 10
162.6037758477953
 20
282.2669189520293
 30
0.0
 11
161.40377584779509
 21
282.2669189520293
 31
0.0
  0
ARC
  5
2709
  8
AM_0
 10
162.6037758477953
 20
282.56691895202931
 30
0.0
 40
0.3000000000000043
 50
270.0
 51
0.0
  0
LINE
  5
270A
  8
AM_0
 10
162.6037758477953
 20
278.5939913861713
 30
0.0
 11
161.40377584779509
 21
278.5939913861713
 31
0.0
  0
ARC
  5
270B
  8
AM_0
 10
162.6037758477953
 20
278.29399138617117
 30
0.0
 40
0.3000000000000007
 50
0.0
 51
90.0
  0
LINE
  5
270C
  8
AM_0
 10
152.4037758477952
 20
287.72727121481722
 30
0.0
 11
158.90377584779509
 21
287.72727121481722
 31
0.0
  0
LINE
  5
270D
  8
AM_0
 10
152.4037758477952
 20
288.22727121481711
 30
0.0
 11
158.90377584779509
 21
288.22727121481711
 31
0.0
  0
LINE
  5
270E
  8
AM_0
 10
158.90377584779509
 20
278.09399138617027
 30
0.0
 11
152.4037758477952
 21
278.09399138617027
 31
0.0
  0
LINE
  5
270F
  8
AM_0
 10
151.90377584779509
 20
278.59399138617027
 30
0.0
 11
158.90377584779509
 21
278.59399138617027
 31
0.0
  0
LINE
  5
2710
  8
AM_0
 10
158.6037758477953
 20
288.59399138617022
 30
0.0
 11
151.76582578297709
 21
288.59399138617022
 31
0.0
  0
LINE
  5
2711
  8
AM_0
 10
158.90377584779509
 20
278.9406794547113
 30
0.0
 11
152.4037758477952
 21
278.9406794547113
 31
0.0
  0
LINE
  5
2712
  8
AM_0
 10
158.90377584779509
 20
287.2473033176293
 30
0.0
 11
152.4037758477952
 21
287.2473033176293
 31
0.0
  0
ARC
  5
2713
  8
AM_0
 10
159.20377584779521
 20
289.29399138617021
 30
0.0
 40
0.2999999999999971
 50
90.0
 51
180.0
  0
ARC
  5
2714
  8
AM_0
 10
158.6037758477953
 20
288.89399138617023
 30
0.0
 40
0.2999999999999971
 50
270.0
 51
0.0
  0
ARC
  5
2715
  8
AM_0
 10
160.52877584779509
 20
283.09399138617022
 30
0.0
 40
9.124999999999984
 50
152.92493329271929
 51
207.07506670728071
  0
LINE
  5
2716
  8
AM_0
 10
151.12564138331271
 20
288.3622126657678
 30
0.0
 11
148.76359144813071
 21
286.39383771978282
 31
0.0
  0
LINE
  5
2717
  8
AM_0
 10
151.90377584779509
 20
288.01555880266221
 30
0.0
 11
152.4037758477952
 21
288.59399138617022
 31
0.0
  0
ARC
  5
2718
  8
AM_0
 10
151.76582578297709
 20
287.59399138617022
 30
0.0
 40
1.0
 50
90.0
 51
129.805571092256
  0
LINE
  5
2719
  8
AM_0
 10
152.4037758477952
 20
288.22727121481711
 30
0.0
 11
151.90377584779509
 21
288.01555880266221
 31
0.0
  0
LINE
  5
271A
  8
AM_0
 10
151.90377584779509
 20
287.55328352969133
 30
0.0
 11
152.4037758477952
 21
288.22727121481711
 31
0.0
  0
LINE
  5
271B
  8
AM_0
 10
152.4037758477952
 20
287.72727121481722
 30
0.0
 11
151.90377584779509
 21
287.55328352969133
 31
0.0
  0
LINE
  5
271C
  8
AM_0
 10
151.90377584779509
 20
287.01555880266221
 30
0.0
 11
152.4037758477952
 21
287.72727121481722
 31
0.0
  0
LINE
  5
271D
  8
AM_0
 10
152.4037758477952
 20
287.2473033176293
 30
0.0
 11
151.90377584779509
 21
287.01555880266221
 31
0.0
  0
ARC
  5
271E
  8
AM_0
 10
149.4037758477952
 20
285.62561644018518
 30
0.0
 40
1.0000000000000291
 50
129.80557109226521
 51
180.0
  0
LINE
  5
271F
  8
AM_0
 10
152.4037758477952
 20
278.09399138617027
 30
0.0
 11
151.90377584779509
 21
277.59399138617027
 31
0.0
  0
LINE
  5
2720
  8
AM_0
 10
151.90377584779509
 20
278.59399138617027
 30
0.0
 11
152.4037758477952
 21
278.09399138617027
 31
0.0
  0
LINE
  5
2721
  8
AM_0
 10
152.4037758477952
 20
278.9406794547113
 30
0.0
 11
151.90377584779509
 21
278.59399138617027
 31
0.0
  0
LINE
  5
2722
  8
AM_0
 10
159.20377584779521
 20
265.59399138617027
 30
0.0
 11
161.40377584779509
 21
265.59399138617027
 31
0.0
  0
ARC
  5
2723
  8
AM_0
 10
173.3024469441412
 20
265.09399138617027
 30
0.0
 40
0.5
 50
0.0
 51
90.000000000006537
  0
LINE
  5
2724
  8
AM_0
 10
168.30244694414111
 20
268.49399138617031
 30
0.0
 11
165.08014400279211
 21
268.49399138617031
 31
0.0
  0
LINE
  5
2725
  8
AM_0
 10
173.8024469441412
 20
276.45006270757722
 30
0.0
 11
173.8024469441412
 21
266.73792006476219
 31
0.0
  0
LINE
  5
2726
  8
AM_0
 10
168.80244694414111
 20
276.95006270757722
 30
0.0
 11
173.3024469441412
 21
276.95006270757722
 31
0.0
  0
ARC
  5
2727
  8
AM_0
 10
173.3024469441412
 20
276.45006270757722
 30
0.0
 40
0.5
 50
0.0
 51
90.0
  0
LINE
  5
2728
  8
AM_0
 10
168.80244694414111
 20
266.23792006476208
 30
0.0
 11
173.3024469441412
 21
266.23792006476208
 31
0.0
  0
LINE
  5
2729
  8
AM_0
 10
173.30244694414111
 20
265.59399138617027
 30
0.0
 11
169.30244694414111
 21
265.59399138617027
 31
0.0
  0
ARC
  5
272A
  8
AM_0
 10
173.3024469441412
 20
266.73792006476219
 30
0.0
 40
0.5
 50
270.0
 51
0.0
  0
ARC
  5
272B
  8
AM_0
 10
168.30244694414111
 20
267.99399138617008
 30
0.0
 40
0.5
 50
0.0
 51
90.0
  0
ARC
  5
272C
  8
AM_0
 10
169.30244694414111
 20
266.09399138617027
 30
0.0
 40
0.5
 50
180.0
 51
270.0
  0
ARC
  5
272D
  8
AM_0
 10
162.6037758477953
 20
271.4488206338782
 30
0.0
 40
0.3000000000000114
 50
270.0
 51
0.0
  0
LINE
  5
272E
  8
AM_0
 10
161.40377584779509
 20
276.59399138616823
 30
0.0
 11
162.6037758477953
 21
276.59399138616823
 31
0.0
  0
ARC
  5
272F
  8
AM_0
 10
162.6037758477953
 20
276.89399138616818
 30
0.0
 40
0.2999999999999971
 50
270.0
 51
0.0
  0
LINE
  5
2730
  8
AM_0
 10
161.40377584779509
 20
272.9210638203113
 30
0.0
 11
162.6037758477953
 21
272.9210638203113
 31
0.0
  0
ARC
  5
2731
  8
AM_0
 10
162.6037758477953
 20
272.62106382031118
 30
0.0
 40
0.3000000000000007
 50
0.0
 51
90.0
  0
LINE
  5
2732
  8
AM_0
 10
162.9037758477952
 20
272.62106382031129
 30
0.0
 11
162.9037758477952
 21
271.44882063387831
 31
0.0
  0
LINE
  5
2733
  8
AM_0
 10
164.33014400279211
 20
267.74399138617008
 30
0.0
 11
164.72571451571611
 21
267.74399138617008
 31
0.0
  0
LINE
  5
2734
  8
AM_0
 10
164.33014400279211
 20
267.74399138617008
 30
0.0
 11
164.72571451571611
 21
267.74399138617008
 31
0.0
  0
LINE
  5
2735
  8
AM_0
 10
164.82230701025529
 20
267.8181091529068
 30
0.0
 11
164.98355150825321
 21
268.41987361943387
 31
0.0
  0
LINE
  5
2736
  8
AM_0
 10
164.82230701025529
 20
267.8181091529068
 30
0.0
 11
164.98355150825321
 21
268.41987361943387
 31
0.0
  0
ARC
  5
2737
  8
AM_0
 10
165.08014400279211
 20
268.39399138617023
 30
0.0
 40
0.0999999999999943
 50
90.0
 51
164.99980499348811
  0
ARC
  5
2738
  8
AM_0
 10
164.72571451571611
 20
267.84399138617027
 30
0.0
 40
0.0999999999999943
 50
270.0
 51
344.99980499349448
  0
LINE
  5
2739
  8
AM_0
 10
163.40292925925411
 20
268.11899138617002
 30
0.0
 11
163.48355150825321
 21
268.41987361943387
 31
0.0
  0
LINE
  5
273A
  8
AM_0
 10
164.05515759634719
 20
268.4547268530722
 30
0.0
 11
164.23355150825321
 21
267.8181091529068
 31
0.0
  0
LINE
  5
273B
  8
AM_0
 10
164.07230701025529
 20
268.41987361943387
 30
0.0
 11
164.23355150825321
 21
267.8181091529068
 31
0.0
  0
LINE
  5
273C
  8
AM_0
 10
162.9037758477952
 20
268.3071584056612
 30
0.0
 11
162.9037758477952
 21
267.65024342201031
 31
0.0
  0
LINE
  5
273D
  8
AM_0
 10
163.40377584779509
 20
268.12215085460821
 30
0.0
 11
163.48355150825321
 21
268.41987361943387
 31
0.0
  0
LINE
  5
273E
  8
AM_0
 10
161.40377584779509
 20
268.60715840566121
 30
0.0
 11
162.6037758477953
 21
268.60715840566121
 31
0.0
  0
LINE
  5
273F
  8
AM_0
 10
162.6037758477953
 20
271.1488206338783
 30
0.0
 11
161.40377584779509
 21
271.14882063387711
 31
0.0
  0
LINE
  5
2740
  8
AM_0
 10
164.00834678123121
 20
268.49399138617031
 30
0.0
 11
164.05515759634719
 21
268.4547268530722
 31
0.0
  0
LINE
  5
2741
  8
AM_0
 10
163.58014400279211
 20
268.49399138617031
 30
0.0
 11
164.00834678123121
 21
268.49399138617031
 31
0.0
  0
LINE
  5
2742
  8
AM_0
 10
163.58014400279211
 20
268.49399138617031
 30
0.0
 11
163.97571451571619
 21
268.49399138617031
 31
0.0
  0
ARC
  5
2743
  8
AM_0
 10
163.58014400279211
 20
268.39399138617023
 30
0.0
 40
0.0999999999999943
 50
90.0
 51
164.99980499348811
  0
ARC
  5
2744
  8
AM_0
 10
163.97571451571619
 20
268.39399138617023
 30
0.0
 40
0.0999999999999608
 50
15.00019500651173
 51
90.0
  0
ARC
  5
2745
  8
AM_0
 10
162.6037758477953
 20
268.3071584056612
 30
0.0
 40
0.3000000000000007
 50
0.0
 51
90.0
  0
LINE
  5
2746
  8
AM_0
 10
161.40377584779509
 20
266.59399138617027
 30
0.0
 11
162.9037758477952
 21
266.59399138617027
 31
0.0
  0
LINE
  5
2747
  8
AM_0
 10
162.6037758477953
 20
267.35024342201029
 30
0.0
 11
161.40377584779509
 21
267.35024342201029
 31
0.0
  0
LINE
  5
2748
  8
AM_0
 10
162.6237315509523
 20
266.27532176638022
 30
0.0
 11
161.40377584779509
 21
266.1939913861703
 31
0.0
  0
ARC
  5
2749
  8
AM_0
 10
162.9037758477952
 20
267.09399138617027
 30
0.0
 40
0.5
 50
270.0
 51
0.0
  0
ARC
  5
274A
  8
AM_0
 10
164.33014400279211
 20
267.84399138617027
 30
0.0
 40
0.0999999999999606
 50
195.00019500650541
 51
270.0
  0
ARC
  5
274B
  8
AM_0
 10
162.6037758477953
 20
267.65024342201031
 30
0.0
 40
0.2999999999999971
 50
270.0
 51
0.0
  0
LINE
  5
274C
  8
AM_0
 10
162.9037758477952
 20
266.59399138617027
 30
0.0
 11
162.9037758477952
 21
266.5746573137373
 31
0.0
  0
ARC
  5
274D
  8
AM_0
 10
162.6037758477953
 20
266.5746573137373
 30
0.0
 40
0.3000000000000043
 50
273.81407483428171
 51
0.0
  0
ARC
  5
274E
  8
AM_0
 10
174.3024469441412
 20
264.59399138617027
 30
0.0
 40
0.5
 50
180.0
 51
270.0
  0
LINE
  5
274F
  8
AM_0
 10
173.8024469441412
 20
264.59399138617027
 30
0.0
 11
173.8024469441412
 21
265.09399138617027
 31
0.0
  0
LINE
  5
2750
  8
AM_0
 10
152.4037758477952
 20
267.94067945471119
 30
0.0
 11
158.90377584779509
 21
267.94067945471119
 31
0.0
  0
LINE
  5
2751
  8
AM_0
 10
152.4037758477952
 20
276.2473033176293
 30
0.0
 11
158.90377584779509
 21
276.2473033176293
 31
0.0
  0
LINE
  5
2752
  8
AM_0
 10
151.76582578297709
 20
266.59399138617027
 30
0.0
 11
158.6037758477953
 21
266.59399138617027
 31
0.0
  0
LINE
  5
2753
  8
AM_0
 10
158.90377584779509
 20
276.59399138617027
 30
0.0
 11
151.90377584779509
 21
276.59399138617027
 31
0.0
  0
LINE
  5
2754
  8
AM_0
 10
152.4037758477952
 20
277.09399138617027
 30
0.0
 11
158.90377584779509
 21
277.09399138617027
 31
0.0
  0
LINE
  5
2755
  8
AM_0
 10
158.90377584779509
 20
266.96071155752219
 30
0.0
 11
152.4037758477952
 21
266.96071155752219
 31
0.0
  0
LINE
  5
2756
  8
AM_0
 10
158.90377584779509
 20
267.4607115575223
 30
0.0
 11
152.4037758477952
 21
267.4607115575223
 31
0.0
  0
ARC
  5
2757
  8
AM_0
 10
158.6037758477953
 20
266.29399138617021
 30
0.0
 40
0.3000000000000043
 50
0.0
 51
90.0
  0
ARC
  5
2758
  8
AM_0
 10
159.20377584779521
 20
265.89399138617023
 30
0.0
 40
0.2999999999999971
 50
180.0
 51
270.0
  0
ARC
  5
2759
  8
AM_0
 10
160.52877584779509
 20
272.09399138617027
 30
0.0
 40
9.124999999999984
 50
152.92493329271929
 51
207.07506670728071
  0
LINE
  5
275A
  8
AM_0
 10
151.90377584779509
 20
276.59399138617027
 30
0.0
 11
152.4037758477952
 21
276.2473033176293
 31
0.0
  0
LINE
  5
275B
  8
AM_0
 10
152.4037758477952
 20
277.09399138617027
 30
0.0
 11
151.90377584779509
 21
276.59399138617027
 31
0.0
  0
LINE
  5
275C
  8
AM_0
 10
148.76359144813071
 20
268.79414505255681
 30
0.0
 11
151.12564138331271
 21
266.8257701065728
 31
0.0
  0
LINE
  5
275D
  8
AM_0
 10
152.4037758477952
 20
266.59399138617027
 30
0.0
 11
151.90377584779509
 21
267.1724239696772
 31
0.0
  0
ARC
  5
275E
  8
AM_0
 10
151.76582578297709
 20
267.59399138617027
 30
0.0
 40
1.0000000000000411
 50
230.19442890774391
 51
270.0
  0
LINE
  5
275F
  8
AM_0
 10
151.90377584779509
 20
268.17242396967731
 30
0.0
 11
152.4037758477952
 21
267.94067945471119
 31
0.0
  0
LINE
  5
2760
  8
AM_0
 10
152.4037758477952
 20
267.4607115575223
 30
0.0
 11
151.90377584779509
 21
268.17242396967731
 31
0.0
  0
LINE
  5
2761
  8
AM_0
 10
151.90377584779509
 20
267.63469924264928
 30
0.0
 11
152.4037758477952
 21
267.4607115575223
 31
0.0
  0
LINE
  5
2762
  8
AM_0
 10
152.4037758477952
 20
266.96071155752219
 30
0.0
 11
151.90377584779509
 21
267.63469924264928
 31
0.0
  0
LINE
  5
2763
  8
AM_0
 10
151.90377584779509
 20
267.1724239696772
 30
0.0
 11
152.4037758477952
 21
266.96071155752219
 31
0.0
  0
ARC
  5
2764
  8
AM_0
 10
149.4037758477952
 20
269.56236633215423
 30
0.0
 40
1.0
 50
180.0
 51
230.19442890773479
  0
CIRCLE
  5
2765
  8
AM_0
 10
182.80244694413949
 20
318.59399138616982
 30
0.0
 40
4.0
  0
LINE
  5
2766
  8
AM_0
 10
182.49094694413949
 20
316.31518298044563
 30
0.0
 11
183.1139469441396
 21
316.31518298044563
 31
0.0
  0
LINE
  5
2767
  8
AM_0
 10
182.49094694413949
 20
320.87279979189418
 30
0.0
 11
183.1139469441396
 21
320.87279979189418
 31
0.0
  0
LINE
  5
2768
  8
AM_0
 10
182.49094694413949
 20
316.31518298044563
 30
0.0
 11
182.49094694413949
 21
318.28249138616991
 31
0.0
  0
LINE
  5
2769
  8
AM_0
 10
182.49094694413949
 20
318.90549138616967
 30
0.0
 11
182.49094694413949
 21
320.87279979189418
 31
0.0
  0
LINE
  5
276A
  8
AM_0
 10
182.49094694413949
 20
318.90549138616967
 30
0.0
 11
180.52363853841521
 21
318.90549138616967
 31
0.0
  0
LINE
  5
276B
  8
AM_0
 10
182.49094694413949
 20
318.28249138616991
 30
0.0
 11
180.52363853841521
 21
318.28249138616991
 31
0.0
  0
LINE
  5
276C
  8
AM_0
 10
180.52363853841521
 20
318.90549138616967
 30
0.0
 11
180.52363853841521
 21
318.28249138616991
 31
0.0
  0
LINE
  5
276D
  8
AM_0
 10
183.1139469441396
 20
316.31518298044563
 30
0.0
 11
183.1139469441396
 21
318.28249138616991
 31
0.0
  0
LINE
  5
276E
  8
AM_0
 10
183.1139469441396
 20
318.90549138616967
 30
0.0
 11
183.1139469441396
 21
320.87279979189418
 31
0.0
  0
LINE
  5
276F
  8
AM_0
 10
185.08125534986391
 20
318.28249138616991
 30
0.0
 11
183.1139469441396
 21
318.28249138616991
 31
0.0
  0
LINE
  5
2770
  8
AM_0
 10
185.08125534986391
 20
318.90549138616967
 30
0.0
 11
183.1139469441396
 21
318.90549138616967
 31
0.0
  0
LINE
  5
2771
  8
AM_0
 10
185.08125534986391
 20
318.90549138616967
 30
0.0
 11
185.08125534986391
 21
318.28249138616991
 31
0.0
  0
CIRCLE
  5
2772
  8
AM_0
 10
268.80244694414313
 20
318.59399138616982
 30
0.0
 40
4.0
  0
LINE
  5
2773
  8
AM_0
 10
268.49094694414322
 20
316.3151829804454
 30
0.0
 11
269.11394694414309
 21
316.3151829804454
 31
0.0
  0
LINE
  5
2774
  8
AM_0
 10
268.49094694414322
 20
320.87279979189418
 30
0.0
 11
269.11394694414309
 21
320.87279979189418
 31
0.0
  0
LINE
  5
2775
  8
AM_0
 10
268.49094694414322
 20
316.3151829804454
 30
0.0
 11
268.49094694414322
 21
318.2824913861698
 31
0.0
  0
LINE
  5
2776
  8
AM_0
 10
268.49094694414322
 20
318.90549138616967
 30
0.0
 11
268.49094694414322
 21
320.87279979189418
 31
0.0
  0
LINE
  5
2777
  8
AM_0
 10
268.49094694414322
 20
318.90549138616967
 30
0.0
 11
266.52363853841871
 21
318.90549138616967
 31
0.0
  0
LINE
  5
2778
  8
AM_0
 10
268.49094694414322
 20
318.2824913861698
 30
0.0
 11
266.52363853841871
 21
318.2824913861698
 31
0.0
  0
LINE
  5
2779
  8
AM_0
 10
266.52363853841871
 20
318.90549138616967
 30
0.0
 11
266.52363853841871
 21
318.2824913861698
 31
0.0
  0
LINE
  5
277A
  8
AM_0
 10
269.11394694414309
 20
316.3151829804454
 30
0.0
 11
269.11394694414309
 21
318.2824913861698
 31
0.0
  0
LINE
  5
277B
  8
AM_0
 10
269.11394694414309
 20
318.90549138616967
 30
0.0
 11
269.11394694414309
 21
320.87279979189418
 31
0.0
  0
LINE
  5
277C
  8
AM_0
 10
271.08125534986738
 20
318.2824913861698
 30
0.0
 11
269.11394694414309
 21
318.2824913861698
 31
0.0
  0
LINE
  5
277D
  8
AM_0
 10
271.08125534986738
 20
318.90549138616967
 30
0.0
 11
269.11394694414309
 21
318.90549138616967
 31
0.0
  0
LINE
  5
277E
  8
AM_0
 10
271.08125534986738
 20
318.90549138616967
 30
0.0
 11
271.08125534986738
 21
318.2824913861698
 31
0.0
  0
LINE
  5
277F
  8
AM_0
 10
196.3379808500741
 20
322.12952529210293
 30
0.0
 11
179.2669130382084
 21
305.05845748023768
 31
0.0
  0
LINE
  5
2780
  8
AM_0
 10
196.99483509956639
 20
317.12952529210293
 30
0.0
 11
184.2669130382084
 21
304.4016032307452
 31
0.0
  0
ARC
  5
2781
  8
AM_0
 10
187.8024469441412
 20
300.86606932481232
 30
0.0
 40
5.0
 50
135.0
 51
180.0
1001
GENIUS_GENOBJ-N-FIL_13
1002
{
1000
OWNER
1000
GEN
1002
}
1001
GENIUS_GENODEF_13
1002
{
1000
HIER
1070
     0
1002
}
1002
{
1000
MANEDIT
1070
     0
1002
}
1002
{
1000
NOSEL
1070
     0
1002
}
1002
{
1000
BEHIND
1070
     0
1002
}
1002
{
1000
OTHER
1070
     0
1002
}
1002
{
1000
REACTOR
1002
}
  0
LINE
  5
2782
  8
AM_0
 10
255.2669130382084
 20
233.05845748023739
 30
0.0
 11
272.33798085007402
 21
250.1295252921027
 31
0.0
  0
ARC
  5
2783
  8
AM_0
 10
251.73137913227589
 20
236.59399138616999
 30
0.0
 40
5.0
 50
270.0
 51
315.0
1001
GENIUS_GENODEF_13
1002
{
1000
HIER
1070
     0
1002
}
1002
{
1000
MANEDIT
1070
     0
1002
}
1002
{
1000
NOSEL
1070
     0
1002
}
1002
{
1000
BEHIND
1070
     0
1002
}
1002
{
1000
OTHER
1070
     0
1002
}
1002
{
1000
REACTOR
1002
}
1001
GENIUS_GENOBJ-N-FIL_13
1002
{
1000
OWNER
1000
GEN
1002
}
  0
LINE
  5
2784
  8
AM_0
 10
254.61005878871629
 20
238.05845748023739
 30
0.0
 11
267.33798085007402
 21
250.78637954159501
 31
0.0
  0
ARC
  5
2785
  8
AM_0
 10
263.80244694414142
 20
254.32191344752781
 30
0.0
 40
5.0
 50
315.0
 51
0.0
1001
GENIUS_GENOBJ-N-FIL_13
1002
{
1000
OWNER
1000
GEN
1002
}
1001
GENIUS_GENODEF_13
1002
{
1000
HIER
1070
     0
1002
}
1002
{
1000
MANEDIT
1070
     0
1002
}
1002
{
1000
NOSEL
1070
     0
1002
}
1002
{
1000
BEHIND
1070
     0
1002
}
1002
{
1000
OTHER
1070
     0
1002
}
1002
{
1000
REACTOR
1002
}
  0
LINE
  5
2786
  8
AM_0
 10
196.33798085007399
 20
233.05845748023739
 30
0.0
 11
179.2669130382084
 21
250.12952529210261
 31
0.0
  0
LINE
  5
2787
  8
AM_0
 10
196.9948350995661
 20
238.05845748023739
 30
0.0
 11
184.2669130382084
 21
250.78637954159501
 31
0.0
  0
ARC
  5
2788
  8
AM_0
 10
200.53036900549901
 20
241.59399138616999
 30
0.0
 40
5.0
 50
225.0
 51
270.0
1001
GENIUS_GENOBJ-N-FIL_13
1002
{
1000
OWNER
1000
GEN
1002
}
1001
GENIUS_GENODEF_13
1002
{
1000
HIER
1070
     0
1002
}
1002
{
1000
MANEDIT
1070
     0
1002
}
1002
{
1000
NOSEL
1070
     0
1002
}
1002
{
1000
BEHIND
1070
     0
1002
}
1002
{
1000
OTHER
1070
     0
1002
}
1002
{
1000
REACTOR
1002
}
  0
CIRCLE
  5
2789
  8
AM_0
 10
182.8024469441394
 20
236.5939913861705
 30
0.0
 40
4.0
  0
LINE
  5
278A
  8
AM_0
 10
182.49094694413949
 20
238.87279979189489
 30
0.0
 11
183.1139469441394
 21
238.87279979189489
 31
0.0
  0
LINE
  5
278B
  8
AM_0
 10
182.49094694413949
 20
234.31518298044611
 30
0.0
 11
183.1139469441394
 21
234.31518298044611
 31
0.0
  0
LINE
  5
278C
  8
AM_0
 10
182.49094694413949
 20
238.87279979189489
 30
0.0
 11
182.49094694413949
 21
236.9054913861705
 31
0.0
  0
LINE
  5
278D
  8
AM_0
 10
182.49094694413949
 20
236.28249138617051
 30
0.0
 11
182.49094694413949
 21
234.31518298044611
 31
0.0
  0
LINE
  5
278E
  8
AM_0
 10
182.49094694413949
 20
236.28249138617051
 30
0.0
 11
180.52363853841501
 21
236.28249138617051
 31
0.0
  0
LINE
  5
278F
  8
AM_0
 10
182.49094694413949
 20
236.9054913861705
 30
0.0
 11
180.52363853841501
 21
236.9054913861705
 31
0.0
  0
LINE
  5
2790
  8
AM_0
 10
180.52363853841501
 20
236.28249138617051
 30
0.0
 11
180.52363853841501
 21
236.9054913861705
 31
0.0
  0
LINE
  5
2791
  8
AM_0
 10
183.1139469441394
 20
238.87279979189489
 30
0.0
 11
183.1139469441394
 21
236.9054913861705
 31
0.0
  0
LINE
  5
2792
  8
AM_0
 10
183.1139469441394
 20
236.28249138617051
 30
0.0
 11
183.1139469441394
 21
234.31518298044611
 31
0.0
  0
LINE
  5
2793
  8
AM_0
 10
185.0812553498638
 20
236.9054913861705
 30
0.0
 11
183.1139469441394
 21
236.9054913861705
 31
0.0
  0
LINE
  5
2794
  8
AM_0
 10
185.0812553498638
 20
236.28249138617051
 30
0.0
 11
183.1139469441394
 21
236.28249138617051
 31
0.0
  0
LINE
  5
2795
  8
AM_0
 10
185.0812553498638
 20
236.28249138617051
 30
0.0
 11
185.0812553498638
 21
236.9054913861705
 31
0.0
  0
CIRCLE
  5
2796
  8
AM_0
 10
268.80244694414301
 20
236.5939913861703
 30
0.0
 40
4.0
  0
LINE
  5
2797
  8
AM_0
 10
268.49094694414288
 20
238.87279979189481
 30
0.0
 11
269.11394694414292
 21
238.87279979189481
 31
0.0
  0
LINE
  5
2798
  8
AM_0
 10
268.49094694414288
 20
234.315182980446
 30
0.0
 11
269.11394694414292
 21
234.315182980446
 31
0.0
  0
LINE
  5
2799
  8
AM_0
 10
268.49094694414288
 20
238.87279979189481
 30
0.0
 11
268.49094694414288
 21
236.9054913861703
 31
0.0
  0
LINE
  5
279A
  8
AM_0
 10
268.49094694414288
 20
236.28249138617031
 30
0.0
 11
268.49094694414288
 21
234.315182980446
 31
0.0
  0
LINE
  5
279B
  8
AM_0
 10
268.49094694414288
 20
236.28249138617031
 30
0.0
 11
266.5236385384186
 21
236.28249138617031
 31
0.0
  0
LINE
  5
279C
  8
AM_0
 10
268.49094694414288
 20
236.9054913861703
 30
0.0
 11
266.5236385384186
 21
236.9054913861703
 31
0.0
  0
LINE
  5
279D
  8
AM_0
 10
266.5236385384186
 20
236.28249138617031
 30
0.0
 11
266.5236385384186
 21
236.9054913861703
 31
0.0
  0
LINE
  5
279E
  8
AM_0
 10
269.11394694414292
 20
238.87279979189481
 30
0.0
 11
269.11394694414292
 21
236.9054913861703
 31
0.0
  0
LINE
  5
279F
  8
AM_0
 10
269.11394694414292
 20
236.28249138617031
 30
0.0
 11
269.11394694414292
 21
234.315182980446
 31
0.0
  0
LINE
  5
27A0
  8
AM_0
 10
271.08125534986732
 20
236.9054913861703
 30
0.0
 11
269.11394694414292
 21
236.9054913861703
 31
0.0
  0
LINE
  5
27A1
  8
AM_0
 10
271.08125534986732
 20
236.28249138617031
 30
0.0
 11
269.11394694414292
 21
236.28249138617031
 31
0.0
  0
LINE
  5
27A2
  8
AM_0
 10
271.08125534986732
 20
236.28249138617031
 30
0.0
 11
271.08125534986732
 21
236.9054913861703
 31
0.0
  0
LINE
  5
27A3
  8
AM_0
 10
177.8024469441412
 20
246.5939913861701
 30
0.0
 11
176.8024469441412
 21
246.5939913861701
 31
0.0
  0
LINE
  5
27A4
  8
AM_0
 10
177.8024469441412
 20
308.59399138617022
 30
0.0
 11
176.8024469441412
 21
308.59399138617022
 31
0.0
  0
LINE
  5
27A5
  8
AM_0
 10
176.8024469441412
 20
246.5939913861701
 30
0.0
 11
176.8024469441412
 21
308.59399138617022
 31
0.0
  0
LINE
  5
27A7
  8
AM_0
 10
566.85924397882707
 20
244.0921219585824
 30
0.0
 11
566.85924397882707
 21
311.09212195858242
 31
0.0
  0
LINE
  5
27A9
  8
AM_0
 10
565.85924397882718
 20
311.09212195858242
 30
0.0
 11
568.85924397882729
 21
311.09212195858242
 31
0.0
  0
LINE
  5
27AA
  8
AM_0
 10
527.85924397882695
 20
231.5921219585824
 30
0.0
 11
563.92904297223185
 21
232.85170709484481
 31
0.0
  0
LINE
  5
27AB
  8
AM_0
 10
565.85924397882718
 20
234.85048874888301
 30
0.0
 11
565.85924397882718
 21
320.3337551682821
 31
0.0
  0
ARC
  5
27AC
  8
AM_0
 10
563.85924397882695
 20
234.85048874888301
 30
0.0
 40
2.0
 50
271.99999999999721
 51
0.0
1001
GENIUS_GENODEF_13
1002
{
1000
HIER
1070
     0
1002
}
1002
{
1000
MANEDIT
1070
     0
1002
}
1002
{
1000
NOSEL
1070
     0
1002
}
1002
{
1000
BEHIND
1070
     0
1002
}
1002
{
1000
OTHER
1070
     0
1002
}
1002
{
1000
REACTOR
1002
}
1001
GENIUS_GENOBJ-N-FIL_13
1002
{
1000
OWNER
1000
GEN
1002
}
  0
LINE
  5
27AD
  8
AM_0
 10
563.92904297223185
 20
322.33253682231998
 30
0.0
 11
527.85924397882718
 21
323.59212195858242
 31
0.0
  0
ARC
  5
27AE
  8
AM_0
 10
563.85924397882729
 20
320.3337551682821
 30
0.0
 40
2.0
 50
0.0
 51
88.000000000002743
1001
GENIUS_GENOBJ-N-FIL_13
1002
{
1000
OWNER
1000
GEN
1002
}
1001
GENIUS_GENODEF_13
1002
{
1000
HIER
1070
     0
1002
}
1002
{
1000
MANEDIT
1070
     0
1002
}
1002
{
1000
NOSEL
1070
     0
1002
}
1002
{
1000
BEHIND
1070
     0
1002
}
1002
{
1000
OTHER
1070
     0
1002
}
1002
{
1000
REACTOR
1002
}
  0
LINE
  5
27AF
  8
AM_0
 10
527.85924397882718
 20
323.59212195858242
 30
0.0
 11
527.85924397882695
 21
231.5921219585822
 31
0.0
  0
LINE
  5
27B0
  8
ﾁｭｳｼﾝｾﾝ1
 10
516.85924397882695
 20
236.59212195858311
 30
0.0
 11
532.68676699136381
 21
236.59212195858299
 31
0.0
  0
LINE
  5
27B1
  8
AM_0
 10
523.85924397882718
 20
323.59212195858242
 30
0.0
 11
523.85924397882718
 21
302.77761705904987
 31
0.0
  0
LINE
  5
27B2
  8
AM_0
 10
523.85924397882695
 20
252.40662685811481
 30
0.0
 11
523.85924397882695
 21
231.59212195858319
 31
0.0
  0
LINE
  5
27B3
  8
AM_0
 10
519.85924397882718
 20
317.4563402894218
 30
0.0
 11
519.85924397882695
 21
237.72790362774299
 31
0.0
  0
LINE
  5
27B4
  8
AM_0
 10
521.80030646669911
 20
240.4994769308895
 30
0.0
 11
522.85924397882695
 21
240.59212195858299
 31
0.0
  0
LINE
  5
27B5
  8
AM_0
 10
521.80030646669911
 20
232.6847669862766
 30
0.0
 11
522.85924397882695
 21
232.59212195858299
 31
0.0
  0
ARC
  5
27B6
  8
AM_0
 10
526.25924397882704
 20
236.59212195858299
 30
0.0
 40
6.5
 50
151.82726586813479
 51
208.1727341318651
  0
ARC
  5
27B7
  8
AM_0
 10
521.93975565509561
 20
234.27867850322329
 30
0.0
 40
1.6000000000000001
 50
208.1727341318651
 51
265.0
  0
LINE
  5
27B8
  8
AM_0
 10
520.17977031739883
 20
238.89212195858289
 30
0.0
 11
522.46932999619435
 21
236.59212195858299
 31
0.0
  0
LINE
  5
27B9
  8
AM_0
 10
522.15924397882691
 20
236.9036219585829
 30
0.0
 11
522.15924397882691
 21
236.280621958583
 31
0.0
  0
LINE
  5
27BA
  8
AM_0
 10
520.17977031739883
 20
234.29212195858301
 30
0.0
 11
522.46932999619435
 21
236.59212195858299
 31
0.0
  0
LINE
  5
27BB
  8
AM_0
 10
519.76671228849204
 20
236.9036219585829
 30
0.0
 11
522.15924397882691
 21
236.9036219585829
 31
0.0
  0
LINE
  5
27BC
  8
AM_0
 10
519.76671228849204
 20
236.280621958583
 30
0.0
 11
522.15924397882691
 21
236.280621958583
 31
0.0
  0
ARC
  5
27BD
  8
AM_0
 10
521.93975565509561
 20
238.90556541394261
 30
0.0
 40
1.6000000000000001
 50
95.0
 51
151.82726586813479
  0
LINE
  5
27BE
  8
AM_0
 10
523.85924397882718
 20
323.59212195858242
 30
0.0
 11
527.85924397882718
 21
323.59212195858242
 31
0.0
  0
LINE
  5
27BF
  8
AM_0
 10
522.85924397882695
 20
322.5921219585822
 30
0.0
 11
523.85924397882718
 21
323.59212195858242
 31
0.0
  0
LINE
  5
27C0
  8
AM_0
 10
527.85924397882695
 20
231.5921219585822
 30
0.0
 11
523.85924397882695
 21
231.59212195858319
 31
0.0
  0
LINE
  5
27C1
  8
AM_0N
 10
523.85924397882695
 20
240.39212195858309
 30
0.0
 11
522.85924397882695
 21
240.39212195858309
 31
0.0
  0
LINE
  5
27C2
  8
AM_0N
 10
522.85924397882695
 20
236.79212195858301
 30
0.0
 11
523.85924397882695
 21
237.1560921928492
 31
0.0
  0
LINE
  5
27C3
  8
AM_0N
 10
522.85924397882695
 20
236.39212195858309
 30
0.0
 11
523.85924397882695
 21
236.7560921928492
 31
0.0
  0
LINE
  5
27C4
  8
AM_0N
 10
522.85924397882695
 20
232.59212195858299
 30
0.0
 11
522.85924397882695
 21
240.59212195858299
 31
0.0
  0
LINE
  5
27C5
  8
AM_0N
 10
522.85924397882695
 20
232.79212195858301
 30
0.0
 11
523.85924397882695
 21
232.79212195858301
 31
0.0
  0
LINE
  5
27C6
  8
AM_0
 10
519.85924397882695
 20
252.40662685811469
 30
0.0
 11
523.85924397882695
 21
252.40662685811481
 31
0.0
  0
LINE
  5
27C7
  8
AM_0
 10
523.85924397882695
 20
250.74977260862229
 30
0.0
 11
519.85924397882695
 21
252.40662685811469
 31
0.0
  0
LINE
  5
27C8
  8
AM_0
 10
519.85924397882718
 20
302.77761705904987
 30
0.0
 11
523.85924397882718
 21
302.77761705904987
 31
0.0
  0
LINE
  5
27C9
  8
AM_0
 10
523.85924397882718
 20
304.43447130854258
 30
0.0
 11
519.85924397882718
 21
302.77761705904987
 31
0.0
  0
LINE
  5
27CA
  8
ﾁｭｳｼﾝｾﾝ1
 10
516.85924397882707
 20
318.59212195858169
 30
0.0
 11
532.68676699136381
 21
318.59212195858169
 31
0.0
  0
LINE
  5
27CB
  8
AM_0
 10
521.80030646669911
 20
314.68476698627518
 30
0.0
 11
522.85924397882695
 21
314.59212195858169
 31
0.0
  0
LINE
  5
27CC
  8
AM_0
 10
521.80030646669911
 20
322.49947693088819
 30
0.0
 11
522.85924397882695
 21
322.5921219585818
 31
0.0
  0
ARC
  5
27CD
  8
AM_0
 10
526.25924397882727
 20
318.5921219585818
 30
0.0
 40
6.5
 50
151.82726586813479
 51
208.1727341318651
  0
ARC
  5
27CE
  8
AM_0
 10
521.93975565509572
 20
320.90556541394147
 30
0.0
 40
1.6000000000000001
 50
95.0
 51
151.82726586813479
  0
LINE
  5
27CF
  8
AM_0
 10
520.17977031739883
 20
316.29212195858167
 30
0.0
 11
522.46932999619435
 21
318.59212195858169
 31
0.0
  0
LINE
  5
27D0
  8
AM_0
 10
522.15924397882691
 20
318.28062195858172
 30
0.0
 11
522.15924397882691
 21
318.90362195858182
 31
0.0
  0
LINE
  5
27D1
  8
AM_0
 10
520.17977031739883
 20
320.8921219585817
 30
0.0
 11
522.46932999619435
 21
318.59212195858169
 31
0.0
  0
LINE
  5
27D2
  8
AM_0
 10
519.76671228849204
 20
318.28062195858172
 30
0.0
 11
522.15924397882691
 21
318.28062195858172
 31
0.0
  0
LINE
  5
27D3
  8
AM_0
 10
519.76671228849204
 20
318.90362195858182
 30
0.0
 11
522.15924397882691
 21
318.90362195858182
 31
0.0
  0
ARC
  5
27D4
  8
AM_0
 10
521.93975565509572
 20
316.27867850322218
 30
0.0
 40
1.6000000000000001
 50
208.1727341318651
 51
265.0
  0
LINE
  5
27D5
  8
AM_0N
 10
523.85924397882695
 20
314.79212195858167
 30
0.0
 11
522.85924397882695
 21
314.79212195858167
 31
0.0
  0
LINE
  5
27D6
  8
AM_0N
 10
522.85924397882695
 20
318.3921219585817
 30
0.0
 11
523.85924397882695
 21
318.02815172431548
 31
0.0
  0
LINE
  5
27D7
  8
AM_0N
 10
522.85924397882695
 20
318.79212195858167
 30
0.0
 11
523.85924397882695
 21
318.42815172431563
 31
0.0
  0
LINE
  5
27D8
  8
AM_0N
 10
522.85924397882695
 20
322.5921219585818
 30
0.0
 11
522.85924397882695
 21
314.59212195858169
 31
0.0
  0
LINE
  5
27D9
  8
AM_0N
 10
522.85924397882695
 20
322.3921219585817
 30
0.0
 11
523.85924397882695
 21
322.3921219585817
 31
0.0
  0
LINE
  5
27DB
  8
ﾁｭｳｼﾝｾﾝ1
 10
585.35925497882693
 20
224.59398938616991
 30
0.0
 11
585.35925497882693
 21
204.59397538616989
 31
0.0
  0
LINE
  5
27DF
  8
AM_0
 10
385.30243694414122
 20
319.09399238616999
 30
0.0
 11
389.30243694414122
 21
315.09399238617021
 31
0.0
  0
LINE
  5
27E0
  8
AM_0
 10
382.80243694414122
 20
319.09399238616999
 30
0.0
 11
385.30243694414122
 21
319.09399238616999
 31
0.0
  0
LINE
  5
27E1
  8
AM_0
 10
382.30243694414122
 20
318.59399238616999
 30
0.0
 11
382.30243694414122
 21
270.59399238616999
 31
0.0
  0
LINE
  5
27E2
  8
AM_0
 10
389.30243694414122
 20
315.09399238617021
 30
0.0
 11
389.30243694414179
 21
274.09399238616999
 31
0.0
  0
LINE
  5
27E3
  8
AM_0
 10
385.30243694414122
 20
270.09399238616999
 30
0.0
 11
389.30243694414122
 21
274.09399238616999
 31
0.0
  0
LINE
  5
27E4
  8
AM_0
 10
382.80243694414122
 20
270.09399238616999
 30
0.0
 11
385.30243694414122
 21
270.0939923861701
 31
0.0
  0
LINE
  5
27E5
  8
AM_0
 10
382.30243694414122
 20
318.59399238616999
 30
0.0
 11
382.80243694414122
 21
319.09399238616999
 31
0.0
1001
GENIUS_GENFIL_13
1070
     0
1040
0.5
1040
0.5
1040
20.0
1040
0.0
1002
{
1002
}
1001
GENIUS_GENOBJ-N-CHA_13
1002
{
1000
OWNER
1000
GEN
1002
}
1001
GENIUS_GENODEF_13
1002
{
1000
HIER
1070
     0
1002
}
1002
{
1000
MANEDIT
1070
     0
1002
}
1002
{
1000
NOSEL
1070
     0
1002
}
1002
{
1000
BEHIND
1070
     0
1002
}
1002
{
1000
OTHER
1070
     0
1002
}
1002
{
1000
REACTOR
1002
}
  0
LINE
  5
27E6
  8
AM_0
 10
382.30243694414122
 20
270.59399238616999
 30
0.0
 11
382.80243694414122
 21
270.09399238616999
 31
0.0
1001
GENIUS_GENFIL_13
1070
     0
1040
0.5
1040
0.5
1040
20.0
1040
0.0
1002
{
1002
}
1001
GENIUS_GENODEF_13
1002
{
1000
HIER
1070
     0
1002
}
1002
{
1000
MANEDIT
1070
     0
1002
}
1002
{
1000
NOSEL
1070
     0
1002
}
1002
{
1000
BEHIND
1070
     0
1002
}
1002
{
1000
OTHER
1070
     0
1002
}
1002
{
1000
REACTOR
1002
}
1001
GENIUS_GENOBJ-N-CHA_13
1002
{
1000
OWNER
1000
GEN
1002
}
  0
CIRCLE
  5
27E7
  8
AM_0
 10
642.85924397882707
 20
294.59399238616982
 30
0.0
 40
24.49999999999989
  0
CIRCLE
  5
27E8
  8
AM_0
 10
642.85924397882707
 20
294.59399238616982
 30
0.0
 40
20.50000000000011
  0
LINE
  5
27E9
  8
AM_0
 10
385.30243694414122
 20
319.09399238616999
 30
0.0
 11
385.30243694414122
 21
270.0939923861701
 31
0.0
  0
LINE
  5
27EA
  8
ﾁｭｳｼﾝｾﾝ1
 10
182.80244694413909
 20
312.59399138616982
 30
0.0
 11
182.8024469441398
 21
324.59399138616982
 31
0.0
  0
LINE
  5
27EB
  8
ﾁｭｳｼﾝｾﾝ1
 10
188.80244694413949
 20
318.59399138616959
 30
0.0
 11
176.80244694413949
 21
318.59399138617022
 31
0.0
  0
LINE
  5
27EC
  8
ﾁｭｳｼﾝｾﾝ1
 10
182.80244694413909
 20
230.5939913861705
 30
0.0
 11
182.8024469441398
 21
242.5939913861705
 31
0.0
  0
LINE
  5
27ED
  8
ﾁｭｳｼﾝｾﾝ1
 10
188.8024469441394
 20
236.5939913861703
 30
0.0
 11
176.8024469441394
 21
236.59399138617081
 31
0.0
  0
LINE
  5
27EE
  8
ﾁｭｳｼﾝｾﾝ1
 10
268.80244694414262
 20
230.5939913861703
 30
0.0
 11
268.80244694414318
 21
242.5939913861703
 31
0.0
  0
LINE
  5
27EF
  8
ﾁｭｳｼﾝｾﾝ1
 10
274.80244694414301
 20
236.59399138616999
 30
0.0
 11
262.80244694414301
 21
236.5939913861707
 31
0.0
  0
LINE
  5
29FD
  8
AM_0
 10
582.77088503646985
 20
307.9251058369203
 30
0.0
 11
568.85924397882729
 21
307.5529370859748
 31
0.0
  0
LINE
  5
29FE
  8
AM_0
 10
575.98495034989423
 20
247.4497547098255
 30
0.0
 11
568.85923397882721
 21
247.6313070859749
 31
0.0
  0
LINE
  5
29FF
  8
AM_0
 10
568.85924397882695
 20
244.0921219585824
 30
0.0
 11
568.85924397882729
 21
311.09212195858242
 31
0.0
  0
LINE
  5
2A32
  8
AM_0
 10
565.85924397882718
 20
244.0921219585824
 30
0.0
 11
568.85924397882695
 21
244.0921219585824
 31
0.0
  0
LINE
  5
2B88
  8
ｶｸﾚｾﾝ2
 10
378.30238994414083
 20
219.59398938617011
 30
0.0
 11
378.30238994414083
 21
209.59397538617
 31
0.0
  0
LINE
  5
2B89
  8
ｶｸﾚｾﾝ2
 10
368.30239394414122
 20
219.59398938617011
 30
0.0
 11
368.30239394414122
 21
209.59397538617
 31
0.0
  0
LINE
  5
2B8A
  8
ﾁｭｳｼﾝｾﾝ1
 10
373.30240394414091
 20
224.59398938617011
 30
0.0
 11
373.30240394414091
 21
204.59397538617
 31
0.0
  0
LINE
  5
2B8B
  8
ｶｸﾚｾﾝ2
 10
315.30241994414081
 20
219.59398938617011
 30
0.0
 11
315.30241994414081
 21
209.59397538617
 31
0.0
  0
LINE
  5
2B8C
  8
ｶｸﾚｾﾝ2
 10
305.30242394414103
 20
219.59398938617011
 30
0.0
 11
305.30242394414103
 21
209.59397538617
 31
0.0
  0
LINE
  5
2B8D
  8
ﾁｭｳｼﾝｾﾝ1
 10
310.302433944141
 20
224.59398938617011
 30
0.0
 11
310.302433944141
 21
204.59397538617
 31
0.0
  0
LINE
  5
3B5E
  8
ﾁｭｳｼﾝｾﾝ
 10
117.1537469441412
 20
549.74463080842816
 30
0.0
 11
418.6662569441408
 21
549.74463080842816
 31
0.0
  0
LINE
  5
3B63
  8
AM_0
 10
391.3024269441409
 20
546.74463080842816
 30
0.0
 11
391.3024269441409
 21
552.74463080842816
 31
0.0
  0
LINE
  5
3B65
  8
AM_0
 10
389.30243694414162
 20
540.24463080842816
 30
0.0
 11
413.30245694414123
 21
540.24463080842816
 31
0.0
  0
LINE
  5
3B66
  8
AM_0
 10
389.30243694414122
 20
559.24463080842816
 30
0.0
 11
413.30245694414123
 21
559.24463080842816
 31
0.0
  0
LINE
  5
3B67
  8
AM_0
 10
413.30245694414123
 20
540.24463080842816
 30
0.0
 11
413.30245694414123
 21
559.24463080842816
 31
0.0
  0
LINE
  5
3B69
  8
AM_0
 10
391.3024269441409
 20
546.74463080842816
 30
0.0
 11
413.30245694414123
 21
546.74463080842816
 31
0.0
  0
LINE
  5
3B6A
  8
AM_0
 10
391.3024269441409
 20
552.74463080842816
 30
0.0
 11
413.30245694414123
 21
552.74463080842816
 31
0.0
  0
LINE
  5
3B6B
  8
AM_0
 10
358.30248694414092
 20
483.74072080842819
 30
0.0
 11
358.30248694414092
 21
492.8738408084281
 31
0.0
  0
LINE
  5
3B6C
  8
AM_0
 10
368.30248694414109
 20
500.92895080842823
 30
0.0
 11
368.30248694414109
 21
598.56030080842811
 31
0.0
  0
LINE
  5
3B6D
  8
AM_0
 10
363.17156694414092
 20
497.872100808428
 30
0.0
 11
365.38100694414118
 21
497.92996080842801
 31
0.0
  0
LINE
  5
3B6E
  8
AM_0
 10
325.27630694414103
 20
483.6943008084279
 30
0.0
 11
323.32864694414093
 21
483.74533080842792
 31
0.0
  0
LINE
  5
3B6F
  8
AM_0
 10
326.30248694414092
 20
481.77148080842801
 30
0.0
 11
326.30248694414092
 21
487.7701408084281
 31
0.0
  0
LINE
  5
3B70
  8
AM_0
 10
322.30248694414092
 20
480.744960808428
 30
0.0
 11
322.30248694414092
 21
482.74566080842789
 31
0.0
  0
LINE
  5
3B72
  8
AM_0
 10
378.43337694414117
 20
481.18826080842803
 30
0.0
 11
323.30248694414092
 21
479.744600808428
 31
0.0
  0
LINE
  5
3B73
  8
AM_0
 10
323.30245694414111
 20
479.7446308084281
 30
0.0
 11
305.17159694414107
 21
480.2193908084281
 31
0.0
  0
LINE
  5
3B74
  8
AM_0
 10
381.30248694414109
 20
588.98175080842816
 30
0.0
 11
381.30248694414109
 21
507.3026708084281
 31
0.0
  0
LINE
  5
3B75
  8
AM_0
 10
323.30248694414092
 20
489.74463080842798
 30
0.0
 11
323.30248694414092
 21
609.74463080842816
 31
0.0
  0
LINE
  5
3B78
  8
AM_0
 10
373.17159694414107
 20
507.37213080842793
 30
0.0
 11
378.38100694414118
 21
507.50854080842799
 31
0.0
  0
LINE
  5
3B79
  8
AM_0
 10
383.30248694414109
 20
486.18655080842802
 30
0.0
 11
383.30248694414109
 21
503.3026708084281
 31
0.0
  0
LINE
  5
3B7A
  8
AM_0
 10
300.30248694414092
 20
485.21768080842787
 30
0.0
 11
300.30248694414092
 21
489.14233080842831
 31
0.0
  0
LINE
  5
3B7C
  8
AM_0
 10
290.80248694414092
 20
488.89358080842788
 30
0.0
 11
331.76366694414122
 21
489.96618080842819
 31
0.0
  0
LINE
  5
3B7D
  8
AM_0
 10
358.30248694414092
 20
615.74853080842809
 30
0.0
 11
358.30248694414092
 21
606.61541080842812
 31
0.0
  0
LINE
  5
3B7E
  8
AM_0
 10
363.17159694414107
 20
601.6171208084279
 30
0.0
 11
365.38100694414118
 21
601.55926080842812
 31
0.0
  0
LINE
  5
3B7F
  8
AM_0
 10
325.27630694414103
 20
615.79492080842795
 30
0.0
 11
323.32867694414102
 21
615.74392080842813
 31
0.0
  0
LINE
  5
3B80
  8
AM_0
 10
326.30248694414092
 20
617.71774080842795
 30
0.0
 11
326.30248694414092
 21
611.71911080842813
 31
0.0
  0
LINE
  5
3B81
  8
AM_0
 10
322.30248694414092
 20
618.74426080842795
 30
0.0
 11
322.30248694414092
 21
616.74359080842805
 31
0.0
  0
LINE
  5
3B83
  8
AM_0
 10
378.43334694414131
 20
618.30096080842793
 30
0.0
 11
323.30248694414092
 21
619.74463080842816
 31
0.0
  0
LINE
  5
3B84
  8
AM_0
 10
323.30248694414092
 20
619.74460080842812
 30
0.0
 11
305.17159694414107
 21
619.26983080842786
 31
0.0
  0
LINE
  5
3B87
  8
AM_0
 10
373.17159694414107
 20
592.11712080842813
 30
0.0
 11
378.38100694414118
 21
591.98071080842828
 31
0.0
  0
LINE
  5
3B88
  8
AM_0
 10
383.30248694414109
 20
613.30267080842805
 30
0.0
 11
383.30248694414109
 21
596.18655080842814
 31
0.0
  0
LINE
  5
3B89
  8
AM_0
 10
300.30248694414092
 20
614.27154080842797
 30
0.0
 11
300.30248694414092
 21
610.34689080842793
 31
0.0
  0
LINE
  5
3B8B
  8
AM_0
 10
290.80248694414092
 20
610.59567080842805
 30
0.0
 11
331.76369694414097
 21
609.52307080842797
 31
0.0
  0
LINE
  5
3B8C
  8
AM_0
 10
334.30248694414109
 20
592.47827080842796
 30
0.0
 11
334.30248694414109
 21
609.12631080842812
 31
0.0
  0
LINE
  5
3B8D
  8
AM_0
 10
336.30242694414102
 20
507.01098080842792
 30
0.0
 11
336.30242694414102
 21
592.47827080842796
 31
0.0
  0
LINE
  5
3B8E
  8
AM_0
 10
290.80248694414092
 20
605.27096080842796
 30
0.0
 11
334.30248694414109
 21
605.27096080842796
 31
0.0
  0
LINE
  5
3B8F
  8
AM_0
 10
290.80248694414092
 20
494.218260808428
 30
0.0
 11
334.30248694414109
 21
494.218260808428
 31
0.0
  0
LINE
  5
3B90
  8
AM_0
 10
343.26550694414101
 20
604.28177080842795
 30
0.0
 11
336.50191694414087
 21
608.18673080842814
 31
0.0
  0
LINE
  5
3B91
  8
AM_0
 10
334.30248694414109
 20
592.47827080842796
 30
0.0
 11
336.30242694414102
 21
592.47827080842796
 31
0.0
  0
LINE
  5
3B92
  8
AM_0
 10
360.29144694414123
 20
602.62368080842816
 30
0.0
 11
348.00372694414108
 21
602.94546080842815
 31
0.0
  0
LINE
  5
3B93
  8
AM_0
 10
347.80056694414122
 20
591.06646080842802
 30
0.0
 11
336.30245694414111
 21
592.47827080842796
 31
0.0
  0
LINE
  5
3B94
  8
AM_0
 10
368.30245694414123
 20
590.35052080842809
 30
0.0
 11
347.80059694414092
 21
591.06646080842802
 31
0.0
  0
LINE
  5
3B95
  8
AM_0
 10
343.26550694414101
 20
495.2074608084281
 30
0.0
 11
336.50191694414087
 21
491.30249080842799
 31
0.0
  0
LINE
  5
3B96
  8
AM_0
 10
334.30248694414109
 20
507.01098080842792
 30
0.0
 11
334.30248694414109
 21
490.36291080842801
 31
0.0
  0
LINE
  5
3B97
  8
AM_0
 10
368.30245694414123
 20
509.13870080842798
 30
0.0
 11
347.80056694414122
 21
508.422760808428
 31
0.0
  0
LINE
  5
3B98
  8
AM_0
 10
347.80056694414122
 20
508.422760808428
 30
0.0
 11
336.30245694414111
 21
507.01095080842788
 31
0.0
  0
LINE
  5
3B99
  8
AM_0
 10
334.30248694414109
 20
507.01098080842792
 30
0.0
 11
336.30242694414102
 21
507.01098080842792
 31
0.0
  0
LINE
  5
3B9A
  8
AM_0
 10
360.29144694414123
 20
496.86557080842812
 30
0.0
 11
348.00375694414117
 21
496.54379080842818
 31
0.0
  0
LINE
  5
3B9B
  8
AM_0
 10
335.30248694414098
 20
505.53686080842817
 30
0.0
 11
338.30248694414098
 21
505.53686080842817
 31
0.0
  0
LINE
  5
3B9C
  8
AM_0
 10
335.30248694414098
 20
493.98987080842818
 30
0.0
 11
338.30248694414098
 21
493.98987080842818
 31
0.0
  0
LINE
  5
3B9D
  8
AM_0
 10
335.30248694414098
 20
502.65014080842792
 30
0.0
 11
338.30248694414098
 21
502.65014080842792
 31
0.0
  0
LINE
  5
3B9E
  8
AM_0
 10
339.30242694414119
 20
494.98987080842818
 30
0.0
 11
339.30242694414119
 21
504.5368908084281
 31
0.0
  0
LINE
  5
3B9F
  8
AM_0
 10
335.30248694414098
 20
496.876580808428
 30
0.0
 11
338.30248694414098
 21
496.876580808428
 31
0.0
  0
LINE
  5
3BA0
  8
AM_0
 10
334.30248694414109
 20
493.48987080842818
 30
0.0
 11
335.30248694414098
 21
493.48987080842818
 31
0.0
  0
LINE
  5
3BA1
  8
AM_0
 10
334.30248694414109
 20
506.03686080842817
 30
0.0
 11
335.30248694414098
 21
506.03686080842817
 31
0.0
  0
LINE
  5
3BA2
  8
AM_0
 10
335.30248694414098
 20
506.03686080842817
 30
0.0
 11
335.30248694414098
 21
493.48987080842818
 31
0.0
  0
LINE
  5
3BA3
  8
AM_0
 10
335.30248694414098
 20
593.45239080842805
 30
0.0
 11
335.30248694414098
 21
605.99939080842807
 31
0.0
  0
LINE
  5
3BA4
  8
AM_0
 10
334.30248694414109
 20
593.45239080842805
 30
0.0
 11
335.30248694414098
 21
593.45239080842805
 31
0.0
  0
LINE
  5
3BA5
  8
AM_0
 10
334.30248694414109
 20
605.99939080842807
 30
0.0
 11
335.30248694414098
 21
605.99939080842807
 31
0.0
  0
LINE
  5
3BA6
  8
AM_0
 10
335.30248694414098
 20
602.61264080842795
 30
0.0
 11
338.30248694414098
 21
602.61264080842795
 31
0.0
  0
LINE
  5
3BA7
  8
AM_0
 10
339.30242694414119
 20
604.49939080842785
 30
0.0
 11
339.30242694414119
 21
594.95236080842812
 31
0.0
  0
LINE
  5
3BA8
  8
AM_0
 10
335.30248694414098
 20
596.83911080842813
 30
0.0
 11
338.30248694414098
 21
596.83911080842813
 31
0.0
  0
LINE
  5
3BA9
  8
AM_0
 10
335.30248694414098
 20
605.49939080842807
 30
0.0
 11
338.30248694414098
 21
605.49939080842807
 31
0.0
  0
LINE
  5
3BAA
  8
AM_0
 10
335.30248694414098
 20
593.95236080842812
 30
0.0
 11
338.30248694414098
 21
593.95236080842812
 31
0.0
  0
LINE
  5
3BAB
  8
AM_0
 10
290.80248694414092
 20
486.84970080842788
 30
0.0
 11
290.80248694414092
 21
498.24432080842797
 31
0.0
  0
LINE
  5
3BAC
  8
AM_0
 10
285.80248694414092
 20
485.74463080842798
 30
0.0
 11
285.80248694414092
 21
613.74463080842816
 31
0.0
  0
LINE
  5
3BAD
  8
AM_0
 10
289.82867694414102
 20
613.63919080842811
 30
0.0
 11
285.80248694414092
 21
613.74463080842816
 31
0.0
  0
LINE
  5
3BAE
  8
AM_0
 10
289.82867694414102
 20
485.85003080842802
 30
0.0
 11
285.80248694414092
 21
485.74463080842798
 31
0.0
  0
LINE
  5
3BAF
  8
AM_0
 10
285.80248694414092
 20
498.24432080842797
 30
0.0
 11
297.92760694414102
 21
498.24432080842797
 31
0.0
  0
LINE
  5
3BB0
  8
AM_0
 10
285.80248694414092
 20
511.68976080842788
 30
0.0
 11
290.80248694414092
 21
511.68976080842788
 31
0.0
  0
LINE
  5
3BB1
  8
AM_0
 10
298.80248694414092
 20
500.45630080842801
 30
0.0
 11
298.80248694414092
 21
510.36953080842801
 31
0.0
  0
LINE
  5
3BB2
  8
AM_0
 10
308.80248694414092
 20
501.42483080842811
 30
0.0
 11
308.80248694414092
 21
511.39502080842789
 31
0.0
  0
LINE
  5
3BB3
  8
AM_0
 10
290.80248694414092
 20
511.68976080842788
 30
0.0
 11
290.80248694414092
 21
587.79950080842809
 31
0.0
  0
LINE
  5
3BB4
  8
AM_0
 10
290.80248694414092
 20
601.24463080842816
 30
0.0
 11
290.80248694414092
 21
612.63952080842796
 31
0.0
  0
LINE
  5
3BB5
  8
AM_0
 10
308.80245694414111
 20
500.007570808428
 30
0.0
 11
299.66409694414131
 21
498.39621080842812
 31
0.0
  0
LINE
  5
3BB6
  8
AM_0
 10
290.80248694414092
 20
512.56463080842809
 30
0.0
 11
308.80248694414092
 21
512.56463080842809
 31
0.0
  0
LINE
  5
3BB7
  8
AM_0
 10
298.80248694414092
 20
599.03293080842786
 30
0.0
 11
298.80248694414092
 21
589.11969080842812
 31
0.0
  0
LINE
  5
3BB8
  8
AM_0
 10
308.80245694414111
 20
599.48163080842812
 30
0.0
 11
299.66405694414101
 21
601.09298080842791
 31
0.0
  0
LINE
  5
3BB9
  8
AM_0
 10
285.80248694414092
 20
587.79950080842809
 30
0.0
 11
290.80248694414092
 21
587.79950080842809
 31
0.0
  0
LINE
  5
3BBA
  8
AM_0
 10
290.80248694414092
 20
586.92459080842798
 30
0.0
 11
308.80248694414092
 21
586.92459080842798
 31
0.0
  0
LINE
  5
3BBB
  8
AM_0
 10
285.80248694414092
 20
601.24490080842816
 30
0.0
 11
297.92760694414102
 21
601.24490080842816
 31
0.0
  0
LINE
  5
3BBC
  8
AM_0
 10
308.80248694414092
 20
598.06439080842802
 30
0.0
 11
308.80248694414092
 21
588.09417080842798
 31
0.0
  0
LINE
  5
3BD2
  8
AM_0
 10
126.80248694414099
 20
500.24463080842793
 30
0.0
 11
126.80248694414099
 21
500.774660808428
 31
0.0
  0
LINE
  5
3BD3
  8
AM_0
 10
126.80248694414099
 20
502.34460080842791
 30
0.0
 11
126.80248694414099
 21
502.89465080842791
 31
0.0
  0
LINE
  5
3BD4
  8
AM_0
 10
126.80248694414099
 20
506.91467080842801
 30
0.0
 11
126.80248694414099
 21
507.384640808428
 31
0.0
  0
LINE
  5
3BD5
  8
AM_0
 10
126.5824569441408
 20
503.36462080842819
 30
0.0
 11
125.3324569441411
 21
504.02459080842817
 31
0.0
  0
LINE
  5
3BD6
  8
AM_0
 10
126.59246694414099
 20
501.25461080842791
 30
0.0
 11
125.352476944141
 21
501.88461080842802
 31
0.0
  0
LINE
  5
3BD7
  8
AM_0
 10
126.57244694414101
 20
507.89459080842801
 30
0.0
 11
125.2924769441412
 21
508.64459080842801
 31
0.0
  0
LINE
  5
3BD8
  8
AM_0
 10
127.0424769441412
 20
501.14465080842791
 30
0.0
 11
129.30248694414121
 21
501.14465080842791
 31
0.0
  0
LINE
  5
3BD9
  8
AM_0
 10
127.05248694414119
 20
503.24463080842798
 30
0.0
 11
128.80248694414101
 21
503.24463080842798
 31
0.0
  0
LINE
  5
3BDA
  8
AM_0
 10
127.0725069441411
 20
507.76465080842797
 30
0.0
 11
128.80248694414101
 21
507.76465080842797
 31
0.0
  0
LINE
  5
3BDB
  8
AM_0
 10
127.102476944141
 20
506.62463080842798
 30
0.0
 11
129.80248694414121
 21
506.62463080842798
 31
0.0
  0
LINE
  5
3BDC
  8
AM_0
 10
127.0825169441412
 20
502.10461080842788
 30
0.0
 11
129.80248694414121
 21
502.10461080842788
 31
0.0
  0
LINE
  5
3BDD
  8
AM_0
 10
126.55248694414099
 20
506.78460080842802
 30
0.0
 11
125.252496944141
 21
507.63461080842802
 31
0.0
  0
LINE
  5
3BDE
  8
AM_0
 10
126.562496944141
 20
502.24460080842817
 30
0.0
 11
125.28246694414121
 21
503.01461080842819
 31
0.0
  0
LINE
  5
3BDF
  8
AM_0
 10
126.5725069441411
 20
500.13461080842802
 30
0.0
 11
125.302546944141
 21
500.86459080842798
 31
0.0
  0
LINE
  5
3BE0
  8
AM_0
 10
127.0725069441411
 20
499.99463080842798
 30
0.0
 11
129.30248694414121
 21
499.99463080842798
 31
0.0
  0
LINE
  5
3BE1
  8
AM_0
 10
124.80248694414119
 20
501.72461080842822
 30
0.0
 11
124.80248694414119
 21
544.74463080842816
 31
0.0
  0
LINE
  5
3BE2
  8
AM_0
 10
125.2924769441412
 20
508.64462080842799
 30
0.0
 11
125.2724569441411
 21
508.65460080842797
 31
0.0
  0
LINE
  5
3BE3
  8
AM_0
 10
123.30248694414099
 20
532.46460080842792
 30
0.0
 11
124.80248694414119
 21
532.46460080842792
 31
0.0
  0
LINE
  5
3BE4
  8
AM_0
 10
123.30248694414099
 20
534.59460080842814
 30
0.0
 11
124.80248694414119
 21
534.59460080842814
 31
0.0
  0
LINE
  5
3BE5
  8
AM_0
 10
123.30248694414099
 20
529.74466080842785
 30
0.0
 11
124.80248694414119
 21
529.61465080842822
 31
0.0
  0
LINE
  5
3BE6
  8
AM_0
 10
123.30248694414099
 20
529.74463080842816
 30
0.0
 11
123.30248694414099
 21
549.74463080842816
 31
0.0
  0
LINE
  5
3BE7
  8
AM_0
 10
126.80248694414099
 20
514.35461080842788
 30
0.0
 11
126.80248694414099
 21
515.4146708084279
 31
0.0
  0
LINE
  5
3BE8
  8
AM_0
 10
126.80248694414099
 20
524.11462080842796
 30
0.0
 11
126.80248694414099
 21
525.48462080842808
 31
0.0
  0
LINE
  5
3BE9
  8
AM_0
 10
126.80248694414099
 20
544.13464080842823
 30
0.0
 11
126.80248694414099
 21
545.29467080842824
 31
0.0
  0
LINE
  5
3BEA
  8
AM_0
 10
126.80248694414099
 20
534.13464080842823
 30
0.0
 11
126.80248694414099
 21
535.35461080842788
 31
0.0
  0
LINE
  5
3BEB
  8
AM_0
 10
128.80248694414101
 20
545.74463080842816
 30
0.0
 11
125.80248694414109
 21
545.74463080842816
 31
0.0
  0
LINE
  5
3BEC
  8
AM_0
 10
128.80248694414101
 20
543.74463080842816
 30
0.0
 11
125.80248694414109
 21
543.74463080842816
 31
0.0
  0
LINE
  5
3BED
  8
AM_0
 10
128.80248694414101
 20
535.74463080842816
 30
0.0
 11
125.80248694414109
 21
535.74463080842816
 31
0.0
  0
LINE
  5
3BEE
  8
AM_0
 10
128.80248694414101
 20
533.74463080842816
 30
0.0
 11
125.80248694414109
 21
533.74463080842816
 31
0.0
  0
LINE
  5
3BEF
  8
AM_0
 10
128.80248694414101
 20
525.74463080842816
 30
0.0
 11
125.80248694414109
 21
525.74463080842816
 31
0.0
  0
LINE
  5
3BF0
  8
AM_0
 10
128.80248694414101
 20
523.74463080842816
 30
0.0
 11
125.80248694414109
 21
523.74463080842816
 31
0.0
  0
LINE
  5
3BF1
  8
AM_0
 10
126.6624769441412
 20
516.04464080842831
 30
0.0
 11
125.51250694414099
 21
516.40463080842824
 31
0.0
  0
LINE
  5
3BF2
  8
AM_0
 10
126.952516944141
 20
516.00464080842767
 30
0.0
 11
128.80248694414101
 21
516.00464080842767
 31
0.0
  0
LINE
  5
3BF3
  8
AM_0
 10
126.61242694414101
 20
514.13461080842785
 30
0.0
 11
125.4124769441412
 21
514.65460080842786
 31
0.0
  0
LINE
  5
3BF4
  8
AM_0
 10
127.002496944141
 20
514.05468080842786
 30
0.0
 11
129.10247694414099
 21
514.05468080842786
 31
0.0
  0
LINE
  5
3BF5
  8
AM_0
 10
123.30248694414099
 20
567.02466080842817
 30
0.0
 11
124.80248694414119
 21
567.02466080842817
 31
0.0
  0
LINE
  5
3BF6
  8
AM_0
 10
123.30248694414099
 20
564.89465080842797
 30
0.0
 11
124.80248694414119
 21
564.89465080842797
 31
0.0
  0
LINE
  5
3BF7
  8
AM_0
 10
123.302546944141
 20
569.74466080842797
 30
0.0
 11
124.80248694414119
 21
569.87466080842796
 31
0.0
  0
LINE
  5
3BF8
  8
AM_0
 10
123.30248694414099
 20
569.74463080842816
 30
0.0
 11
123.30248694414099
 21
549.74463080842816
 31
0.0
  0
LINE
  5
3BF9
  8
AM_0
 10
126.80248694414099
 20
599.24463080842816
 30
0.0
 11
126.80248694414099
 21
598.71460080842792
 31
0.0
  0
LINE
  5
3BFA
  8
AM_0
 10
126.80248694414099
 20
597.14465080842831
 30
0.0
 11
126.80248694414099
 21
596.59460080842814
 31
0.0
  0
LINE
  5
3BFB
  8
AM_0
 10
126.80248694414099
 20
592.5745808084281
 30
0.0
 11
126.80248694414099
 21
592.10461080842811
 31
0.0
  0
LINE
  5
3BFC
  8
AM_0
 10
126.80248694414099
 20
585.13464080842812
 30
0.0
 11
126.80248694414099
 21
584.0745808084281
 31
0.0
  0
LINE
  5
3BFD
  8
AM_0
 10
126.80248694414099
 20
575.37463080842792
 30
0.0
 11
126.80248694414099
 21
574.00464080842812
 31
0.0
  0
LINE
  5
3BFE
  8
AM_0
 10
126.80248694414099
 20
555.35461080842799
 30
0.0
 11
126.80248694414099
 21
554.1945808084281
 31
0.0
  0
LINE
  5
3BFF
  8
AM_0
 10
126.80248694414099
 20
565.35461080842811
 30
0.0
 11
126.80248694414099
 21
564.14465080842785
 31
0.0
  0
LINE
  5
3C00
  8
AM_0
 10
128.80248694414101
 20
553.74463080842816
 30
0.0
 11
125.80248694414109
 21
553.74463080842816
 31
0.0
  0
LINE
  5
3C01
  8
AM_0
 10
128.80248694414101
 20
555.74463080842816
 30
0.0
 11
125.80248694414109
 21
555.74463080842816
 31
0.0
  0
LINE
  5
3C02
  8
AM_0
 10
128.80248694414101
 20
563.74463080842816
 30
0.0
 11
125.80248694414109
 21
563.74463080842816
 31
0.0
  0
LINE
  5
3C03
  8
AM_0
 10
128.80248694414101
 20
565.74463080842816
 30
0.0
 11
125.80248694414109
 21
565.74463080842816
 31
0.0
  0
LINE
  5
3C04
  8
AM_0
 10
128.80248694414101
 20
573.74463080842816
 30
0.0
 11
125.80248694414109
 21
573.74463080842816
 31
0.0
  0
LINE
  5
3C05
  8
AM_0
 10
128.80248694414101
 20
575.74463080842816
 30
0.0
 11
125.80248694414109
 21
575.74463080842816
 31
0.0
  0
LINE
  5
3C06
  8
AM_0
 10
126.5824569441408
 20
596.134640808428
 30
0.0
 11
125.3325169441412
 21
595.46466080842811
 31
0.0
  0
LINE
  5
3C07
  8
AM_0
 10
126.592526944141
 20
598.24460080842812
 30
0.0
 11
125.352476944141
 21
597.61459080842815
 31
0.0
  0
LINE
  5
3C08
  8
AM_0
 10
126.6624769441412
 20
583.44461080842791
 30
0.0
 11
125.5124469441413
 21
583.09460080842814
 31
0.0
  0
LINE
  5
3C09
  8
AM_0
 10
126.5725069441411
 20
591.59457080842799
 30
0.0
 11
125.2924769441412
 21
590.8445708084281
 31
0.0
  0
LINE
  5
3C0A
  8
AM_0
 10
127.0424769441412
 20
598.34460080842814
 30
0.0
 11
129.30248694414121
 21
598.34460080842814
 31
0.0
  0
LINE
  5
3C0B
  8
AM_0
 10
127.05248694414119
 20
596.24463080842816
 30
0.0
 11
128.80248694414101
 21
596.24463080842816
 31
0.0
  0
LINE
  5
3C0C
  8
AM_0
 10
127.0725069441411
 20
591.73462080842796
 30
0.0
 11
128.80248694414101
 21
591.73462080842796
 31
0.0
  0
LINE
  5
3C0D
  8
AM_0
 10
126.952516944141
 20
583.48462080842808
 30
0.0
 11
128.80248694414101
 21
583.48462080842808
 31
0.0
  0
LINE
  5
3C0E
  8
AM_0
 10
127.102476944141
 20
592.87463080842792
 30
0.0
 11
129.80248694414121
 21
592.87463080842792
 31
0.0
  0
LINE
  5
3C0F
  8
AM_0
 10
127.0825169441412
 20
597.38464080842812
 30
0.0
 11
129.80248694414121
 21
597.38464080842812
 31
0.0
  0
LINE
  5
3C10
  8
AM_0
 10
126.612546944141
 20
585.35464080842814
 30
0.0
 11
125.412536944141
 21
584.84463080842795
 31
0.0
  0
LINE
  5
3C11
  8
AM_0
 10
126.55248694414099
 20
592.70459080842795
 30
0.0
 11
125.252496944141
 21
591.85461080842811
 31
0.0
  0
LINE
  5
3C12
  8
AM_0
 10
126.562436944141
 20
597.24460080842812
 30
0.0
 11
125.28246694414121
 21
596.47464080842815
 31
0.0
  0
LINE
  5
3C13
  8
AM_0
 10
126.57244694414101
 20
599.36462080842784
 30
0.0
 11
125.3024269441412
 21
598.62463080842792
 31
0.0
  0
LINE
  5
3C14
  8
AM_0
 10
127.002496944141
 20
585.43457080842813
 30
0.0
 11
129.10247694414099
 21
585.43457080842813
 31
0.0
  0
LINE
  5
3C15
  8
AM_0
 10
127.0725069441411
 20
599.49463080842816
 30
0.0
 11
129.30248694414121
 21
599.49463080842816
 31
0.0
  0
LINE
  5
3C16
  8
AM_0
 10
124.80248694414119
 20
597.76465080842809
 30
0.0
 11
124.80248694414119
 21
554.74463080842816
 31
0.0
  0
LINE
  5
3C17
  8
AM_0
 10
276.80248694414098
 20
586.89465080842831
 30
0.0
 11
285.80248694414092
 21
586.89465080842831
 31
0.0
  0
LINE
  5
3C18
  8
AM_0
 10
277.80248694414098
 20
497.70459080842812
 30
0.0
 11
285.80248694414092
 21
497.70459080842812
 31
0.0
  0
LINE
  5
3C19
  8
AM_0
 10
276.80248694414098
 20
512.59460080842814
 30
0.0
 11
285.80248694414092
 21
512.59460080842814
 31
0.0
  0
LINE
  5
3C1A
  8
AM_0
 10
277.80248694414098
 20
486.2446308084281
 30
0.0
 11
285.80248694414092
 21
486.2446308084281
 31
0.0
  0
LINE
  5
3C1B
  8
AM_0
 10
277.80248694414098
 20
601.78466080842793
 30
0.0
 11
285.80248694414092
 21
601.78466080842793
 31
0.0
  0
LINE
  5
3C1C
  8
AM_0
 10
277.80248694414098
 20
613.24463080842816
 30
0.0
 11
285.80248694414092
 21
613.24463080842816
 31
0.0
  0
LINE
  5
3C1D
  8
AM_0
 10
129.80248694414121
 20
492.3145708084279
 30
0.0
 11
132.62243694414079
 21
492.25457080842818
 31
0.0
  0
LINE
  5
3C1E
  8
AM_0
 10
170.80248694414121
 20
503.39465080842791
 30
0.0
 11
276.80248694414098
 21
503.39465080842791
 31
0.0
  0
LINE
  5
3C1F
  8
AM_0
 10
271.51244694414112
 20
489.24463080842798
 30
0.0
 11
276.80248694414098
 21
489.24463080842798
 31
0.0
  0
LINE
  5
3C20
  8
AM_0
 10
143.47247694414111
 20
516.384640808428
 30
0.0
 11
237.82244694414109
 21
516.384640808428
 31
0.0
  0
LINE
  5
3C21
  8
AM_0
 10
225.80248694414121
 20
513.74463080842793
 30
0.0
 11
144.3381969441412
 21
513.74463080842793
 31
0.0
  0
LINE
  5
3C22
  8
AM_0
 10
225.80248694414121
 20
513.02466080842805
 30
0.0
 11
273.62249694414112
 21
513.02466080842805
 31
0.0
  0
LINE
  5
3C23
  8
AM_0
 10
143.47247694414111
 20
513.02466080842805
 30
0.0
 11
225.80248694414121
 21
513.02466080842805
 31
0.0
  0
LINE
  5
3C24
  8
AM_0
 10
143.50011694414101
 20
491.48462080842819
 30
0.0
 11
149.30248694414101
 21
491.48462080842819
 31
0.0
  0
LINE
  5
3C25
  8
AM_0
 10
152.80248694414101
 20
487.88464080842817
 30
0.0
 11
269.61248694414098
 21
487.88464080842817
 31
0.0
  0
LINE
  5
3C26
  8
AM_0
 10
143.56237694414119
 20
496.76465080842792
 30
0.0
 11
149.30248694414101
 21
496.76465080842792
 31
0.0
  0
LINE
  5
3C27
  8
AM_0
 10
139.80248694414101
 20
501.39465080842803
 30
0.0
 11
139.80248694414101
 21
515.4445808084281
 31
0.0
  0
LINE
  5
3C28
  8
AM_0
 10
129.80248694414121
 20
501.39465080842803
 30
0.0
 11
139.80248694414101
 21
501.39465080842803
 31
0.0
  0
LINE
  5
3C29
  8
AM_0
 10
271.54247694414101
 20
489.37454080842798
 30
0.0
 11
275.00249694414111
 21
502.2846608084281
 31
0.0
  0
LINE
  5
3C2A
  8
AM_0
 10
133.56377694414121
 20
489.58563080842788
 30
0.0
 11
133.0825169441411
 21
491.49463080842798
 31
0.0
  0
LINE
  5
3C2B
  8
AM_0
 10
133.99249694414121
 20
489.61456080842788
 30
0.0
 11
133.07244694414101
 21
493.49466080842791
 31
0.0
  0
LINE
  5
3C2C
  8
AM_0
 10
150.80248694414109
 20
487.85559080842802
 30
0.0
 11
150.80248694414109
 21
495.26465080842797
 31
0.0
  0
LINE
  5
3C2D
  8
AM_0
 10
131.632506944141
 20
492.62463080842792
 30
0.0
 11
133.28246694414119
 21
492.62463080842792
 31
0.0
  0
LINE
  5
3C2E
  8
AM_0
 10
170.80248694414121
 20
596.09460080842814
 30
0.0
 11
276.80248694414098
 21
596.09460080842814
 31
0.0
  0
LINE
  5
3C2F
  8
AM_0
 10
276.80248694414098
 20
487.24463080842793
 30
0.0
 11
276.80248694414098
 21
612.24463080842816
 31
0.0
  0
LINE
  5
3C30
  8
AM_0
 10
129.80248694414121
 20
607.17462080842813
 30
0.0
 11
132.6224969441412
 21
607.24463080842816
 31
0.0
  0
LINE
  5
3C31
  8
AM_0
 10
129.80248694414121
 20
492.3145708084279
 30
0.0
 11
129.80248694414121
 21
549.74463080842816
 31
0.0
  0
LINE
  5
3C32
  8
AM_0
 10
270.14245694414097
 20
513.74463080842793
 30
0.0
 11
225.80248694414121
 21
513.74463080842793
 31
0.0
  0
LINE
  5
3C33
  8
AM_0
 10
139.80248694414101
 20
598.09460080842791
 30
0.0
 11
139.80248694414101
 21
584.05468080842809
 31
0.0
  0
LINE
  5
3C34
  8
AM_0
 10
129.80248694414121
 20
584.05468080842809
 30
0.0
 11
139.80248694414101
 21
584.05468080842809
 31
0.0
  0
LINE
  5
3C35
  8
AM_0
 10
129.80248694414121
 20
592.43457080842813
 30
0.0
 11
139.80248694414101
 21
592.43457080842813
 31
0.0
  0
LINE
  5
3C36
  8
AM_0
 10
129.80248694414121
 20
598.09460080842791
 30
0.0
 11
139.80248694414101
 21
598.09460080842791
 31
0.0
  0
LINE
  5
3C37
  8
AM_0
 10
205.2445669441411
 20
535.74463080842816
 30
0.0
 11
135.35247694414099
 21
535.74463080842816
 31
0.0
  0
LINE
  5
3C38
  8
AM_0
 10
152.80248694414101
 20
611.60461080842799
 30
0.0
 11
269.61248694414098
 21
611.60461080842799
 31
0.0
  0
LINE
  5
3C39
  8
AM_0
 10
143.756776944141
 20
602.73462080842808
 30
0.0
 11
149.30248694414101
 21
602.73462080842808
 31
0.0
  0
LINE
  5
3C3A
  8
AM_0
 10
141.01177694414099
 20
596.73794080842811
 30
0.0
 11
141.79675694414121
 21
601.0846208084281
 31
0.0
  0
LINE
  5
3C3B
  8
AM_0
 10
143.69292694414099
 20
608.01465080842809
 30
0.0
 11
149.30248694414101
 21
608.01465080842809
 31
0.0
  0
LINE
  5
3C3C
  8
AM_0
 10
135.93249694414101
 20
611.41467080842813
 30
0.0
 11
149.30248694414101
 21
611.41467080842813
 31
0.0
  0
LINE
  5
3C3D
  8
AM_0
 10
135.91247694414119
 20
613.04467080842812
 30
0.0
 11
149.41247694414119
 21
613.04467080842812
 31
0.0
  0
LINE
  5
3C3E
  8
AM_0
 10
152.80248694414101
 20
615.6646708084279
 30
0.0
 11
270.88610694414109
 21
615.6646708084279
 31
0.0
  0
LINE
  5
3C3F
  8
AM_0
 10
152.80248694414101
 20
614.99463080842816
 30
0.0
 11
271.03014694414111
 21
614.99463080842816
 31
0.0
  0
LINE
  5
3C40
  8
AM_0
 10
152.80248694414101
 20
613.63464080842812
 30
0.0
 11
271.32244694414112
 21
613.63464080842812
 31
0.0
  0
LINE
  5
3C41
  8
AM_0
 10
139.31676694414099
 20
600.78466080842793
 30
0.0
 11
141.73675694414101
 21
600.78466080842793
 31
0.0
  0
LINE
  5
3C42
  8
AM_0
 10
141.74670694414101
 20
606.43466080842813
 30
0.0
 11
140.78667694414131
 21
601.96457080842811
 31
0.0
  0
LINE
  5
3C43
  8
AM_0
 10
131.61248694414081
 20
604.84460080842814
 30
0.0
 11
141.40527694414101
 21
604.84460080842814
 31
0.0
  0
LINE
  5
3C44
  8
AM_0
 10
270.14245694414097
 20
585.74463080842816
 30
0.0
 11
144.35247694414119
 21
585.74463080842816
 31
0.0
  0
LINE
  5
3C45
  8
AM_0
 10
270.14245694414097
 20
583.74463080842816
 30
0.0
 11
255.80248694414101
 21
583.74463080842816
 31
0.0
  0
LINE
  5
3C46
  8
AM_0
 10
270.14959694414119
 20
575.74463080842816
 30
0.0
 11
255.80248694414101
 21
575.74463080842816
 31
0.0
  0
LINE
  5
3C47
  8
AM_0
 10
133.99249694414121
 20
609.87466080842796
 30
0.0
 11
133.07244694414101
 21
606.00461080842797
 31
0.0
  0
LINE
  5
3C48
  8
AM_0
 10
270.1353169441411
 20
573.74463080842816
 30
0.0
 11
144.35247694414119
 21
573.74463080842816
 31
0.0
  0
LINE
  5
3C49
  8
AM_0
 10
131.632506944141
 20
606.86462080842796
 30
0.0
 11
133.28246694414119
 21
606.86462080842796
 31
0.0
  0
LINE
  5
3C4A
  8
AM_0
 10
133.97247694414099
 20
611.53457080842793
 30
0.0
 11
133.0825169441411
 21
608.00467080842816
 31
0.0
  0
LINE
  5
3C4B
  8
AM_0
 10
205.2412069441412
 20
565.74463080842816
 30
0.0
 11
135.35247694414099
 21
565.74463080842816
 31
0.0
  0
LINE
  5
3C4C
  8
AM_0
 10
150.80248694414109
 20
611.63464080842812
 30
0.0
 11
150.80248694414109
 21
604.23462080842796
 31
0.0
  0
LINE
  5
3C4D
  8
AM_0
 10
205.2412069441412
 20
563.74463080842816
 30
0.0
 11
135.35247694414099
 21
563.74463080842816
 31
0.0
  0
LINE
  5
3C4E
  8
AM_0
 10
205.2445669441411
 20
555.74463080842816
 30
0.0
 11
135.35247694414099
 21
555.74463080842816
 31
0.0
  0
LINE
  5
3C4F
  8
AM_0
 10
205.2445669441411
 20
553.74463080842816
 30
0.0
 11
135.35247694414099
 21
553.74463080842816
 31
0.0
  0
LINE
  5
3C50
  8
AM_0
 10
271.54247694414101
 20
610.12466080842808
 30
0.0
 11
275.00249694414111
 21
597.20459080842807
 31
0.0
  0
LINE
  5
3C51
  8
AM_0
 10
273.26287694414111
 20
610.24463080842816
 30
0.0
 11
276.80248694414098
 21
610.24463080842816
 31
0.0
  0
LINE
  5
3C52
  8
AM_0
 10
276.51244694414117
 20
600.78466080842793
 30
0.0
 11
274.09246694414111
 21
600.78466080842793
 31
0.0
  0
LINE
  5
3C53
  8
AM_0
 10
272.352686944141
 20
614.47979080842811
 30
0.0
 11
275.04250694414111
 21
601.96457080842811
 31
0.0
  0
LINE
  5
3C54
  8
AM_0
 10
129.80248694414121
 20
607.17468080842809
 30
0.0
 11
129.80248694414121
 21
549.74463080842816
 31
0.0
  0
LINE
  5
3C55
  8
AM_0
 10
129.80248694414121
 20
515.4445808084281
 30
0.0
 11
139.80248694414101
 21
515.4445808084281
 31
0.0
  0
LINE
  5
3C56
  8
AM_0
 10
135.503116944141
 20
488.0745808084281
 30
0.0
 11
149.5452269441414
 21
488.0745808084281
 31
0.0
  0
LINE
  5
3C57
  8
AM_0
 10
129.80248694414121
 20
507.05468080842792
 30
0.0
 11
139.80248694414101
 21
507.05468080842792
 31
0.0
  0
LINE
  5
3C58
  8
AM_0
 10
131.61248694414081
 20
494.64465080842803
 30
0.0
 11
141.40527694414101
 21
494.64465080842803
 31
0.0
  0
LINE
  5
3C59
  8
AM_0
 10
152.80248694414101
 20
485.85461080842799
 30
0.0
 11
194.128846944141
 21
485.85461080842799
 31
0.0
  0
LINE
  5
3C5A
  8
AM_0
 10
143.26250694414099
 20
523.26465080842809
 30
0.0
 11
237.80248694414101
 21
523.26465080842809
 31
0.0
  0
LINE
  5
3C5B
  8
AM_0
 10
237.80248694414101
 20
515.74463080842793
 30
0.0
 11
144.3381969441412
 21
515.74463080842793
 31
0.0
  0
LINE
  5
3C5C
  8
AM_0
 10
143.47247694414111
 20
586.47461080842811
 30
0.0
 11
273.62249694414112
 21
586.47461080842811
 31
0.0
  0
LINE
  5
3C5D
  8
AM_0
 10
143.47247694414111
 20
583.11462080842796
 30
0.0
 11
237.82244694414109
 21
583.11462080842796
 31
0.0
  0
LINE
  5
3C5E
  8
AM_0
 10
143.26250694414099
 20
576.23462080842785
 30
0.0
 11
237.80248694414101
 21
576.23462080842785
 31
0.0
  0
LINE
  5
3C5F
  8
AM_0
 10
143.26250694414099
 20
573.31457080842802
 30
0.0
 11
273.83672694414111
 21
573.31457080842802
 31
0.0
  0
LINE
  5
3C60
  8
AM_0
 10
134.1325069441412
 20
566.09460080842814
 30
0.0
 11
206.47375694414109
 21
566.09460080842814
 31
0.0
  0
LINE
  5
3C61
  8
AM_0
 10
134.1325069441412
 20
563.42468080842809
 30
0.0
 11
206.4611769441409
 21
563.42468080842809
 31
0.0
  0
LINE
  5
3C62
  8
AM_0
 10
134.0725069441408
 20
556.02466080842805
 30
0.0
 11
206.537596944141
 21
556.02466080842805
 31
0.0
  0
LINE
  5
3C63
  8
AM_0
 10
134.0725069441408
 20
553.48462080842819
 30
0.0
 11
206.537596944141
 21
553.48462080842819
 31
0.0
  0
LINE
  5
3C64
  8
AM_0
 10
134.0725069441408
 20
546.01465080842809
 30
0.0
 11
206.537596944141
 21
546.01465080842809
 31
0.0
  0
LINE
  5
3C65
  8
AM_0
 10
205.2445669441411
 20
543.74463080842816
 30
0.0
 11
135.35247694414099
 21
543.74463080842816
 31
0.0
  0
LINE
  5
3C66
  8
AM_0
 10
205.2445669441411
 20
545.74463080842816
 30
0.0
 11
135.35247694414099
 21
545.74463080842816
 31
0.0
  0
LINE
  5
3C67
  8
AM_0
 10
134.1325069441412
 20
536.06457080842824
 30
0.0
 11
206.47375694414109
 21
536.06457080842824
 31
0.0
  0
LINE
  5
3C68
  8
AM_0
 10
205.2445669441411
 20
533.74463080842816
 30
0.0
 11
135.35247694414099
 21
533.74463080842816
 31
0.0
  0
LINE
  5
3C69
  8
AM_0
 10
134.1325069441412
 20
533.40466080842805
 30
0.0
 11
206.47375694414109
 21
533.40466080842805
 31
0.0
  0
LINE
  5
3C6A
  8
AM_0
 10
270.1353169441411
 20
525.74463080842816
 30
0.0
 11
144.3381969441412
 21
525.74463080842816
 31
0.0
  0
LINE
  5
3C6B
  8
AM_0
 10
143.26250694414099
 20
526.18457080842802
 30
0.0
 11
273.83672694414111
 21
526.18457080842802
 31
0.0
  0
LINE
  5
3C6C
  8
AM_0
 10
270.1353169441411
 20
523.74463080842816
 30
0.0
 11
255.80248694414101
 21
523.74463080842816
 31
0.0
  0
LINE
  5
3C6D
  8
AM_0
 10
270.14245694414097
 20
515.74463080842793
 30
0.0
 11
255.80248694414101
 21
515.74463080842793
 31
0.0
  0
LINE
  5
3C6E
  8
AM_0
 10
134.0725069441408
 20
543.47461080842822
 30
0.0
 11
206.537596944141
 21
543.47461080842822
 31
0.0
  0
LINE
  5
3C6F
  8
AM_0
 10
141.01171694414111
 20
502.7512508084281
 30
0.0
 11
141.79675694414121
 21
498.4045708084281
 31
0.0
  0
LINE
  5
3C70
  8
AM_0
 10
139.31676694414099
 20
498.70459080842801
 30
0.0
 11
141.73675694414101
 21
498.70459080842801
 31
0.0
  0
LINE
  5
3C71
  8
AM_0
 10
141.74676694414109
 20
493.05462080842801
 30
0.0
 11
140.7867469441409
 21
497.524590808428
 31
0.0
  0
LINE
  5
3C74
  8
AM_0
 10
257.31609694414118
 20
479.7446308084281
 30
0.0
 11
268.81866694414111
 21
479.7446308084281
 31
0.0
  0
LINE
  5
3C75
  8
AM_0
 10
275.80251694414119
 20
489.24460080842789
 30
0.0
 11
270.0767169441412
 21
480.42764080842801
 31
0.0
  0
LINE
  5
3C76
  8
AM_0
 10
239.30248694414101
 20
522.24463080842793
 30
0.0
 11
239.30248694414101
 21
517.24463080842816
 31
0.0
  0
LINE
  5
3C77
  8
AM_0
 10
254.30248694414101
 20
522.24463080842793
 30
0.0
 11
254.30248694414101
 21
517.24463080842816
 31
0.0
  0
LINE
  5
3C78
  8
AM_0
 10
237.80248694414101
 20
523.74463080842816
 30
0.0
 11
144.3381969441412
 21
523.74463080842816
 31
0.0
  0
LINE
  5
3C79
  8
AM_0
 10
238.82244694414121
 20
522.24463080842793
 30
0.0
 11
238.82244694414121
 21
517.38464080842823
 31
0.0
  0
LINE
  5
3C7A
  8
AM_0
 10
254.78246694414111
 20
522.24463080842793
 30
0.0
 11
254.78246694414111
 21
517.38464080842823
 31
0.0
  0
LINE
  5
3C7B
  8
AM_0
 10
255.80248694414101
 20
523.26465080842809
 30
0.0
 11
273.83672694414111
 21
523.26465080842809
 31
0.0
  0
LINE
  5
3C7C
  8
AM_0
 10
255.78246694414091
 20
516.384640808428
 30
0.0
 11
273.62249694414112
 21
516.384640808428
 31
0.0
  0
LINE
  5
3C7D
  8
AM_0
 10
254.78246694414111
 20
577.24463080842816
 30
0.0
 11
254.78246694414111
 21
582.10461080842811
 31
0.0
  0
LINE
  5
3C7E
  8
AM_0
 10
238.82244694414121
 20
577.24463080842816
 30
0.0
 11
238.82244694414121
 21
582.10461080842811
 31
0.0
  0
LINE
  5
3C7F
  8
AM_0
 10
254.30248694414101
 20
577.24463080842816
 30
0.0
 11
254.30248694414101
 21
582.24463080842816
 31
0.0
  0
LINE
  5
3C80
  8
AM_0
 10
239.30248694414101
 20
577.24463080842816
 30
0.0
 11
239.30248694414101
 21
582.24463080842816
 31
0.0
  0
LINE
  5
3C81
  8
AM_0
 10
237.80248694414101
 20
583.74463080842816
 30
0.0
 11
144.35247694414119
 21
583.74463080842816
 31
0.0
  0
LINE
  5
3C82
  8
AM_0
 10
255.78246694414091
 20
583.11462080842796
 30
0.0
 11
273.62249694414112
 21
583.11462080842796
 31
0.0
  0
LINE
  5
3C83
  8
AM_0
 10
255.80248694414101
 20
576.23462080842785
 30
0.0
 11
273.84820694414111
 21
576.23462080842785
 31
0.0
  0
LINE
  5
3C84
  8
AM_0
 10
237.80248694414101
 20
575.74463080842816
 30
0.0
 11
144.35247694414119
 21
575.74463080842816
 31
0.0
  0
LINE
  5
3C85
  8
AM_0
 10
210.80248694414101
 20
570.24463080842816
 30
0.0
 11
210.80248694414101
 21
529.24463080842816
 31
0.0
  0
LINE
  5
3C86
  8
AM_0
 10
273.80248694414098
 20
570.24463080842816
 30
0.0
 11
273.80248694414098
 21
529.24463080842816
 31
0.0
  0
LINE
  5
3C87
  8
AM_0
 10
210.80248694414101
 20
570.24463080842816
 30
0.0
 11
273.80248694414098
 21
570.24463080842816
 31
0.0
  0
LINE
  5
3C88
  8
AM_0
 10
210.80248694414101
 20
529.24463080842816
 30
0.0
 11
273.80248694414098
 21
529.24463080842816
 31
0.0
  0
LINE
  5
3C89
  8
AM_0
 10
210.80248694414101
 20
562.74463080842816
 30
0.0
 11
273.80248694414098
 21
562.74463080842816
 31
0.0
  0
LINE
  5
3C8A
  8
AM_0
 10
170.80248694414121
 20
596.09454080842795
 30
0.0
 11
139.80248694414101
 21
594.06454080842798
 31
0.0
  0
LINE
  5
3C8B
  8
AM_0
 10
170.80248694414121
 20
503.39459080842801
 30
0.0
 11
139.80248694414101
 21
505.42459080842798
 31
0.0
  0
ARC
  5
3C90
  8
AM_0
 10
391.3024269441409
 20
549.74463080842816
 30
0.0
 40
3.0
 50
89.986013999999244
 51
131.810058661764
  0
ARC
  5
3C91
  8
AM_0
 10
323.30248694414092
 20
480.744960808428
 30
0.0
 40
1.0
 50
180.00001000000091
 51
268.50000000000063
  0
ARC
  5
3C92
  8
AM_0
 10
378.30248694414109
 20
510.50750080842812
 30
0.0
 40
3.0
 50
271.49999999999937
 51
0.0
  0
ARC
  5
3C93
  8
AM_0
 10
324.30248694414092
 20
481.77148080842801
 30
0.0
 40
2.0
 50
271.49999999999937
 51
0.0
  0
ARC
  5
3C94
  8
AM_0
 10
324.30248694414092
 20
487.7701408084281
 30
0.0
 40
2.0
 50
0.0
 51
91.500001000001546
  0
ARC
  5
3C95
  8
AM_0
 10
365.30248694414092
 20
500.92895080842823
 30
0.0
 40
3.0
 50
271.49999999999937
 51
0.0
  0
ARC
  5
3C96
  8
AM_0
 10
361.30248694414109
 20
483.74072080842819
 30
0.0
 40
3.0
 50
180.00001000000091
 51
271.49999999999937
  0
ARC
  5
3C97
  8
AM_0
 10
363.30248694414092
 20
492.8738408084281
 30
0.0
 40
5.0
 50
91.500001000001546
 51
180.00001000000091
  0
ARC
  5
3C98
  8
AM_0
 10
373.30248694414092
 20
502.37384080842787
 30
0.0
 40
5.0
 50
91.500001000001546
 51
180.00001000000091
  0
ARC
  5
3C99
  8
AM_0
 10
325.30248694414092
 20
484.69397080842788
 30
0.0
 40
1.0
 50
268.50000000000063
 51
0.0000006832495047
  0
ARC
  5
3C9A
  8
AM_0
 10
323.30248694414092
 20
482.74566080842789
 30
0.0
 40
1.0
 50
88.499997000000647
 51
180.00001000000091
  0
CIRCLE
  5
3C9C
  8
AM_0
 10
373.3024269441409
 20
492.2446308084281
 30
0.0
 40
5.0
  0
ARC
  5
3C9D
  8
AM_0
 10
305.30248694414092
 20
485.21768080842787
 30
0.0
 40
5.0
 50
180.00001000000091
 51
268.50000000000063
  0
ARC
  5
3C9E
  8
AM_0
 10
378.30248694414109
 20
503.3026708084281
 30
0.0
 40
5.0
 50
0.0
 51
70.485339000001886
  0
ARC
  5
3C9F
  8
AM_0
 10
378.30248694414109
 20
486.18655080842802
 30
0.0
 40
5.0
 50
271.49999999999937
 51
0.0
  0
ARC
  5
3CA0
  8
AM_0
 10
323.30248694414092
 20
618.74426080842795
 30
0.0
 40
1.0
 50
91.500001000001546
 51
180.00001000000091
  0
ARC
  5
3CA1
  8
AM_0
 10
378.30248694414109
 20
588.98175080842816
 30
0.0
 40
3.0
 50
0.0
 51
88.499997000000647
  0
ARC
  5
3CA2
  8
AM_0
 10
324.30248694414092
 20
617.71774080842795
 30
0.0
 40
2.0
 50
0.0
 51
88.499997000000647
  0
ARC
  5
3CA3
  8
AM_0
 10
324.30248694414092
 20
611.71911080842813
 30
0.0
 40
2.0
 50
268.50000000000063
 51
0.0000006832495047
  0
ARC
  5
3CA4
  8
AM_0
 10
365.30248694414092
 20
598.56030080842811
 30
0.0
 40
3.0
 50
0.0
 51
88.499997000000647
  0
ARC
  5
3CA5
  8
AM_0
 10
361.30248694414109
 20
615.74853080842809
 30
0.0
 40
3.0
 50
88.499997000000647
 51
180.00001000000091
  0
ARC
  5
3CA6
  8
AM_0
 10
363.30248694414092
 20
606.61541080842812
 30
0.0
 40
5.0
 50
180.00001000000091
 51
268.50000000000063
  0
ARC
  5
3CA7
  8
AM_0
 10
373.30248694414092
 20
597.11541080842767
 30
0.0
 40
5.0
 50
180.00001000000091
 51
268.50000000000063
  0
ARC
  5
3CA8
  8
AM_0
 10
325.30248694414092
 20
614.79528080842795
 30
0.0
 40
1.0
 50
0.0
 51
91.500001000001546
  0
ARC
  5
3CA9
  8
AM_0
 10
323.30248694414092
 20
616.74359080842805
 30
0.0
 40
1.0
 50
180.00001000000091
 51
271.49999999999937
  0
CIRCLE
  5
3CAA
  8
AM_0
 10
373.3024269441409
 20
607.24463080842816
 30
0.0
 40
5.0
  0
ARC
  5
3CAB
  8
AM_0
 10
305.30248694414092
 20
614.27154080842797
 30
0.0
 40
5.0
 50
91.500001000001546
 51
180.00001000000091
  0
ARC
  5
3CAC
  8
AM_0
 10
378.30248694414109
 20
596.18655080842814
 30
0.0
 40
5.0
 50
289.51466999999838
 51
0.0
  0
ARC
  5
3CAD
  8
AM_0
 10
378.30248694414109
 20
613.30267080842805
 30
0.0
 40
5.0
 50
0.0
 51
88.499997000000647
  0
ARC
  5
3CAE
  8
AM_0
 10
416.30245694414111
 20
549.74463080842816
 30
0.0
 40
80.0
 50
148.90067999999621
 51
211.09930000000341
  0
ARC
  5
3CAF
  8
AM_0
 10
338.30248694414098
 20
503.650110808428
 30
0.0
 40
1.0
 50
269.999989999999
 51
0.0000006832495047
  0
ARC
  5
3CB0
  8
AM_0
 10
338.30248694414098
 20
497.8766108084281
 30
0.0
 40
1.0
 50
269.999989999999
 51
0.0000006832495047
  0
ARC
  5
3CB1
  8
AM_0
 10
338.30248694414098
 20
494.98987080842818
 30
0.0
 40
1.0
 50
269.999989999999
 51
0.0000006832495047
  0
ARC
  5
3CB2
  8
AM_0
 10
338.30248694414098
 20
501.65011080842788
 30
0.0
 40
1.0
 50
0.0
 51
90.000003000000945
  0
ARC
  5
3CB3
  8
AM_0
 10
338.30248694414098
 20
504.5368908084281
 30
0.0
 40
1.0
 50
0.0
 51
90.000003000000945
  0
ARC
  5
3CB4
  8
AM_0
 10
338.30248694414098
 20
495.87661080842793
 30
0.0
 40
1.0
 50
0.0
 51
90.000003000000945
  0
ARC
  5
3CB5
  8
AM_0
 10
338.30248694414098
 20
603.61261080842814
 30
0.0
 40
1.0
 50
269.999989999999
 51
0.0000006832495047
  0
ARC
  5
3CB6
  8
AM_0
 10
338.30248694414098
 20
594.95236080842812
 30
0.0
 40
1.0
 50
269.999989999999
 51
0.0000006832495047
  0
ARC
  5
3CB7
  8
AM_0
 10
338.30248694414098
 20
597.83911080842802
 30
0.0
 40
1.0
 50
269.999989999999
 51
0.0000006832495047
  0
ARC
  5
3CB8
  8
AM_0
 10
338.30248694414098
 20
604.49939080842785
 30
0.0
 40
1.0
 50
0.0
 51
90.000003000000945
  0
ARC
  5
3CB9
  8
AM_0
 10
338.30248694414098
 20
601.61264080842795
 30
0.0
 40
1.0
 50
0.0
 51
90.000003000000945
  0
ARC
  5
3CBA
  8
AM_0
 10
338.30248694414098
 20
595.83914080842806
 30
0.0
 40
1.0
 50
0.0
 51
90.000003000000945
  0
ARC
  5
3CBB
  8
AM_0
 10
310.3024269441413
 20
492.2446308084281
 30
0.0
 40
5.0
 50
216.1029699999965
 51
326.8970199999992
  0
ARC
  5
3CBD
  8
AM_0
 10
310.3024269441413
 20
607.24463080842816
 30
0.0
 40
5.0
 50
33.103112999998608
 51
143.89688000000311
  0
ARC
  5
3CBE
  8
AM_0
 10
348.26550694414101
 20
486.54721080842791
 30
0.0
 40
10.0
 50
91.500001000001546
 51
120.0000000000005
  0
ARC
  5
3CBF
  8
AM_0
 10
348.26550694414101
 20
612.94204080842815
 30
0.0
 40
10.0
 50
239.99999999999949
 51
268.50000000000063
  0
ARC
  5
3CC0
  8
AM_0
 10
331.50188694414112
 20
599.52649080842809
 30
0.0
 40
10.0
 50
60.000002000001302
 51
88.499997000000647
  0
ARC
  5
3CC1
  8
AM_0
 10
331.50188694414112
 20
499.96277080842799
 30
0.0
 40
10.0
 50
271.49999999999937
 51
300.00001000000083
  0
ARC
  5
3CC2
  8
AM_0
 10
289.80248694414092
 20
612.63952080842796
 30
0.0
 40
1.0
 50
0.0
 51
88.499997000000647
  0
ARC
  5
3CC3
  8
AM_0
 10
289.80248694414092
 20
486.84970080842788
 30
0.0
 40
1.0
 50
271.49999999999937
 51
0.0
  0
ARC
  5
3CC4
  8
AM_0
 10
297.92760694414102
 20
508.24432080842797
 30
0.0
 40
10.0
 50
270.0
 51
280.00001000000128
  0
ARC
  5
3CC5
  8
AM_0
 10
297.92760694414102
 20
591.24490080842816
 30
0.0
 40
10.0
 50
79.999998000001099
 51
90.000003000000945
  0
ARC
  5
3CC8
  8
AM_0
 10
129.30297694414099
 20
499.49511080842791
 30
0.0
 40
0.49952301
 50
359.9452300000014
 51
90.054773999999597
  0
ARC
  5
3CC9
  8
AM_0
 10
129.29913694414111
 20
501.64807080842792
 30
0.0
 40
0.5033929900000002
 50
270.38491000000062
 51
359.61509999999811
  0
ARC
  5
3CCA
  8
AM_0
 10
128.79839694414099
 20
504.24878080842802
 30
0.0
 40
1.004119999999999
 50
270.23460999999998
 51
359.76539000000002
  0
ARC
  5
3CCB
  8
AM_0
 10
128.80004694414129
 20
508.76709080842801
 30
0.0
 40
1.002470999999999
 50
270.14107000000013
 51
359.85892999999987
  0
ARC
  5
3CCC
  8
AM_0
 10
125.80126694414101
 20
503.86816080842817
 30
0.0
 40
0.9987969999999998
 50
179.62728000000101
 51
238.70795000000021
  0
ARC
  5
3CCD
  8
AM_0
 10
125.800226944141
 20
504.90588080842792
 30
0.0
 40
0.9977070099999998
 50
180.074020000004
 51
242.04481000000081
  0
ARC
  5
3CCE
  8
AM_0
 10
125.8015769441413
 20
508.46936080842818
 30
0.0
 40
0.9990889999999998
 50
179.6950899999965
 51
236.66209000000279
  0
ARC
  5
3CCF
  8
AM_0
 10
125.80096694414119
 20
509.503900808428
 30
0.0
 40
0.9984580299999999
 50
179.95957999999851
 51
239.38657000000219
  0
ARC
  5
3CD0
  8
AM_0
 10
127.0658569441412
 20
508.7656208084282
 30
0.0
 40
1.0010449999999991
 50
240.4718700000011
 51
270.37970999999948
  0
ARC
  5
3CD1
  8
AM_0
 10
127.09527694414101
 20
507.62512080842799
 30
0.0
 40
1.000521999999999
 50
237.1461799999995
 51
270.41344000000032
  0
ARC
  5
3CD2
  8
AM_0
 10
127.05767694414099
 20
504.24524080842798
 30
0.0
 40
1.0006820000000001
 50
241.65062000000191
 51
269.70392999999888
  0
ARC
  5
3CD3
  8
AM_0
 10
127.0738469441412
 20
503.10827080842819
 30
0.0
 40
1.0037439999999991
 50
239.37113000000019
 51
270.49190000000061
  0
ARC
  5
3CD4
  8
AM_0
 10
127.0483369441411
 20
502.14392080842788
 30
0.0
 40
0.9993420200000001
 50
242.86200000000241
 51
269.6654599999984
  0
ARC
  5
3CD5
  8
AM_0
 10
127.08318694414081
 20
500.9957208084279
 30
0.0
 40
1.001123999999999
 50
239.3278200000014
 51
269.38767999999868
  0
ARC
  5
3CD6
  8
AM_0
 10
125.7981569441413
 20
502.775020808428
 30
0.0
 40
0.9956849800000001
 50
180.02113
 51
243.4091400000006
  0
ARC
  5
3CD7
  8
AM_0
 10
125.80010694414101
 20
501.72924080842819
 30
0.0
 40
0.9976310099999999
 50
180.2678099999986
 51
240.07924000000099
  0
ARC
  5
3CD8
  8
AM_0
 10
125.80096694414119
 20
509.503900808428
 30
0.0
 40
0.9984580299999999
 50
179.95957999999851
 51
239.38657000000219
  0
ARC
  5
3CD9
  8
AM_0
 10
128.79925694414101
 20
508.77136080842791
 30
0.0
 40
1.0032760000000001
 50
334.19810000000479
 51
359.6181099999983
  0
ARC
  5
3CDA
  8
AM_0
 10
128.80267694414101
 20
532.74475080842785
 30
0.0
 40
0.9998210099999999
 50
359.98971999999799
 51
90.010282000001538
  0
ARC
  5
3CDB
  8
AM_0
 10
128.797546944141
 20
536.749510808428
 30
0.0
 40
1.004939
 50
270.2809399999997
 51
359.71907000000078
  0
ARC
  5
3CDC
  8
AM_0
 10
128.80267694414101
 20
542.74475080842808
 30
0.0
 40
0.9998279799999998
 50
359.99015999999688
 51
90.009838000000187
  0
ARC
  5
3CDD
  8
AM_0
 10
128.797546944141
 20
546.74951080842789
 30
0.0
 40
1.004942999999999
 50
270.28113999999943
 51
359.71886999999822
  0
ARC
  5
3CDE
  8
AM_0
 10
125.797546944141
 20
544.749510808428
 30
0.0
 40
0.9950770099999999
 50
89.715859999999481
 51
180.28414000000049
  0
ARC
  5
3CDF
  8
AM_0
 10
125.802676944141
 20
544.74487080842823
 30
0.0
 40
1.0002040000000001
 50
180.01165999999679
 51
269.98832000000078
  0
ARC
  5
3CE0
  8
AM_0
 10
125.797546944141
 20
534.749510808428
 30
0.0
 40
0.9950810099999999
 50
89.716072000000096
 51
180.2839200000044
  0
ARC
  5
3CE1
  8
AM_0
 10
125.802676944141
 20
534.744870808428
 30
0.0
 40
1.0001999999999991
 50
180.01145999999861
 51
269.98854000000142
  0
ARC
  5
3CE2
  8
AM_0
 10
125.797546944141
 20
524.74951080842789
 30
0.0
 40
0.9950849999999999
 50
89.716282999999393
 51
180.28371999999919
  0
ARC
  5
3CE3
  8
AM_0
 10
125.802676944141
 20
524.744870808428
 30
0.0
 40
1.0001959999999981
 50
180.01124999999939
 51
269.98875000000061
  0
ARC
  5
3CE4
  8
AM_0
 10
125.7990069441412
 20
515.5731208084278
 30
0.0
 40
0.9965090199999998
 50
179.9137499999965
 51
247.1784500000004
  0
ARC
  5
3CE5
  8
AM_0
 10
125.798886944141
 20
517.35901080842814
 30
0.0
 40
0.99638802
 50
180.24990999999889
 51
253.29664000000031
  0
ARC
  5
3CE6
  8
AM_0
 10
126.9430569441413
 20
517.00732080842795
 30
0.0
 40
1.002699
 50
253.7527199999989
 51
270.54064000000108
  0
ARC
  5
3CE7
  8
AM_0
 10
127.0054969441408
 20
515.05981080842821
 30
0.0
 40
1.005233
 50
246.98639000000031
 51
269.82924999999938
  0
ARC
  5
3CE8
  8
AM_0
 10
129.10302694414099
 20
513.35522080842793
 30
0.0
 40
0.6994530000000001
 50
359.95517000000092
 51
90.044829000000746
  0
ARC
  5
3CE9
  8
AM_0
 10
128.80267694414101
 20
522.74475080842808
 30
0.0
 40
0.9998239899999999
 50
359.98991999999532
 51
90.01007700000045
  0
ARC
  5
3CEA
  8
AM_0
 10
128.797546944141
 20
526.74951080842766
 30
0.0
 40
1.0049469
 50
270.2813699999993
 51
359.71863000000081
  0
ARC
  5
3CEB
  8
AM_0
 10
128.7991369441408
 20
517.007930808428
 30
0.0
 40
1.003352
 50
270.19111000000021
 51
359.80890000000107
  0
ARC
  5
3CEC
  8
AM_0
 10
129.297906944141
 20
599.99926080842795
 30
0.0
 40
0.50463498
 50
270.52383000000037
 51
359.47616999999963
  0
ARC
  5
3CED
  8
AM_0
 10
129.3041969441413
 20
597.84631080842814
 30
0.0
 40
0.4983060100000002
 50
359.80488999999778
 51
90.195107000000036
  0
ARC
  5
3CEE
  8
AM_0
 10
128.80346694414141
 20
595.24560080842809
 30
0.0
 40
0.9990100299999999
 50
359.94319000000121
 51
90.056809000000058
  0
ARC
  5
3CEF
  8
AM_0
 10
129.0979569441412
 20
586.13916080842796
 30
0.0
 40
0.704566
 50
270.37010000000009
 51
359.62990999999778
  0
ARC
  5
3CF0
  8
AM_0
 10
128.80016694414081
 20
590.73230080842814
 30
0.0
 40
1.002353
 50
0.1343268199984526
 51
89.865672999999347
  0
ARC
  5
3CF1
  8
AM_0
 10
128.80419694414121
 20
582.4863208084281
 30
0.0
 40
0.9982839799999999
 50
359.90142000000009
 51
90.098576000001358
  0
ARC
  5
3CF2
  8
AM_0
 10
128.797546944141
 20
576.74951080842811
 30
0.0
 40
1.004942999999999
 50
270.28111000000013
 51
359.71888999999987
  0
ARC
  5
3CF3
  8
AM_0
 10
128.80267694414101
 20
572.74475080842808
 30
0.0
 40
0.9998289899999999
 50
359.99019000000038
 51
90.009811000000937
  0
ARC
  5
3CF4
  8
AM_0
 10
128.797546944141
 20
566.74951080842789
 30
0.0
 40
1.004939
 50
270.2809100000008
 51
359.71909999999991
  0
ARC
  5
3CF5
  8
AM_0
 10
128.80267694414101
 20
562.74475080842785
 30
0.0
 40
0.9998210099999999
 50
359.98975000000149
 51
90.010254999998992
  0
ARC
  5
3CF6
  8
AM_0
 10
128.797546944141
 20
556.749510808428
 30
0.0
 40
1.0049469
 50
270.28135000000037
 51
359.71866000000068
  0
ARC
  5
3CF7
  8
AM_0
 10
128.80267694414101
 20
552.74475080842785
 30
0.0
 40
0.9998249999999999
 50
359.98994999999883
 51
90.010050000001243
  0
ARC
  5
3CF8
  8
AM_0
 10
125.802676944141
 20
554.74487080842823
 30
0.0
 40
1.0001959999999981
 50
180.0112199999958
 51
269.98878000000087
  0
ARC
  5
3CF9
  8
AM_0
 10
125.797546944141
 20
554.74951080842789
 30
0.0
 40
0.9950849999999999
 50
89.716311000000914
 51
180.28368999999961
  0
ARC
  5
3CFA
  8
AM_0
 10
125.802676944141
 20
564.74487080842812
 30
0.0
 40
1.0001999999999991
 50
180.01143000000161
 51
269.98856999999839
  0
ARC
  5
3CFB
  8
AM_0
 10
125.797546944141
 20
564.74951080842811
 30
0.0
 40
0.99508202
 50
89.716099000001435
 51
180.2839099999978
  0
ARC
  5
3CFC
  8
AM_0
 10
125.802676944141
 20
574.74487080842812
 30
0.0
 40
1.000203
 50
180.01164999999551
 51
269.98835000000122
  0
ARC
  5
3CFD
  8
AM_0
 10
125.797546944141
 20
574.74951080842789
 30
0.0
 40
0.99507803
 50
89.715887000001331
 51
180.28410999999991
  0
ARC
  5
3CFE
  8
AM_0
 10
125.798886944141
 20
583.92614080842793
 30
0.0
 40
0.9963999999999998
 50
112.8173600000008
 51
180.0904199999996
  0
ARC
  5
3CFF
  8
AM_0
 10
125.79876694414121
 20
582.14038080842795
 30
0.0
 40
0.9962710099999999
 50
106.6979199999999
 51
180.33004999999989
  0
ARC
  5
3D00
  8
AM_0
 10
126.9416469441408
 20
582.49194080842813
 30
0.0
 40
0.9927430199999999
 50
89.374554999998736
 51
106.33207000000171
  0
ARC
  5
3D01
  8
AM_0
 10
127.0034769441411
 20
584.43921080842813
 30
0.0
 40
0.9954450099999999
 50
90.056904999999645
 51
113.12745
  0
ARC
  5
3D02
  8
AM_0
 10
125.7969369441408
 20
595.62365080842801
 30
0.0
 40
0.9944329899999999
 50
121.1521299999998
 51
179.94050999999911
  0
ARC
  5
3D03
  8
AM_0
 10
125.7957169441412
 20
594.5860608084281
 30
0.0
 40
0.9932109699999999
 50
117.7993199999991
 51
180.08187000000001
  0
ARC
  5
3D04
  8
AM_0
 10
125.79729694414119
 20
591.0222108084281
 30
0.0
 40
0.9948369899999999
 50
123.2049600000028
 51
180.43785999999801
  0
ARC
  5
3D05
  8
AM_0
 10
125.796506944141
 20
589.98779080842814
 30
0.0
 40
0.99404597
 50
120.46820000000049
 51
180.18564000000021
  0
ARC
  5
3D06
  8
AM_0
 10
127.081906944141
 20
590.73816080842812
 30
0.0
 40
0.99648702
 50
90.540720999998626
 51
120.74377000000059
  0
ARC
  5
3D07
  8
AM_0
 10
127.109126944141
 20
591.87841080842793
 30
0.0
 40
0.99617702
 50
90.381317999999226
 51
123.9704899999999
  0
ARC
  5
3D08
  8
AM_0
 10
127.037596944141
 20
595.24926080842806
 30
0.0
 40
0.99545902
 50
89.141290999999924
 51
117.2038199999995
  0
ARC
  5
3D09
  8
AM_0
 10
127.071346944141
 20
596.39038080842795
 30
0.0
 40
0.99427301
 50
89.356066000000013
 51
120.7809100000017
  0
ARC
  5
3D0A
  8
AM_0
 10
127.027286944141
 20
597.35058080842805
 30
0.0
 40
0.99411702
 50
89.122643999998516
 51
115.93498000000019
  0
ARC
  5
3D0B
  8
AM_0
 10
127.0645169441412
 20
598.49878080842814
 30
0.0
 40
0.9959030199999999
 50
89.541266999999124
 51
119.6071699999994
  0
ARC
  5
3D0C
  8
AM_0
 10
125.7980969441408
 20
596.72436080842795
 30
0.0
 40
0.995579
 50
116.5870900000007
 51
179.98263999999989
  0
ARC
  5
3D0D
  8
AM_0
 10
125.7957169441412
 20
597.76257080842811
 30
0.0
 40
0.99319202
 50
119.77338
 51
179.87958999999799
  0
ARC
  5
3D0E
  8
AM_0
 10
142.943296944141
 20
508.53430080842787
 30
0.0
 40
1.0032491999999991
 50
314.98118999999758
 51
5.167643400001003
  0
ARC
  5
3D0F
  8
AM_0
 10
277.80230694414098
 20
612.24487080842812
 30
0.0
 40
0.99980682
 50
89.98893100000069
 51
180.0110699999974
  0
ARC
  5
3D10
  8
AM_0
 10
269.60375694414103
 20
489.89087080842819
 30
0.0
 40
2.0062942999999991
 50
270.24932999999891
 51
345.08844000000403
  0
ARC
  5
3D11
  8
AM_0
 10
277.801576944141
 20
600.78552080842815
 30
0.0
 40
0.9990923399999999
 50
89.947921999999295
 51
180.05208000000431
  0
ARC
  5
3D12
  8
AM_0
 10
151.795286944141
 20
554.74463080842816
 30
0.0
 40
1.0000259
 50
89.587534000000232
 51
270.4124599999987
  0
ARC
  5
3D13
  8
AM_0
 10
143.76196694414099
 20
600.73938080842788
 30
0.0
 40
1.9952742999999991
 50
90.148580000000095
 51
170.03521999999899
  0
ARC
  5
3D14
  8
AM_0
 10
143.69982694414099
 20
606.0175708084281
 30
0.0
 40
1.997119399999999
 50
89.801366999998493
 51
167.94475999999821
  0
ARC
  5
3D15
  8
AM_0
 10
139.31933694414101
 20
602.2869808084281
 30
0.0
 40
1.502416299999999
 50
269.90137999999882
 51
347.60813000000093
  0
ARC
  5
3D16
  8
AM_0
 10
135.93273694414111
 20
609.42236080842792
 30
0.0
 40
1.9922863
 50
90.007721000000544
 51
166.8783899999971
  0
ARC
  5
3D17
  8
AM_0
 10
131.6077269441414
 20
606.34948080842787
 30
0.0
 40
1.5048382
 50
270.18264000000067
 51
346.75308000000138
  0
ARC
  5
3D18
  8
AM_0
 10
131.62206694414121
 20
608.36999080842816
 30
0.0
 40
1.505448699999999
 50
270.39686999999992
 51
345.95247000000012
  0
ARC
  5
3D19
  8
AM_0
 10
135.90734694414121
 20
611.05005080842795
 30
0.0
 40
1.994612099999999
 50
89.851991999999015
 51
165.93885999999711
  0
ARC
  5
3D1A
  8
AM_0
 10
152.79577694414101
 20
609.6113208084281
 30
0.0
 40
1.9933081999999991
 50
89.807323000000935
 51
180.19266999999849
  0
ARC
  5
3D1B
  8
AM_0
 10
152.796626944141
 20
611.6405008084281
 30
0.0
 40
1.994130499999996
 50
89.831105999999224
 51
180.16889000000049
  0
ARC
  5
3D1C
  8
AM_0
 10
152.79900694414121
 20
612.99817080842797
 30
0.0
 40
1.996488899999999
 50
89.899147999998391
 51
180.10084999999879
  0
ARC
  5
3D1D
  8
AM_0
 10
152.79626694414131
 20
613.66809080842813
 30
0.0
 40
1.9964978999999961
 50
89.821482000000245
 51
165.6006099999997
  0
ARC
  5
3D1E
  8
AM_0
 10
149.29876694414111
 20
604.23840080842797
 30
0.0
 40
1.5037541000000001
 50
270.14287000000093
 51
359.85713999999848
  0
ARC
  5
3D1F
  8
AM_0
 10
149.29760694414111
 20
609.51953080842793
 30
0.0
 40
1.504891299999997
 50
270.1859300000005
 51
359.81406999999621
  0
ARC
  5
3D20
  8
AM_0
 10
149.29559694414101
 20
612.92151080842814
 30
0.0
 40
1.506942899999999
 50
270.2633699999991
 51
359.73663000000079
  0
ARC
  5
3D21
  8
AM_0
 10
149.4074069441412
 20
614.54980080842802
 30
0.0
 40
1.505230099999999
 50
270.19421
 51
345.17177999999871
  0
ARC
  5
3D22
  8
AM_0
 10
276.45263694414098
 20
597.59692080842797
 30
0.0
 40
1.5022733999999991
 50
195.1365099999966
 51
269.99412000000041
  0
ARC
  5
3D23
  8
AM_0
 10
269.61193694414112
 20
609.60547080842809
 30
0.0
 40
1.9991226
 50
15.05079100000003
 51
89.984388999999666
  0
ARC
  5
3D24
  8
AM_0
 10
277.79546694414103
 20
487.23767080842811
 30
0.0
 40
0.99304521
 50
179.5973099999994
 51
270.40268000000009
  0
ARC
  5
3D25
  8
AM_0
 10
277.79479694414101
 20
498.69702080842791
 30
0.0
 40
0.99237448
 50
179.55801999999801
 51
270.4419699999998
  0
ARC
  5
3D26
  8
AM_0
 10
276.5081769441411
 20
602.28491080842798
 30
0.0
 40
1.500286
 50
192.32631000000171
 51
270.16416999999848
  0
ARC
  5
3D27
  8
AM_0
 10
138.958066944141
 20
591.33886080842808
 30
0.0
 40
5.0059714
 50
279.71098000000171
 51
354.67888000000482
  0
ARC
  5
3D28
  8
AM_0
 10
139.42345694414081
 20
587.412110808428
 30
0.0
 40
6.0044340999999992
 50
45.225578000001079
 51
86.380821999999384
  0
ARC
  5
3D29
  8
AM_0
 10
142.944456944141
 20
590.96533080842812
 30
0.0
 40
1.002184699999999
 50
354.8038600000034
 51
45.047306999998277
  0
ARC
  5
3D2A
  8
AM_0
 10
139.422176944141
 20
512.08996080842792
 30
0.0
 40
6.0073843
 50
273.6297400000006
 51
314.76385000000192
  0
ARC
  5
3D2B
  8
AM_0
 10
138.965326944141
 20
508.15612080842823
 30
0.0
 40
4.9991421999999961
 50
5.3780268999992682
 51
80.360064999999054
  0
ARC
  5
3D2C
  8
AM_0
 10
135.9393269441413
 20
490.07519080842798
 30
0.0
 40
2.0005671999999981
 50
193.3095900000024
 51
269.80430999999942
  0
ARC
  5
3D2D
  8
AM_0
 10
131.61572694414079
 20
493.14697080842791
 30
0.0
 40
1.497715799999999
 50
13.424378999996071
 51
90.122645000001114
  0
ARC
  5
3D2E
  8
AM_0
 10
131.63018694414109
 20
491.12634080842798
 30
0.0
 40
1.4982997
 50
14.229739999998021
 51
89.910950000001222
  0
ARC
  5
3D2F
  8
AM_0
 10
152.802546944141
 20
489.884640808428
 30
0.0
 40
2.0000371999999991
 50
180.0010599999959
 51
269.99892999999969
  0
ARC
  5
3D30
  8
AM_0
 10
152.80340694414079
 20
487.85559080842802
 30
0.0
 40
2.0009109999999981
 50
180.00001000000091
 51
269.97390999999988
  0
ARC
  5
3D31
  8
AM_0
 10
149.30053694414099
 20
495.26269080842798
 30
0.0
 40
1.501982699999999
 50
0.0755872020005832
 51
89.924413000001564
  0
ARC
  5
3D32
  8
AM_0
 10
149.2993769441413
 20
489.98144080842798
 30
0.0
 40
1.503128599999999
 50
0.1191296500022061
 51
89.880869999998822
  0
ARC
  5
3D33
  8
AM_0
 10
276.44610694414098
 20
501.90088080842793
 30
0.0
 40
1.4937901
 50
89.756423999998432
 51
165.1129200000008
  0
ARC
  5
3D34
  8
AM_0
 10
151.795286944141
 20
564.74463080842816
 30
0.0
 40
1.0000259
 50
89.587534000000232
 51
270.4124599999987
  0
ARC
  5
3D35
  8
AM_0
 10
151.795286944141
 20
574.74463080842816
 30
0.0
 40
1.0000259
 50
89.587534000000232
 51
270.4124599999987
  0
ARC
  5
3D36
  8
AM_0
 10
151.795286944141
 20
584.74463080842816
 30
0.0
 40
1.0000259
 50
89.587534000000232
 51
270.4124599999987
  0
ARC
  5
3D37
  8
AM_0
 10
134.06426694414111
 20
554.75464080842789
 30
0.0
 40
1.2700266
 50
89.629327999999504
 51
270.37065999999959
  0
ARC
  5
3D38
  8
AM_0
 10
134.12621694414119
 20
564.75964080842812
 30
0.0
 40
1.3350147999999991
 50
89.730435000000341
 51
270.2695700000001
  0
ARC
  5
3D39
  8
AM_0
 10
143.256776944141
 20
574.77466080842805
 30
0.0
 40
1.460011199999999
 50
89.775248000001227
 51
270.22474000000028
  0
ARC
  5
3D3A
  8
AM_0
 10
143.47247694414111
 20
584.79467080842801
 30
0.0
 40
1.6800002000000001
 50
90.000003000000945
 51
270.0
  0
ARC
  5
3D3B
  8
AM_0
 10
135.35247694414099
 20
554.74463080842816
 30
0.0
 40
1.0000056999999991
 50
90.000003000000945
 51
270.0
  0
ARC
  5
3D3C
  8
AM_0
 10
135.35247694414099
 20
564.74463080842816
 30
0.0
 40
1.0000056999999991
 50
90.000003000000945
 51
270.0
  0
ARC
  5
3D3D
  8
AM_0
 10
144.3453369441408
 20
584.74463080842816
 30
0.0
 40
1.0000255999999981
 50
89.589474000000749
 51
270.41051999999962
  0
ARC
  5
3D3E
  8
AM_0
 10
144.3453369441408
 20
574.74463080842816
 30
0.0
 40
1.0000255999999981
 50
89.589474000000749
 51
270.41051999999962
  0
ARC
  5
3D3F
  8
AM_0
 10
273.62249694414112
 20
584.79467080842801
 30
0.0
 40
1.6800077
 50
269.999989999999
 51
90.000003000000945
  0
ARC
  5
3D40
  8
AM_0
 10
270.14245694414097
 20
584.74463080842816
 30
0.0
 40
1.0000040999999991
 50
269.999989999999
 51
90.000003000000945
  0
ARC
  5
3D41
  8
AM_0
 10
270.14245694414097
 20
514.74463080842793
 30
0.0
 40
1.0000040999999991
 50
269.999989999999
 51
90.000003000000945
  0
ARC
  5
3D42
  8
AM_0
 10
273.62249694414112
 20
514.70459080842795
 30
0.0
 40
1.6800077
 50
269.999989999999
 51
90.000003000000945
  0
ARC
  5
3D43
  8
AM_0
 10
135.35247694414099
 20
544.74463080842816
 30
0.0
 40
1.0000056999999991
 50
90.000003000000945
 51
270.0
  0
ARC
  5
3D44
  8
AM_0
 10
151.795286944141
 20
534.74463080842816
 30
0.0
 40
1.0000259
 50
89.587534000000232
 51
270.4124599999987
  0
ARC
  5
3D45
  8
AM_0
 10
151.795286944141
 20
524.74463080842793
 30
0.0
 40
1.0000259
 50
89.587534000000232
 51
270.4124599999987
  0
ARC
  5
3D46
  8
AM_0
 10
134.12621694414119
 20
534.73462080842819
 30
0.0
 40
1.3300148000000001
 50
89.729417999999583
 51
270.27058999999991
  0
ARC
  5
3D47
  8
AM_0
 10
151.795286944141
 20
544.74463080842816
 30
0.0
 40
1.0000259
 50
89.587534000000232
 51
270.4124599999987
  0
ARC
  5
3D48
  8
AM_0
 10
151.795286944141
 20
514.74463080842793
 30
0.0
 40
1.0000259
 50
89.587534000000232
 51
270.4124599999987
  0
ARC
  5
3D49
  8
AM_0
 10
134.06426694414111
 20
544.74463080842816
 30
0.0
 40
1.2700266
 50
89.629320999999507
 51
270.3706899999986
  0
ARC
  5
3D4A
  8
AM_0
 10
135.35247694414099
 20
534.74463080842816
 30
0.0
 40
1.0000056999999991
 50
90.000003000000945
 51
270.0
  0
ARC
  5
3D4B
  8
AM_0
 10
139.53564694414101
 20
597.00464080842801
 30
0.0
 40
1.5
 50
280.24789000000129
 51
349.76261999999917
  0
ARC
  5
3D4C
  8
AM_0
 10
139.53564694414101
 20
502.48462080842819
 30
0.0
 40
1.5
 50
10.237378999998541
 51
79.752109999998723
  0
ARC
  5
3D4D
  8
AM_0
 10
143.76196694414099
 20
498.749870808428
 30
0.0
 40
1.9952742999999991
 50
189.9647800000009
 51
269.85141999999991
  0
ARC
  5
3D4E
  8
AM_0
 10
139.31933694414101
 20
497.20227080842801
 30
0.0
 40
1.502416299999999
 50
12.391887000000411
 51
90.098616999999123
  0
ARC
  5
3D4F
  8
AM_0
 10
143.69982694414099
 20
493.47168080842818
 30
0.0
 40
1.997119399999999
 50
192.0552400000017
 51
270.1986299999989
  0
ARC
  5
3D50
  8
AM_0
 10
143.47247694414111
 20
514.69458080842799
 30
0.0
 40
1.6800002000000001
 50
90.000003000000945
 51
270.0
  0
ARC
  5
3D51
  8
AM_0
 10
144.3453369441408
 20
514.74463080842793
 30
0.0
 40
1.0000255999999981
 50
89.589474000000749
 51
270.41051999999962
  0
ARC
  5
3D52
  8
AM_0
 10
144.3453369441408
 20
524.74463080842793
 30
0.0
 40
1.0000255999999981
 50
89.589474000000749
 51
270.41051999999962
  0
ARC
  5
3D53
  8
AM_0
 10
143.256776944141
 20
524.7146008084278
 30
0.0
 40
1.460011199999999
 50
89.775248000001227
 51
270.22474000000028
  0
ARC
  5
3D54
  8
AM_0
 10
194.128846944141
 20
484.35461080842799
 30
0.0
 40
1.5
 50
1.5000027000022329
 51
90.000003000000945
  0
ARC
  5
3D55
  8
AM_0
 10
268.81866694414111
 20
481.24463080842798
 30
0.0
 40
1.5
 50
269.999989999999
 51
326.99999999999892
  0
ARC
  5
3D56
  8
AM_0
 10
257.31609694414118
 20
478.24463080842798
 30
0.0
 40
1.5
 50
90.000003000000945
 51
178.4999999999973
  0
ARC
  5
3D57
  8
AM_0
 10
271.32244694414112
 20
612.134640808428
 30
0.0
 40
1.5
 50
12.12979199999535
 51
90.000003000000945
  0
ARC
  5
3D58
  8
AM_0
 10
271.03014694414111
 20
613.49463080842816
 30
0.0
 40
1.5
 50
12.12979199999535
 51
90.000003000000945
  0
ARC
  5
3D59
  8
AM_0
 10
270.88610694414109
 20
614.16467080842813
 30
0.0
 40
1.5
 50
12.12979199999535
 51
90.000003000000945
  0
ARC
  5
3D5A
  8
AM_0
 10
273.84246694414099
 20
524.7146008084278
 30
0.0
 40
1.460011199999999
 50
269.77524999999991
 51
90.224750000000085
  0
ARC
  5
3D5B
  8
AM_0
 10
270.14245694414097
 20
524.74463080842793
 30
0.0
 40
1.0000255999999981
 50
269.58947000000001
 51
90.410531000001029
  0
ARC
  5
3D5C
  8
AM_0
 10
273.84246694414099
 20
574.77466080842805
 30
0.0
 40
1.460011199999999
 50
269.77524999999991
 51
90.224750000000085
  0
ARC
  5
3D5D
  8
AM_0
 10
270.14245694414097
 20
574.74463080842816
 30
0.0
 40
1.0000255999999981
 50
269.58947000000001
 51
90.410531000001029
  0
ARC
  5
3D5E
  8
AM_0
 10
206.46746694414091
 20
564.75964080842812
 30
0.0
 40
1.3350147999999991
 50
269.7304299999999
 51
90.269556000001344
  0
ARC
  5
3D5F
  8
AM_0
 10
205.2412069441412
 20
564.74463080842816
 30
0.0
 40
1.0000056999999991
 50
269.999989999999
 51
90.000003000000945
  0
ARC
  5
3D60
  8
AM_0
 10
205.2412069441412
 20
554.74463080842816
 30
0.0
 40
1.0000056999999991
 50
269.999989999999
 51
90.000003000000945
  0
ARC
  5
3D61
  8
AM_0
 10
206.5294169441411
 20
554.75464080842789
 30
0.0
 40
1.2700266
 50
269.62931999999989
 51
90.370670000001468
  0
ARC
  5
3D62
  8
AM_0
 10
205.2412069441412
 20
544.74463080842816
 30
0.0
 40
1.0000056999999991
 50
269.999989999999
 51
90.000003000000945
  0
ARC
  5
3D63
  8
AM_0
 10
206.5294169441411
 20
544.74463080842816
 30
0.0
 40
1.2700266
 50
269.62931999999989
 51
90.370670000001468
  0
ARC
  5
3D64
  8
AM_0
 10
205.2412069441412
 20
534.74463080842816
 30
0.0
 40
1.0000056999999991
 50
269.999989999999
 51
90.000003000000945
  0
ARC
  5
3D65
  8
AM_0
 10
206.46746694414091
 20
534.73462080842819
 30
0.0
 40
1.3300148000000001
 50
269.7294199999987
 51
90.270567000000995
  0
ARC
  5
3D66
  8
AM_0
 10
255.80248694414101
 20
522.24463080842793
 30
0.0
 40
1.5
 50
90.000003000000945
 51
180.00001000000091
  0
ARC
  5
3D67
  8
AM_0
 10
255.80248694414101
 20
517.24463080842816
 30
0.0
 40
1.5
 50
179.999989999999
 51
270.0
  0
ARC
  5
3D68
  8
AM_0
 10
237.80248694414101
 20
522.24463080842793
 30
0.0
 40
1.5
 50
0.0
 51
90.000003000000945
  0
ARC
  5
3D69
  8
AM_0
 10
237.80248694414101
 20
517.24463080842816
 30
0.0
 40
1.5
 50
269.999989999999
 51
0.0000006832495047
  0
ARC
  5
3D6A
  8
AM_0
 10
255.80248694414101
 20
522.24463080842793
 30
0.0
 40
1.02
 50
90.000003000000945
 51
180.00001000000091
  0
ARC
  5
3D6B
  8
AM_0
 10
237.80248694414101
 20
522.24463080842793
 30
0.0
 40
1.02
 50
0.0
 51
90.000003000000945
  0
ARC
  5
3D6C
  8
AM_0
 10
237.82244694414109
 20
517.38464080842823
 30
0.0
 40
1.0
 50
269.999989999999
 51
0.0000006832495047
  0
ARC
  5
3D6D
  8
AM_0
 10
255.78246694414091
 20
517.38464080842823
 30
0.0
 40
1.0
 50
179.999989999999
 51
270.0
  0
CIRCLE
  5
3D6E
  8
AM_0
 10
244.30248694414101
 20
521.24463080842816
 30
0.0
 40
1.1000000000000001
  0
CIRCLE
  5
3D6F
  8
AM_0
 10
244.30248694414101
 20
521.24463080842816
 30
0.0
 40
1.149999999999999
  0
CIRCLE
  5
3D70
  8
AM_0
 10
249.30248694414101
 20
521.24463080842816
 30
0.0
 40
1.0
  0
ARC
  5
3D71
  8
AM_0
 10
255.80248694414101
 20
577.24463080842816
 30
0.0
 40
1.5
 50
179.999989999999
 51
270.0
  0
ARC
  5
3D72
  8
AM_0
 10
255.80248694414101
 20
582.24463080842816
 30
0.0
 40
1.5
 50
90.000003000000945
 51
180.00001000000091
  0
ARC
  5
3D73
  8
AM_0
 10
237.80248694414101
 20
577.24463080842816
 30
0.0
 40
1.5
 50
269.999989999999
 51
0.0000006832495047
  0
ARC
  5
3D74
  8
AM_0
 10
237.80248694414101
 20
582.24463080842816
 30
0.0
 40
1.5
 50
0.0
 51
90.000003000000945
  0
ARC
  5
3D75
  8
AM_0
 10
255.80248694414101
 20
577.24463080842816
 30
0.0
 40
1.02
 50
179.999989999999
 51
270.0
  0
ARC
  5
3D76
  8
AM_0
 10
237.80248694414101
 20
577.24463080842816
 30
0.0
 40
1.02
 50
269.999989999999
 51
0.0000006832429909
  0
ARC
  5
3D77
  8
AM_0
 10
237.82244694414109
 20
582.10461080842811
 30
0.0
 40
1.0
 50
0.0
 51
90.000003000000945
  0
ARC
  5
3D78
  8
AM_0
 10
255.78246694414091
 20
582.10461080842811
 30
0.0
 40
1.0
 50
90.000003000000945
 51
180.00001000000091
  0
CIRCLE
  5
3D79
  8
AM_0
 10
249.30248694414101
 20
578.24463080842816
 30
0.0
 40
1.0
  0
CIRCLE
  5
3D7A
  8
AM_0
 10
244.30248694414101
 20
578.24463080842816
 30
0.0
 40
1.149999999999999
  0
CIRCLE
  5
3D7B
  8
AM_0
 10
244.30248694414101
 20
578.24463080842816
 30
0.0
 40
1.1000000000000001
  0
ARC
  5
3D7C
  8
AM_0
 10
135.503116944141
 20
490.07458080842798
 30
0.0
 40
2.0
 50
194.15074999999919
 51
269.999989999999
  0
ARC
  5
3D7D
  8
AM_0
 10
149.5452269441414
 20
486.57458080842792
 30
0.0
 40
1.5
 50
21.46170899999715
 51
90.000003000000945
  0
LINE
  5
3D99
  8
ﾁｭｳｼﾝｾﾝ1
 10
363.30245694414123
 20
607.24466080842797
 30
0.0
 11
383.30245694414123
 21
607.24466080842797
 31
0.0
  0
LINE
  5
3D9A
  8
ﾁｭｳｼﾝｾﾝ1
 10
373.30245694414123
 20
617.24466080842797
 30
0.0
 11
373.30245694414123
 21
597.24466080842808
 31
0.0
  0
LINE
  5
3D9B
  8
ﾁｭｳｼﾝｾﾝ1
 10
363.30245694414123
 20
492.2446308084281
 30
0.0
 11
383.30245694414123
 21
492.2446308084281
 31
0.0
  0
LINE
  5
3D9C
  8
ﾁｭｳｼﾝｾﾝ1
 10
373.30245694414123
 20
502.24463080842821
 30
0.0
 11
373.30245694414123
 21
482.24463080842798
 31
0.0
  0
LINE
  5
3D9D
  8
ﾁｭｳｼﾝｾﾝ1
 10
300.30245694414123
 20
492.2446308084281
 30
0.0
 11
320.3024569441414
 21
492.2446308084281
 31
0.0
  0
LINE
  5
3D9E
  8
ﾁｭｳｼﾝｾﾝ1
 10
310.3024569441414
 20
502.24463080842821
 30
0.0
 11
310.3024569441414
 21
482.24463080842798
 31
0.0
  0
LINE
  5
3D9F
  8
ﾁｭｳｼﾝｾﾝ1
 10
300.30245694414123
 20
607.24466080842797
 30
0.0
 11
320.3024569441414
 21
607.24466080842797
 31
0.0
  0
LINE
  5
3DA0
  8
ﾁｭｳｼﾝｾﾝ1
 10
310.3024569441414
 20
617.24466080842797
 30
0.0
 11
310.3024569441414
 21
597.24466080842808
 31
0.0
  0
ARC
  5
3DA1
  8
AM_0
 10
382.30246694414132
 20
528.71810780842793
 30
0.0
 40
1.0000000199999981
 50
90.001718873355244
 51
180.00001000000091
  0
ARC
  5
3DA2
  8
AM_0
 10
382.30246694414132
 20
570.77117480842776
 30
0.0
 40
1.0000000199999981
 50
179.999989999999
 51
269.99828112664488
  0
LINE
  5
3DA3
  8
AM_0
 10
385.30243694414122
 20
574.24466080842785
 30
0.0
 11
389.30243694414122
 21
570.24466080842831
 31
0.0
  0
LINE
  5
3DA4
  8
AM_0
 10
382.80243694414122
 20
574.24466080842785
 30
0.0
 11
385.30243694414122
 21
574.24466080842785
 31
0.0
  0
LINE
  5
3DA5
  8
AM_0
 10
382.30243694414122
 20
573.74466080842797
 30
0.0
 11
382.30243694414122
 21
525.74466080842785
 31
0.0
  0
LINE
  5
3DA6
  8
AM_0
 10
389.30243694414122
 20
570.24466080842831
 30
0.0
 11
389.30243694414179
 21
529.24466080842785
 31
0.0
  0
LINE
  5
3DA7
  8
AM_0
 10
385.30243694414122
 20
525.24466080842785
 30
0.0
 11
389.30243694414122
 21
529.24466080842785
 31
0.0
  0
LINE
  5
3DA8
  8
AM_0
 10
382.80243694414122
 20
525.24466080842785
 30
0.0
 11
385.30243694414122
 21
525.24466080842819
 31
0.0
  0
LINE
  5
3DA9
  8
AM_0
 10
382.30243694414122
 20
573.74466080842797
 30
0.0
 11
382.80243694414122
 21
574.24466080842785
 31
0.0
1001
GENIUS_GENFIL_13
1070
     0
1040
0.5
1040
0.5
1040
20.0
1040
0.0
1002
{
1002
}
1001
GENIUS_GENOBJ-N-CHA_13
1002
{
1000
OWNER
1000
GEN
1002
}
1001
GENIUS_GENODEF_13
1002
{
1000
HIER
1070
     0
1002
}
1002
{
1000
MANEDIT
1070
     0
1002
}
1002
{
1000
NOSEL
1070
     0
1002
}
1002
{
1000
BEHIND
1070
     0
1002
}
1002
{
1000
OTHER
1070
     0
1002
}
1002
{
1000
REACTOR
1002
}
  0
LINE
  5
3DAA
  8
AM_0
 10
382.30243694414122
 20
525.74466080842785
 30
0.0
 11
382.80243694414122
 21
525.24466080842785
 31
0.0
1001
GENIUS_GENFIL_13
1070
     0
1040
0.5
1040
0.5
1040
20.0
1040
0.0
1002
{
1002
}
1001
GENIUS_GENODEF_13
1002
{
1000
HIER
1070
     0
1002
}
1002
{
1000
MANEDIT
1070
     0
1002
}
1002
{
1000
NOSEL
1070
     0
1002
}
1002
{
1000
BEHIND
1070
     0
1002
}
1002
{
1000
OTHER
1070
     0
1002
}
1002
{
1000
REACTOR
1002
}
1001
GENIUS_GENOBJ-N-CHA_13
1002
{
1000
OWNER
1000
GEN
1002
}
  0
LINE
  5
3DAB
  8
AM_0
 10
385.30243694414122
 20
574.24466080842785
 30
0.0
 11
385.30243694414122
 21
525.24466080842819
 31
0.0
  0
ARC
  5
3DAD
  8
AM_0
 10
391.3024269441409
 20
549.74463080842816
 30
0.0
 40
3.0
 50
228.18994133823679
 51
270.01398999999998
  0
LINE
  5
4077
  8
AM_0
 10
255.82863679318189
 20
475.74463080842821
 30
0.0
 11
256.1465627468761
 21
487.88464080842817
 31
0.0
  0
LINE
  5
4078
  8
AM_0
 10
195.7762047979412
 20
475.74463080842821
 30
0.0
 11
195.45836281651069
 21
487.88464080842817
 31
0.0
  0
LINE
  5
4079
  8
AM_0
 10
192.3024469441412
 20
473.7446308084281
 30
0.0
 11
259.30244694414131
 21
473.7446308084281
 31
0.0
  0
LINE
  5
407A
  8
AM_0
 10
192.3024469441412
 20
472.74463080842821
 30
0.0
 11
192.3024469441412
 21
473.7446308084281
 31
0.0
  0
LINE
  5
407B
  8
AM_0
 10
259.30244694414131
 20
472.74463080842821
 30
0.0
 11
259.30244694414131
 21
473.7446308084281
 31
0.0
  0
LINE
  5
407C
  8
AM_0
 10
177.8024469441412
 20
434.7446308084281
 30
0.0
 11
179.06203208040361
 21
470.81442980183311
 31
0.0
  0
LINE
  5
407D
  8
AM_0
 10
181.06081373444181
 20
472.74463080842821
 30
0.0
 11
270.54408015384092
 21
472.74463080842821
 31
0.0
  0
ARC
  5
407E
  8
AM_0
 10
181.06081373444181
 20
470.74463080842821
 30
0.0
 40
2.0
 50
90.0
 51
178.00000000000281
1001
GENIUS_GENODEF_13
1002
{
1000
HIER
1070
     0
1002
}
1002
{
1000
MANEDIT
1070
     0
1002
}
1002
{
1000
NOSEL
1070
     0
1002
}
1002
{
1000
BEHIND
1070
     0
1002
}
1002
{
1000
OTHER
1070
     0
1002
}
1002
{
1000
REACTOR
1002
}
1001
GENIUS_GENOBJ-N-FIL_13
1002
{
1000
OWNER
1000
GEN
1002
}
  0
LINE
  5
407F
  8
AM_0
 10
272.54286180787921
 20
470.81442980183311
 30
0.0
 11
273.80244694414148
 21
434.74463080842821
 31
0.0
  0
ARC
  5
4080
  8
AM_0
 10
270.54408015384092
 20
470.74463080842821
 30
0.0
 40
2.0
 50
1.9999999999971581
 51
90.0
1001
GENIUS_GENOBJ-N-FIL_13
1002
{
1000
OWNER
1000
GEN
1002
}
1001
GENIUS_GENODEF_13
1002
{
1000
HIER
1070
     0
1002
}
1002
{
1000
MANEDIT
1070
     0
1002
}
1002
{
1000
NOSEL
1070
     0
1002
}
1002
{
1000
BEHIND
1070
     0
1002
}
1002
{
1000
OTHER
1070
     0
1002
}
1002
{
1000
REACTOR
1002
}
  0
LINE
  5
4081
  8
AM_0
 10
273.80244694414148
 20
434.74463080842821
 30
0.0
 11
177.802446944141
 21
434.7446308084281
 31
0.0
  0
LINE
  5
4082
  8
AM_0
 10
177.9072092526165
 20
437.74463080842793
 30
0.0
 11
176.8024469441412
 21
437.74463080842793
 31
0.0
  0
LINE
  5
4083
  8
AM_0
 10
179.02467387635241
 20
469.74463080842798
 30
0.0
 11
176.8024469441412
 21
469.74463080842798
 31
0.0
  0
LINE
  5
4084
  8
ﾁｭｳｼﾝｾﾝ1
 10
182.80244694414191
 20
424.479923308428
 30
0.0
 11
182.80244694414199
 21
437.47992330842811
 31
0.0
  0
LINE
  5
4085
  8
ﾁｭｳｼﾝｾﾝ
 10
225.80244694414131
 20
480.03666148165718
 30
0.0
 11
225.80244694414131
 21
422.29410816761879
 31
0.0
  0
LINE
  5
4086
  8
AM_0
 10
174.3024469441412
 20
440.24463080842798
 30
0.0
 11
176.8024469441412
 21
440.24463080842759
 31
0.0
  0
LINE
  5
4087
  8
AM_0
 10
176.8024469441412
 20
467.24463080842759
 30
0.0
 11
174.3024469441412
 21
467.24463080842793
 31
0.0
  0
LINE
  5
4088
  8
AM_0
 10
163.40377584779529
 20
464.24463080842798
 30
0.0
 11
163.40377584779529
 21
443.24463080842793
 31
0.0
  0
LINE
  5
4089
  8
AM_0
 10
148.4037758477954
 20
445.71300575441268
 30
0.0
 11
148.4037758477954
 21
461.77625586244392
 31
0.0
  0
LINE
  5
408A
  8
AM_0
 10
161.40377584779529
 20
465.74463080842798
 30
0.0
 11
161.40377584779529
 21
441.74463080842793
 31
0.0
  0
LINE
  5
408B
  8
AM_0
 10
151.9037758477954
 20
453.74463080842793
 30
0.0
 11
152.4037758477954
 21
454.24463080842793
 31
0.0
  0
LINE
  5
408C
  8
AM_0
 10
158.9037758477954
 20
442.04463080842788
 30
0.0
 11
158.9037758477954
 21
465.4446308084278
 31
0.0
  0
LINE
  5
408D
  8
AM_0
 10
168.80244694414111
 20
442.24463080842793
 30
0.0
 11
168.80244694414111
 21
465.24463080842798
 31
0.0
  0
LINE
  5
408E
  8
AM_0
 10
162.9037758477954
 20
454.44463080842968
 30
0.0
 11
162.9037758477954
 21
453.04463080842658
 31
0.0
  0
LINE
  5
408F
  8
AM_0
 10
165.00341157436611
 20
462.84463080842789
 30
0.0
 11
164.25341157436731
 21
444.64463080842768
 31
0.0
  0
LINE
  5
4090
  8
AM_0
 10
164.05244694414111
 20
462.84463080842789
 30
0.0
 11
163.40377584779529
 21
447.10354553711198
 31
0.0
  0
LINE
  5
4091
  8
AM_0
 10
164.80113953471329
 20
463.5602895207918
 30
0.0
 11
164.05387949130531
 21
443.93225904726103
 31
0.0
  0
LINE
  5
4092
  8
AM_0
 10
164.25197902720319
 20
463.55700256959591
 30
0.0
 11
163.50341157436731
 21
443.89463080842768
 31
0.0
  0
LINE
  5
4093
  8
AM_0
 10
161.40377584779529
 20
441.74463080842793
 30
0.0
 11
159.2037758477953
 21
441.74463080842793
 31
0.0
  0
ARC
  5
4094
  8
AM_0
 10
173.30244694414131
 20
441.24463080842793
 30
0.0
 40
0.5
 50
0.0
 51
90.000000000013017
  0
ARC
  5
4095
  8
AM_0
 10
174.30244694414131
 20
440.74463080842798
 30
0.0
 40
0.5
 50
180.0
 51
270.0
  0
LINE
  5
4096
  8
AM_0
 10
173.8024469441412
 20
441.24463080842793
 30
0.0
 11
173.8024469441412
 21
440.74463080842798
 31
0.0
  0
LINE
  5
4097
  8
AM_0
 10
164.80244694414111
 20
444.64463080842768
 30
0.0
 11
168.30244694414111
 21
444.64463080842768
 31
0.0
  0
LINE
  5
4098
  8
AM_0
 10
173.8024469441412
 20
442.88855948702093
 30
0.0
 11
173.8024469441412
 21
452.60070212983572
 31
0.0
  0
LINE
  5
4099
  8
AM_0
 10
169.30244694414111
 20
441.74463080842793
 30
0.0
 11
173.3024469441412
 21
441.74463080842793
 31
0.0
  0
LINE
  5
409A
  8
AM_0
 10
173.3024469441412
 20
442.38855948702093
 30
0.0
 11
168.80244694414111
 21
442.38855948702093
 31
0.0
  0
ARC
  5
409B
  8
AM_0
 10
173.30244694414131
 20
442.88855948702093
 30
0.0
 40
0.5
 50
270.0
 51
0.0
  0
ARC
  5
409C
  8
AM_0
 10
168.30244694414111
 20
444.14463080842791
 30
0.0
 40
0.5
 50
0.0
 51
90.0
  0
ARC
  5
409D
  8
AM_0
 10
169.30244694414111
 20
442.24463080842793
 30
0.0
 40
0.5
 50
180.0
 51
270.0
  0
LINE
  5
409E
  8
AM_0
 10
173.3024469441412
 20
453.10070212983572
 30
0.0
 11
168.80244694414111
 21
453.10070212983572
 31
0.0
  0
ARC
  5
409F
  8
AM_0
 10
173.3024469441412
 20
452.60070212983612
 30
0.0
 40
0.5
 50
0.0
 51
90.0
  0
LINE
  5
40A0
  8
AM_0
 10
162.9037758477954
 20
447.5994600561358
 30
0.0
 11
162.9037758477954
 21
448.77170324256861
 31
0.0
  0
LINE
  5
40A1
  8
AM_0
 10
164.33014400279231
 20
444.64463080842768
 30
0.0
 11
164.80244694414111
 21
444.64463080842768
 31
0.0
  0
LINE
  5
40A2
  8
AM_0
 10
164.23355150825299
 20
444.57051304169119
 30
0.0
 11
164.25341157436731
 21
444.64463080842768
 31
0.0
  0
ARC
  5
40A3
  8
AM_0
 10
164.33014400279231
 20
444.54463080842788
 30
0.0
 40
0.1000000000000346
 50
90.0
 51
164.99980499355539
  0
ARC
  5
40A4
  8
AM_0
 10
162.6037758477953
 20
444.45779782791988
 30
0.0
 40
0.3000000000000043
 50
0.0
 51
90.0
  0
LINE
  5
40A5
  8
AM_0
 10
161.40377584779529
 20
442.34463080842789
 30
0.0
 11
162.6237315509523
 21
442.42596118863878
 31
0.0
  0
LINE
  5
40A6
  8
AM_0
 10
161.40377584779529
 20
443.50088284426761
 30
0.0
 11
162.60377584779519
 21
443.50088284426761
 31
0.0
  0
LINE
  5
40A7
  8
AM_0
 10
162.9037758477954
 20
442.74463080842793
 30
0.0
 11
161.40377584779529
 21
442.74463080842793
 31
0.0
  0
ARC
  5
40A8
  8
AM_0
 10
162.9037758477954
 20
443.24463080842793
 30
0.0
 40
0.5
 50
270.0
 51
0.0
  0
LINE
  5
40A9
  8
AM_0
 10
162.9037758477954
 20
442.72529673599598
 30
0.0
 11
162.9037758477954
 21
442.74463080842793
 31
0.0
  0
LINE
  5
40AA
  8
AM_0
 10
162.9037758477954
 20
442.44463080842792
 30
0.0
 11
162.9037758477954
 21
442.72529673599598
 31
0.0
  0
LINE
  5
40AB
  8
AM_0
 10
162.6237315509523
 20
442.42596118863878
 30
0.0
 11
162.9037758477954
 21
442.44463080842792
 31
0.0
  0
ARC
  5
40AC
  8
AM_0
 10
162.6037758477953
 20
442.72529673599598
 30
0.0
 40
0.3000000000000007
 50
273.81407483428148
 51
0.0
  0
LINE
  5
40AD
  8
AM_0
 10
163.97571451571631
 20
443.89463080842768
 30
0.0
 11
164.0524469441421
 21
443.89463080842768
 31
0.0
  0
LINE
  5
40AE
  8
AM_0
 10
164.0524469441421
 20
443.89463080842768
 30
0.0
 11
164.07230701025509
 21
443.96874857516411
 31
0.0
  0
LINE
  5
40AF
  8
AM_0
 10
163.48355150825299
 20
443.96874857516411
 30
0.0
 11
163.50341157436731
 21
443.89463080842768
 31
0.0
  0
LINE
  5
40B0
  8
AM_0
 10
163.50341157436731
 20
443.89463080842768
 30
0.0
 11
163.58014400279231
 21
443.89463080842768
 31
0.0
  0
LINE
  5
40B1
  8
AM_0
 10
164.07230701025509
 20
443.96874857516411
 30
0.0
 11
164.23355150825299
 21
444.57051304169119
 31
0.0
  0
LINE
  5
40B2
  8
AM_0
 10
163.58014400279231
 20
443.89463080842768
 30
0.0
 11
163.97571451571631
 21
443.89463080842768
 31
0.0
  0
LINE
  5
40B3
  8
AM_0
 10
163.40377584779631
 20
444.26647133998893
 30
0.0
 11
163.48355150825299
 21
443.96874857516411
 31
0.0
  0
ARC
  5
40B4
  8
AM_0
 10
163.97571451571631
 20
443.99463080842793
 30
0.0
 40
0.0999999999999866
 50
270.0
 51
344.99980499343371
  0
ARC
  5
40B5
  8
AM_0
 10
163.58014400279231
 20
443.99463080842793
 30
0.0
 40
0.1000000000000014
 50
195.00019500656629
 51
270.0
  0
LINE
  5
40B6
  8
AM_0
 10
162.9037758477954
 20
443.80088284426768
 30
0.0
 11
162.9037758477954
 21
444.45779782791988
 31
0.0
  0
ARC
  5
40B7
  8
AM_0
 10
162.6037758477953
 20
443.80088284426802
 30
0.0
 40
0.3000000000000007
 50
270.0
 51
0.0
  0
LINE
  5
40B8
  8
AM_0
 10
161.40377584779529
 20
447.29946005613567
 30
0.0
 11
162.60377584779519
 21
447.29946005613567
 31
0.0
  0
LINE
  5
40B9
  8
AM_0
 10
162.60377584779519
 20
444.75779782791972
 30
0.0
 11
161.40377584779529
 21
444.75779782791972
 31
0.0
  0
LINE
  5
40BA
  8
AM_0
 10
164.25341157436731
 20
444.64463080842768
 30
0.0
 11
164.33014400279231
 21
444.64463080842768
 31
0.0
  0
ARC
  5
40BB
  8
AM_0
 10
162.6037758477953
 20
447.59946005613602
 30
0.0
 40
0.3000000000000007
 50
270.0
 51
0.0
  0
LINE
  5
40BC
  8
AM_0
 10
162.60377584779519
 20
449.07170324256879
 30
0.0
 11
161.40377584779529
 21
449.07170324256879
 31
0.0
  0
ARC
  5
40BD
  8
AM_0
 10
162.6037758477953
 20
448.77170324256889
 30
0.0
 40
0.3000000000000043
 50
0.0
 51
90.0
  0
LINE
  5
40BE
  8
AM_0
 10
162.60377584779519
 20
452.74463080842668
 30
0.0
 11
161.40377584779529
 21
452.74463080842668
 31
0.0
  0
ARC
  5
40BF
  8
AM_0
 10
162.6037758477953
 20
453.04463080842692
 30
0.0
 40
0.3000000000000007
 50
270.0
 51
0.0
  0
LINE
  5
40C0
  8
AM_0
 10
152.4037758477954
 20
443.61135097978092
 30
0.0
 11
158.9037758477954
 21
443.61135097978092
 31
0.0
  0
LINE
  5
40C1
  8
AM_0
 10
152.4037758477954
 20
443.11135097978092
 30
0.0
 11
158.9037758477954
 21
443.11135097978092
 31
0.0
  0
LINE
  5
40C2
  8
AM_0
 10
158.9037758477954
 20
453.24463080842798
 30
0.0
 11
152.4037758477954
 21
453.24463080842798
 31
0.0
  0
LINE
  5
40C3
  8
AM_0
 10
151.9037758477954
 20
452.74463080842798
 30
0.0
 11
158.9037758477954
 21
452.74463080842798
 31
0.0
  0
LINE
  5
40C4
  8
AM_0
 10
158.60377584779519
 20
442.74463080842793
 30
0.0
 11
151.76582578297709
 21
442.74463080842793
 31
0.0
  0
LINE
  5
40C5
  8
AM_0
 10
158.9037758477954
 20
452.39794273988679
 30
0.0
 11
152.4037758477954
 21
452.39794273988679
 31
0.0
  0
LINE
  5
40C6
  8
AM_0
 10
158.9037758477954
 20
444.09131887696878
 30
0.0
 11
152.4037758477954
 21
444.09131887696878
 31
0.0
  0
ARC
  5
40C7
  8
AM_0
 10
159.2037758477953
 20
442.04463080842788
 30
0.0
 40
0.2999999999999971
 50
180.0
 51
270.0
  0
ARC
  5
40C8
  8
AM_0
 10
158.6037758477953
 20
442.44463080842792
 30
0.0
 40
0.2999999999999971
 50
0.0
 51
90.0
  0
ARC
  5
40C9
  8
AM_0
 10
160.52877584779529
 20
448.24463080842798
 30
0.0
 40
9.124999999999984
 50
152.92493329271841
 51
207.07506670728151
  0
LINE
  5
40CA
  8
AM_0
 10
151.12564138331291
 20
442.97640952883029
 30
0.0
 11
148.7635914481308
 21
444.94478447481538
 31
0.0
  0
LINE
  5
40CB
  8
AM_0
 10
151.9037758477954
 20
443.32306339193588
 30
0.0
 11
152.4037758477954
 21
442.74463080842793
 31
0.0
  0
ARC
  5
40CC
  8
AM_0
 10
151.76582578297709
 20
443.74463080842798
 30
0.0
 40
1.0
 50
230.19442890774391
 51
270.0
  0
LINE
  5
40CD
  8
AM_0
 10
152.4037758477954
 20
443.11135097978092
 30
0.0
 11
151.9037758477954
 21
443.32306339193588
 31
0.0
  0
LINE
  5
40CE
  8
AM_0
 10
151.9037758477954
 20
443.7853386649067
 30
0.0
 11
152.4037758477954
 21
443.11135097978092
 31
0.0
  0
LINE
  5
40CF
  8
AM_0
 10
152.4037758477954
 20
443.61135097978092
 30
0.0
 11
151.9037758477954
 21
443.7853386649067
 31
0.0
  0
LINE
  5
40D0
  8
AM_0
 10
151.9037758477954
 20
444.32306339193588
 30
0.0
 11
152.4037758477954
 21
443.61135097978092
 31
0.0
  0
LINE
  5
40D1
  8
AM_0
 10
152.4037758477954
 20
444.09131887696878
 30
0.0
 11
151.9037758477954
 21
444.32306339193588
 31
0.0
  0
ARC
  5
40D2
  8
AM_0
 10
149.4037758477954
 20
445.71300575441279
 30
0.0
 40
1.0000000000000291
 50
180.0
 51
230.19442890773689
  0
LINE
  5
40D3
  8
AM_0
 10
152.4037758477954
 20
453.24463080842798
 30
0.0
 11
151.9037758477954
 21
453.74463080842793
 31
0.0
  0
LINE
  5
40D4
  8
AM_0
 10
151.9037758477954
 20
452.74463080842798
 30
0.0
 11
152.4037758477954
 21
453.24463080842798
 31
0.0
  0
LINE
  5
40D5
  8
AM_0
 10
152.4037758477954
 20
452.39794273988679
 30
0.0
 11
151.9037758477954
 21
452.74463080842798
 31
0.0
  0
LINE
  5
40D6
  8
AM_0
 10
159.2037758477953
 20
465.74463080842798
 30
0.0
 11
161.40377584779529
 21
465.74463080842798
 31
0.0
  0
ARC
  5
40D7
  8
AM_0
 10
173.3024469441412
 20
466.24463080842793
 30
0.0
 40
0.5
 50
269.99999999998693
 51
0.0
  0
LINE
  5
40D8
  8
AM_0
 10
168.30244694414111
 20
462.84463080842789
 30
0.0
 11
165.08014400279231
 21
462.84463080842789
 31
0.0
  0
LINE
  5
40D9
  8
AM_0
 10
173.8024469441412
 20
454.88855948702093
 30
0.0
 11
173.8024469441412
 21
464.60070212983589
 31
0.0
  0
LINE
  5
40DA
  8
AM_0
 10
168.80244694414111
 20
454.38855948702093
 30
0.0
 11
173.3024469441412
 21
454.38855948702093
 31
0.0
  0
ARC
  5
40DB
  8
AM_0
 10
173.3024469441412
 20
454.88855948702093
 30
0.0
 40
0.5
 50
270.0
 51
0.0
  0
LINE
  5
40DC
  8
AM_0
 10
168.80244694414111
 20
465.10070212983612
 30
0.0
 11
173.3024469441412
 21
465.10070212983612
 31
0.0
  0
LINE
  5
40DD
  8
AM_0
 10
173.3024469441412
 20
465.74463080842798
 30
0.0
 11
169.30244694414111
 21
465.74463080842798
 31
0.0
  0
ARC
  5
40DE
  8
AM_0
 10
173.3024469441412
 20
464.60070212983589
 30
0.0
 40
0.5
 50
0.0
 51
90.0
  0
ARC
  5
40DF
  8
AM_0
 10
168.30244694414111
 20
463.34463080842801
 30
0.0
 40
0.5
 50
270.0
 51
0.0
  0
ARC
  5
40E0
  8
AM_0
 10
169.30244694414111
 20
465.24463080842798
 30
0.0
 40
0.5
 50
90.0
 51
180.0
  0
ARC
  5
40E1
  8
AM_0
 10
162.6037758477953
 20
459.88980156071989
 30
0.0
 40
0.3000000000000114
 50
0.0
 51
90.0
  0
LINE
  5
40E2
  8
AM_0
 10
161.40377584779529
 20
454.7446308084298
 30
0.0
 11
162.60377584779519
 21
454.7446308084298
 31
0.0
  0
ARC
  5
40E3
  8
AM_0
 10
162.6037758477953
 20
454.44463080843002
 30
0.0
 40
0.2999999999999971
 50
0.0
 51
90.0
  0
LINE
  5
40E4
  8
AM_0
 10
161.40377584779529
 20
458.41755837428678
 30
0.0
 11
162.60377584779519
 21
458.41755837428678
 31
0.0
  0
ARC
  5
40E5
  8
AM_0
 10
162.6037758477953
 20
458.7175583742868
 30
0.0
 40
0.3000000000000007
 50
270.0
 51
0.0
  0
LINE
  5
40E6
  8
AM_0
 10
162.9037758477954
 20
458.7175583742868
 30
0.0
 11
162.9037758477954
 21
459.88980156071989
 31
0.0
  0
LINE
  5
40E7
  8
AM_0
 10
164.33014400279231
 20
463.59463080842772
 30
0.0
 11
164.72571451571619
 21
463.59463080842772
 31
0.0
  0
LINE
  5
40E8
  8
AM_0
 10
164.33014400279231
 20
463.59463080842772
 30
0.0
 11
164.72571451571619
 21
463.59463080842772
 31
0.0
  0
LINE
  5
40E9
  8
AM_0
 10
164.82230701025509
 20
463.52051304169129
 30
0.0
 11
164.98355150825299
 21
462.91874857516422
 31
0.0
  0
LINE
  5
40EA
  8
AM_0
 10
164.82230701025509
 20
463.52051304169129
 30
0.0
 11
164.98355150825299
 21
462.91874857516422
 31
0.0
  0
ARC
  5
40EB
  8
AM_0
 10
165.08014400279231
 20
462.94463080842792
 30
0.0
 40
0.0999999999999943
 50
195.00019500651879
 51
270.0
  0
ARC
  5
40EC
  8
AM_0
 10
164.72571451571619
 20
463.49463080842798
 30
0.0
 40
0.0999999999999943
 50
15.000195006505431
 51
90.0
  0
LINE
  5
40ED
  8
AM_0
 10
163.40292925925411
 20
463.21963080842812
 30
0.0
 11
163.48355150825299
 21
462.91874857516422
 31
0.0
  0
LINE
  5
40EE
  8
AM_0
 10
164.0551575963471
 20
462.88389534152577
 30
0.0
 11
164.23355150825299
 21
463.52051304169129
 31
0.0
  0
LINE
  5
40EF
  8
AM_0
 10
164.07230701025509
 20
462.91874857516422
 30
0.0
 11
164.23355150825299
 21
463.52051304169129
 31
0.0
  0
LINE
  5
40F0
  8
AM_0
 10
162.9037758477954
 20
463.03146378893678
 30
0.0
 11
162.9037758477954
 21
463.6883787725879
 31
0.0
  0
LINE
  5
40F1
  8
AM_0
 10
163.40377584779529
 20
463.21647133998971
 30
0.0
 11
163.48355150825299
 21
462.91874857516422
 31
0.0
  0
LINE
  5
40F2
  8
AM_0
 10
161.40377584779529
 20
462.73146378893682
 30
0.0
 11
162.60377584779519
 21
462.73146378893682
 31
0.0
  0
LINE
  5
40F3
  8
AM_0
 10
162.60377584779519
 20
460.1898015607199
 30
0.0
 11
161.40377584779529
 21
460.18980156072081
 31
0.0
  0
LINE
  5
40F4
  8
AM_0
 10
164.0083467812313
 20
462.84463080842789
 30
0.0
 11
164.0551575963471
 21
462.88389534152577
 31
0.0
  0
LINE
  5
40F5
  8
AM_0
 10
163.58014400279231
 20
462.84463080842789
 30
0.0
 11
164.0083467812313
 21
462.84463080842789
 31
0.0
  0
LINE
  5
40F6
  8
AM_0
 10
163.58014400279231
 20
462.84463080842789
 30
0.0
 11
163.97571451571631
 21
462.84463080842789
 31
0.0
  0
ARC
  5
40F7
  8
AM_0
 10
163.58014400279231
 20
462.94463080842792
 30
0.0
 40
0.0999999999999943
 50
195.00019500651879
 51
270.0
  0
ARC
  5
40F8
  8
AM_0
 10
163.97571451571631
 20
462.94463080842792
 30
0.0
 40
0.0999999999999608
 50
270.0
 51
344.99980499348112
  0
ARC
  5
40F9
  8
AM_0
 10
162.6037758477953
 20
463.03146378893678
 30
0.0
 40
0.3000000000000007
 50
270.0
 51
0.0
  0
LINE
  5
40FA
  8
AM_0
 10
161.40377584779529
 20
464.74463080842798
 30
0.0
 11
162.9037758477954
 21
464.74463080842798
 31
0.0
  0
LINE
  5
40FB
  8
AM_0
 10
162.60377584779519
 20
463.98837877258768
 30
0.0
 11
161.40377584779529
 21
463.98837877258768
 31
0.0
  0
LINE
  5
40FC
  8
AM_0
 10
162.6237315509523
 20
465.06330042821787
 30
0.0
 11
161.40377584779529
 21
465.14463080842768
 31
0.0
  0
ARC
  5
40FD
  8
AM_0
 10
162.9037758477954
 20
464.24463080842798
 30
0.0
 40
0.5
 50
0.0
 51
90.0
  0
ARC
  5
40FE
  8
AM_0
 10
164.33014400279231
 20
463.49463080842798
 30
0.0
 40
0.0999999999999606
 50
90.0
 51
164.99980499349451
  0
ARC
  5
40FF
  8
AM_0
 10
162.6037758477953
 20
463.6883787725879
 30
0.0
 40
0.2999999999999971
 50
0.0
 51
90.0
  0
LINE
  5
4100
  8
AM_0
 10
162.9037758477954
 20
464.74463080842798
 30
0.0
 11
162.9037758477954
 21
464.7639648808609
 31
0.0
  0
ARC
  5
4101
  8
AM_0
 10
162.6037758477953
 20
464.7639648808609
 30
0.0
 40
0.3000000000000043
 50
0.0
 51
86.18592516571853
  0
ARC
  5
4102
  8
AM_0
 10
174.3024469441412
 20
466.74463080842793
 30
0.0
 40
0.5
 50
90.0
 51
180.0
  0
LINE
  5
4103
  8
AM_0
 10
173.8024469441412
 20
466.74463080842793
 30
0.0
 11
173.8024469441412
 21
466.24463080842793
 31
0.0
  0
LINE
  5
4104
  8
AM_0
 10
152.4037758477954
 20
463.39794273988679
 30
0.0
 11
158.9037758477954
 21
463.39794273988679
 31
0.0
  0
LINE
  5
4105
  8
AM_0
 10
152.4037758477954
 20
455.0913188769689
 30
0.0
 11
158.9037758477954
 21
455.0913188769689
 31
0.0
  0
LINE
  5
4106
  8
AM_0
 10
151.76582578297709
 20
464.74463080842798
 30
0.0
 11
158.60377584779519
 21
464.74463080842798
 31
0.0
  0
LINE
  5
4107
  8
AM_0
 10
158.9037758477954
 20
454.74463080842793
 30
0.0
 11
151.9037758477954
 21
454.74463080842793
 31
0.0
  0
LINE
  5
4108
  8
AM_0
 10
152.4037758477954
 20
454.24463080842793
 30
0.0
 11
158.9037758477954
 21
454.24463080842793
 31
0.0
  0
LINE
  5
4109
  8
AM_0
 10
158.9037758477954
 20
464.37791063707562
 30
0.0
 11
152.4037758477954
 21
464.37791063707562
 31
0.0
  0
LINE
  5
410A
  8
AM_0
 10
158.9037758477954
 20
463.87791063707567
 30
0.0
 11
152.4037758477954
 21
463.87791063707567
 31
0.0
  0
ARC
  5
410B
  8
AM_0
 10
158.6037758477953
 20
465.04463080842788
 30
0.0
 40
0.3000000000000043
 50
270.0
 51
0.0
  0
ARC
  5
410C
  8
AM_0
 10
159.2037758477953
 20
465.44463080842792
 30
0.0
 40
0.2999999999999971
 50
90.0
 51
180.0
  0
ARC
  5
410D
  8
AM_0
 10
160.52877584779529
 20
459.24463080842793
 30
0.0
 40
9.124999999999984
 50
152.92493329271841
 51
207.07506670728151
  0
LINE
  5
410E
  8
AM_0
 10
151.9037758477954
 20
454.74463080842793
 30
0.0
 11
152.4037758477954
 21
455.0913188769689
 31
0.0
  0
LINE
  5
410F
  8
AM_0
 10
152.4037758477954
 20
454.24463080842793
 30
0.0
 11
151.9037758477954
 21
454.74463080842793
 31
0.0
  0
LINE
  5
4110
  8
AM_0
 10
148.7635914481308
 20
462.54447714204099
 30
0.0
 11
151.12564138331291
 21
464.51285208802528
 31
0.0
  0
LINE
  5
4111
  8
AM_0
 10
152.4037758477954
 20
464.74463080842798
 30
0.0
 11
151.9037758477954
 21
464.166198224921
 31
0.0
  0
ARC
  5
4112
  8
AM_0
 10
151.76582578297709
 20
463.74463080842793
 30
0.0
 40
1.0000000000000411
 50
90.0
 51
129.805571092256
  0
LINE
  5
4113
  8
AM_0
 10
151.9037758477954
 20
463.16619822492089
 30
0.0
 11
152.4037758477954
 21
463.39794273988679
 31
0.0
  0
LINE
  5
4114
  8
AM_0
 10
152.4037758477954
 20
463.87791063707567
 30
0.0
 11
151.9037758477954
 21
463.16619822492089
 31
0.0
  0
LINE
  5
4115
  8
AM_0
 10
151.9037758477954
 20
463.70392295194893
 30
0.0
 11
152.4037758477954
 21
463.87791063707567
 31
0.0
  0
LINE
  5
4116
  8
AM_0
 10
152.4037758477954
 20
464.37791063707562
 30
0.0
 11
151.9037758477954
 21
463.70392295194893
 31
0.0
  0
LINE
  5
4117
  8
AM_0
 10
151.9037758477954
 20
464.166198224921
 30
0.0
 11
152.4037758477954
 21
464.37791063707562
 31
0.0
  0
ARC
  5
4118
  8
AM_0
 10
149.4037758477954
 20
461.77625586244392
 30
0.0
 40
1.0
 50
129.80557109226311
 51
180.0
  0
LINE
  5
4119
  8
AM_0
 10
273.80244694414131
 20
430.74463080842821
 30
0.0
 11
252.98794204460901
 21
430.74463080842821
 31
0.0
  0
LINE
  5
411A
  8
AM_0
 10
198.61695184367369
 20
430.74463080842821
 30
0.0
 11
177.80244694414191
 21
430.74463080842821
 31
0.0
  0
LINE
  5
411B
  8
AM_0
 10
267.66666527498029
 20
426.74463080842821
 30
0.0
 11
183.93822861330199
 21
426.74463080842821
 31
0.0
  0
LINE
  5
411C
  8
AM_0
 10
186.7098019164483
 20
428.68569329630031
 30
0.0
 11
186.80244694414191
 21
429.74463080842821
 31
0.0
  0
LINE
  5
411D
  8
AM_0
 10
178.89509197183531
 20
428.68569329630031
 30
0.0
 11
178.80244694414191
 21
429.74463080842821
 31
0.0
  0
ARC
  5
411E
  8
AM_0
 10
182.80244694414191
 20
433.14463080842819
 30
0.0
 40
6.5
 50
241.82726586813479
 51
298.17273413186518
  0
ARC
  5
411F
  8
AM_0
 10
180.4890034887822
 20
428.82514248469658
 30
0.0
 40
1.6000000000000001
 50
184.99999999999969
 51
241.82726586813479
  0
LINE
  5
4120
  8
AM_0
 10
185.10244694414189
 20
427.06515714699981
 30
0.0
 11
182.80244694414191
 21
429.35471682579521
 31
0.0
  0
LINE
  5
4121
  8
AM_0
 10
183.1139469441419
 20
429.044630808428
 30
0.0
 11
182.49094694414191
 21
429.044630808428
 31
0.0
  0
LINE
  5
4122
  8
AM_0
 10
180.50244694414201
 20
427.06515714699981
 30
0.0
 11
182.80244694414191
 21
429.35471682579521
 31
0.0
  0
LINE
  5
4123
  8
AM_0
 10
183.1139469441419
 20
426.65209911809342
 30
0.0
 11
183.1139469441419
 21
429.044630808428
 31
0.0
  0
LINE
  5
4124
  8
AM_0
 10
182.49094694414191
 20
426.65209911809342
 30
0.0
 11
182.49094694414191
 21
429.044630808428
 31
0.0
  0
ARC
  5
4125
  8
AM_0
 10
185.11589039950161
 20
428.82514248469658
 30
0.0
 40
1.6000000000000001
 50
298.17273413186518
 51
355.00000000000023
  0
LINE
  5
4126
  8
AM_0
 10
273.80244694414148
 20
430.74463080842821
 30
0.0
 11
273.80244694414148
 21
434.74463080842821
 31
0.0
  0
LINE
  5
4127
  8
AM_0
 10
177.802446944141
 20
434.7446308084281
 30
0.0
 11
177.8024469441421
 21
430.74463080842821
 31
0.0
  0
LINE
  5
4128
  8
AM_0N
 10
186.60244694414189
 20
430.74463080842821
 30
0.0
 11
186.60244694414189
 21
429.74463080842821
 31
0.0
  0
LINE
  5
4129
  8
AM_0N
 10
183.00244694414201
 20
429.74463080842821
 30
0.0
 11
183.36641717840811
 21
430.74463080842821
 31
0.0
  0
LINE
  5
412A
  8
AM_0N
 10
182.60244694414189
 20
429.74463080842821
 30
0.0
 11
182.96641717840799
 21
430.74463080842821
 31
0.0
  0
LINE
  5
412B
  8
AM_0N
 10
178.80244694414191
 20
429.74463080842821
 30
0.0
 11
186.80244694414191
 21
429.74463080842821
 31
0.0
  0
LINE
  5
412C
  8
AM_0N
 10
179.00244694414189
 20
429.74463080842821
 30
0.0
 11
179.00244694414189
 21
430.74463080842821
 31
0.0
  0
LINE
  5
412D
  8
AM_0
 10
198.61695184367349
 20
426.74463080842821
 30
0.0
 11
198.61695184367349
 21
430.74463080842821
 31
0.0
  0
LINE
  5
412E
  8
AM_0
 10
196.96009759418109
 20
430.74463080842821
 30
0.0
 11
198.61695184367349
 21
426.74463080842821
 31
0.0
  0
LINE
  5
412F
  8
AM_0
 10
252.98794204460901
 20
426.74463080842821
 30
0.0
 11
252.98794204460901
 21
430.74463080842821
 31
0.0
  0
LINE
  5
4130
  8
AM_0
 10
254.6447962941015
 20
430.74463080842821
 30
0.0
 11
252.98794204460901
 21
426.74463080842821
 31
0.0
  0
LINE
  5
4131
  8
AM_0
 10
192.3024469441412
 20
475.74463080842821
 30
0.0
 11
259.30244694414131
 21
475.74463080842821
 31
0.0
  0
LINE
  5
4132
  8
AM_0
 10
192.3024469441412
 20
475.74463080842821
 30
0.0
 11
192.3024469441412
 21
473.7446308084281
 31
0.0
  0
LINE
  5
4133
  8
AM_0
 10
259.30244694414131
 20
475.74463080842821
 30
0.0
 11
259.30244694414131
 21
473.7446308084281
 31
0.0
  0
LINE
  5
4134
  8
ﾁｭｳｼﾝｾﾝ1
 10
268.80244694414068
 20
424.479923308428
 30
0.0
 11
268.80244694414068
 21
437.47992330842811
 31
0.0
  0
LINE
  5
4135
  8
AM_0
 10
264.89509197183429
 20
428.68569329630031
 30
0.0
 11
264.8024469441408
 21
429.74463080842821
 31
0.0
  0
LINE
  5
4136
  8
AM_0
 10
272.7098019164473
 20
428.68569329630031
 30
0.0
 11
272.80244694414068
 21
429.74463080842821
 31
0.0
  0
ARC
  5
4137
  8
AM_0
 10
268.80244694414091
 20
433.14463080842791
 30
0.0
 40
6.5
 50
241.82726586813479
 51
298.17273413186518
  0
ARC
  5
4138
  8
AM_0
 10
271.11589039950059
 20
428.82514248469653
 30
0.0
 40
1.6000000000000001
 50
298.17273413186518
 51
355.00000000000023
  0
LINE
  5
4139
  8
AM_0
 10
266.5024469441409
 20
427.06515714699981
 30
0.0
 11
268.8024469441408
 21
429.35471682579521
 31
0.0
  0
LINE
  5
413A
  8
AM_0
 10
268.49094694414077
 20
429.044630808428
 30
0.0
 11
269.11394694414082
 21
429.044630808428
 31
0.0
  0
LINE
  5
413B
  8
AM_0
 10
271.10244694414081
 20
427.06515714699981
 30
0.0
 11
268.8024469441408
 21
429.35471682579521
 31
0.0
  0
LINE
  5
413C
  8
AM_0
 10
268.49094694414077
 20
426.65209911809342
 30
0.0
 11
268.49094694414077
 21
429.044630808428
 31
0.0
  0
LINE
  5
413D
  8
AM_0
 10
269.11394694414082
 20
426.65209911809342
 30
0.0
 11
269.11394694414082
 21
429.044630808428
 31
0.0
  0
ARC
  5
413E
  8
AM_0
 10
266.48900348878118
 20
428.82514248469653
 30
0.0
 40
1.6000000000000001
 50
184.99999999999969
 51
241.82726586813479
  0
LINE
  5
413F
  8
AM_0N
 10
265.00244694414067
 20
430.74463080842821
 30
0.0
 11
265.00244694414067
 21
429.74463080842821
 31
0.0
  0
LINE
  5
4140
  8
AM_0N
 10
268.60244694414081
 20
429.74463080842821
 30
0.0
 11
268.23847670987459
 21
430.74463080842821
 31
0.0
  0
LINE
  5
4141
  8
AM_0N
 10
269.00244694414067
 20
429.74463080842821
 30
0.0
 11
268.63847670987462
 21
430.74463080842821
 31
0.0
  0
LINE
  5
4142
  8
AM_0N
 10
272.8024469441408
 20
429.74463080842821
 30
0.0
 11
264.8024469441408
 21
429.74463080842821
 31
0.0
  0
LINE
  5
4143
  8
AM_0N
 10
272.60244694414081
 20
429.74463080842821
 30
0.0
 11
272.60244694414081
 21
430.74463080842821
 31
0.0
  0
LINE
  5
4144
  8
AM_0
 10
176.8024469441412
 20
437.74463080842793
 30
0.0
 11
176.8024469441412
 21
469.74463080842798
 31
0.0
  0
TEXT
  5
436A
  8
AM_0
 10
505.04409344909482
 20
555.55796940540461
 30
0.0
 40
10.0
  1
VX04-005MW~VX04-010MW
  0
ENDSEC
  0
EOF
