  0
SECTION
  2
HEADER
  9
$ACADVER
  1
AC1009
  9
$INSBASE
 10
0.0
 20
0.0
 30
0.0
  9
$EXTMIN
 10
109.5005514310912
 20
202.1932739100375
 30
-0.0015258207003583
  9
$EXTMAX
 10
729.34815400332207
 20
655.64730642118059
 30
0.0000000349246037
  9
$LIMMIN
 10
0.0
 20
0.0
  9
$LIMMAX
 10
853.5
 20
555.00000000000011
  9
$ORTHOMODE
 70
     0
  9
$REGENMODE
 70
     1
  9
$FILLMODE
 70
     1
  9
$QTEXTMODE
 70
     0
  9
$MIRRTEXT
 70
     1
  9
$DRAGMODE
 70
     2
  9
$LTSCALE
 40
3.0
  9
$OSMODE
 70
   551
  9
$ATTMODE
 70
     1
  9
$TEXTSIZE
 40
2.5
  9
$TRACEWID
 40
1.0
  9
$TEXTSTYLE
  7
STANDARD
  9
$CLAYER
  8
AM_0
  9
$CELTYPE
  6
BYLAYER
  9
$CECOLOR
 62
   256
  9
$DIMSCALE
 40
1.0
  9
$DIMASZ
 40
2.5
  9
$DIMEXO
 40
1.0
  9
$DIMDLI
 40
8.0
  9
$DIMRND
 40
0.0
  9
$DIMDLE
 40
0.0
  9
$DIMEXE
 40
0.6
  9
$DIMTP
 40
0.1
  9
$DIMTM
 40
0.1
  9
$DIMTXT
 40
2.5
  9
$DIMCEN
 40
0.0
  9
$DIMTSZ
 40
0.0
  9
$DIMTOL
 70
     0
  9
$DIMLIM
 70
     0
  9
$DIMTIH
 70
     0
  9
$DIMTOH
 70
     0
  9
$DIMSE1
 70
     0
  9
$DIMSE2
 70
     0
  9
$DIMTAD
 70
     1
  9
$DIMZIN
 70
     8
  9
$DIMBLK
  1

  9
$DIMASO
 70
     1
  9
$DIMSHO
 70
     1
  9
$DIMPOST
  1

  9
$DIMAPOST
  1
"
  9
$DIMALT
 70
     0
  9
$DIMALTD
 70
     2
  9
$DIMALTF
 40
0.0393701
  9
$DIMLFAC
 40
1.0
  9
$DIMTOFL
 70
     1
  9
$DIMTVP
 40
0.0
  9
$DIMTIX
 70
     0
  9
$DIMSOXD
 70
     0
  9
$DIMSAH
 70
     0
  9
$DIMBLK1
  1

  9
$DIMBLK2
  1

  9
$DIMSTYLE
  2
AM_ISO
  9
$DIMCLRD
 70
   256
  9
$DIMCLRE
 70
   256
  9
$DIMCLRT
 70
     4
  9
$DIMTFAC
 40
0.71
  9
$DIMGAP
 40
0.8
  9
$LUNITS
 70
     2
  9
$LUPREC
 70
     2
  9
$SKETCHINC
 40
1.0
  9
$FILLETRAD
 40
15.0
  9
$AUNITS
 70
     0
  9
$AUPREC
 70
     0
  9
$MENU
  1
.
  9
$ELEVATION
 40
0.0
  9
$PELEVATION
 40
0.0
  9
$THICKNESS
 40
0.0
  9
$LIMCHECK
 70
     0
  9
$BLIPMODE
 70
     0
  9
$CHAMFERA
 40
6.0
  9
$CHAMFERB
 40
3.0
  9
$SKPOLY
 70
     0
  9
$TDCREATE
 40
2452065.7887456599
  9
$TDUPDATE
 40
2458541.5993147912
  9
$TDINDWG
 40
0.106707037
  9
$TDUSRTIMER
 40
0.1067070255
  9
$USRTIMER
 70
     1
  9
$ANGBASE
 50
0.0
  9
$ANGDIR
 70
     0
  9
$PDMODE
 70
     0
  9
$PDSIZE
 40
0.0
  9
$PLINEWID
 40
0.0
  9
$COORDS
 70
     1
  9
$SPLFRAME
 70
     0
  9
$SPLINETYPE
 70
     6
  9
$SPLINESEGS
 70
     8
  9
$ATTDIA
 70
     1
  9
$ATTREQ
 70
     1
  9
$HANDLING
 70
     1
  9
$HANDSEED
  5
54B1
  9
$SURFTAB1
 70
     6
  9
$SURFTAB2
 70
     6
  9
$SURFTYPE
 70
     6
  9
$SURFU
 70
     6
  9
$SURFV
 70
     6
  9
$UCSNAME
  2

  9
$UCSORG
 10
0.0
 20
0.0
 30
0.0
  9
$UCSXDIR
 10
1.0
 20
0.0
 30
0.0
  9
$UCSYDIR
 10
0.0
 20
1.0
 30
0.0
  9
$PUCSNAME
  2

  9
$PUCSORG
 10
0.0
 20
0.0
 30
0.0
  9
$PUCSXDIR
 10
1.0
 20
0.0
 30
0.0
  9
$PUCSYDIR
 10
0.0
 20
1.0
 30
0.0
  9
$USERI1
 70
     0
  9
$USERI2
 70
     0
  9
$USERI3
 70
     0
  9
$USERI4
 70
     0
  9
$USERI5
 70
     0
  9
$USERR1
 40
0.0
  9
$USERR2
 40
0.0
  9
$USERR3
 40
0.0
  9
$USERR4
 40
0.0
  9
$USERR5
 40
0.0
  9
$WORLDVIEW
 70
     1
  9
$SHADEDGE
 70
     3
  9
$SHADEDIF
 70
    70
  9
$TILEMODE
 70
     1
  9
$MAXACTVP
 70
    64
  9
$PLIMCHECK
 70
     0
  9
$PEXTMIN
 10
1.0000000000000000E+020
 20
1.0000000000000000E+020
 30
1.0000000000000000E+020
  9
$PEXTMAX
 10
-1.0000000000000000E+020
 20
-1.0000000000000000E+020
 30
-1.0000000000000000E+020
  9
$PLIMMIN
 10
0.0
 20
0.0
  9
$PLIMMAX
 10
420.0
 20
297.0
  9
$UNITMODE
 70
     0
  9
$VISRETAIN
 70
     1
  9
$PLINEGEN
 70
     0
  9
$PSLTSCALE
 70
     1
  0
ENDSEC
  0
SECTION
  2
TABLES
  0
TABLE
  2
VPORT
 70
     1
  0
VPORT
  2
*ACTIVE
 70
     0
 10
0.0
 20
0.0
 11
1.0
 21
1.0
 12
419.42435271720672
 22
428.92029016560912
 13
0.0
 23
0.0
 14
7.5
 24
7.5
 15
30.0
 25
30.0
 16
0.0
 26
0.0
 36
1.0
 17
0.0
 27
0.0
 37
0.0
 40
456.56698925607083
 41
1.7571592210767459
 42
50.0
 43
0.0
 44
0.0
 50
0.0
 51
0.0
 71
     0
 72
   100
 73
     1
 74
     3
 75
     0
 76
     0
 77
     0
 78
     0
  0
ENDTAB
  0
TABLE
  2
LTYPE
 70
    27
  0
LTYPE
  2
CONTINUOUS
 70
     0
  3
Solid line
 72
    65
 73
     0
 40
0.0
  0
LTYPE
  2
AM_ISO02W050
 70
     0
  3
__ __ __ __ __ __ __ __ __ __ __ __ __ __ __
 72
    65
 73
     2
 40
7.5
 49
6.0
 49
-1.5
  0
LTYPE
  2
AM_ISO08W050
 70
     0
  3
____ . ____ . ____ . ____ . ____ . ____ . ____
 72
    65
 73
     4
 40
18.0
 49
12.0
 49
-1.5
 49
3.0
 49
-1.5
  0
LTYPE
  2
AM_ISO09W050
 70
     0
  3
_____ . . _____ . . _____ . . ____ .. ____
 72
    65
 73
     6
 40
22.5
 49
12.0
 49
-1.5
 49
3.0
 49
-1.5
 49
3.0
 49
-1.5
  0
LTYPE
  2
AMCONSTR
 70
     0
  3
_______________________
 72
    65
 73
     2
 40
9999.0
 49
9999.0
 49
0.0
  0
LTYPE
  2
AM_ISO08W050X2
 70
     0
  3
__ . __ . __ . __ . __ . __
 72
    65
 73
     4
 40
9.0
 49
6.0
 49
-0.75
 49
1.5
 49
-0.75
  0
LTYPE
  2
AM_ISO02W050X2
 70
     0
  3
 _ _ _ _ _ _ _ _ _ _ _ _
 72
    65
 73
     2
 40
3.75
 49
3.0
 49
-0.75
  0
LTYPE
  2
AMZIGZAG
 70
     0
  3
/\/-/\/-/\/-/\/-/\/-/\/
 72
    65
 73
     2
 40
11.0001
 49
0.0001
 49
-11.0
  0
LTYPE
  2
ACISOWELD
 70
     0
  3
_ _ _ _ _
 72
    65
 73
     2
 40
2.0
 49
2.0
 49
-1.0
  0
LTYPE
  2
ACISOTGB
 70
     0
  3
__ . . __ . .
 72
    65
 73
     6
 40
9.0
 49
4.0
 49
-1.0
 49
1.0
 49
-1.0
 49
1.0
 49
-1.0
  0
LTYPE
  2
ACISOTGL
 70
     0
  3
_ _ _ _ _
 72
    65
 73
     2
 40
3.0
 49
2.0
 49
-1.0
  0
LTYPE
  2
CENTER
 70
     0
  3
__ . __
 72
    65
 73
     4
 40
7.0
 49
4.0
 49
-1.0
 49
1.0
 49
-1.0
  0
LTYPE
  2
HIDDEN
 70
     0
  3
Hidden __ __ __ __ __ __ __ __ __ __ __ __ __ _
 72
    65
 73
     2
 40
9.5249999999999986
 49
6.3499999999999979
 49
-3.174999999999998
  0
LTYPE
  2
PHANTOM2
 70
     0
  3
Phantom (.5x) ___ _ _ ___ _ _ ___ _ _ ___ _ _
 72
    65
 73
     6
 40
31.75
 49
15.875
 49
-3.174999999999998
 49
3.174999999999998
 49
-3.174999999999998
 49
3.174999999999998
 49
-3.174999999999998
  0
LTYPE
  2
ACANSTGBM
 70
     0
  3
__ . . __ . .
 72
    65
 73
     6
 40
9.0
 49
4.0
 49
-1.0
 49
1.0
 49
-1.0
 49
1.0
 49
-1.0
  0
LTYPE
  2
ACANSTGLM
 70
     0
  3
_ _ _ _ _
 72
    65
 73
     2
 40
3.0
 49
2.0
 49
-1.0
  0
LTYPE
  2
GEN7
 70
     0
  3
____ . ____ . ____ . ____ . ____ . ____ . ____
 72
    65
 73
     4
 40
14.25
 49
9.75
 49
-1.5
 49
1.5
 49
-1.5
  0
LTYPE
  2
GEN3B
 70
     0
  3
 - - - - -
 72
    65
 73
     2
 40
1.0
 49
0.5
 49
-0.5
  0
LTYPE
  2
GEN7A
 70
     0
  3
__ . __ . __
 72
    65
 73
     4
 40
7.375
 49
4.75
 49
-0.875
 49
0.875
 49
-0.875
  0
LTYPE
  2
ACJISTGB
 70
     0
  3
__ . . __ . .
 72
    65
 73
     6
 40
9.0
 49
4.0
 49
-1.0
 49
1.0
 49
-1.0
 49
1.0
 49
-1.0
  0
LTYPE
  2
ACJISTGL
 70
     0
  3
_ _ _ _ _
 72
    65
 73
     2
 40
3.0
 49
2.0
 49
-1.0
  0
LTYPE
  2
CENTER2
 70
     0
  3
Center (.5x) ___ _ ___ _ ___ _ ___ _ ___ _ ___
 72
    65
 73
     4
 40
1.125
 49
0.75
 49
-0.125
 49
0.125
 49
-0.125
  0
LTYPE
  2
HIDDEN2
 70
     0
  3
Hidden (.5x) _ _ _ _ _ _ _ _ _ _ _ _ _ _ _ _ _
 72
    65
 73
     2
 40
0.1875
 49
0.125
 49
-0.0625
  0
LTYPE
  2
AMZIGZAG2
 70
     0
  3
/\/-/\/-/\/-/\/-/\/-/\/
 72
    65
 73
     2
 40
0.4401
 49
0.0001
 49
-0.4400000000000001
  0
LTYPE
  2
ACANSTGB
 70
     0
  3
__ . . __ . .
 72
    65
 73
     6
 40
0.35433070866
 49
0.15748031496
 49
-0.03937007874
 49
0.03937007874
 49
-0.03937007874
 49
0.03937007874
 49
-0.03937007874
  0
LTYPE
  2
ACANSTGL
 70
     0
  3
_ _ _ _ _
 72
    65
 73
     2
 40
0.11811023622
 49
0.07874015748
 49
-0.03937007874
  0
ENDTAB
  0
TABLE
  2
LAYER
 70
     7
  0
LAYER
  2
0
 70
     0
 62
     7
  6
CONTINUOUS
  0
LAYER
  2
AM_0
 70
     0
 62
     7
  6
CONTINUOUS
  0
LAYER
  2
DEFPOINTS
 70
     0
 62
     7
  6
CONTINUOUS
  0
LAYER
  2
ｶｸﾚｾﾝ2
 70
     0
 62
     3
  6
GEN3B
  0
LAYER
  2
ﾁｭｳｼﾝｾﾝ
 70
     0
 62
     1
  6
GEN7
  0
LAYER
  2
ﾁｭｳｼﾝｾﾝ1
 70
     0
 62
     1
  6
GEN7A
  0
LAYER
  2
AM_0N
 70
     0
 62
     7
  6
CONTINUOUS
  0
ENDTAB
  0
TABLE
  2
STYLE
 70
    10
  0
STYLE
  2
STANDARD
 70
     0
 40
0.0
 41
0.8299999999999999
 50
0.0
 71
     0
 42
2.5
  3
txt.shx
  4
bigfont.shx
  0
STYLE
  2
ANNOTATIVE
 70
     0
 40
0.0
 41
1.0
 50
0.0
 71
     0
 42
0.2
  3
txt
  4

  0
STYLE
  2

 70
     1
 40
0.0
 41
1.0
 50
0.0
 71
     0
 42
2.5
  3
ltypeshp.shx
  4

  0
STYLE
  2
ACISOTS
 70
     0
 40
1.0
 41
1.0
 50
0.0
 71
     0
 42
2.5
  3
isocp.shx
  4
extfont.shx
  0
STYLE
  2
ACISOGDT
 70
     0
 40
0.0
 41
1.0
 50
0.0
 71
     0
 42
2.5
  3
amgdt.shx
  4

  0
STYLE
  2
ACANSTS
 70
     0
 40
1.0
 41
1.0
 50
0.0
 71
     0
 42
2.5
  3
romans.shx
  4
bigfont.shx
  0
STYLE
  2
ACANSGDT
 70
     0
 40
0.0
 41
1.0
 50
0.0
 71
     0
 42
2.5
  3
amgdt.shx
  4

  0
STYLE
  2
ACJISTS
 70
     0
 40
1.0
 41
1.0
 50
0.0
 71
     0
 42
2.5
  3
isocp.shx
  4
bigfont.shx
  0
STYLE
  2
ACJISGDT
 70
     0
 40
0.0
 41
1.0
 50
0.0
 71
     0
 42
2.5
  3
amgdt.shx
  4

  0
STYLE
  2

 70
     1
 40
0.0
 41
1.0
 50
0.0
 71
     0
 42
2.5
  3
genltshp.shx
  4

  0
ENDTAB
  0
TABLE
  2
VIEW
 70
     6
  0
VIEW
  2
AM_VIEW1
 70
     0
 40
277.50000000000011
 10
249.64779005524869
 20
416.25
 41
499.29558011049721
 11
0.0
 21
0.0
 31
1.0
 12
0.0
 22
0.0
 32
0.0
 42
50.0
 43
0.0
 44
0.0
 50
0.0
 71
     0
  0
VIEW
  2
AM_VIEW2
 70
     0
 40
277.50000000000011
 10
603.85220994475117
 20
416.25
 41
499.29558011049721
 11
0.0
 21
0.0
 31
1.0
 12
0.0
 22
0.0
 32
0.0
 42
50.0
 43
0.0
 44
0.0
 50
0.0
 71
     0
  0
VIEW
  2
AM_VIEW3
 70
     0
 40
277.50000000000011
 10
249.64779005524869
 20
138.75
 41
499.29558011049721
 11
0.0
 21
0.0
 31
1.0
 12
0.0
 22
0.0
 32
0.0
 42
50.0
 43
0.0
 44
0.0
 50
0.0
 71
     0
  0
VIEW
  2
AM_VIEW4
 70
     0
 40
277.50000000000011
 10
603.85220994475117
 20
138.75
 41
499.29558011049721
 11
0.0
 21
0.0
 31
1.0
 12
0.0
 22
0.0
 32
0.0
 42
50.0
 43
0.0
 44
0.0
 50
0.0
 71
     0
  0
VIEW
  2
AM_VIEW5
 70
     0
 40
277.50000000000011
 10
426.75
 20
277.50000000000011
 41
499.2955801104971
 11
0.0
 21
0.0
 31
1.0
 12
0.0
 22
0.0
 32
0.0
 42
50.0
 43
0.0
 44
0.0
 50
0.0
 71
     0
  0
VIEW
  2
AM_VIEW6
 70
     0
 40
554.99445000000014
 10
426.75
 20
277.5
 41
998.5811743093924
 11
0.0
 21
0.0
 31
1.0
 12
0.0
 22
0.0
 32
0.0
 42
50.0
 43
0.0
 44
0.0
 50
0.0
 71
     0
  0
ENDTAB
  0
TABLE
  2
UCS
 70
     0
  0
ENDTAB
  0
TABLE
  2
APPID
 70
    98
  0
APPID
  2
ACAD
 70
     0
  0
APPID
  2
ACADANNOTATIVE
 70
     0
  0
APPID
  2
MCAD_NO_VIS
 70
     0
  0
APPID
  2
ACAD_TEMP_GRAPHIC
 70
     0
  0
APPID
  2
ACATTRIBSERVICES
 70
     0
  0
APPID
  2
GENIUS_GENREC_14
 70
     0
  0
APPID
  2
GENIUS_GENOBJ-N-REC_13
 70
     0
  0
APPID
  2
GENIUS_GENODEF_13
 70
     0
  0
APPID
  2
GENIUS_GENOLIS_13
 70
     0
  0
APPID
  2
GENIUS_GENOBJ-N-TIT_13
 70
     0
  0
APPID
  2
GENIUS_GENOENT_13
 70
     0
  0
APPID
  2
GENIUS_GENTITLE_13
 70
     0
  0
APPID
  2
GENIUS_GENOREF_13
 70
     0
  0
APPID
  2
GENIUS_GENSCREG_15
 70
     0
  0
APPID
  2
GENIUS_GENOBJ-N-SDF_13
 70
     0
  0
APPID
  2
GENIUS_GENFIL_13
 70
     0
  0
APPID
  2
GENIUS_GENOBJ-N-CHA_13
 70
     0
  0
APPID
  2
GENIUS_GENDTOL_13
 70
     0
  0
APPID
  2
GENIUS_GENOBJ-N-FIL_13
 70
     0
  0
APPID
  2
AD_DRAW
 70
     0
  0
APPID
  2
DESIGNERASSEMBLIES
 70
     0
  0
APPID
  2
ASURF_PCURVE_APPNAME
 70
     0
  0
APPID
  2
GENIUS_GE3SECT_13
 70
     0
  0
APPID
  2
GENIUS_GENCFG_13
 70
     0
  0
APPID
  2
GENIUS_GE3CFG0_13
 70
     0
  0
APPID
  2
GENIUS_GENCFG0_13
 70
     0
  0
APPID
  2
GENIUS_GENCFG1_13
 70
     0
  0
APPID
  2
GENIUS_GENCFG2_13
 70
     0
  0
APPID
  2
GENIUS_GENCFG3_13
 70
     0
  0
APPID
  2
GENIUS_GENCFG4_13
 70
     0
  0
APPID
  2
GENIUS_GEVCFG0_13
 70
     0
  0
APPID
  2
GENIUS_GENHINW_13
 70
     0
  0
APPID
  2
GENIUS_FIRSTVISTXT_14
 70
     0
  0
APPID
  2
GENIUS_GENOBJ-N-LEADER_13
 70
     0
  0
APPID
  2
GEV_VCCNULL_SWITCH_OFF
 70
     0
  0
APPID
  2
GENIUS_GEFCFG0_13
 70
     0
  0
APPID
  2
GENIUS_GENZVEED_13
 70
     0
  0
APPID
  2
GENIUS_GENSCREG_13
 70
     0
  0
APPID
  2
GENIUS_DUMCFG0_13
 70
     0
  0
APPID
  2
GEVID936201362
 70
     0
  0
APPID
  2
GEVDC
 70
     0
  0
APPID
  2
GEVCON
 70
     0
  0
APPID
  2
VCC
 70
     0
  0
APPID
  2
GEVPT
 70
     0
  0
APPID
  2
GEVIT
 70
     0
  0
APPID
  2
GENBH
 70
     0
  0
APPID
  2
GEVMK
 70
     0
  0
APPID
  2
GENIUS_GENBH_13
 70
     0
  0
APPID
  2
GENIUS_GENOBJ-NBEHI-BHF_13
 70
     0
  0
APPID
  2
GENIUS_GENOBJ-NBEHI-BHB_13
 70
     0
  0
APPID
  2
GENIUS_GENOBJ-F-DESC_13
 70
     0
  0
APPID
  2
GENIUS_GEFDESC_14
 70
     0
  0
APPID
  2
GENIUS_GENOBJ-F-PART_13
 70
     0
  0
APPID
  2
GENIUS_GEFSTDP_13
 70
     0
  0
APPID
  2
GENIUS_GEFPARTINS_13
 70
     0
  0
APPID
  2
GENIUS_GENTRA_14
 70
     0
  0
APPID
  2
GENIUS_GENINF13_13
 70
     0
  0
APPID
  2
GENIUS_GENOBJ-N-INFOPT_13
 70
     0
  0
APPID
  2
GENIUS_GENOBJ-N-RSSYM_13
 70
     0
  0
APPID
  2
GENIUS_GENSYMENT_13
 70
     0
  0
APPID
  2
GENIUS_GENSCSYM_13
 70
     0
  0
APPID
  2
GENIUS_GEFINFNAM_13
 70
     0
  0
APPID
  2
GENIUS_GENOBJ-N-CEN_13
 70
     0
  0
APPID
  2
GENIUS_GENOBJ-N-CRS_13
 70
     0
  0
APPID
  2
GENIUS_GENOBJ-N-CRC_13
 70
     0
  0
APPID
  2
GENIUS_GENCRC_14
 70
     0
  0
APPID
  2
GEVID942827039
 70
     0
  0
APPID
  2
GEVID942827040
 70
     0
  0
APPID
  2
GEVID942827041
 70
     0
  0
APPID
  2
GENIUS_GENOBJ-F-SCPASSM_13
 70
     0
  0
APPID
  2
GENIUS_GENDIMSH_14
 70
     0
  0
APPID
  2
GEVID942827042
 70
     0
  0
APPID
  2
GEVID946020473
 70
     0
  0
APPID
  2
GEVID946020474
 70
     0
  0
APPID
  2
GEVID946020475
 70
     0
  0
APPID
  2
GENIUS_GENOBJ-N-HTC_13
 70
     0
  0
APPID
  2
GENIUS_GENHATCH_13
 70
     0
  0
APPID
  2
GEVID948854295
 70
     0
  0
APPID
  2
GEVID939402019
 70
     0
  0
APPID
  2
GEVID952919491
 70
     0
  0
APPID
  2
GEVID952919492
 70
     0
  0
APPID
  2
GENIUS_GEFWELD_13
 70
     0
  0
APPID
  2
GENIUS_GENOBJ-F-WELS_13
 70
     0
  0
APPID
  2
GEVID952919493
 70
     0
  0
APPID
  2
GENIUS_GENOBJ-N-RSBK_13
 70
     0
  0
APPID
  2
GENIUS_GENOBJ-N-LIB_13
 70
     0
  0
APPID
  2
GENIUS_GENSCALE_13
 70
     0
  0
APPID
  2
GEVID986376691
 70
     0
  0
APPID
  2
DCO15
 70
     0
  0
APPID
  2
ACADM_DIM_EDIT
 70
     0
  0
APPID
  2
AMDT_DM_ADJ
 70
     0
  0
APPID
  2
ACAD_PSEXT
 70
     0
  0
APPID
  2
ACAD_DSTYLE_DIMJAG
 70
     0
  0
APPID
  2
ACAD_DSTYLE_DIMBREAK
 70
     0
  0
APPID
  2
ACAD_NAV_VCDISPLAY
 70
     0
  0
APPID
  2
ACADANNOPO
 70
     0
  0
APPID
  2
ACAD_EXEMPT_FROM_CAD_STANDARDS
 70
     0
  0
APPID
  2
ACAD_MLEADERVER
 70
     0
  0
ENDTAB
  0
TABLE
  2
DIMSTYLE
 70
    22
  0
DIMSTYLE
  2
STANDARD
 70
     0
  3

  4

  5

  6

  7

 40
1.0
 41
0.18
 42
0.0625
 43
0.38
 44
0.18
 45
0.0
 46
0.0
 47
0.0
 48
0.0
140
0.18
141
0.09
142
0.0
143
25.399999999999999
144
1.0
145
0.0
146
1.0
147
0.09
 71
     0
 72
     0
 73
     1
 74
     1
 75
     0
 76
     0
 77
     0
 78
     0
170
     0
171
     2
172
     0
173
     0
174
     0
175
     0
176
     0
177
     0
178
     0
  0
DIMSTYLE
  2
ANNOTATIVE
 70
     0
  3

  4

  5

  6

  7

 40
1.0
 41
0.18
 42
0.0625
 43
0.38
 44
0.18
 45
0.0
 46
0.0
 47
0.0
 48
0.0
140
0.18
141
0.09
142
0.0
143
25.399999999999999
144
1.0
145
0.0
146
1.0
147
0.09
 71
     0
 72
     0
 73
     1
 74
     1
 75
     0
 76
     0
 77
     0
 78
     0
170
     0
171
     2
172
     0
173
     0
174
     0
175
     0
176
     0
177
     0
178
     0
  0
DIMSTYLE
  2
AM_ISO
 70
     0
  3

  4
"
  5

  6

  7

 40
1.0
 41
2.5
 42
1.0
 43
8.0
 44
0.6
 45
0.0
 46
0.0
 47
0.1
 48
0.1
140
2.5
141
0.0
142
0.0
143
0.0393701
144
1.0
145
0.0
146
0.71
147
0.8
 71
     0
 72
     0
 73
     0
 74
     0
 75
     0
 76
     0
 77
     1
 78
     8
170
     0
171
     2
172
     1
173
     0
174
     0
175
     0
176
   256
177
   256
178
     4
  0
DIMSTYLE
  2
AM_ISO$3
 70
     0
  3

  4
"
  5

  6

  7

 40
1.0
 41
2.5
 42
1.0
 43
8.0
 44
0.6
 45
0.0
 46
0.0
 47
0.1
 48
0.1
140
2.5
141
0.0
142
0.0
143
0.0393701
144
1.0
145
0.0
146
0.71
147
0.8
 71
     0
 72
     0
 73
     0
 74
     1
 75
     0
 76
     0
 77
     1
 78
     8
170
     0
171
     2
172
     0
173
     0
174
     0
175
     0
176
   256
177
   256
178
     4
  0
DIMSTYLE
  2
AM_ISO$4
 70
     0
  3

  4
"
  5

  6

  7

 40
1.0
 41
2.5
 42
1.0
 43
8.0
 44
0.6
 45
0.0
 46
0.0
 47
0.1
 48
0.1
140
2.5
141
0.0
142
0.0
143
0.0393701
144
1.0
145
0.0
146
0.71
147
0.8
 71
     0
 72
     0
 73
     0
 74
     1
 75
     0
 76
     0
 77
     1
 78
     8
170
     0
171
     2
172
     0
173
     0
174
     0
175
     0
176
   256
177
   256
178
     4
  0
DIMSTYLE
  2
AM_ISO$6
 70
     0
  3

  4
"
  5

  6

  7

 40
1.0
 41
2.5
 42
1.0
 43
8.0
 44
0.6
 45
0.0
 46
0.0
 47
0.1
 48
0.1
140
2.5
141
0.0
142
0.0
143
0.0393701
144
1.0
145
0.0
146
0.71
147
0.8
 71
     0
 72
     0
 73
     0
 74
     0
 75
     0
 76
     0
 77
     0
 78
     8
170
     0
171
     2
172
     1
173
     0
174
     0
175
     0
176
   256
177
   256
178
     4
  0
DIMSTYLE
  2
AM_ISO$7
 70
     0
  3

  4
"
  5

  6

  7

 40
1.0
 41
2.5
 42
1.0
 43
8.0
 44
0.6
 45
0.0
 46
0.0
 47
0.1
 48
0.1
140
2.5
141
0.0
142
0.0
143
0.0393701
144
1.0
145
0.0
146
0.71
147
0.8
 71
     0
 72
     0
 73
     0
 74
     0
 75
     0
 76
     0
 77
     1
 78
     8
170
     0
171
     2
172
     1
173
     0
174
     0
175
     0
176
   256
177
   256
178
     4
  0
DIMSTYLE
  2
AM_ISO$SF
 70
     0
  3

  4
"
  5

  6

  7

 40
1.0
 41
2.5
 42
1.0
 43
10.0
 44
1.0
 45
0.0
 46
0.0
 47
0.1
 48
0.1
140
3.5
141
0.0
142
0.0
143
0.0393701
144
1.0
145
0.0
146
0.71
147
1.5
 71
     0
 72
     0
 73
     0
 74
     0
 75
     1
 76
     1
 77
     1
 78
     8
170
     0
171
     2
172
     1
173
     0
174
     0
175
     0
176
   256
177
   256
178
     2
  0
DIMSTYLE
  2
AM_ISO$SH
 70
     0
  3

  4
"
  5

  6

  7

 40
1.0
 41
2.5
 42
1.0
 43
10.0
 44
1.0
 45
0.0
 46
0.0
 47
0.1
 48
0.1
140
3.5
141
0.0
142
0.0
143
0.0393701
144
2.0
145
0.0
146
0.71
147
1.5
 71
     0
 72
     0
 73
     0
 74
     0
 75
     1
 76
     1
 77
     1
 78
     8
170
     0
171
     2
172
     1
173
     1
174
     0
175
     0
176
   256
177
   256
178
     2
  0
DIMSTYLE
  2
AM_JIS
 70
     0
  3

  4
"
  5

  6

  7

 40
1.0
 41
2.5
 42
1.0
 43
7.0
 44
1.0
 45
0.0
 46
0.0
 47
0.1
 48
0.1000000001
140
2.5
141
0.0
142
0.0
143
0.0393701
144
1.0
145
0.0
146
0.71
147
1.0
 71
     0
 72
     0
 73
     0
 74
     0
 75
     0
 76
     0
 77
     3
 78
     8
170
     0
171
     2
172
     1
173
     0
174
     0
175
     0
176
   256
177
   256
178
     4
  0
DIMSTYLE
  2
AM_JIS$3
 70
     0
  3

  4
"
  5

  6

  7

 40
1.0
 41
2.5
 42
1.0
 43
7.0
 44
1.0
 45
0.0
 46
0.0
 47
0.1
 48
0.1000000001
140
2.5
141
0.0
142
0.0
143
0.0393701
144
1.0
145
0.0
146
0.71
147
1.0
 71
     0
 72
     0
 73
     0
 74
     1
 75
     0
 76
     0
 77
     3
 78
     8
170
     0
171
     2
172
     0
173
     0
174
     0
175
     0
176
   256
177
   256
178
     4
  0
DIMSTYLE
  2
AM_JIS$4
 70
     0
  3

  4
"
  5

  6

  7

 40
1.0
 41
2.5
 42
1.0
 43
7.0
 44
1.0
 45
0.0
 46
0.0
 47
0.1
 48
0.1000000001
140
2.5
141
0.0
142
0.0
143
0.0393701
144
1.0
145
0.0
146
0.71
147
1.0
 71
     0
 72
     0
 73
     0
 74
     0
 75
     0
 76
     0
 77
     3
 78
     8
170
     0
171
     2
172
     0
173
     0
174
     0
175
     0
176
   256
177
   256
178
     4
  0
DIMSTYLE
  2
AM_JIS$6
 70
     0
  3

  4
"
  5

  6

  7

 40
1.0
 41
2.5
 42
1.0
 43
7.0
 44
1.0
 45
0.0
 46
0.0
 47
0.1
 48
0.1000000001
140
2.5
141
0.0
142
0.0
143
0.0393701
144
1.0
145
0.0
146
0.71
147
1.0
 71
     0
 72
     0
 73
     0
 74
     0
 75
     0
 76
     0
 77
     0
 78
     8
170
     0
171
     2
172
     1
173
     0
174
     0
175
     0
176
   256
177
   256
178
     4
  0
DIMSTYLE
  2
AM_JIS$7
 70
     0
  3

  4
"
  5

  6

  7

 40
1.0
 41
2.5
 42
1.0
 43
7.0
 44
1.0
 45
0.0
 46
0.0
 47
0.1
 48
0.1000000001
140
2.5
141
0.0
142
0.0
143
0.0393701
144
1.0
145
0.0
146
0.71
147
1.0
 71
     0
 72
     0
 73
     0
 74
     0
 75
     0
 76
     0
 77
     3
 78
     8
170
     0
171
     2
172
     1
173
     0
174
     0
175
     0
176
   256
177
   256
178
     4
  0
DIMSTYLE
  2
AM_JIS$SF
 70
     0
  3

  4
"
  5

  6

  7

 40
1.0
 41
2.5
 42
1.0
 43
10.0
 44
1.0
 45
0.0
 46
0.0
 47
0.1
 48
0.1
140
3.5
141
0.0
142
0.0
143
0.0393701
144
1.0
145
0.0
146
0.71
147
1.5
 71
     0
 72
     0
 73
     0
 74
     0
 75
     1
 76
     1
 77
     3
 78
     8
170
     0
171
     2
172
     1
173
     0
174
     0
175
     0
176
   256
177
   256
178
     4
  0
DIMSTYLE
  2
AM_JIS$SH
 70
     0
  3

  4
"
  5

  6

  7

 40
1.0
 41
2.5
 42
1.0
 43
10.0
 44
1.0
 45
0.0
 46
0.0
 47
0.1
 48
0.1
140
3.5
141
0.0
142
0.0
143
0.0393701
144
1.0
145
0.0
146
0.71
147
1.5
 71
     0
 72
     0
 73
     0
 74
     0
 75
     1
 76
     0
 77
     3
 78
     8
170
     0
171
     2
172
     1
173
     1
174
     0
175
     0
176
   256
177
   256
178
     4
  0
DIMSTYLE
  2
AM_ANSI
 70
     0
  3

  4
mm
  5

  6

  7

 40
1.0
 41
0.12
 42
0.05
 43
0.5
 44
0.1
 45
0.0
 46
0.0
 47
0.1
 48
0.1
140
0.12
141
0.0
142
0.0
143
25.399999999999999
144
1.0
145
0.0
146
0.71
147
0.06
 71
     0
 72
     0
 73
     1
 74
     1
 75
     0
 76
     0
 77
     0
 78
     7
170
     0
171
     2
172
     0
173
     0
174
     0
175
     0
176
   256
177
   256
178
     2
  0
DIMSTYLE
  2
AM_ANSI$3
 70
     0
  3

  4
mm
  5

  6

  7

 40
1.0
 41
0.12
 42
0.05
 43
0.5
 44
0.1
 45
0.0
 46
0.0
 47
0.1
 48
0.1
140
0.12
141
0.0
142
0.0
143
25.399999999999999
144
1.0
145
0.0
146
0.71
147
0.06
 71
     0
 72
     0
 73
     1
 74
     1
 75
     0
 76
     0
 77
     0
 78
     7
170
     0
171
     2
172
     0
173
     0
174
     0
175
     0
176
   256
177
   256
178
     2
  0
DIMSTYLE
  2
AM_ANSI$4
 70
     0
  3

  4
mm
  5

  6

  7

 40
1.0
 41
0.12
 42
0.05
 43
0.5
 44
0.1
 45
0.0
 46
0.0
 47
0.1
 48
0.1
140
0.12
141
0.0
142
0.0
143
25.399999999999999
144
1.0
145
0.0
146
0.71
147
0.06
 71
     0
 72
     0
 73
     1
 74
     1
 75
     0
 76
     0
 77
     0
 78
     7
170
     0
171
     2
172
     0
173
     0
174
     0
175
     0
176
   256
177
   256
178
     2
  0
DIMSTYLE
  2
AM_ANSI$7
 70
     0
  3

  4
mm
  5

  6

  7

 40
1.0
 41
0.12
 42
0.05
 43
0.5
 44
0.1
 45
0.0
 46
0.0
 47
0.1
 48
0.1
140
0.12
141
0.0
142
0.0
143
25.399999999999999
144
1.0
145
0.0
146
0.71
147
0.06
 71
     0
 72
     0
 73
     1
 74
     1
 75
     0
 76
     0
 77
     0
 78
     7
170
     0
171
     2
172
     0
173
     0
174
     0
175
     0
176
   256
177
   256
178
     2
  0
DIMSTYLE
  2
AM_ANSI$SF
 70
     0
  3

  4
mm
  5

  6

  7

 40
1.0
 41
0.12
 42
0.05
 43
0.5
 44
0.1
 45
0.0
 46
0.0
 47
0.1
 48
0.1
140
0.12
141
0.0
142
0.0
143
25.399999999999999
144
1.0
145
0.0
146
0.71
147
0.06
 71
     0
 72
     0
 73
     1
 74
     1
 75
     1
 76
     1
 77
     0
 78
     7
170
     0
171
     2
172
     0
173
     0
174
     0
175
     0
176
   256
177
   256
178
     2
  0
DIMSTYLE
  2
AM_ANSI$SH
 70
     0
  3

  4
mm
  5

  6
GENAXEH
  7

 40
1.0
 41
0.12
 42
0.05
 43
0.5
 44
0.1
 45
0.0
 46
0.0
 47
0.1
 48
0.1
140
0.12
141
0.0
142
0.0
143
25.399999999999999
144
1.0
145
0.0
146
0.71
147
0.06
 71
     0
 72
     0
 73
     1
 74
     1
 75
     1
 76
     1
 77
     0
 78
     7
170
     0
171
     2
172
     0
173
     1
174
     0
175
     0
176
   256
177
   256
178
     2
  0
ENDTAB
  0
ENDSEC
  0
SECTION
  2
BLOCKS
  0
BLOCK
  8
0
  2
$MODEL_SPACE
 70
     0
 10
0.0
 20
0.0
 30
0.0
  3
$MODEL_SPACE
  1

  0
ENDBLK
  5
532E
  8
0
  0
BLOCK
 67
     1
  8
0
  2
$PAPER_SPACE
 70
     0
 10
0.0
 20
0.0
 30
0.0
  3
$PAPER_SPACE
  1

  0
ENDBLK
  5
532A
 67
     1
  8
0
  0
BLOCK
  8
0
  2
GENAXEH
 70
     0
 10
0.0
 20
0.0
 30
0.0
  3
GENAXEH
  1

  0
LINE
  5
73
  8
0
 10
-1.0
 20
0.0
 30
0.0
 11
1.0
 21
0.0
 31
0.0
  0
ENDBLK
  5
75
  8
0
  0
BLOCK
  8
0
  2
_OPEN30
 70
     0
 10
0.0
 20
0.0
 30
0.0
  3
_OPEN30
  1

  0
LINE
  5
31A
  8
0
 62
     0
 10
-1.0
 20
0.26794919
 30
0.0
 11
0.0
 21
0.0
 31
0.0
  0
LINE
  5
31B
  8
0
 62
     0
 10
0.0
 20
0.0
 30
0.0
 11
-1.0
 21
-0.26794919
 31
0.0
  0
LINE
  5
31C
  8
0
 62
     0
 10
0.0
 20
0.0
 30
0.0
 11
-1.0
 21
0.0
 31
0.0
  0
ENDBLK
  5
31E
  8
0
  0
BLOCK
  8
0
  2
_NONE
 70
     0
 10
0.0
 20
0.0
 30
0.0
  3
_NONE
  1

  0
ENDBLK
  5
579
  8
0
  0
BLOCK
  8
0
  2
*U5
 70
     1
 10
0.0
 20
0.0
 30
0.0
  3
*U5
  1

  0
TEXT
  5
52BB
  8
AM_0
 10
547.71280932735715
 20
571.21453647892542
 30
0.0
 40
10.0
  1
ＶＸ０４－０１５～０３０ＭＷ
 41
0.8299999999999999
  0
ENDBLK
  5
52BD
  8
0
  0
BLOCK
  8
0
  2
_ACMFILLEDHALF
 70
     0
 10
0.0
 20
0.0
 30
0.0
  3
_ACMFILLEDHALF
  1

  0
TRACE
  5
542D
  8
AM_0
 62
     0
 10
-0.8
 20
0.0
 30
0.0
 11
-1.0
 21
0.166666666
 31
0.0
 12
0.0
 22
0.0
 32
0.0
 13
0.0
 23
0.0
 33
0.0
  0
LINE
  5
542E
  8
AM_0
 62
     0
 10
-1.0
 20
0.0
 30
0.0
 11
-0.8
 21
0.0
 31
0.0
  0
ENDBLK
  5
542C
  8
0
  0
ENDSEC
  0
SECTION
  2
ENTITIES
  0
LINE
  5
19B2
  8
AM_0
 10
167.33287713026101
 20
235.40133719125609
 30
0.0
 11
132.33286713026081
 21
237.4313381912562
 31
0.0
  0
LINE
  5
19B3
  8
AM_0
 10
167.33287713026101
 20
328.10134619125608
 30
0.0
 11
132.33286713026081
 21
326.07133619125619
 31
0.0
  0
LINE
  5
19B4
  8
AM_0
 10
119.612897130261
 20
234.1113461912561
 30
0.0
 11
122.332877130261
 21
234.1113461912561
 31
0.0
  0
LINE
  5
19B5
  8
AM_0
 10
119.1028971302609
 20
232.14136019125621
 30
0.0
 11
117.832877130261
 21
232.87135319125619
 31
0.0
  0
LINE
  5
19B6
  8
AM_0
 10
122.332877130261
 20
224.3213351912562
 30
0.0
 11
125.1528771302609
 21
224.25132719125619
 31
0.0
  0
LINE
  5
19B7
  8
AM_0
 10
119.0828871302608
 20
238.7913521912561
 30
0.0
 11
117.78289713026101
 21
239.6413271912561
 31
0.0
  0
LINE
  5
19B8
  8
AM_0
 10
119.092877130261
 20
234.2513591912562
 30
0.0
 11
117.8128671302609
 21
235.02136319125611
 31
0.0
  0
LINE
  5
19B9
  8
AM_0
 10
119.6029071302609
 20
232.00132919125619
 30
0.0
 11
121.832927130261
 21
232.00132919125619
 31
0.0
  0
LINE
  5
19BA
  8
AM_0
 10
119.57287713026101
 20
233.15133719125609
 30
0.0
 11
121.832927130261
 21
233.15133719125609
 31
0.0
  0
LINE
  5
19BB
  8
AM_0
 10
119.1229071302609
 20
233.2613381912561
 30
0.0
 11
117.8828571302609
 21
233.8913441912562
 31
0.0
  0
LINE
  5
19BC
  8
AM_0
 10
119.6029071302609
 20
239.77133219125611
 30
0.0
 11
121.3328871302608
 21
239.77133219125611
 31
0.0
  0
LINE
  5
19BD
  8
AM_0
 10
119.6329371302609
 20
238.6313171912561
 30
0.0
 11
122.332877130261
 21
238.6313171912561
 31
0.0
  0
LINE
  5
19BE
  8
AM_0
 10
119.582927130261
 20
235.25132819125611
 30
0.0
 11
121.3328871302608
 21
235.25132819125611
 31
0.0
  0
LINE
  5
19BF
  8
AM_0
 10
119.1028371302608
 20
239.90135219125611
 30
0.0
 11
117.8228571302608
 21
240.6513371912562
 31
0.0
  0
LINE
  5
19C0
  8
AM_0
 10
270.332927130261
 20
218.2513421912561
 30
0.0
 11
278.33288713026081
 21
218.25134219125621
 31
0.0
  0
LINE
  5
19C1
  8
AM_0
 10
270.332927130261
 20
230.2513181912561
 30
0.0
 11
278.33288713026081
 21
230.2513181912561
 31
0.0
  0
LINE
  5
19C2
  8
AM_0
 10
167.33287713026101
 20
235.40133719125609
 30
0.0
 11
269.33287713026101
 21
235.40133719125609
 31
0.0
  0
LINE
  5
19C3
  8
AM_0
 10
269.042897130261
 20
230.72133119125621
 30
0.0
 11
266.63293713026093
 21
230.72133119125621
 31
0.0
  0
LINE
  5
19C4
  8
AM_0
 10
266.13286713026088
 20
222.83133119125611
 30
0.0
 11
267.57286713026087
 21
229.53132719125611
 31
0.0
  0
LINE
  5
19C5
  8
AM_0
 10
264.04288713026091
 20
221.25134519125621
 30
0.0
 11
269.33287713026101
 21
221.25134519125621
 31
0.0
  0
LINE
  5
19C7
  8
AM_0
 10
127.0128771302609
 20
248.38132019125621
 30
0.0
 11
170.33287713026101
 21
248.38132019125621
 31
0.0
  0
LINE
  5
19C8
  8
AM_0
 10
170.33287713026101
 20
245.75132819125611
 30
0.0
 11
127.8829371302609
 21
245.75132819125611
 31
0.0
  0
LINE
  5
19CA
  8
AM_0
 10
127.0128771302609
 20
245.03134319125621
 30
0.0
 11
170.33287713026101
 21
245.03134319125621
 31
0.0
  0
LINE
  5
19CB
  8
AM_0
 10
122.332877130261
 20
247.4513261912561
 30
0.0
 11
125.502917130261
 21
247.4513261912561
 31
0.0
  0
LINE
  5
19CC
  8
AM_0
 10
128.50291713026101
 20
223.4913341912561
 30
0.0
 11
141.83287713026101
 21
223.4913341912561
 31
0.0
  0
LINE
  5
19CD
  8
AM_0
 10
145.33288713026079
 20
219.89132819125609
 30
0.0
 11
262.14286713026098
 21
219.89132819125609
 31
0.0
  0
LINE
  5
19CE
  8
AM_0
 10
128.4428571302609
 20
218.45134019125609
 30
0.0
 11
141.9428571302609
 21
218.45134019125609
 31
0.0
  0
LINE
  5
19CF
  8
AM_0
 10
128.5629171302609
 20
228.77131919125611
 30
0.0
 11
141.83287713026101
 21
228.77131919125611
 31
0.0
  0
LINE
  5
19D0
  8
AM_0
 10
126.052847130261
 20
233.4013391912562
 30
0.0
 11
126.592877130261
 21
230.41133219125621
 31
0.0
  0
LINE
  5
19D1
  8
AM_0
 10
119.332877130261
 20
238.9213421912562
 30
0.0
 11
119.332877130261
 21
239.39132819125621
 31
0.0
  0
LINE
  5
19D2
  8
AM_0
 10
122.332877130261
 20
233.40132419125621
 30
0.0
 11
132.332927130261
 21
233.40132419125621
 31
0.0
  0
LINE
  5
19D3
  8
AM_0
 10
119.332877130261
 20
234.35131919125621
 30
0.0
 11
119.332877130261
 21
234.90132419125621
 31
0.0
  0
LINE
  5
19D4
  8
AM_0
 10
119.112827130261
 20
235.37132519125609
 30
0.0
 11
117.86290713026079
 21
236.03132819125611
 31
0.0
  0
LINE
  5
19D5
  8
AM_0
 10
132.332927130261
 20
233.40132419125621
 30
0.0
 11
132.332927130261
 21
247.4513261912561
 31
0.0
  0
LINE
  5
19D6
  8
AM_0
 10
119.332877130261
 20
232.25132819125619
 30
0.0
 11
119.332877130261
 21
232.7813261912562
 31
0.0
  0
LINE
  5
19D7
  8
AM_0
 10
264.0728571302609
 20
221.3713391912562
 30
0.0
 11
267.53287713026089
 21
234.2913371912561
 31
0.0
  0
LINE
  5
19D8
  8
AM_0
 10
126.502847130261
 20
219.96133619125609
 30
0.0
 11
125.6128371302609
 21
223.50132719125611
 31
0.0
  0
LINE
  5
19D9
  8
AM_0
 10
126.5228871302609
 20
221.6213381912562
 30
0.0
 11
125.6028471302609
 21
225.5013431912561
 31
0.0
  0
LINE
  5
19DA
  8
AM_0
 10
200.33287713026101
 20
217.84132619125609
 30
0.0
 11
200.33287713026101
 21
219.89132819125609
 31
0.0
  0
LINE
  5
19DB
  8
AM_0
 10
143.33287713026101
 20
219.8613431912562
 30
0.0
 11
143.33287713026101
 21
227.2713161912562
 31
0.0
  0
LINE
  5
19DC
  8
AM_0
 10
124.16287713026099
 20
224.6313341912562
 30
0.0
 11
125.8129071302608
 21
224.6313341912562
 31
0.0
  0
LINE
  5
19DF
  8
AM_0
 10
167.33287713026101
 20
328.10131619125622
 30
0.0
 11
269.33287713026101
 21
328.10131619125622
 31
0.0
  0
LINE
  5
19E0
  8
AM_0
 10
269.33287713026101
 20
344.2513361912562
 30
0.0
 11
269.33287713026101
 21
219.2513291912561
 31
0.0
  0
LINE
  5
19E2
  8
AM_0
 10
270.332927130261
 20
345.25132619125628
 30
0.0
 11
278.33288713026081
 21
345.25132619125611
 31
0.0
  0
LINE
  5
19E4
  8
AM_0
 10
269.33287713026101
 20
318.90132419125621
 30
0.0
 11
278.33288713026087
 21
318.90132419125621
 31
0.0
  0
LINE
  5
19E5
  8
AM_0
 10
270.332927130261
 20
333.25132019125618
 30
0.0
 11
278.33288713026081
 21
333.25132019125613
 31
0.0
  0
LINE
  5
19E6
  8
AM_0
 10
269.33287713026101
 20
244.60133519125611
 30
0.0
 11
278.33288713026087
 21
244.60133519125611
 31
0.0
  0
LINE
  5
19E8
  8
AM_0
 10
122.33281713026091
 20
339.18136619125607
 30
0.0
 11
125.152817130261
 21
339.25135619125609
 31
0.0
  0
LINE
  5
19E9
  8
AM_0
 10
122.332877130261
 20
339.18133619125609
 30
0.0
 11
122.332877130261
 21
281.7513311912561
 31
0.0
  0
LINE
  5
19EA
  8
AM_0
 10
117.332927130261
 20
329.77132619125621
 30
0.0
 11
117.332927130261
 21
286.75132919125622
 31
0.0
  0
LINE
  5
19EB
  8
AM_0
 10
119.6029071302609
 20
331.5013361912562
 30
0.0
 11
121.832927130261
 21
331.5013361912562
 31
0.0
  0
LINE
  5
19ED
  8
AM_0
 10
119.5328871302609
 20
317.4413351912562
 30
0.0
 11
121.6328571302609
 21
317.4413351912562
 31
0.0
  0
LINE
  5
19EE
  8
AM_0
 10
119.1028971302609
 20
331.3713161912562
 30
0.0
 11
117.832877130261
 21
330.63133619125608
 31
0.0
  0
LINE
  5
19EF
  8
AM_0
 10
119.0928171302609
 20
329.2513361912562
 30
0.0
 11
117.8128671302609
 21
328.48135619125628
 31
0.0
  0
LINE
  5
19F0
  8
AM_0
 10
119.0828871302608
 20
324.71128619125619
 30
0.0
 11
117.78289713026101
 21
323.86132619125618
 31
0.0
  0
LINE
  5
19F1
  8
AM_0
 10
119.14285713026079
 20
317.36134619125608
 30
0.0
 11
117.9428571302609
 21
316.85133719125611
 31
0.0
  0
LINE
  5
19F2
  8
AM_0
 10
119.612897130261
 20
329.39131619125618
 30
0.0
 11
122.332877130261
 21
329.39131619125618
 31
0.0
  0
LINE
  5
19F3
  8
AM_0
 10
119.6329371302609
 20
324.88132619125628
 30
0.0
 11
122.332877130261
 21
324.88132619125628
 31
0.0
  0
LINE
  5
19F4
  8
AM_0
 10
119.4829071302609
 20
315.49132019125619
 30
0.0
 11
121.3328871302608
 21
315.49132019125619
 31
0.0
  0
LINE
  5
19F5
  8
AM_0
 10
119.6029071302609
 20
323.74132619125618
 30
0.0
 11
121.3328871302608
 21
323.74132619125618
 31
0.0
  0
LINE
  5
19F6
  8
AM_0
 10
119.582927130261
 20
328.25134619125612
 30
0.0
 11
121.3328871302608
 21
328.25134619125612
 31
0.0
  0
LINE
  5
19F7
  8
AM_0
 10
119.57287713026101
 20
330.35131619125622
 30
0.0
 11
121.832927130261
 21
330.35131619125622
 31
0.0
  0
LINE
  5
19F8
  8
AM_0
 10
119.1028971302609
 20
323.60131619125622
 30
0.0
 11
117.8228571302608
 21
322.85130719125613
 31
0.0
  0
LINE
  5
19F9
  8
AM_0
 10
119.192927130261
 20
315.45131219125608
 30
0.0
 11
118.0429071302608
 21
315.10133819125627
 31
0.0
  0
LINE
  5
19FA
  8
AM_0
 10
119.1229071302609
 20
330.25132619125628
 30
0.0
 11
117.8828571302609
 21
329.62132619125617
 31
0.0
  0
LINE
  5
19FB
  8
AM_0
 10
119.112827130261
 20
328.14133619125607
 30
0.0
 11
117.862847130261
 21
327.4713461912562
 31
0.0
  0
LINE
  5
19FC
  8
AM_0
 10
121.3328871302608
 20
307.75133219125621
 30
0.0
 11
118.3328871302608
 21
307.75133219125621
 31
0.0
  0
LINE
  5
19FD
  8
AM_0
 10
121.3328871302608
 20
305.75133119125621
 30
0.0
 11
118.3328871302608
 21
305.75133119125621
 31
0.0
  0
LINE
  5
19FE
  8
AM_0
 10
121.3328871302608
 20
297.75133019125622
 30
0.0
 11
118.3328871302608
 21
297.75133019125622
 31
0.0
  0
LINE
  5
19FF
  8
AM_0
 10
121.3328871302608
 20
295.7513321912561
 30
0.0
 11
118.3328871302608
 21
295.7513321912561
 31
0.0
  0
LINE
  5
1A00
  8
AM_0
 10
121.3328871302608
 20
287.7513311912561
 30
0.0
 11
118.3328871302608
 21
287.7513311912561
 31
0.0
  0
LINE
  5
1A01
  8
AM_0
 10
121.3328871302608
 20
285.7513301912561
 30
0.0
 11
118.3328871302608
 21
285.7513301912561
 31
0.0
  0
LINE
  5
1A02
  8
AM_0
 10
119.332877130261
 20
297.3613151912561
 30
0.0
 11
119.332877130261
 21
296.15132519125609
 31
0.0
  0
LINE
  5
1A03
  8
AM_0
 10
119.332877130261
 20
287.36134619125619
 30
0.0
 11
119.332877130261
 21
286.20131219125608
 31
0.0
  0
LINE
  5
1A04
  8
AM_0
 10
119.332877130261
 20
307.3813361912562
 30
0.0
 11
119.332877130261
 21
306.01134119125612
 31
0.0
  0
LINE
  5
1A05
  8
AM_0
 10
119.332877130261
 20
317.14134719125622
 30
0.0
 11
119.332877130261
 21
316.0813481912561
 31
0.0
  0
LINE
  5
1A06
  8
AM_0
 10
119.332877130261
 20
324.5813261912561
 30
0.0
 11
119.332877130261
 21
324.11134619125608
 31
0.0
  0
LINE
  5
1A07
  8
AM_0
 10
119.332877130261
 20
329.15131619125623
 30
0.0
 11
119.332877130261
 21
328.60132619125619
 31
0.0
  0
LINE
  5
1A08
  8
AM_0
 10
119.332877130261
 20
331.25134619125612
 30
0.0
 11
119.332877130261
 21
330.72133619125623
 31
0.0
  0
LINE
  5
1A09
  8
AM_0
 10
115.832927130261
 20
301.75133219125621
 30
0.0
 11
115.832927130261
 21
281.7513311912561
 31
0.0
  0
LINE
  5
1A0A
  8
AM_0
 10
115.83286713026079
 20
301.75136219125608
 30
0.0
 11
117.33286713026079
 21
301.88133719125608
 31
0.0
  0
LINE
  5
1A0B
  8
AM_0
 10
115.832927130261
 20
299.03132819125608
 30
0.0
 11
117.332927130261
 21
299.03132819125608
 31
0.0
  0
LINE
  5
1A12
  8
AM_0
 10
132.332927130261
 20
330.10132619125619
 30
0.0
 11
132.332927130261
 21
316.06132919125599
 31
0.0
  0
LINE
  5
1A13
  8
AM_0
 10
122.332877130261
 20
316.06132919125599
 30
0.0
 11
132.332927130261
 21
316.06132919125599
 31
0.0
  0
LINE
  5
1A14
  8
AM_0
 10
122.332877130261
 20
324.44134619125617
 30
0.0
 11
132.332927130261
 21
324.44134619125617
 31
0.0
  0
LINE
  5
1A15
  8
AM_0
 10
122.332877130261
 20
330.10132619125619
 30
0.0
 11
132.332927130261
 21
330.10132619125619
 31
0.0
  0
LINE
  5
1A22
  8
AM_0
 10
169.33287713026101
 20
267.75134519125612
 30
0.0
 11
127.8829371302609
 21
267.75134519125612
 31
0.0
  0
LINE
  5
1A28
  8
AM_0
 10
145.33288713026079
 20
343.61134619125602
 30
0.0
 11
262.14286713026098
 21
343.61134619125602
 31
0.0
  0
LINE
  5
1A29
  8
AM_0
 10
128.5629171302609
 20
334.73134619125608
 30
0.0
 11
141.83287713026101
 21
334.73134619125608
 31
0.0
  0
LINE
  5
1A2A
  8
AM_0
 10
126.05290713026091
 20
330.10135619125612
 30
0.0
 11
126.592877130261
 21
333.0913661912561
 31
0.0
  0
LINE
  5
1A2B
  8
AM_0
 10
128.50291713026101
 20
340.0213061912562
 30
0.0
 11
141.83287713026101
 21
340.0213061912562
 31
0.0
  0
LINE
  5
1A2D
  8
AM_0
 10
128.4728871302608
 20
343.42132619125613
 30
0.0
 11
141.83287713026101
 21
343.42132619125613
 31
0.0
  0
LINE
  5
1A2E
  8
AM_0
 10
128.4428571302609
 20
345.05131619125609
 30
0.0
 11
141.9428571302609
 21
345.05131619125609
 31
0.0
  0
LINE
  5
1A2F
  8
AM_0
 10
145.33288713026079
 20
347.6713361912561
 30
0.0
 11
198.332927130261
 21
347.6713361912561
 31
0.0
  0
LINE
  5
1A30
  8
AM_0
 10
145.33288713026079
 20
346.99132619125618
 30
0.0
 11
198.332927130261
 21
346.99132619125618
 31
0.0
  0
LINE
  5
1A31
  8
AM_0
 10
145.33288713026079
 20
345.64135619125619
 30
0.0
 11
198.332927130261
 21
345.64135619125619
 31
0.0
  0
LINE
  5
1A32
  8
AM_0
 10
124.1228571302609
 20
332.79133619125599
 30
0.0
 11
126.5328771302609
 21
332.79133619125599
 31
0.0
  0
LINE
  5
1A33
  8
AM_0
 10
126.54283713026091
 20
338.4413561912562
 30
0.0
 11
125.5828071302609
 21
333.97135619125612
 31
0.0
  0
LINE
  5
1A34
  8
AM_0
 10
124.142867130261
 20
336.85132619125619
 30
0.0
 11
126.20293713026081
 21
336.85132619125619
 31
0.0
  0
LINE
  5
1A35
  8
AM_0
 10
170.33287713026101
 20
317.75133119125621
 30
0.0
 11
136.8829371302609
 21
317.75133119125621
 31
0.0
  0
LINE
  5
1A36
  8
AM_0
 10
170.33287713026101
 20
315.75133019125627
 30
0.0
 11
136.8829371302609
 21
315.75133019125627
 31
0.0
  0
LINE
  5
1A37
  8
AM_0
 10
169.33287713026101
 20
307.75133219125621
 30
0.0
 11
136.8829371302609
 21
307.75133219125621
 31
0.0
  0
LINE
  5
1A38
  8
AM_0
 10
126.5228871302609
 20
341.88133619125608
 30
0.0
 11
125.6029071302609
 21
338.00134619125618
 31
0.0
  0
LINE
  5
1A39
  8
AM_0
 10
169.33287713026101
 20
305.75133119125621
 30
0.0
 11
136.8829371302609
 21
305.75133119125621
 31
0.0
  0
LINE
  5
1A3A
  8
AM_0
 10
124.16287713026099
 20
338.8713161912562
 30
0.0
 11
125.8129071302608
 21
338.8713161912562
 31
0.0
  0
LINE
  5
1A3B
  8
AM_0
 10
126.502847130261
 20
343.54132619125608
 30
0.0
 11
125.6128371302609
 21
340.01134619125611
 31
0.0
  0
LINE
  5
1A3C
  8
AM_0
 10
169.33287713026101
 20
297.75133019125622
 30
0.0
 11
127.8829371302609
 21
297.75133019125622
 31
0.0
  0
LINE
  5
1A3D
  8
AM_0
 10
143.33287713026101
 20
343.64131619125618
 30
0.0
 11
143.33287713026101
 21
336.23134619125608
 31
0.0
  0
LINE
  5
1A3E
  8
AM_0
 10
169.33287713026101
 20
295.7513321912561
 30
0.0
 11
127.8829371302609
 21
295.7513321912561
 31
0.0
  0
LINE
  5
1A3F
  8
AM_0
 10
140.93420603391499
 20
287.75133119125638
 30
0.0
 11
127.8829371302609
 21
287.7513311912561
 31
0.0
  0
LINE
  5
1A40
  8
AM_0
 10
200.33287713026101
 20
345.67132619125618
 30
0.0
 11
200.33287713026101
 21
343.61134619125602
 31
0.0
  0
LINE
  5
1A41
  8
AM_0
 10
140.93420603391499
 20
285.7513301912561
 30
0.0
 11
127.8829371302609
 21
285.7513301912561
 31
0.0
  0
LINE
  5
1A42
  8
AM_0
 10
264.0728571302609
 20
342.13132619125628
 30
0.0
 11
267.53287713026089
 21
329.21134619125621
 31
0.0
  0
LINE
  5
1A43
  8
AM_0
 10
264.04288713026091
 20
342.25132619125628
 30
0.0
 11
269.33287713026101
 21
342.25132619125628
 31
0.0
  0
LINE
  5
1A44
  8
AM_0
 10
269.042897130261
 20
332.79133619125599
 30
0.0
 11
266.63293713026093
 21
332.79133619125599
 31
0.0
  0
LINE
  5
1A45
  8
AM_0
 10
266.1329271302609
 20
340.67134619125619
 30
0.0
 11
267.57292713026089
 21
333.97135619125612
 31
0.0
  0
LINE
  5
1A46
  8
AM_0
 10
122.332877130261
 20
224.3213351912562
 30
0.0
 11
122.332877130261
 21
281.7513311912561
 31
0.0
  0
LINE
  5
1A47
  8
AM_0
 10
117.332927130261
 20
233.1613181912561
 30
0.0
 11
117.332927130261
 21
276.75134519125612
 31
0.0
  0
LINE
  5
1A48
  8
AM_0
 10
119.5328871302609
 20
246.0613271912562
 30
0.0
 11
121.6328571302609
 21
246.0613271912562
 31
0.0
  0
LINE
  5
1A49
  8
AM_0
 10
119.14285713026079
 20
246.1413431912562
 30
0.0
 11
117.9429171302608
 21
246.6613181912561
 31
0.0
  0
LINE
  5
1A4A
  8
AM_0
 10
119.4829071302609
 20
248.01133919125621
 30
0.0
 11
121.3328871302608
 21
248.01133919125621
 31
0.0
  0
LINE
  5
1A4B
  8
AM_0
 10
119.19286713026079
 20
248.0513471912561
 30
0.0
 11
118.0429071302608
 21
248.41134719125611
 31
0.0
  0
LINE
  5
1A4C
  8
AM_0
 10
121.3328871302608
 20
255.75134519125621
 30
0.0
 11
118.3328871302608
 21
255.75134519125621
 31
0.0
  0
LINE
  5
1A4D
  8
AM_0
 10
121.3328871302608
 20
257.75132819125628
 30
0.0
 11
118.3328871302608
 21
257.75132819125628
 31
0.0
  0
LINE
  5
1A4E
  8
AM_0
 10
121.3328871302608
 20
265.7513291912561
 30
0.0
 11
118.3328871302608
 21
265.7513291912561
 31
0.0
  0
LINE
  5
1A4F
  8
AM_0
 10
121.3328871302608
 20
267.75134519125612
 30
0.0
 11
118.3328871302608
 21
267.75134519125612
 31
0.0
  0
LINE
  5
1A50
  8
AM_0
 10
121.3328871302608
 20
275.7513311912561
 30
0.0
 11
118.3328871302608
 21
275.7513311912561
 31
0.0
  0
LINE
  5
1A51
  8
AM_0
 10
121.3328871302608
 20
277.7513291912561
 30
0.0
 11
118.3328871302608
 21
277.7513291912561
 31
0.0
  0
LINE
  5
1A52
  8
AM_0
 10
119.332877130261
 20
266.14134419125628
 30
0.0
 11
119.332877130261
 21
267.36133019125612
 31
0.0
  0
LINE
  5
1A53
  8
AM_0
 10
119.332877130261
 20
276.14132819125609
 30
0.0
 11
119.332877130261
 21
277.30134719125613
 31
0.0
  0
LINE
  5
1A54
  8
AM_0
 10
119.332877130261
 20
256.12132319125612
 30
0.0
 11
119.332877130261
 21
257.49132119125608
 31
0.0
  0
LINE
  5
1A55
  8
AM_0
 10
119.332877130261
 20
246.36133019125609
 30
0.0
 11
119.332877130261
 21
247.42132619125621
 31
0.0
  0
LINE
  5
1A56
  8
AM_0
 10
115.832927130261
 20
261.75134519125612
 30
0.0
 11
115.832927130261
 21
281.7513311912561
 31
0.0
  0
LINE
  5
1A57
  8
AM_0
 10
115.83286713026079
 20
261.7513301912561
 30
0.0
 11
117.33286713026079
 21
261.62132519125612
 31
0.0
  0
LINE
  5
1A58
  8
AM_0
 10
115.832927130261
 20
264.47133119125613
 30
0.0
 11
117.332927130261
 21
264.47133119125613
 31
0.0
  0
LINE
  5
1A59
  8
AM_0
 10
145.33288713026079
 20
215.83132919125609
 30
0.0
 11
198.332927130261
 21
215.83132919125609
 31
0.0
  0
LINE
  5
1A5A
  8
AM_0
 10
128.4728871302608
 20
220.0813451912561
 30
0.0
 11
141.83287713026101
 21
220.0813451912561
 31
0.0
  0
LINE
  5
1A5B
  8
AM_0
 10
122.332877130261
 20
239.0613251912562
 30
0.0
 11
132.332927130261
 21
239.0613251912562
 31
0.0
  0
LINE
  5
1A5C
  8
AM_0
 10
145.33288713026079
 20
216.51133919125621
 30
0.0
 11
198.332927130261
 21
216.51133919125621
 31
0.0
  0
LINE
  5
1A5D
  8
AM_0
 10
124.142867130261
 20
226.6513211912561
 30
0.0
 11
126.20293713026081
 21
226.6513211912561
 31
0.0
  0
LINE
  5
1A5E
  8
AM_0
 10
124.1228571302609
 20
230.72133119125621
 30
0.0
 11
126.5328771302609
 21
230.72133119125621
 31
0.0
  0
LINE
  5
1A5F
  8
AM_0
 10
126.542897130261
 20
225.0713351912562
 30
0.0
 11
125.58286713026089
 21
229.53132719125611
 31
0.0
  0
LINE
  5
1A60
  8
AM_0
 10
145.33288713026079
 20
217.86133019125609
 30
0.0
 11
198.332927130261
 21
217.86133019125609
 31
0.0
  0
LINE
  5
1A61
  8
AM_0
 10
126.79288713026079
 20
255.26132519125611
 30
0.0
 11
169.33287713026101
 21
255.26132519125611
 31
0.0
  0
LINE
  5
1A62
  8
AM_0
 10
170.33287713026101
 20
247.7513291912561
 30
0.0
 11
128.322917130261
 21
247.7513291912561
 31
0.0
  0
LINE
  5
1A63
  8
AM_0
 10
136.0128771302609
 20
318.47133119125618
 30
0.0
 11
170.33287713026101
 21
318.47133119125618
 31
0.0
  0
LINE
  5
1A64
  8
AM_0
 10
136.0128771302609
 20
315.12132719125623
 30
0.0
 11
170.33287713026101
 21
315.12132719125623
 31
0.0
  0
LINE
  5
1A65
  8
AM_0
 10
135.79288713026091
 20
308.24132219125619
 30
0.0
 11
169.33287713026101
 21
308.24132219125619
 31
0.0
  0
LINE
  5
1A66
  8
AM_0
 10
135.79288713026091
 20
305.31132719125611
 30
0.0
 11
169.33287713026101
 21
305.31132719125611
 31
0.0
  0
LINE
  5
1A67
  8
AM_0
 10
126.662897130261
 20
298.09132619125609
 30
0.0
 11
169.33287713026101
 21
298.09132619125609
 31
0.0
  0
LINE
  5
1A68
  8
AM_0
 10
126.662897130261
 20
295.43132219125607
 30
0.0
 11
169.33287713026101
 21
295.43132219125607
 31
0.0
  0
LINE
  5
1A69
  8
AM_0
 10
126.6028971302609
 20
288.021319191256
 30
0.0
 11
140.93420603391499
 21
288.021319191256
 31
0.0
  0
LINE
  5
1A6A
  8
AM_0
 10
126.6028971302609
 20
285.49132019125619
 30
0.0
 11
140.93420603391499
 21
285.49132019125619
 31
0.0
  0
LINE
  5
1A6B
  8
AM_0
 10
143.33287713026101
 20
318.99132119125619
 30
0.0
 11
143.33287713026101
 21
318.92131319125627
 31
0.0
  0
LINE
  5
1A6F
  8
AM_0
 10
126.6028971302609
 20
278.02133519125613
 30
0.0
 11
140.93420603391499
 21
278.02133519125613
 31
0.0
  0
LINE
  5
1A70
  8
AM_0
 10
140.93420603391499
 20
275.7513311912561
 30
0.0
 11
127.8829371302609
 21
275.7513311912561
 31
0.0
  0
LINE
  5
1A71
  8
AM_0
 10
140.93420603391499
 20
277.7513291912561
 30
0.0
 11
127.8829371302609
 21
277.7513291912561
 31
0.0
  0
LINE
  5
1A74
  8
AM_0
 10
126.662897130261
 20
268.07133719125608
 30
0.0
 11
169.33287713026101
 21
268.07133719125608
 31
0.0
  0
LINE
  5
1A75
  8
AM_0
 10
115.832927130261
 20
296.90132519125609
 30
0.0
 11
120.11290713026079
 21
296.90132519125609
 31
0.0
  0
LINE
  5
1A78
  8
AM_0
 10
169.33287713026101
 20
265.7513291912561
 30
0.0
 11
127.8829371302609
 21
265.7513291912561
 31
0.0
  0
LINE
  5
1A79
  8
AM_0
 10
126.662897130261
 20
265.4113181912561
 30
0.0
 11
169.33287713026101
 21
265.41131819125621
 31
0.0
  0
LINE
  5
1A7A
  8
AM_0
 10
169.33287713026101
 20
257.75132819125628
 30
0.0
 11
127.8829371302609
 21
257.75132819125628
 31
0.0
  0
LINE
  5
1A7B
  8
AM_0
 10
126.79288713026079
 20
258.19133219125621
 30
0.0
 11
169.33287713026101
 21
258.19133219125621
 31
0.0
  0
LINE
  5
1A7C
  8
AM_0
 10
169.33287713026101
 20
255.75134519125621
 30
0.0
 11
127.8829371302609
 21
255.75134519125621
 31
0.0
  0
LINE
  5
1A7E
  8
AM_0
 10
126.6028971302609
 20
275.48134019125609
 30
0.0
 11
140.93420603391499
 21
275.48134019125609
 31
0.0
  0
LINE
  5
1A7F
  8
AM_0
 10
115.832927130261
 20
266.6013191912561
 30
0.0
 11
120.41287713026099
 21
266.6013191912561
 31
0.0
  0
ARC
  5
1AF8
  8
AM_0
 10
118.32610713026079
 20
329.76925619125609
 30
0.0
 40
0.9931920599999999
 50
119.7734
 51
179.87956
  0
ARC
  5
1AF9
  8
AM_0
 10
118.32847713026079
 20
328.73101619125617
 30
0.0
 40
0.9955880999999999
 50
116.58749
 51
179.98224999999999
  0
ARC
  5
1AFA
  8
AM_0
 10
119.594897130261
 20
330.5054561912562
 30
0.0
 40
0.9959119799999999
 50
89.541443999999998
 51
119.60699
  0
ARC
  5
1AFB
  8
AM_0
 10
119.557667130261
 20
329.35732619125628
 30
0.0
 40
0.99412809
 50
89.122808000000006
 51
115.93481
  0
ARC
  5
1AFC
  8
AM_0
 10
119.601737130261
 20
328.3971161912562
 30
0.0
 40
0.9942600299999999
 50
89.355881999999966
 51
120.78109000000001
  0
ARC
  5
1AFD
  8
AM_0
 10
119.5679871302609
 20
327.25597619125608
 30
0.0
 40
0.99546798
 50
89.141447999999983
 51
117.20366
  0
ARC
  5
1AFE
  8
AM_0
 10
119.6395071302609
 20
323.88511619125609
 30
0.0
 40
0.9962120399999999
 50
90.381906000000001
 51
123.9699
  0
ARC
  5
1AFF
  8
AM_0
 10
119.612297130261
 20
322.7448311912562
 30
0.0
 40
0.9965200799999999
 50
90.541213000000027
 51
120.74328
  0
ARC
  5
1B00
  8
AM_0
 10
118.3269471302609
 20
321.99452519125617
 30
0.0
 40
0.9940760400000001
 50
120.4692
 51
180.18464
  0
ARC
  5
1B01
  8
AM_0
 10
118.327697130261
 20
323.02891919125619
 30
0.0
 40
0.9948280200000002
 50
123.20469
 51
180.43813
  0
ARC
  5
1B02
  8
AM_0
 10
118.32610713026079
 20
326.5927661912562
 30
0.0
 40
0.99321207
 50
117.79934
 51
180.08183
  0
ARC
  5
1B04
  8
AM_0
 10
118.32730713026081
 20
327.63028619125618
 30
0.0
 40
0.99443607
 50
121.15217
 51
179.94049000000001
  0
ARC
  5
1B05
  8
AM_0
 10
119.533877130261
 20
316.44585119125628
 30
0.0
 40
0.9954800999999999
 50
90.057320999999988
 51
113.12703
  0
ARC
  5
1B06
  8
AM_0
 10
135.4735671302609
 20
240.53221319125609
 30
0.0
 40
1.00423602
 50
314.93782999999991
 51
5.6649238999999989
  0
ARC
  5
1B0A
  8
AM_0
 10
119.472047130261
 20
314.49861419125619
 30
0.0
 40
0.992772
 50
89.374808000000016
 51
106.33181999999999
  0
ARC
  5
1B0B
  8
AM_0
 10
118.3291371302609
 20
314.14708319125617
 30
0.0
 40
0.9962600700000001
 50
106.69749
 51
180.33049
  0
ARC
  5
1B0C
  8
AM_0
 10
118.32928713026079
 20
315.9329111912561
 30
0.0
 40
0.99640008
 50
112.81739
 51
180.09039999999999
  0
ARC
  5
1B0D
  8
AM_0
 10
118.32793713026081
 20
306.75624419125609
 30
0.0
 40
0.9950800799999999
 50
89.71592099999998
 51
180.2840699999999
  0
ARC
  5
1B0E
  8
AM_0
 10
118.333067130261
 20
306.75154319125619
 30
0.0
 40
1.000203989999999
 50
180.01167000000001
 51
269.9883200000001
  0
ARC
  5
1B0F
  8
AM_0
 10
118.32793713026081
 20
296.75624519125608
 30
0.0
 40
0.99508401
 50
89.716132999999985
 51
180.28387000000001
  0
ARC
  5
1B10
  8
AM_0
 10
118.333067130261
 20
296.75154419125619
 30
0.0
 40
1.0002000600000001
 50
180.01146999999989
 51
269.98853000000003
  0
ARC
  5
1B11
  8
AM_0
 10
118.32793713026081
 20
286.75627319125613
 30
0.0
 40
0.9950879999999999
 50
89.716344999999961
 51
180.28364999999999
  0
ARC
  5
1B12
  8
AM_0
 10
118.333067130261
 20
286.7515121912561
 30
0.0
 40
1.00019601
 50
180.01124999999999
 51
269.98874000000001
  0
ARC
  5
1B13
  8
AM_0
 10
121.333067130261
 20
284.75148419125628
 30
0.0
 40
0.9998480400000001
 50
359.99122
 51
90.008778999999976
  0
ARC
  5
1B14
  8
AM_0
 10
121.3279971302609
 20
288.7562441912562
 30
0.0
 40
1.00492398
 50
270.28001
 51
359.71999000000011
  0
ARC
  5
1B15
  8
AM_0
 10
121.333067130261
 20
294.75148319125611
 30
0.0
 40
0.9998440499999999
 50
359.99101000000002
 51
90.008991000000023
  0
ARC
  5
1B16
  8
AM_0
 10
121.3279971302609
 20
298.75624319125609
 30
0.0
 40
1.0049280299999981
 50
270.28021999999999
 51
359.71978000000001
  0
ARC
  5
1B17
  8
AM_0
 10
121.333067130261
 20
304.75148219125612
 30
0.0
 40
0.9998520899999999
 50
359.99144999999999
 51
90.008546999999993
  0
ARC
  5
1B18
  8
AM_0
 10
121.3279971302609
 20
308.75624519125608
 30
0.0
 40
1.0049319599999991
 50
270.28041999999999
 51
359.71958000000001
  0
ARC
  5
1B19
  8
AM_0
 10
121.334597130261
 20
314.49303119125619
 30
0.0
 40
0.99829605
 50
359.90204000000011
 51
90.097960999999998
  0
ARC
  5
1B1A
  8
AM_0
 10
121.33048713026091
 20
322.73897219125621
 30
0.0
 40
1.0023759899999991
 50
0.13559199
 51
89.864409999999964
  0
ARC
  5
1B1B
  8
AM_0
 10
121.62835713026089
 20
318.14586119125619
 30
0.0
 40
0.70455201
 50
270.36910999999998
 51
359.63089000000002
  0
ARC
  5
1B1C
  8
AM_0
 10
121.3339071302609
 20
327.25234619125621
 30
0.0
 40
0.9990081
 50
359.94315
 51
90.056843000000015
  0
ARC
  5
1B1D
  8
AM_0
 10
121.83451713026091
 20
329.85298619125609
 30
0.0
 40
0.49836402
 50
359.81141000000002
 51
90.188598000000013
  0
ARC
  5
1B1E
  8
AM_0
 10
121.8283071302608
 20
332.00593619125613
 30
0.0
 40
0.504636
 50
270.52375999999998
 51
359.47624000000002
  0
ARC
  5
1B1F
  8
AM_0
 10
270.333107130261
 20
219.2515121912561
 30
0.0
 40
1.0001800499999991
 50
180.01031
 51
269.98968000000002
  0
ARC
  5
1B20
  8
AM_0
 10
262.13755713026097
 20
221.89671419125611
 30
0.0
 40
2.0053919100000002
 50
270.15275000000003
 51
344.81207000000001
  0
ARC
  5
1B21
  8
AM_0
 10
270.332387130261
 20
231.2507831912562
 30
0.0
 40
0.99947604
 50
179.97009
 51
270.02992
  0
ARC
  5
1B23
  8
AM_0
 10
128.55394713026081
 20
332.73889619125617
 30
0.0
 40
1.9924480200000001
 50
89.742107999999988
 51
169.81179
  0
ARC
  5
1B24
  8
AM_0
 10
128.49772713026101
 20
338.02204619125609
 30
0.0
 40
1.9992880199999981
 50
89.851815000000016
 51
167.89433
  0
ARC
  5
1B25
  8
AM_0
 10
124.1171871302609
 20
334.2915461912562
 30
0.0
 40
1.5002480099999991
 50
270.21661999999998
 51
347.67500000000001
  0
ARC
  5
1B26
  8
AM_0
 10
128.4649671302609
 20
341.42680619125628
 30
0.0
 40
1.9945160699999991
 50
89.771334999999979
 51
166.82803999999999
  0
ARC
  5
1B27
  8
AM_0
 10
124.14133713026079
 20
338.35513619125612
 30
0.0
 40
1.5037760099999991
 50
270.05984000000001
 51
346.39312999999999
  0
ARC
  5
1B28
  8
AM_0
 10
124.1541771302609
 20
340.37452619125628
 30
0.0
 40
1.503232049999998
 50
270.33132000000001
 51
346.01803000000001
  0
ARC
  5
1B29
  8
AM_0
 10
128.4394371302609
 20
343.05451619125608
 30
0.0
 40
1.996816109999999
 50
89.901436000000004
 51
165.88941
  0
ARC
  5
1B2A
  8
AM_0
 10
145.32829713026101
 20
341.6159561912562
 30
0.0
 40
1.9953641399999991
 50
89.866758999999988
 51
180.13323
  0
ARC
  5
1B2B
  8
AM_0
 10
145.32907713026091
 20
343.645126191256
 30
0.0
 40
1.99618809
 50
89.890486999999965
 51
180.10951
  0
ARC
  5
1B2C
  8
AM_0
 10
145.32646713026091
 20
344.99779619125621
 30
0.0
 40
1.993556189999999
 50
89.814515
 51
180.18548999999999
  0
ARC
  5
1B2D
  8
AM_0
 10
145.32841713026099
 20
345.67258619125602
 30
0.0
 40
1.998724049999999
 50
89.871137000000004
 51
165.55096
  0
ARC
  5
1B2E
  8
AM_0
 10
141.826217130261
 20
336.23803619125619
 30
0.0
 40
1.5066999599999991
 50
270.25416000000001
 51
359.74583999999999
  0
ARC
  5
1B2F
  8
AM_0
 10
141.830057130261
 20
341.52415619125628
 30
0.0
 40
1.5028360199999991
 50
270.10793999999999
 51
359.89206000000001
  0
ARC
  5
1B30
  8
AM_0
 10
141.82804713026101
 20
344.92618619125602
 30
0.0
 40
1.5048719999999991
 50
270.18518
 51
359.81482
  0
ARC
  5
1B31
  8
AM_0
 10
141.9394971302608
 20
346.55434619125617
 30
0.0
 40
1.50301605
 50
270.12945000000002
 51
345.23653999999999
  0
ARC
  5
1B32
  8
AM_0
 10
198.33196713026089
 20
343.6403861912562
 30
0.0
 40
2.0009239199999991
 50
0.026462999
 51
89.973535999999982
  0
ARC
  5
1B33
  8
AM_0
 10
198.3345771302609
 20
344.99302619125598
 30
0.0
 40
1.9982920200000001
 50
359.95103
 51
90.048975000000013
  0
ARC
  5
1B34
  8
AM_0
 10
198.3310971302609
 20
345.66952619125613
 30
0.0
 40
2.0018279999999979
 50
0.052301
 51
89.947696999999977
  0
ARC
  5
1B35
  8
AM_0
 10
268.9831371302609
 20
329.60371619125618
 30
0.0
 40
1.50239199
 50
195.1400099999999
 51
269.99063999999998
  0
ARC
  5
1B36
  8
AM_0
 10
262.14244713026102
 20
341.6123561912562
 30
0.0
 40
1.99898796
 50
15.047801
 51
89.987373000000005
  0
ARC
  5
1B37
  8
AM_0
 10
270.32794713026112
 20
344.25628619125609
 30
0.0
 40
0.9950640599999999
 50
89.714938000000004
 51
180.28505999999999
  0
ARC
  5
1B38
  8
AM_0
 10
270.32725713026099
 20
332.25697019125619
 30
0.0
 40
0.99440004
 50
89.676490999999999
 51
180.32351
  0
ARC
  5
1B39
  8
AM_0
 10
269.03875713026099
 20
334.29178619125611
 30
0.0
 40
1.5004760399999979
 50
192.33223000000001
 51
270.15827999999999
  0
ARC
  5
1B3A
  8
AM_0
 10
264.18034713026088
 20
340.25485619125612
 30
0.0
 40
1.9964880300000001
 50
12.040875
 51
89.926440999999969
  0
ARC
  5
1B3B
  8
AM_0
 10
121.3295871302609
 20
249.0146801912561
 30
0.0
 40
1.0033640100000001
 50
270.19171
 51
359.80828000000002
  0
ARC
  5
1B3C
  8
AM_0
 10
121.3279971302609
 20
258.75624419125609
 30
0.0
 40
1.00492398
 50
270.28003999999999
 51
359.71996999999999
  0
ARC
  5
1B3D
  8
AM_0
 10
121.333067130261
 20
254.75149619125611
 30
0.0
 40
0.9998480400000001
 50
359.99119000000002
 51
90.008807000000004
  0
ARC
  5
1B3E
  8
AM_0
 10
121.63345713026099
 20
245.3618951912562
 30
0.0
 40
0.69944001
 50
359.95416
 51
90.045839999999984
  0
ARC
  5
1B3F
  8
AM_0
 10
119.5358871302609
 20
247.06656119125611
 30
0.0
 40
1.0052240100000001
 50
246.98629
 51
269.82936000000001
  0
ARC
  5
1B40
  8
AM_0
 10
119.4734271302609
 20
249.01402319125609
 30
0.0
 40
1.00272801
 50
253.75297
 51
270.54039999999998
  0
ARC
  5
1B41
  8
AM_0
 10
118.32928713026079
 20
249.36567719125611
 30
0.0
 40
0.99638007
 50
180.24949000000001
 51
253.29706999999999
  0
ARC
  5
1B42
  8
AM_0
 10
118.3294071302609
 20
247.5798041912561
 30
0.0
 40
0.9964760700000001
 50
179.91257999999999
 51
247.17966000000001
  0
ARC
  5
1B43
  8
AM_0
 10
118.333067130261
 20
256.75152719125612
 30
0.0
 40
1.00019601
 50
180.01127999999991
 51
269.98872
  0
ARC
  5
1B44
  8
AM_0
 10
118.32793713026081
 20
256.75627319125613
 30
0.0
 40
0.99508401
 50
89.716324
 51
180.28368
  0
ARC
  5
1B45
  8
AM_0
 10
118.333067130261
 20
266.75154419125607
 30
0.0
 40
1.0002000600000001
 50
180.01150000000001
 51
269.98851000000002
  0
ARC
  5
1B46
  8
AM_0
 10
118.32793713026081
 20
266.75625719125611
 30
0.0
 40
0.99508401
 50
89.716106000000025
 51
180.28389000000001
  0
ARC
  5
1B47
  8
AM_0
 10
118.333067130261
 20
276.75154319125608
 30
0.0
 40
1.000203989999999
 50
180.01169999999999
 51
269.98829999999998
  0
ARC
  5
1B48
  8
AM_0
 10
118.32793713026081
 20
276.75625919125611
 30
0.0
 40
0.9950800799999999
 50
89.715893999999963
 51
180.2841
  0
ARC
  5
1B49
  8
AM_0
 10
121.32793713026081
 20
278.7562601912561
 30
0.0
 40
1.0049319599999991
 50
270.28044999999997
 51
359.71955000000008
  0
ARC
  5
1B4A
  8
AM_0
 10
121.333067130261
 20
274.75148219125612
 30
0.0
 40
0.9998520899999999
 50
359.99142999999998
 51
90.008574000000024
  0
ARC
  5
1B4B
  8
AM_0
 10
121.3279971302609
 20
268.75624319125609
 30
0.0
 40
1.0049280299999981
 50
270.28023999999999
 51
359.71976000000001
  0
ARC
  5
1B4C
  8
AM_0
 10
121.333067130261
 20
264.75148319125628
 30
0.0
 40
0.9998440499999999
 50
359.99097999999998
 51
90.00901800000004
  0
ARC
  5
1B4D
  8
AM_0
 10
131.4911871302609
 20
323.34413519125621
 30
0.0
 40
5.004112499999998
 50
279.68356999999997
 51
354.57834000000008
  0
ARC
  5
1B4E
  8
AM_0
 10
131.9536671302609
 20
319.4184161912562
 30
0.0
 40
6.0049157999999991
 50
45.22730700000001
 51
86.379093999999981
  0
ARC
  5
1B4F
  8
AM_0
 10
135.4768671302609
 20
322.97160719125628
 30
0.0
 40
1.001108069999999
 50
354.25024999999999
 51
45.146993999999992
  0
ARC
  5
1B50
  8
AM_0
 10
264.17533713026103
 20
223.2539381912562
 30
0.0
 40
2.0026238699999981
 50
270.21534000000003
 51
347.81734
  0
ARC
  5
1B51
  8
AM_0
 10
269.0399571302608
 20
229.22201519125619
 30
0.0
 40
1.499328059999999
 50
89.888150999999993
 51
168.09384
  0
ARC
  5
1B52
  8
AM_0
 10
131.96287713026101
 20
244.09851119125611
 30
0.0
 40
6.0085923000000001
 50
273.53095000000002
 51
314.61478
  0
ARC
  5
1B53
  8
AM_0
 10
131.4962571302608
 20
240.16325519125621
 30
0.0
 40
4.9985837999999987
 50
5.3731198999999981
 51
80.364975999999999
  0
ARC
  5
1B54
  8
AM_0
 10
118.33048713026091
 20
233.73599519125611
 30
0.0
 40
0.9976240799999999
 50
180.26750999999999
 51
240.07954000000001
  0
ARC
  5
1B55
  8
AM_0
 10
118.3285371302609
 20
234.78169319125621
 30
0.0
 40
0.9956680199999999
 50
180.02043
 51
243.40983
  0
ARC
  5
1B56
  8
AM_0
 10
119.6135871302609
 20
233.0024111912561
 30
0.0
 40
1.0011359699999991
 50
239.328
 51
269.38751000000002
  0
ARC
  5
1B57
  8
AM_0
 10
119.578727130261
 20
234.1505891912561
 30
0.0
 40
0.999288
 50
242.86126999999999
 51
269.66618999999997
  0
ARC
  5
1B58
  8
AM_0
 10
119.60422713026099
 20
235.11499019125611
 30
0.0
 40
1.0036880100000001
 50
239.37027
 51
270.49275
  0
ARC
  5
1B59
  8
AM_0
 10
119.58805713026091
 20
236.25195419125609
 30
0.0
 40
1.00062801
 50
241.6498600000001
 51
269.70470999999998
  0
ARC
  5
1B5A
  8
AM_0
 10
119.6256471302609
 20
239.63183819125621
 30
0.0
 40
1.0005359999999981
 50
237.1464
 51
270.41322000000002
  0
ARC
  5
1B5B
  8
AM_0
 10
119.59624713026101
 20
240.7723241912561
 30
0.0
 40
1.0010120099999991
 50
240.47136
 51
270.3802
  0
ARC
  5
1B5C
  8
AM_0
 10
118.3319571302609
 20
240.4760141912561
 30
0.0
 40
0.99910005
 50
179.69542000000001
 51
236.66176999999999
  0
ARC
  5
1B5D
  8
AM_0
 10
118.3306071302609
 20
236.91262919125609
 30
0.0
 40
0.9977079899999999
 50
180.07405
 51
242.04476
  0
ARC
  5
1B5E
  8
AM_0
 10
118.33165713026079
 20
235.8748331912561
 30
0.0
 40
0.9987801
 50
179.62666999999999
 51
238.70855
  0
ARC
  5
1B5F
  8
AM_0
 10
121.3304271302609
 20
240.77379119125609
 30
0.0
 40
1.00246002
 50
270.14037999999999
 51
359.85962000000001
  0
ARC
  5
1B60
  8
AM_0
 10
118.3313571302608
 20
241.51063619125611
 30
0.0
 40
0.9984600300000001
 50
179.95962
 51
239.38655
  0
ARC
  5
1B61
  8
AM_0
 10
121.32883713026079
 20
236.25541919125621
 30
0.0
 40
1.004084009999999
 50
270.23262999999997
 51
359.76737000000008
  0
ARC
  5
1B62
  8
AM_0
 10
121.8294471302609
 20
233.6547251912562
 30
0.0
 40
0.50340399
 50
270.38612999999998
 51
359.61387000000002
  0
ARC
  5
1B63
  8
AM_0
 10
121.8332871302609
 20
231.50177219125609
 30
0.0
 40
0.4995560100000002
 50
359.94911000000002
 51
90.050894000000014
  0
ARC
  5
1B64
  8
AM_0
 10
128.55895713026069
 20
230.76976019125621
 30
0.0
 40
1.998444029999999
 50
190.33240000000001
 51
270.11369000000002
  0
ARC
  5
1B65
  8
AM_0
 10
128.497787130261
 20
225.4907081912562
 30
0.0
 40
1.9993920899999991
 50
192.1080399999999
 51
270.14582000000001
  0
ARC
  5
1B66
  8
AM_0
 10
124.116017130261
 20
229.22224619125609
 30
0.0
 40
1.499099999999999
 50
11.89856
 51
89.736657999999963
  0
ARC
  5
1B67
  8
AM_0
 10
128.4698871302609
 20
222.08209319125621
 30
0.0
 40
2.0007560699999991
 50
193.3141599999999
 51
270.08645000000001
  0
ARC
  5
1B68
  8
AM_0
 10
124.146287130261
 20
225.15382619125609
 30
0.0
 40
1.497512039999999
 50
13.418233000000001
 51
90.128792999999988
  0
ARC
  5
1B69
  8
AM_0
 10
124.1606871302609
 20
223.13320919125621
 30
0.0
 40
1.498128089999998
 50
14.224575
 51
89.916113999999993
  0
ARC
  5
1B6A
  8
AM_0
 10
128.44438713026079
 20
220.45447019125621
 30
0.0
 40
2.0031319199999991
 50
194.25158999999999
 51
269.95755000000003
  0
ARC
  5
1B6B
  8
AM_0
 10
145.333367130261
 20
221.8917701912562
 30
0.0
 40
2.000452109999999
 50
180.0129
 51
269.9871
  0
ARC
  5
1B6C
  8
AM_0
 10
145.33420713026081
 20
219.86264219125621
 30
0.0
 40
2.0013120899999981
 50
180.03756000000001
 51
269.96244000000002
  0
ARC
  5
1B6D
  8
AM_0
 10
145.3315371302609
 20
218.50994819125609
 30
0.0
 40
1.9986199799999991
 50
179.96046999999999
 51
270.03953000000001
  0
ARC
  5
1B6E
  8
AM_0
 10
145.32682713026099
 20
217.84138619125611
 30
0.0
 40
2.0000761200000001
 50
194.77498
 51
270.17353000000003
  0
ARC
  5
1B6F
  8
AM_0
 10
141.83134713026101
 20
227.26976219125609
 30
0.0
 40
1.5015680099999991
 50
0.059805003
 51
89.940196999999998
  0
ARC
  5
1B70
  8
AM_0
 10
141.83017713026101
 20
221.98861919125611
 30
0.0
 40
1.50271599
 50
0.103436
 51
89.896566000000007
  0
ARC
  5
1B71
  8
AM_0
 10
141.83317713026099
 20
218.5815731912561
 30
0.0
 40
1.49975601
 50
359.99059
 51
90.009407999999965
  0
ARC
  5
1B72
  8
AM_0
 10
141.94444713026101
 20
216.9546821912561
 30
0.0
 40
1.49664405
 50
14.57574
 51
90.058278000000001
  0
ARC
  5
1B73
  8
AM_0
 10
198.3268971302609
 20
219.86735519125611
 30
0.0
 40
2.0060480100000002
 50
270.17248999999998
 51
359.82751000000002
  0
ARC
  5
1B74
  8
AM_0
 10
198.32950713026091
 20
218.51469419125621
 30
0.0
 40
2.0033560499999989
 50
270.09593999999998
 51
359.90406000000002
  0
ARC
  5
1B75
  8
AM_0
 10
198.33097713026089
 20
217.84321619125609
 30
0.0
 40
2.0019000299999989
 50
270.05437999999998
 51
359.94562000000002
  0
ARC
  5
1B76
  8
AM_0
 10
268.97827713026101
 20
233.9053511912561
 30
0.0
 40
1.49599605
 50
89.821707000000004
 51
165.04766000000001
  0
ARC
  5
1B77
  8
AM_0
 10
144.3281271302609
 20
296.7513311912561
 30
0.0
 40
1.000011959999999
 50
89.726507999999981
 51
270.27348000000001
  0
ARC
  5
1B78
  8
AM_0
 10
144.3281271302609
 20
306.7513301912561
 30
0.0
 40
1.000011959999999
 50
89.726507999999981
 51
270.27348000000001
  0
ARC
  5
1B79
  8
AM_0
 10
144.3281271302609
 20
316.7513321912561
 30
0.0
 40
1.000011959999999
 50
89.726507999999981
 51
270.27348000000001
  0
ARC
  5
1B7A
  8
AM_0
 10
126.5971071302608
 20
286.7563361912562
 30
0.0
 40
1.26501207
 50
89.737716000000006
 51
270.26227999999998
  0
ARC
  5
1B7B
  8
AM_0
 10
126.662897130261
 20
296.76133919125613
 30
0.0
 40
1.330008059999999
 50
90.000003000000007
 51
270.0
  0
ARC
  5
1B7C
  8
AM_0
 10
135.79288713026091
 20
306.7763261912562
 30
0.0
 40
1.465004009999999
 50
90.000003000000007
 51
270.0
  0
ARC
  5
1B7D
  8
AM_0
 10
136.00603713026081
 20
316.79631419125627
 30
0.0
 40
1.6750160999999979
 50
89.766540000000006
 51
270.23345999999998
  0
ARC
  5
1B7E
  8
AM_0
 10
127.8829371302609
 20
286.75132919125622
 30
0.0
 40
1.0000000199999981
 50
90.000003000000007
 51
270.0
  0
ARC
  5
1B7F
  8
AM_0
 10
127.8829371302609
 20
296.7513311912561
 30
0.0
 40
1.0000000199999981
 50
90.000003000000007
 51
270.0
  0
ARC
  5
1B80
  8
AM_0
 10
136.87816713026081
 20
316.7513321912561
 30
0.0
 40
1.000011959999999
 50
89.728448
 51
270.27154000000002
  0
ARC
  5
1B81
  8
AM_0
 10
136.87816713026081
 20
306.7513301912561
 30
0.0
 40
1.000011959999999
 50
89.728448
 51
270.27154000000002
  0
ARC
  5
1B86
  8
AM_0
 10
266.15287713026089
 20
316.79631419125627
 30
0.0
 40
1.675004159999999
 50
276.16905573844588
 51
83.830944261554208
  0
ARC
  5
1B89
  8
AM_0
 10
266.15287713026089
 20
246.70634519125619
 30
0.0
 40
1.675004159999999
 50
276.16905573844969
 51
83.830944261550343
  0
ARC
  5
1B8A
  8
AM_0
 10
127.8829371302609
 20
276.75134519125612
 30
0.0
 40
1.0000000199999981
 50
90.000003000000007
 51
270.0
  0
ARC
  5
1B8B
  8
AM_0
 10
144.3281271302609
 20
266.75133119125621
 30
0.0
 40
1.000011959999999
 50
89.726507999999981
 51
270.27348000000001
  0
ARC
  5
1B8C
  8
AM_0
 10
144.3281271302609
 20
256.7513291912561
 30
0.0
 40
1.000011959999999
 50
89.726507999999981
 51
270.27348000000001
  0
ARC
  5
1B8D
  8
AM_0
 10
126.662897130261
 20
266.74133519125621
 30
0.0
 40
1.330008059999999
 50
90.000003000000007
 51
270.0
  0
ARC
  5
1B8E
  8
AM_0
 10
126.79288713026079
 20
256.72633619125628
 30
0.0
 40
1.465004009999999
 50
90.000003000000007
 51
270.0
  0
ARC
  5
1B8F
  8
AM_0
 10
127.87816713026091
 20
246.75134519125621
 30
0.0
 40
1.000011959999999
 50
89.728461999999965
 51
270.27154000000002
  0
ARC
  5
1B91
  8
AM_0
 10
144.3281271302609
 20
246.75134519125621
 30
0.0
 40
1.000011959999999
 50
89.726507999999981
 51
270.27348000000001
  0
ARC
  5
1B92
  8
AM_0
 10
126.5971071302608
 20
276.75134519125612
 30
0.0
 40
1.2700120500000001
 50
89.738748000000001
 51
270.26123999999999
  0
ARC
  5
1B93
  8
AM_0
 10
127.00603713026091
 20
246.70634519125619
 30
0.0
 40
1.6750160999999979
 50
89.764983000000015
 51
270.23500999999999
  0
ARC
  5
1B94
  8
AM_0
 10
127.8829371302609
 20
266.75133119125621
 30
0.0
 40
1.0000000199999981
 50
90.000003000000007
 51
270.0
  0
ARC
  5
1B95
  8
AM_0
 10
127.87816713026091
 20
256.7513291912561
 30
0.0
 40
1.000011959999999
 50
89.728461999999965
 51
270.27154000000002
  0
LINE
  5
25BA
  8
ﾁｭｳｼﾝｾﾝ
 10
218.33287713026101
 20
332.75133119125638
 30
0.0
 11
218.33287713026101
 21
230.75133119125621
 31
0.0
  0
LINE
  5
26B6
  8
AM_0
 10
262.33287713026112
 20
235.75133119125621
 30
0.0
 11
174.33287713026101
 21
235.75133119125621
 31
0.0
  0
ARC
  5
26B7
  8
AM_0
 10
192.4039449421264
 20
240.75133119125621
 30
0.0
 40
5.0
 50
225.0
 51
270.0
1001
GENIUS_GENOBJ-N-FIL_13
1002
{
1000
OWNER
1000
GEN
1002
}
1001
GENIUS_GENODEF_13
1002
{
1000
HIER
1070
     0
1002
}
1002
{
1000
MANEDIT
1070
     0
1002
}
1002
{
1000
NOSEL
1070
     0
1002
}
1002
{
1000
BEHIND
1070
     0
1002
}
1002
{
1000
OTHER
1070
     0
1002
}
1002
{
1000
REACTOR
1002
}
  0
LINE
  5
26B8
  8
AM_0
 10
243.60495506890331
 20
240.75133119125621
 30
0.0
 11
193.06079919161871
 21
240.75133119125621
 31
0.0
  0
ARC
  5
26B9
  8
AM_0
 10
243.60495506890331
 20
245.75133119125621
 30
0.0
 40
5.0
 50
270.0
 51
315.0
1001
GENIUS_GENOBJ-N-FIL_13
1002
{
1000
OWNER
1000
GEN
1002
}
1001
GENIUS_GENODEF_13
1002
{
1000
HIER
1070
     0
1002
}
1002
{
1000
MANEDIT
1070
     0
1002
}
1002
{
1000
NOSEL
1070
     0
1002
}
1002
{
1000
BEHIND
1070
     0
1002
}
1002
{
1000
OTHER
1070
     0
1002
}
1002
{
1000
REACTOR
1002
}
  0
ARC
  5
26BA
  8
AM_0
 10
262.33287713026112
 20
239.75133119125621
 30
0.0
 40
4.0
 50
270.0
 51
0.0
1001
GENIUS_GENOBJ-N-FIL_13
1002
{
1000
OWNER
1000
GEN
1002
}
1001
GENIUS_GENODEF_13
1002
{
1000
HIER
1070
     0
1002
}
1002
{
1000
MANEDIT
1070
     0
1002
}
1002
{
1000
NOSEL
1070
     0
1002
}
1002
{
1000
BEHIND
1070
     0
1002
}
1002
{
1000
OTHER
1070
     0
1002
}
1002
{
1000
REACTOR
1002
}
  0
LINE
  5
26BB
  8
AM_0
 10
262.3328771302609
 20
327.7513311912565
 30
0.0
 11
174.33287713026101
 21
327.7513311912565
 31
0.0
  0
ARC
  5
26BC
  8
AM_0
 10
244.26180931839559
 20
322.75133119125638
 30
0.0
 40
5.0
 50
45.0
 51
90.0
1001
GENIUS_GENOBJ-N-FIL_13
1002
{
1000
OWNER
1000
GEN
1002
}
1001
GENIUS_GENODEF_13
1002
{
1000
HIER
1070
     0
1002
}
1002
{
1000
MANEDIT
1070
     0
1002
}
1002
{
1000
NOSEL
1070
     0
1002
}
1002
{
1000
BEHIND
1070
     0
1002
}
1002
{
1000
OTHER
1070
     0
1002
}
1002
{
1000
REACTOR
1002
}
  0
ARC
  5
26BD
  8
AM_0
 10
192.4039449421266
 20
322.75133119125638
 30
0.0
 40
5.0
 50
90.0
 51
135.0
1001
GENIUS_GENODEF_13
1002
{
1000
HIER
1070
     0
1002
}
1002
{
1000
MANEDIT
1070
     0
1002
}
1002
{
1000
NOSEL
1070
     0
1002
}
1002
{
1000
BEHIND
1070
     0
1002
}
1002
{
1000
OTHER
1070
     0
1002
}
1002
{
1000
REACTOR
1002
}
1001
GENIUS_GENOBJ-N-FIL_13
1002
{
1000
OWNER
1000
GEN
1002
}
  0
LINE
  5
26BE
  8
AM_0
 10
243.60495506890319
 20
322.75133119125638
 30
0.0
 11
193.0607991916188
 21
322.75133119125638
 31
0.0
  0
ARC
  5
26BF
  8
AM_0
 10
193.0607991916188
 20
317.75133119125638
 30
0.0
 40
5.0
 50
90.0
 51
135.0
1001
GENIUS_GENODEF_13
1002
{
1000
HIER
1070
     0
1002
}
1002
{
1000
MANEDIT
1070
     0
1002
}
1002
{
1000
NOSEL
1070
     0
1002
}
1002
{
1000
BEHIND
1070
     0
1002
}
1002
{
1000
OTHER
1070
     0
1002
}
1002
{
1000
REACTOR
1002
}
1001
GENIUS_GENOBJ-N-FIL_13
1002
{
1000
OWNER
1000
GEN
1002
}
  0
ARC
  5
26C0
  8
AM_0
 10
174.33287713026101
 20
323.75133119125638
 30
0.0
 40
4.0
 50
90.0
 51
180.0
1001
GENIUS_GENODEF_13
1002
{
1000
HIER
1070
     0
1002
}
1002
{
1000
MANEDIT
1070
     0
1002
}
1002
{
1000
NOSEL
1070
     0
1002
}
1002
{
1000
BEHIND
1070
     0
1002
}
1002
{
1000
OTHER
1070
     0
1002
}
1002
{
1000
REACTOR
1002
}
1001
GENIUS_GENOBJ-N-FIL_13
1002
{
1000
OWNER
1000
GEN
1002
}
  0
LINE
  5
26C1
  8
AM_0
 10
170.33287713026101
 20
323.75133119125638
 30
0.0
 11
170.33287713026101
 21
239.75133119125621
 31
0.0
  0
ARC
  5
26C2
  8
AM_0
 10
175.33287713026101
 20
257.82239900312152
 30
0.0
 40
5.0
 50
180.0
 51
225.0
1001
GENIUS_GENOBJ-N-FIL_13
1002
{
1000
OWNER
1000
GEN
1002
}
1001
GENIUS_GENODEF_13
1002
{
1000
HIER
1070
     0
1002
}
1002
{
1000
MANEDIT
1070
     0
1002
}
1002
{
1000
NOSEL
1070
     0
1002
}
1002
{
1000
BEHIND
1070
     0
1002
}
1002
{
1000
OTHER
1070
     0
1002
}
1002
{
1000
REACTOR
1002
}
  0
ARC
  5
26C3
  8
AM_0
 10
175.33287713026101
 20
305.68026337939108
 30
0.0
 40
5.0
 50
135.0
 51
180.0
1001
GENIUS_GENOBJ-N-FIL_13
1002
{
1000
OWNER
1000
GEN
1002
}
1001
GENIUS_GENODEF_13
1002
{
1000
HIER
1070
     0
1002
}
1002
{
1000
MANEDIT
1070
     0
1002
}
1002
{
1000
NOSEL
1070
     0
1002
}
1002
{
1000
BEHIND
1070
     0
1002
}
1002
{
1000
OTHER
1070
     0
1002
}
1002
{
1000
REACTOR
1002
}
  0
LINE
  5
26C4
  8
AM_0
 10
175.33287713026101
 20
305.02340912989848
 30
0.0
 11
175.3328771302609
 21
258.47925325261389
 31
0.0
  0
ARC
  5
26C5
  8
AM_0
 10
180.3328771302609
 20
258.47925325261389
 30
0.0
 40
5.0
 50
180.0
 51
225.0
1001
GENIUS_GENOBJ-N-FIL_13
1002
{
1000
OWNER
1000
GEN
1002
}
1001
GENIUS_GENODEF_13
1002
{
1000
HIER
1070
     0
1002
}
1002
{
1000
MANEDIT
1070
     0
1002
}
1002
{
1000
NOSEL
1070
     0
1002
}
1002
{
1000
BEHIND
1070
     0
1002
}
1002
{
1000
OTHER
1070
     0
1002
}
1002
{
1000
REACTOR
1002
}
  0
ARC
  5
26C6
  8
AM_0
 10
174.33287713026101
 20
239.75133119125621
 30
0.0
 40
4.0
 50
180.0
 51
270.0
1001
GENIUS_GENODEF_13
1002
{
1000
HIER
1070
     0
1002
}
1002
{
1000
MANEDIT
1070
     0
1002
}
1002
{
1000
NOSEL
1070
     0
1002
}
1002
{
1000
BEHIND
1070
     0
1002
}
1002
{
1000
OTHER
1070
     0
1002
}
1002
{
1000
REACTOR
1002
}
1001
GENIUS_GENOBJ-N-FIL_13
1002
{
1000
OWNER
1000
GEN
1002
}
  0
LINE
  5
26C7
  8
AM_0
 10
266.33287713026101
 20
323.75133119125638
 30
0.0
 11
266.33287713026112
 21
239.75133119125621
 31
0.0
  0
ARC
  5
26C8
  8
AM_0
 10
261.33287713026112
 20
305.68026337939091
 30
0.0
 40
5.0
 50
0.0
 51
45.0
1001
GENIUS_GENOBJ-N-FIL_13
1002
{
1000
OWNER
1000
GEN
1002
}
1001
GENIUS_GENODEF_13
1002
{
1000
HIER
1070
     0
1002
}
1002
{
1000
MANEDIT
1070
     0
1002
}
1002
{
1000
NOSEL
1070
     0
1002
}
1002
{
1000
BEHIND
1070
     0
1002
}
1002
{
1000
OTHER
1070
     0
1002
}
1002
{
1000
REACTOR
1002
}
  0
ARC
  5
26C9
  8
AM_0
 10
261.33287713026112
 20
257.82239900312169
 30
0.0
 40
5.0
 50
315.0
 51
0.0
1001
GENIUS_GENOBJ-N-FIL_13
1002
{
1000
OWNER
1000
GEN
1002
}
1001
GENIUS_GENODEF_13
1002
{
1000
HIER
1070
     0
1002
}
1002
{
1000
MANEDIT
1070
     0
1002
}
1002
{
1000
NOSEL
1070
     0
1002
}
1002
{
1000
BEHIND
1070
     0
1002
}
1002
{
1000
OTHER
1070
     0
1002
}
1002
{
1000
REACTOR
1002
}
  0
LINE
  5
26CA
  8
AM_0
 10
247.79734322432819
 20
326.28686509718898
 30
0.0
 11
264.86841103619372
 21
309.21579728532367
 31
0.0
  0
LINE
  5
26CB
  8
AM_0
 10
247.1404889748357
 20
321.28686509718898
 30
0.0
 11
259.86841103619361
 21
308.55894303583148
 31
0.0
  0
ARC
  5
26CC
  8
AM_0
 10
243.60495506890319
 20
317.75133119125638
 30
0.0
 40
5.0
 50
45.0
 51
90.0
1001
GENIUS_GENOBJ-N-FIL_13
1002
{
1000
OWNER
1000
GEN
1002
}
1001
GENIUS_GENODEF_13
1002
{
1000
HIER
1070
     0
1002
}
1002
{
1000
MANEDIT
1070
     0
1002
}
1002
{
1000
NOSEL
1070
     0
1002
}
1002
{
1000
BEHIND
1070
     0
1002
}
1002
{
1000
OTHER
1070
     0
1002
}
1002
{
1000
REACTOR
1002
}
  0
LINE
  5
26CD
  8
AM_0
 10
261.3328771302609
 20
305.02340912989882
 30
0.0
 11
261.33287713026112
 21
258.47925325261389
 31
0.0
  0
ARC
  5
26CE
  8
AM_0
 10
256.3328771302609
 20
305.02340912989882
 30
0.0
 40
5.0
 50
0.0
 51
45.0
1001
GENIUS_GENODEF_13
1002
{
1000
HIER
1070
     0
1002
}
1002
{
1000
MANEDIT
1070
     0
1002
}
1002
{
1000
NOSEL
1070
     0
1002
}
1002
{
1000
BEHIND
1070
     0
1002
}
1002
{
1000
OTHER
1070
     0
1002
}
1002
{
1000
REACTOR
1002
}
1001
GENIUS_GENOBJ-N-FIL_13
1002
{
1000
OWNER
1000
GEN
1002
}
  0
ARC
  5
26CF
  8
AM_0
 10
262.3328771302609
 20
323.75133119125638
 30
0.0
 40
4.0
 50
0.0
 51
90.0
1001
GENIUS_GENODEF_13
1002
{
1000
HIER
1070
     0
1002
}
1002
{
1000
MANEDIT
1070
     0
1002
}
1002
{
1000
NOSEL
1070
     0
1002
}
1002
{
1000
BEHIND
1070
     0
1002
}
1002
{
1000
OTHER
1070
     0
1002
}
1002
{
1000
REACTOR
1002
}
1001
GENIUS_GENOBJ-N-FIL_13
1002
{
1000
OWNER
1000
GEN
1002
}
  0
LINE
  5
26D0
  8
ﾁｭｳｼﾝｾﾝ1
 10
261.33287713026237
 20
316.75133119125599
 30
0.0
 11
261.33287713026323
 21
328.75133119125599
 31
0.0
  0
LINE
  5
26D1
  8
ﾁｭｳｼﾝｾﾝ1
 10
267.33287713026277
 20
322.75133119125582
 30
0.0
 11
255.3328771302628
 21
322.75133119125638
 31
0.0
  0
LINE
  5
26D2
  8
AM_0
 10
166.83287713026101
 20
295.25133119125638
 30
0.0
 11
169.3328771302609
 21
295.25133119125661
 31
0.0
  0
LINE
  5
26D3
  8
AM_0
 10
169.33287713026101
 20
268.25133119125638
 30
0.0
 11
166.83287713026101
 21
268.25133119125638
 31
0.0
  0
LINE
  5
26D4
  8
AM_0
 10
155.93420603391499
 20
271.2513311912565
 30
0.0
 11
155.93420603391499
 21
292.2513311912565
 31
0.0
  0
LINE
  5
26D5
  8
AM_0
 10
140.93420603391499
 20
289.78295624527129
 30
0.0
 11
140.93420603391499
 21
273.71970613724051
 31
0.0
  0
LINE
  5
26D6
  8
AM_0
 10
153.93420603391499
 20
269.75133119125638
 30
0.0
 11
153.93420603391499
 21
293.75133119125638
 31
0.0
  0
LINE
  5
26D7
  8
AM_0
 10
144.43420603391499
 20
281.7513311912565
 30
0.0
 11
144.93420603391499
 21
281.25133119125638
 31
0.0
  0
LINE
  5
26D8
  8
AM_0
 10
151.43420603391499
 20
293.45133119125637
 30
0.0
 11
151.43420603391499
 21
270.05133119125639
 31
0.0
  0
LINE
  5
26D9
  8
AM_0
 10
161.33287713026101
 20
293.25133119125638
 30
0.0
 11
161.33287713026101
 21
270.25133119125638
 31
0.0
  0
LINE
  5
26DA
  8
AM_0
 10
155.43420603391499
 20
281.05133119125441
 30
0.0
 11
155.43420603391499
 21
282.45133119125728
 31
0.0
  0
LINE
  5
26DB
  8
AM_0
 10
157.53384176048601
 20
272.65133119125642
 30
0.0
 11
156.78384176048681
 21
290.85133119125652
 31
0.0
  0
LINE
  5
26DC
  8
AM_0
 10
156.58287713026101
 20
272.65133119125642
 30
0.0
 11
155.93420603391499
 21
288.39241646257238
 31
0.0
  0
LINE
  5
26DD
  8
AM_0
 10
157.33156972083299
 20
271.93567247889251
 30
0.0
 11
156.58430967742501
 21
291.56370295242328
 31
0.0
  0
LINE
  5
26DE
  8
AM_0
 10
156.78240921332281
 20
271.9389594300884
 30
0.0
 11
156.03384176048681
 21
291.60133119125641
 31
0.0
  0
LINE
  5
26DF
  8
AM_0
 10
153.93420603391499
 20
293.75133119125638
 30
0.0
 11
151.734206033915
 21
293.75133119125638
 31
0.0
  0
ARC
  5
26E0
  8
AM_0
 10
165.8328771302611
 20
294.2513311912565
 30
0.0
 40
0.5
 50
269.99999999998693
 51
0.0
  0
ARC
  5
26E1
  8
AM_0
 10
166.8328771302611
 20
294.75133119125638
 30
0.0
 40
0.5
 50
90.0
 51
180.0
  0
LINE
  5
26E2
  8
AM_0
 10
166.33287713026101
 20
294.2513311912565
 30
0.0
 11
166.33287713026101
 21
294.75133119125638
 31
0.0
  0
LINE
  5
26E3
  8
AM_0
 10
157.33287713026101
 20
290.85133119125652
 30
0.0
 11
160.83287713026101
 21
290.85133119125618
 31
0.0
  0
LINE
  5
26E4
  8
AM_0
 10
166.33287713026101
 20
292.60740251266338
 30
0.0
 11
166.33287713026101
 21
282.89525986984842
 31
0.0
  0
LINE
  5
26E5
  8
AM_0
 10
161.83287713026101
 20
293.75133119125638
 30
0.0
 11
165.8328771302609
 21
293.75133119125638
 31
0.0
  0
LINE
  5
26E6
  8
AM_0
 10
165.83287713026101
 20
293.10740251266338
 30
0.0
 11
161.33287713026101
 21
293.10740251266338
 31
0.0
  0
ARC
  5
26E7
  8
AM_0
 10
165.8328771302611
 20
292.60740251266338
 30
0.0
 40
0.5
 50
0.0
 51
90.0
  0
ARC
  5
26E8
  8
AM_0
 10
160.83287713026101
 20
291.35133119125618
 30
0.0
 40
0.5
 50
270.0
 51
0.0
  0
ARC
  5
26E9
  8
AM_0
 10
161.83287713026101
 20
293.25133119125638
 30
0.0
 40
0.5
 50
90.0
 51
180.0
  0
LINE
  5
26EA
  8
AM_0
 10
165.83287713026101
 20
282.3952598698483
 30
0.0
 11
161.33287713026101
 21
282.3952598698483
 31
0.0
  0
ARC
  5
26EB
  8
AM_0
 10
165.83287713026101
 20
282.89525986984842
 30
0.0
 40
0.5
 50
270.0
 51
0.0
  0
LINE
  5
26EC
  8
AM_0
 10
155.43420603391499
 20
287.8965019435484
 30
0.0
 11
155.43420603391499
 21
286.72425875711542
 31
0.0
  0
LINE
  5
26ED
  8
AM_0
 10
156.8605741889119
 20
290.85133119125652
 30
0.0
 11
157.33287713026101
 21
290.85133119125652
 31
0.0
  0
LINE
  5
26EE
  8
AM_0
 10
156.76398169437269
 20
290.92544895799301
 30
0.0
 11
156.78384176048681
 21
290.85133119125652
 31
0.0
  0
ARC
  5
26EF
  8
AM_0
 10
156.86057418891201
 20
290.95133119125637
 30
0.0
 40
0.1000000000000346
 50
195.00019500644541
 51
270.0
  0
ARC
  5
26F0
  8
AM_0
 10
155.13420603391501
 20
291.03816417176438
 30
0.0
 40
0.3000000000000043
 50
270.0
 51
0.0
  0
LINE
  5
26F1
  8
AM_0
 10
153.93420603391499
 20
293.15133119125642
 30
0.0
 11
155.15416173707209
 21
293.07000081104547
 31
0.0
  0
LINE
  5
26F2
  8
AM_0
 10
153.93420603391499
 20
291.99507915541642
 30
0.0
 11
155.13420603391501
 21
291.99507915541642
 31
0.0
  0
LINE
  5
26F3
  8
AM_0
 10
155.43420603391499
 20
292.75133119125638
 30
0.0
 11
153.93420603391499
 21
292.75133119125638
 31
0.0
  0
ARC
  5
26F4
  8
AM_0
 10
155.43420603391499
 20
292.2513311912565
 30
0.0
 40
0.5
 50
0.0
 51
90.0
  0
LINE
  5
26F5
  8
AM_0
 10
155.43420603391499
 20
292.7706652636885
 30
0.0
 11
155.43420603391499
 21
292.75133119125638
 31
0.0
  0
LINE
  5
26F6
  8
AM_0
 10
155.43420603391499
 20
293.05133119125639
 30
0.0
 11
155.43420603391499
 21
292.7706652636885
 31
0.0
  0
LINE
  5
26F7
  8
AM_0
 10
155.15416173707209
 20
293.07000081104547
 30
0.0
 11
155.43420603391499
 21
293.05133119125639
 31
0.0
  0
ARC
  5
26F8
  8
AM_0
 10
155.13420603391501
 20
292.7706652636885
 30
0.0
 40
0.3000000000000007
 50
0.0
 51
86.185925165718274
  0
LINE
  5
26F9
  8
AM_0
 10
156.50614470183589
 20
291.60133119125641
 30
0.0
 11
156.58287713026201
 21
291.60133119125641
 31
0.0
  0
LINE
  5
26FA
  8
AM_0
 10
156.58287713026201
 20
291.60133119125641
 30
0.0
 11
156.6027371963751
 21
291.52721342451991
 31
0.0
  0
LINE
  5
26FB
  8
AM_0
 10
156.01398169437289
 20
291.52721342451991
 30
0.0
 11
156.03384176048681
 21
291.60133119125641
 31
0.0
  0
LINE
  5
26FC
  8
AM_0
 10
156.03384176048681
 20
291.60133119125641
 30
0.0
 11
156.1105741889119
 21
291.60133119125641
 31
0.0
  0
LINE
  5
26FD
  8
AM_0
 10
156.6027371963751
 20
291.52721342451991
 30
0.0
 11
156.76398169437269
 21
290.92544895799301
 31
0.0
  0
LINE
  5
26FE
  8
AM_0
 10
156.1105741889119
 20
291.60133119125641
 30
0.0
 11
156.50614470183589
 21
291.60133119125641
 31
0.0
  0
LINE
  5
26FF
  8
AM_0
 10
155.9342060339159
 20
291.2294906596955
 30
0.0
 11
156.01398169437289
 21
291.52721342451991
 31
0.0
  0
ARC
  5
2700
  8
AM_0
 10
156.50614470183601
 20
291.50133119125638
 30
0.0
 40
0.0999999999999866
 50
15.00019500657341
 51
90.0
  0
ARC
  5
2701
  8
AM_0
 10
156.11057418891201
 20
291.50133119125638
 30
0.0
 40
0.1000000000000014
 50
90.0
 51
164.99980499342661
  0
LINE
  5
2702
  8
AM_0
 10
155.43420603391499
 20
291.69507915541641
 30
0.0
 11
155.43420603391499
 21
291.03816417176438
 31
0.0
  0
ARC
  5
2703
  8
AM_0
 10
155.13420603391501
 20
291.69507915541641
 30
0.0
 40
0.3000000000000007
 50
0.0
 51
90.0
  0
LINE
  5
2704
  8
AM_0
 10
153.93420603391499
 20
288.19650194354853
 30
0.0
 11
155.13420603391501
 21
288.19650194354853
 31
0.0
  0
LINE
  5
2705
  8
AM_0
 10
155.13420603391501
 20
290.73816417176442
 30
0.0
 11
153.93420603391499
 21
290.73816417176442
 31
0.0
  0
LINE
  5
2706
  8
AM_0
 10
156.78384176048681
 20
290.85133119125652
 30
0.0
 11
156.8605741889119
 21
290.85133119125652
 31
0.0
  0
ARC
  5
2707
  8
AM_0
 10
155.13420603391501
 20
287.8965019435484
 30
0.0
 40
0.3000000000000007
 50
0.0
 51
90.0
  0
LINE
  5
2708
  8
AM_0
 10
155.13420603391501
 20
286.42425875711552
 30
0.0
 11
153.93420603391499
 21
286.42425875711552
 31
0.0
  0
ARC
  5
2709
  8
AM_0
 10
155.13420603391501
 20
286.72425875711542
 30
0.0
 40
0.3000000000000043
 50
270.0
 51
0.0
  0
LINE
  5
270A
  8
AM_0
 10
155.13420603391501
 20
282.75133119125752
 30
0.0
 11
153.93420603391499
 21
282.75133119125752
 31
0.0
  0
ARC
  5
270B
  8
AM_0
 10
155.13420603391501
 20
282.45133119125728
 30
0.0
 40
0.3000000000000007
 50
0.0
 51
90.0
  0
LINE
  5
270C
  8
AM_0
 10
144.93420603391499
 20
291.88461101990328
 30
0.0
 11
151.43420603391499
 21
291.88461101990328
 31
0.0
  0
LINE
  5
270D
  8
AM_0
 10
144.93420603391499
 20
292.38461101990328
 30
0.0
 11
151.43420603391499
 21
292.38461101990328
 31
0.0
  0
LINE
  5
270E
  8
AM_0
 10
151.43420603391499
 20
282.25133119125638
 30
0.0
 11
144.93420603391499
 21
282.25133119125638
 31
0.0
  0
LINE
  5
270F
  8
AM_0
 10
144.43420603391499
 20
282.75133119125638
 30
0.0
 11
151.43420603391499
 21
282.75133119125638
 31
0.0
  0
LINE
  5
2710
  8
AM_0
 10
151.13420603391501
 20
292.75133119125638
 30
0.0
 11
144.29625596909699
 21
292.75133119125638
 31
0.0
  0
LINE
  5
2711
  8
AM_0
 10
151.43420603391499
 20
283.0980192597973
 30
0.0
 11
144.93420603391499
 21
283.0980192597973
 31
0.0
  0
LINE
  5
2712
  8
AM_0
 10
151.43420603391499
 20
291.40464312271558
 30
0.0
 11
144.93420603391499
 21
291.40464312271558
 31
0.0
  0
ARC
  5
2713
  8
AM_0
 10
151.734206033915
 20
293.45133119125637
 30
0.0
 40
0.2999999999999971
 50
90.0
 51
180.0
  0
ARC
  5
2714
  8
AM_0
 10
151.13420603391501
 20
293.05133119125639
 30
0.0
 40
0.2999999999999971
 50
270.0
 51
0.0
  0
ARC
  5
2715
  8
AM_0
 10
153.05920603391499
 20
287.25133119125638
 30
0.0
 40
9.124999999999984
 50
152.92493329271929
 51
207.07506670728071
  0
LINE
  5
2716
  8
AM_0
 10
143.6560715694325
 20
292.51955247085391
 30
0.0
 11
141.29402163425041
 21
290.55117752486888
 31
0.0
  0
LINE
  5
2717
  8
AM_0
 10
144.43420603391499
 20
292.17289860774838
 30
0.0
 11
144.93420603391499
 21
292.75133119125638
 31
0.0
  0
ARC
  5
2718
  8
AM_0
 10
144.29625596909699
 20
291.75133119125638
 30
0.0
 40
1.0
 50
90.0
 51
129.805571092256
  0
LINE
  5
2719
  8
AM_0
 10
144.93420603391499
 20
292.38461101990328
 30
0.0
 11
144.43420603391499
 21
292.17289860774838
 31
0.0
  0
LINE
  5
271A
  8
AM_0
 10
144.43420603391499
 20
291.71062333477738
 30
0.0
 11
144.93420603391499
 21
292.38461101990328
 31
0.0
  0
LINE
  5
271B
  8
AM_0
 10
144.93420603391499
 20
291.88461101990328
 30
0.0
 11
144.43420603391499
 21
291.71062333477738
 31
0.0
  0
LINE
  5
271C
  8
AM_0
 10
144.43420603391499
 20
291.17289860774838
 30
0.0
 11
144.93420603391499
 21
291.88461101990328
 31
0.0
  0
LINE
  5
271D
  8
AM_0
 10
144.93420603391499
 20
291.40464312271558
 30
0.0
 11
144.43420603391499
 21
291.17289860774838
 31
0.0
  0
ARC
  5
271E
  8
AM_0
 10
141.93420603391499
 20
289.78295624527129
 30
0.0
 40
1.0000000000000291
 50
129.80557109226521
 51
180.0
  0
LINE
  5
271F
  8
AM_0
 10
144.93420603391499
 20
282.25133119125638
 30
0.0
 11
144.43420603391499
 21
281.7513311912565
 31
0.0
  0
LINE
  5
2720
  8
AM_0
 10
144.43420603391499
 20
282.75133119125638
 30
0.0
 11
144.93420603391499
 21
282.25133119125638
 31
0.0
  0
LINE
  5
2721
  8
AM_0
 10
144.93420603391499
 20
283.0980192597973
 30
0.0
 11
144.43420603391499
 21
282.75133119125638
 31
0.0
  0
LINE
  5
2722
  8
AM_0
 10
151.734206033915
 20
269.75133119125638
 30
0.0
 11
153.93420603391499
 21
269.75133119125638
 31
0.0
  0
ARC
  5
2723
  8
AM_0
 10
165.83287713026101
 20
269.2513311912565
 30
0.0
 40
0.5
 50
0.0
 51
90.000000000006537
  0
LINE
  5
2724
  8
AM_0
 10
160.83287713026101
 20
272.65133119125642
 30
0.0
 11
157.6105741889119
 21
272.65133119125642
 31
0.0
  0
LINE
  5
2725
  8
AM_0
 10
166.33287713026101
 20
280.60740251266338
 30
0.0
 11
166.33287713026101
 21
270.89525986984842
 31
0.0
  0
LINE
  5
2726
  8
AM_0
 10
161.33287713026101
 20
281.10740251266338
 30
0.0
 11
165.83287713026101
 21
281.10740251266338
 31
0.0
  0
ARC
  5
2727
  8
AM_0
 10
165.83287713026101
 20
280.60740251266338
 30
0.0
 40
0.5
 50
0.0
 51
90.0
  0
LINE
  5
2728
  8
AM_0
 10
161.33287713026101
 20
270.39525986984842
 30
0.0
 11
165.83287713026101
 21
270.39525986984842
 31
0.0
  0
LINE
  5
2729
  8
AM_0
 10
165.8328771302609
 20
269.75133119125638
 30
0.0
 11
161.83287713026101
 21
269.75133119125638
 31
0.0
  0
ARC
  5
272A
  8
AM_0
 10
165.83287713026101
 20
270.89525986984842
 30
0.0
 40
0.5
 50
270.0
 51
0.0
  0
ARC
  5
272B
  8
AM_0
 10
160.83287713026101
 20
272.15133119125642
 30
0.0
 40
0.5
 50
0.0
 51
90.0
  0
ARC
  5
272C
  8
AM_0
 10
161.83287713026101
 20
270.25133119125638
 30
0.0
 40
0.5
 50
180.0
 51
270.0
  0
ARC
  5
272D
  8
AM_0
 10
155.13420603391501
 20
275.60616043896431
 30
0.0
 40
0.3000000000000114
 50
270.0
 51
0.0
  0
LINE
  5
272E
  8
AM_0
 10
153.93420603391499
 20
280.75133119125439
 30
0.0
 11
155.13420603391501
 21
280.75133119125439
 31
0.0
  0
ARC
  5
272F
  8
AM_0
 10
155.13420603391501
 20
281.05133119125441
 30
0.0
 40
0.2999999999999971
 50
270.0
 51
0.0
  0
LINE
  5
2730
  8
AM_0
 10
153.93420603391499
 20
277.07840362539741
 30
0.0
 11
155.13420603391501
 21
277.07840362539741
 31
0.0
  0
ARC
  5
2731
  8
AM_0
 10
155.13420603391501
 20
276.77840362539729
 30
0.0
 40
0.3000000000000007
 50
0.0
 51
90.0
  0
LINE
  5
2732
  8
AM_0
 10
155.43420603391499
 20
276.77840362539752
 30
0.0
 11
155.43420603391499
 21
275.60616043896448
 31
0.0
  0
LINE
  5
2733
  8
AM_0
 10
156.8605741889119
 20
271.90133119125642
 30
0.0
 11
157.25614470183589
 21
271.90133119125642
 31
0.0
  0
LINE
  5
2734
  8
AM_0
 10
156.8605741889119
 20
271.90133119125642
 30
0.0
 11
157.25614470183589
 21
271.90133119125642
 31
0.0
  0
LINE
  5
2735
  8
AM_0
 10
157.3527371963751
 20
271.97544895799302
 30
0.0
 11
157.51398169437289
 21
272.57721342451998
 31
0.0
  0
LINE
  5
2736
  8
AM_0
 10
157.3527371963751
 20
271.97544895799302
 30
0.0
 11
157.51398169437289
 21
272.57721342451998
 31
0.0
  0
ARC
  5
2737
  8
AM_0
 10
157.6105741889119
 20
272.55133119125639
 30
0.0
 40
0.0999999999999943
 50
90.0
 51
164.99980499348811
  0
ARC
  5
2738
  8
AM_0
 10
157.25614470183589
 20
272.00133119125638
 30
0.0
 40
0.0999999999999943
 50
270.0
 51
344.99980499349448
  0
LINE
  5
2739
  8
AM_0
 10
155.9333594453739
 20
272.27633119125619
 30
0.0
 11
156.01398169437289
 21
272.57721342451998
 31
0.0
  0
LINE
  5
273A
  8
AM_0
 10
156.585587782467
 20
272.61206665815848
 30
0.0
 11
156.76398169437289
 21
271.97544895799302
 31
0.0
  0
LINE
  5
273B
  8
AM_0
 10
156.6027371963751
 20
272.57721342451998
 30
0.0
 11
156.76398169437289
 21
271.97544895799302
 31
0.0
  0
LINE
  5
273C
  8
AM_0
 10
155.43420603391499
 20
272.46449821074748
 30
0.0
 11
155.43420603391499
 21
271.80758322709642
 31
0.0
  0
LINE
  5
273D
  8
AM_0
 10
155.93420603391499
 20
272.27949065969449
 30
0.0
 11
156.01398169437289
 21
272.57721342451998
 31
0.0
  0
LINE
  5
273E
  8
AM_0
 10
153.93420603391499
 20
272.76449821074738
 30
0.0
 11
155.13420603391501
 21
272.76449821074738
 31
0.0
  0
LINE
  5
273F
  8
AM_0
 10
155.13420603391501
 20
275.30616043896441
 30
0.0
 11
153.93420603391499
 21
275.30616043896327
 31
0.0
  0
LINE
  5
2740
  8
AM_0
 10
156.538776967351
 20
272.65133119125642
 30
0.0
 11
156.585587782467
 21
272.61206665815848
 31
0.0
  0
LINE
  5
2741
  8
AM_0
 10
156.1105741889119
 20
272.65133119125642
 30
0.0
 11
156.538776967351
 21
272.65133119125642
 31
0.0
  0
LINE
  5
2742
  8
AM_0
 10
156.1105741889119
 20
272.65133119125642
 30
0.0
 11
156.50614470183589
 21
272.65133119125642
 31
0.0
  0
ARC
  5
2743
  8
AM_0
 10
156.1105741889119
 20
272.55133119125639
 30
0.0
 40
0.0999999999999943
 50
90.0
 51
164.99980499348811
  0
ARC
  5
2744
  8
AM_0
 10
156.50614470183589
 20
272.55133119125639
 30
0.0
 40
0.0999999999999608
 50
15.00019500651173
 51
90.0
  0
ARC
  5
2745
  8
AM_0
 10
155.13420603391501
 20
272.46449821074748
 30
0.0
 40
0.3000000000000007
 50
0.0
 51
90.0
  0
LINE
  5
2746
  8
AM_0
 10
153.93420603391499
 20
270.75133119125638
 30
0.0
 11
155.43420603391499
 21
270.75133119125638
 31
0.0
  0
LINE
  5
2747
  8
AM_0
 10
155.13420603391501
 20
271.50758322709652
 30
0.0
 11
153.93420603391499
 21
271.50758322709652
 31
0.0
  0
LINE
  5
2748
  8
AM_0
 10
155.15416173707209
 20
270.43266157146638
 30
0.0
 11
153.93420603391499
 21
270.35133119125652
 31
0.0
  0
ARC
  5
2749
  8
AM_0
 10
155.43420603391499
 20
271.2513311912565
 30
0.0
 40
0.5
 50
270.0
 51
0.0
  0
ARC
  5
274A
  8
AM_0
 10
156.8605741889119
 20
272.00133119125638
 30
0.0
 40
0.0999999999999606
 50
195.00019500650541
 51
270.0
  0
ARC
  5
274B
  8
AM_0
 10
155.13420603391501
 20
271.80758322709642
 30
0.0
 40
0.2999999999999971
 50
270.0
 51
0.0
  0
LINE
  5
274C
  8
AM_0
 10
155.43420603391499
 20
270.75133119125638
 30
0.0
 11
155.43420603391499
 21
270.73199711882341
 31
0.0
  0
ARC
  5
274D
  8
AM_0
 10
155.13420603391501
 20
270.73199711882341
 30
0.0
 40
0.3000000000000043
 50
273.81407483428171
 51
0.0
  0
ARC
  5
274E
  8
AM_0
 10
166.83287713026101
 20
268.75133119125638
 30
0.0
 40
0.5
 50
180.0
 51
270.0
  0
LINE
  5
274F
  8
AM_0
 10
166.33287713026101
 20
268.75133119125638
 30
0.0
 11
166.33287713026101
 21
269.2513311912565
 31
0.0
  0
LINE
  5
2750
  8
AM_0
 10
144.93420603391499
 20
272.09801925979741
 30
0.0
 11
151.43420603391499
 21
272.09801925979741
 31
0.0
  0
LINE
  5
2751
  8
AM_0
 10
144.93420603391499
 20
280.40464312271558
 30
0.0
 11
151.43420603391499
 21
280.40464312271558
 31
0.0
  0
LINE
  5
2752
  8
AM_0
 10
144.29625596909699
 20
270.75133119125638
 30
0.0
 11
151.13420603391501
 21
270.75133119125638
 31
0.0
  0
LINE
  5
2753
  8
AM_0
 10
151.43420603391499
 20
280.75133119125638
 30
0.0
 11
144.43420603391499
 21
280.75133119125638
 31
0.0
  0
LINE
  5
2754
  8
AM_0
 10
144.93420603391499
 20
281.25133119125638
 30
0.0
 11
151.43420603391499
 21
281.25133119125638
 31
0.0
  0
LINE
  5
2755
  8
AM_0
 10
151.43420603391499
 20
271.11805136260841
 30
0.0
 11
144.93420603391499
 21
271.11805136260841
 31
0.0
  0
LINE
  5
2756
  8
AM_0
 10
151.43420603391499
 20
271.61805136260841
 30
0.0
 11
144.93420603391499
 21
271.61805136260841
 31
0.0
  0
ARC
  5
2757
  8
AM_0
 10
151.13420603391501
 20
270.45133119125637
 30
0.0
 40
0.3000000000000043
 50
0.0
 51
90.0
  0
ARC
  5
2758
  8
AM_0
 10
151.734206033915
 20
270.05133119125639
 30
0.0
 40
0.2999999999999971
 50
180.0
 51
270.0
  0
ARC
  5
2759
  8
AM_0
 10
153.05920603391499
 20
276.25133119125638
 30
0.0
 40
9.124999999999984
 50
152.92493329271929
 51
207.07506670728071
  0
LINE
  5
275A
  8
AM_0
 10
144.43420603391499
 20
280.75133119125638
 30
0.0
 11
144.93420603391499
 21
280.40464312271558
 31
0.0
  0
LINE
  5
275B
  8
AM_0
 10
144.93420603391499
 20
281.25133119125638
 30
0.0
 11
144.43420603391499
 21
280.75133119125638
 31
0.0
  0
LINE
  5
275C
  8
AM_0
 10
141.29402163425041
 20
272.95148485764298
 30
0.0
 11
143.6560715694325
 21
270.98310991165903
 31
0.0
  0
LINE
  5
275D
  8
AM_0
 10
144.93420603391499
 20
270.75133119125638
 30
0.0
 11
144.43420603391499
 21
271.32976377476348
 31
0.0
  0
ARC
  5
275E
  8
AM_0
 10
144.29625596909699
 20
271.75133119125638
 30
0.0
 40
1.0000000000000411
 50
230.19442890774391
 51
270.0
  0
LINE
  5
275F
  8
AM_0
 10
144.43420603391499
 20
272.32976377476348
 30
0.0
 11
144.93420603391499
 21
272.09801925979741
 31
0.0
  0
LINE
  5
2760
  8
AM_0
 10
144.93420603391499
 20
271.61805136260841
 30
0.0
 11
144.43420603391499
 21
272.32976377476348
 31
0.0
  0
LINE
  5
2761
  8
AM_0
 10
144.43420603391499
 20
271.79203904773539
 30
0.0
 11
144.93420603391499
 21
271.61805136260841
 31
0.0
  0
LINE
  5
2762
  8
AM_0
 10
144.93420603391499
 20
271.11805136260841
 30
0.0
 11
144.43420603391499
 21
271.79203904773539
 31
0.0
  0
LINE
  5
2763
  8
AM_0
 10
144.43420603391499
 20
271.32976377476348
 30
0.0
 11
144.93420603391499
 21
271.11805136260841
 31
0.0
  0
ARC
  5
2764
  8
AM_0
 10
141.93420603391499
 20
273.71970613724028
 30
0.0
 40
1.0
 50
180.0
 51
230.19442890773479
  0
CIRCLE
  5
2765
  8
AM_0
 10
175.33287713025931
 20
322.75133119125599
 30
0.0
 40
4.0
  0
LINE
  5
2766
  8
AM_0
 10
175.02137713025931
 20
320.47252278553168
 30
0.0
 11
175.6443771302593
 21
320.47252278553168
 31
0.0
  0
LINE
  5
2767
  8
AM_0
 10
175.02137713025931
 20
325.03013959698052
 30
0.0
 11
175.6443771302593
 21
325.03013959698052
 31
0.0
  0
LINE
  5
2768
  8
AM_0
 10
175.02137713025931
 20
320.47252278553168
 30
0.0
 11
175.02137713025931
 21
322.43983119125608
 31
0.0
  0
LINE
  5
2769
  8
AM_0
 10
175.02137713025931
 20
323.06283119125601
 30
0.0
 11
175.02137713025931
 21
325.03013959698052
 31
0.0
  0
LINE
  5
276A
  8
AM_0
 10
175.02137713025931
 20
323.06283119125601
 30
0.0
 11
173.05406872453489
 21
323.06283119125601
 31
0.0
  0
LINE
  5
276B
  8
AM_0
 10
175.02137713025931
 20
322.43983119125608
 30
0.0
 11
173.05406872453489
 21
322.43983119125608
 31
0.0
  0
LINE
  5
276C
  8
AM_0
 10
173.05406872453489
 20
323.06283119125601
 30
0.0
 11
173.05406872453489
 21
322.43983119125608
 31
0.0
  0
LINE
  5
276D
  8
AM_0
 10
175.6443771302593
 20
320.47252278553168
 30
0.0
 11
175.6443771302593
 21
322.43983119125608
 31
0.0
  0
LINE
  5
276E
  8
AM_0
 10
175.6443771302593
 20
323.06283119125601
 30
0.0
 11
175.6443771302593
 21
325.03013959698052
 31
0.0
  0
LINE
  5
276F
  8
AM_0
 10
177.6116855359837
 20
322.43983119125608
 30
0.0
 11
175.6443771302593
 21
322.43983119125608
 31
0.0
  0
LINE
  5
2770
  8
AM_0
 10
177.6116855359837
 20
323.06283119125601
 30
0.0
 11
175.6443771302593
 21
323.06283119125601
 31
0.0
  0
LINE
  5
2771
  8
AM_0
 10
177.6116855359837
 20
323.06283119125601
 30
0.0
 11
177.6116855359837
 21
322.43983119125608
 31
0.0
  0
CIRCLE
  5
2772
  8
AM_0
 10
261.33287713026277
 20
322.75133119125599
 30
0.0
 40
4.0
  0
LINE
  5
2773
  8
AM_0
 10
261.02137713026292
 20
320.47252278553162
 30
0.0
 11
261.64437713026291
 21
320.47252278553162
 31
0.0
  0
LINE
  5
2774
  8
AM_0
 10
261.02137713026292
 20
325.03013959698029
 30
0.0
 11
261.64437713026291
 21
325.03013959698029
 31
0.0
  0
LINE
  5
2775
  8
AM_0
 10
261.02137713026292
 20
320.47252278553162
 30
0.0
 11
261.02137713026292
 21
322.43983119125602
 31
0.0
  0
LINE
  5
2776
  8
AM_0
 10
261.02137713026292
 20
323.06283119125601
 30
0.0
 11
261.02137713026292
 21
325.03013959698029
 31
0.0
  0
LINE
  5
2777
  8
AM_0
 10
261.02137713026292
 20
323.06283119125601
 30
0.0
 11
259.05406872453852
 21
323.06283119125601
 31
0.0
  0
LINE
  5
2778
  8
AM_0
 10
261.02137713026292
 20
322.43983119125602
 30
0.0
 11
259.05406872453852
 21
322.43983119125602
 31
0.0
  0
LINE
  5
2779
  8
AM_0
 10
259.05406872453852
 20
323.06283119125601
 30
0.0
 11
259.05406872453852
 21
322.43983119125602
 31
0.0
  0
LINE
  5
277A
  8
AM_0
 10
261.64437713026291
 20
320.47252278553162
 30
0.0
 11
261.64437713026291
 21
322.43983119125602
 31
0.0
  0
LINE
  5
277B
  8
AM_0
 10
261.64437713026291
 20
323.06283119125601
 30
0.0
 11
261.64437713026291
 21
325.03013959698029
 31
0.0
  0
LINE
  5
277C
  8
AM_0
 10
263.61168553598719
 20
322.43983119125602
 30
0.0
 11
261.64437713026291
 21
322.43983119125602
 31
0.0
  0
LINE
  5
277D
  8
AM_0
 10
263.61168553598719
 20
323.06283119125601
 30
0.0
 11
261.64437713026291
 21
323.06283119125601
 31
0.0
  0
LINE
  5
277E
  8
AM_0
 10
263.61168553598719
 20
323.06283119125601
 30
0.0
 11
263.61168553598719
 21
322.43983119125602
 31
0.0
  0
LINE
  5
277F
  8
AM_0
 10
188.868411036194
 20
326.28686509718921
 30
0.0
 11
171.7973432243281
 21
309.2157972853239
 31
0.0
  0
LINE
  5
2780
  8
AM_0
 10
189.5252652856862
 20
321.28686509718898
 30
0.0
 11
176.79734322432819
 21
308.55894303583148
 31
0.0
  0
ARC
  5
2781
  8
AM_0
 10
180.33287713026101
 20
305.02340912989848
 30
0.0
 40
5.0
 50
135.0
 51
180.0
1001
GENIUS_GENOBJ-N-FIL_13
1002
{
1000
OWNER
1000
GEN
1002
}
1001
GENIUS_GENODEF_13
1002
{
1000
HIER
1070
     0
1002
}
1002
{
1000
MANEDIT
1070
     0
1002
}
1002
{
1000
NOSEL
1070
     0
1002
}
1002
{
1000
BEHIND
1070
     0
1002
}
1002
{
1000
OTHER
1070
     0
1002
}
1002
{
1000
REACTOR
1002
}
  0
LINE
  5
2782
  8
AM_0
 10
247.79734322432819
 20
237.21579728532359
 30
0.0
 11
264.86841103619372
 21
254.28686509718889
 31
0.0
  0
ARC
  5
2783
  8
AM_0
 10
244.26180931839559
 20
240.75133119125621
 30
0.0
 40
5.0
 50
270.0
 51
315.0
1001
GENIUS_GENODEF_13
1002
{
1000
HIER
1070
     0
1002
}
1002
{
1000
MANEDIT
1070
     0
1002
}
1002
{
1000
NOSEL
1070
     0
1002
}
1002
{
1000
BEHIND
1070
     0
1002
}
1002
{
1000
OTHER
1070
     0
1002
}
1002
{
1000
REACTOR
1002
}
1001
GENIUS_GENOBJ-N-FIL_13
1002
{
1000
OWNER
1000
GEN
1002
}
  0
LINE
  5
2784
  8
AM_0
 10
247.14048897483599
 20
242.21579728532359
 30
0.0
 11
259.86841103619372
 21
254.94371934668121
 31
0.0
  0
ARC
  5
2785
  8
AM_0
 10
256.33287713026112
 20
258.47925325261389
 30
0.0
 40
5.0
 50
315.0
 51
0.0
1001
GENIUS_GENOBJ-N-FIL_13
1002
{
1000
OWNER
1000
GEN
1002
}
1001
GENIUS_GENODEF_13
1002
{
1000
HIER
1070
     0
1002
}
1002
{
1000
MANEDIT
1070
     0
1002
}
1002
{
1000
NOSEL
1070
     0
1002
}
1002
{
1000
BEHIND
1070
     0
1002
}
1002
{
1000
OTHER
1070
     0
1002
}
1002
{
1000
REACTOR
1002
}
  0
LINE
  5
2786
  8
AM_0
 10
188.86841103619381
 20
237.21579728532359
 30
0.0
 11
171.7973432243281
 21
254.2868650971887
 31
0.0
  0
LINE
  5
2787
  8
AM_0
 10
189.525265285686
 20
242.21579728532359
 30
0.0
 11
176.79734322432819
 21
254.94371934668121
 31
0.0
  0
ARC
  5
2788
  8
AM_0
 10
193.06079919161871
 20
245.75133119125621
 30
0.0
 40
5.0
 50
225.0
 51
270.0
1001
GENIUS_GENOBJ-N-FIL_13
1002
{
1000
OWNER
1000
GEN
1002
}
1001
GENIUS_GENODEF_13
1002
{
1000
HIER
1070
     0
1002
}
1002
{
1000
MANEDIT
1070
     0
1002
}
1002
{
1000
NOSEL
1070
     0
1002
}
1002
{
1000
BEHIND
1070
     0
1002
}
1002
{
1000
OTHER
1070
     0
1002
}
1002
{
1000
REACTOR
1002
}
  0
CIRCLE
  5
2789
  8
AM_0
 10
175.33287713025911
 20
240.7513311912567
 30
0.0
 40
4.0
  0
LINE
  5
278A
  8
AM_0
 10
175.02137713025931
 20
243.030139596981
 30
0.0
 11
175.6443771302591
 21
243.030139596981
 31
0.0
  0
LINE
  5
278B
  8
AM_0
 10
175.02137713025931
 20
238.47252278553231
 30
0.0
 11
175.6443771302591
 21
238.47252278553231
 31
0.0
  0
LINE
  5
278C
  8
AM_0
 10
175.02137713025931
 20
243.030139596981
 30
0.0
 11
175.02137713025931
 21
241.06283119125669
 31
0.0
  0
LINE
  5
278D
  8
AM_0
 10
175.02137713025931
 20
240.43983119125659
 30
0.0
 11
175.02137713025931
 21
238.47252278553231
 31
0.0
  0
LINE
  5
278E
  8
AM_0
 10
175.02137713025931
 20
240.43983119125659
 30
0.0
 11
173.0540687245348
 21
240.43983119125659
 31
0.0
  0
LINE
  5
278F
  8
AM_0
 10
175.02137713025931
 20
241.06283119125669
 30
0.0
 11
173.0540687245348
 21
241.06283119125669
 31
0.0
  0
LINE
  5
2790
  8
AM_0
 10
173.0540687245348
 20
240.43983119125659
 30
0.0
 11
173.0540687245348
 21
241.06283119125669
 31
0.0
  0
LINE
  5
2791
  8
AM_0
 10
175.6443771302591
 20
243.030139596981
 30
0.0
 11
175.6443771302591
 21
241.06283119125669
 31
0.0
  0
LINE
  5
2792
  8
AM_0
 10
175.6443771302591
 20
240.43983119125659
 30
0.0
 11
175.6443771302591
 21
238.47252278553231
 31
0.0
  0
LINE
  5
2793
  8
AM_0
 10
177.6116855359835
 20
241.06283119125669
 30
0.0
 11
175.6443771302591
 21
241.06283119125669
 31
0.0
  0
LINE
  5
2794
  8
AM_0
 10
177.6116855359835
 20
240.43983119125659
 30
0.0
 11
175.6443771302591
 21
240.43983119125659
 31
0.0
  0
LINE
  5
2795
  8
AM_0
 10
177.6116855359835
 20
240.43983119125659
 30
0.0
 11
177.6116855359835
 21
241.06283119125669
 31
0.0
  0
CIRCLE
  5
2796
  8
AM_0
 10
261.33287713026272
 20
240.75133119125641
 30
0.0
 40
4.0
  0
LINE
  5
2797
  8
AM_0
 10
261.02137713026269
 20
243.0301395969808
 30
0.0
 11
261.64437713026268
 21
243.0301395969808
 31
0.0
  0
LINE
  5
2798
  8
AM_0
 10
261.02137713026269
 20
238.47252278553219
 30
0.0
 11
261.64437713026268
 21
238.47252278553219
 31
0.0
  0
LINE
  5
2799
  8
AM_0
 10
261.02137713026269
 20
243.0301395969808
 30
0.0
 11
261.02137713026269
 21
241.06283119125649
 31
0.0
  0
LINE
  5
279A
  8
AM_0
 10
261.02137713026269
 20
240.43983119125639
 30
0.0
 11
261.02137713026269
 21
238.47252278553219
 31
0.0
  0
LINE
  5
279B
  8
AM_0
 10
261.02137713026269
 20
240.43983119125639
 30
0.0
 11
259.0540687245383
 21
240.43983119125639
 31
0.0
  0
LINE
  5
279C
  8
AM_0
 10
261.02137713026269
 20
241.06283119125649
 30
0.0
 11
259.0540687245383
 21
241.06283119125649
 31
0.0
  0
LINE
  5
279D
  8
AM_0
 10
259.0540687245383
 20
240.43983119125639
 30
0.0
 11
259.0540687245383
 21
241.06283119125649
 31
0.0
  0
LINE
  5
279E
  8
AM_0
 10
261.64437713026268
 20
243.0301395969808
 30
0.0
 11
261.64437713026268
 21
241.06283119125649
 31
0.0
  0
LINE
  5
279F
  8
AM_0
 10
261.64437713026268
 20
240.43983119125639
 30
0.0
 11
261.64437713026268
 21
238.47252278553219
 31
0.0
  0
LINE
  5
27A0
  8
AM_0
 10
263.61168553598708
 20
241.06283119125649
 30
0.0
 11
261.64437713026268
 21
241.06283119125649
 31
0.0
  0
LINE
  5
27A1
  8
AM_0
 10
263.61168553598708
 20
240.43983119125639
 30
0.0
 11
261.64437713026268
 21
240.43983119125639
 31
0.0
  0
LINE
  5
27A2
  8
AM_0
 10
263.61168553598708
 20
240.43983119125639
 30
0.0
 11
263.61168553598708
 21
241.06283119125649
 31
0.0
  0
LINE
  5
27A3
  8
AM_0
 10
170.33287713026101
 20
250.7513311912563
 30
0.0
 11
169.33287713026101
 21
250.7513311912563
 31
0.0
  0
LINE
  5
27A4
  8
AM_0
 10
170.33287713026101
 20
312.7513311912565
 30
0.0
 11
169.33287713026101
 21
312.75133119125638
 31
0.0
  0
LINE
  5
27A5
  8
AM_0
 10
169.33287713026101
 20
250.7513311912563
 30
0.0
 11
169.33287713026101
 21
312.75133119125638
 31
0.0
  0
LINE
  5
27EA
  8
ﾁｭｳｼﾝｾﾝ1
 10
175.33287713025891
 20
316.75133119125599
 30
0.0
 11
175.3328771302595
 21
328.75133119125599
 31
0.0
  0
LINE
  5
27EB
  8
ﾁｭｳｼﾝｾﾝ1
 10
181.33287713025919
 20
322.75133119125582
 30
0.0
 11
169.33287713025931
 21
322.75133119125638
 31
0.0
  0
LINE
  5
27EC
  8
ﾁｭｳｼﾝｾﾝ1
 10
175.33287713025879
 20
234.7513311912567
 30
0.0
 11
175.3328771302595
 21
246.7513311912567
 31
0.0
  0
LINE
  5
27ED
  8
ﾁｭｳｼﾝｾﾝ1
 10
181.33287713025911
 20
240.75133119125641
 30
0.0
 11
169.33287713025919
 21
240.75133119125701
 31
0.0
  0
LINE
  5
27EE
  8
ﾁｭｳｼﾝｾﾝ1
 10
261.33287713026237
 20
234.75133119125641
 30
0.0
 11
261.33287713026289
 21
246.75133119125641
 31
0.0
  0
LINE
  5
27EF
  8
ﾁｭｳｼﾝｾﾝ1
 10
267.33287713026272
 20
240.75133119125621
 30
0.0
 11
255.33287713026269
 21
240.7513311912569
 31
0.0
  0
LINE
  5
3412
  8
ﾁｭｳｼﾝｾﾝ
 10
428.55257713026077
 20
301.75130519125611
 30
0.0
 11
295.29596713026081
 21
301.75130519125611
 31
0.0
  0
LINE
  5
342B
  8
AM_0
 10
327.3328771302609
 20
332.26882019125611
 30
0.0
 11
330.3328771302609
 21
332.26882019125611
 31
0.0
  0
LINE
  5
342C
  8
AM_0
 10
327.3328771302609
 20
320.7217961912562
 30
0.0
 11
330.3328771302609
 21
320.7217961912562
 31
0.0
  0
LINE
  5
342D
  8
AM_0
 10
327.3328771302609
 20
323.60854019125611
 30
0.0
 11
330.3328771302609
 21
323.60854019125611
 31
0.0
  0
LINE
  5
342E
  8
AM_0
 10
327.3328771302609
 20
329.38204019125618
 30
0.0
 11
330.3328771302609
 21
329.38204019125618
 31
0.0
  0
LINE
  5
342F
  8
AM_0
 10
331.33283713026088
 20
321.721810191256
 30
0.0
 11
331.33283713026088
 21
331.26883019125609
 31
0.0
  0
LINE
  5
3430
  8
AM_0
 10
327.3328771302609
 20
333.26881019125619
 30
0.0
 11
327.3328771302609
 21
319.72179719125631
 31
0.0
  0
LINE
  5
3432
  8
AM_0
 10
326.33288713026087
 20
333.26881019125619
 30
0.0
 11
327.3328771302609
 21
333.26881019125619
 31
0.0
  0
LINE
  5
3433
  8
AM_0
 10
326.33288713026087
 20
319.72179719125631
 30
0.0
 11
327.3328771302609
 21
319.72179719125631
 31
0.0
  0
LINE
  5
343F
  8
AM_0
 10
286.33292713026088
 20
206.7513191912561
 30
0.0
 11
311.33288713026087
 21
206.7513191912561
 31
0.0
  0
LINE
  5
3440
  8
AM_0
 10
288.3328771302609
 20
218.75133419125609
 30
0.0
 11
307.28222713026088
 21
218.75133419125609
 31
0.0
  0
LINE
  5
3441
  8
AM_0
 10
355.3328971302609
 20
206.7513191912561
 30
0.0
 11
380.33288713026087
 21
206.7513191912561
 31
0.0
  0
LINE
  5
3443
  8
AM_0
 10
315.3328771302609
 20
352.75132019125618
 30
0.0
 11
315.3328771302609
 21
237.6084671912561
 31
0.0
  0
LINE
  5
3444
  8
AM_0
 10
315.3328771302609
 20
352.75132019125618
 30
0.0
 11
359.46377713026078
 21
351.59569019125621
 31
0.0
  0
LINE
  5
3445
  8
AM_0
 10
368.89712713026091
 20
335.48935019125628
 30
0.0
 11
374.59439713026092
 21
334.99090019125612
 31
0.0
  0
LINE
  5
3446
  8
AM_0
 10
377.33288713026087
 20
332.00233019125619
 30
0.0
 11
377.33288713026087
 21
222.49588619125629
 31
0.0
  0
LINE
  5
3447
  8
AM_0
 10
286.33292713026088
 20
216.7513181912561
 30
0.0
 11
286.33292713026088
 21
206.7513191912561
 31
0.0
  0
LINE
  5
3448
  8
AM_0
 10
312.3328771302609
 20
207.7513031912562
 30
0.0
 11
354.33287713026078
 21
207.7513031912562
 31
0.0
  0
LINE
  5
3449
  8
AM_0
 10
380.33288713026087
 20
216.7513181912561
 30
0.0
 11
380.33288713026087
 21
206.7513191912561
 31
0.0
  0
LINE
  5
3451
  8
AM_0
 10
318.3328771302609
 20
288.96758519125621
 30
0.0
 11
318.3328771302609
 21
252.27579419125621
 31
0.0
  0
LINE
  5
3452
  8
AM_0
 10
356.33288713026087
 20
218.75133419125609
 30
0.0
 11
378.33287713026078
 21
218.75133419125609
 31
0.0
  0
LINE
  5
3455
  8
AM_0
 10
329.33288713026087
 20
333.27877019125623
 30
0.0
 11
364.33289713026079
 21
333.27877019125623
 31
0.0
  0
LINE
  5
3457
  8
AM_0
 10
311.33288713026087
 20
206.7513191912561
 30
0.0
 11
311.33288713026087
 21
206.7513191912561
 31
0.0
  0
LINE
  5
3458
  8
AM_0
 10
351.33287713026078
 20
311.54213819125619
 30
0.0
 11
351.33287713026078
 21
223.75132019125621
 31
0.0
  0
LINE
  5
345A
  8
AM_0
 10
364.33289713026079
 20
346.59742019125628
 30
0.0
 11
364.33289713026079
 21
237.7921211912562
 31
0.0
  0
LINE
  5
345E
  8
AM_0
 10
351.33287713026078
 20
233.7921371912561
 30
0.0
 11
360.33287713026078
 21
233.7921371912561
 31
0.0
  0
LINE
  5
3463
  8
AM_0
 10
359.33288713026087
 20
319.54210919125609
 30
0.0
 11
364.33289713026079
 21
319.54210919125609
 31
0.0
  0
LINE
  5
3467
  8
AM_0
 10
355.3328971302609
 20
206.7513191912561
 30
0.0
 11
355.3328971302609
 21
206.7513191912561
 31
0.0
  0
LINE
  5
3468
  8
AM_0
 10
312.17339713026092
 20
222.71379719125611
 30
0.0
 11
318.22406713026101
 21
251.23827419125621
 31
0.0
  0
LINE
  5
3469
  8
AM_0
 10
326.33288713026087
 20
338.27809019125613
 30
0.0
 11
326.33288713026087
 21
315.37606319125609
 31
0.0
  0
LINE
  5
346C
  8
AM_0
 10
329.33288713026087
 20
352.30618019125609
 30
0.0
 11
329.33288713026087
 21
333.27877019125623
 31
0.0
  0
LINE
  5
346D
  8
AM_0
 10
329.33288713026087
 20
352.30615019125628
 30
0.0
 11
342.91487713026089
 21
333.27877019125623
 31
0.0
  0
LINE
  5
346E
  8
AM_0
 10
329.33288713026087
 20
315.10003019125628
 30
0.0
 11
329.33288713026087
 21
288.96758519125621
 31
0.0
  0
LINE
  5
346F
  8
AM_0
 10
342.16250713026079
 20
315.10003019125628
 30
0.0
 11
329.33288713026087
 21
288.96758519125621
 31
0.0
  0
LINE
  5
3470
  8
AM_0
 10
318.3328771302609
 20
288.96758519125621
 30
0.0
 11
329.33288713026087
 21
288.96758519125621
 31
0.0
  0
LINE
  5
3471
  8
AM_0
 10
329.33288713026087
 20
315.10003019125628
 30
0.0
 11
352.1675971302609
 21
315.10003019125628
 31
0.0
  0
LINE
  5
3472
  8
AM_0
 10
310.33292713026088
 20
352.75132019125618
 30
0.0
 11
315.3328771302609
 21
352.75132019125618
 31
0.0
  0
LINE
  5
3473
  8
AM_0
 10
278.33288713026087
 20
218.2513181912561
 30
0.0
 11
286.79480713026101
 21
218.0297321912561
 31
0.0
  0
LINE
  5
3474
  8
AM_0
 10
303.3328771302609
 20
331.25134019125608
 30
0.0
 11
303.3328771302609
 21
316.61864819125628
 31
0.0
  0
LINE
  5
3475
  8
AM_0
 10
278.33288713026087
 20
345.25132019125618
 30
0.0
 11
306.38525713026092
 21
345.98590019125618
 31
0.0
  0
LINE
  5
3476
  8
AM_0
 10
308.33288713026087
 20
350.75134019125602
 30
0.0
 11
308.33288713026087
 21
335.25130019125629
 31
0.0
  0
LINE
  5
3477
  8
ﾁｭｳｼﾝｾﾝ
 10
109.5418838379029
 20
281.7513371912562
 30
0.0
 11
301.9467743260596
 21
281.7513371912562
 31
0.0
  0
LINE
  5
3478
  8
AM_0
 10
303.3328771302609
 20
226.12132919125611
 30
0.0
 11
307.81286713026088
 21
226.12132919125611
 31
0.0
  0
LINE
  5
3479
  8
AM_0
 10
305.33288713026087
 20
219.1542581912561
 30
0.0
 11
306.3328771302609
 21
219.1542581912561
 31
0.0
  0
LINE
  5
347A
  8
AM_0
 10
303.3328771302609
 20
314.61864719125612
 30
0.0
 11
307.77356713026091
 21
314.61864719125612
 31
0.0
  0
LINE
  5
347B
  8
AM_0
 10
305.33288713026087
 20
324.13933019125619
 30
0.0
 11
308.33288713026087
 21
324.13933019125619
 31
0.0
  0
LINE
  5
347C
  8
AM_0
 10
305.33288713026087
 20
333.25132019125618
 30
0.0
 11
306.3328771302609
 21
333.25132019125618
 31
0.0
  0
LINE
  5
347D
  8
AM_0
 10
303.3328771302609
 20
224.12131319125621
 30
0.0
 11
303.3328771302609
 21
218.75133419125609
 31
0.0
  0
LINE
  5
347E
  8
AM_0
 10
308.33288713026087
 20
324.13933019125619
 30
0.0
 11
308.33288713026087
 21
221.15427419125609
 31
0.0
  0
LINE
  5
347F
  8
AM_0
 10
278.33288713026087
 20
333.25132019125618
 30
0.0
 11
304.33292713026088
 21
333.25132019125618
 31
0.0
  0
LINE
  5
3480
  8
AM_0
 10
278.33288713026087
 20
318.8992571912562
 30
0.0
 11
303.3328771302609
 21
318.8992571912562
 31
0.0
  0
LINE
  5
3481
  8
AM_0
 10
278.33288713026087
 20
244.60340219125621
 30
0.0
 11
308.33288713026087
 21
244.60340219125621
 31
0.0
  0
LINE
  5
3482
  8
AM_0
 10
278.33288713026087
 20
230.2513181912561
 30
0.0
 11
308.33288713026087
 21
230.2513181912561
 31
0.0
  0
LINE
  5
3495
  8
AM_0
 10
278.33288713026087
 20
345.25132019125618
 30
0.0
 11
278.33288713026087
 21
218.2512731912561
 31
0.0
  0
ARC
  5
3582
  8
AM_0
 10
330.3328771302609
 20
324.60856019125617
 30
0.0
 40
1.0000000199999981
 50
270.0
 51
0.0
  0
ARC
  5
3583
  8
AM_0
 10
330.3328771302609
 20
328.38208019125619
 30
0.0
 40
1.0000000199999981
 50
0.0
 51
90.00000299999769
  0
ARC
  5
3584
  8
AM_0
 10
330.3328771302609
 20
330.38203019125621
 30
0.0
 40
1.0000000199999981
 50
270.0
 51
0.0
  0
ARC
  5
3585
  8
AM_0
 10
330.3328771302609
 20
322.6085501912562
 30
0.0
 40
1.0000000199999981
 50
0.0
 51
90.00000299999769
  0
ARC
  5
3586
  8
AM_0
 10
330.3328771302609
 20
321.721810191256
 30
0.0
 40
1.0000000199999981
 50
270.0
 51
0.0
  0
ARC
  5
3587
  8
AM_0
 10
330.3328771302609
 20
331.26883019125609
 30
0.0
 40
1.0000000199999981
 50
0.0
 51
90.00000299999769
  0
ARC
  5
3589
  8
AM_0
 10
374.33288713026087
 20
332.00233019125619
 30
0.0
 40
3.0
 50
0.0
 51
84.999996999998885
  0
ARC
  5
358A
  8
AM_0
 10
369.3328771302609
 20
340.47034019125618
 30
0.0
 40
5.0000001000000003
 50
179.999989999999
 51
265.0
  0
ARC
  5
3595
  8
AM_0
 10
327.3328771302609
 20
338.27809019125613
 30
0.0
 40
1.0000000199999981
 50
90.00000299999769
 51
180.00001000000091
  0
ARC
  5
3596
  8
AM_0
 10
354.33287713026078
 20
206.7513191912561
 30
0.0
 40
1.0000000199999981
 50
0.0
 51
90.00000299999769
  0
ARC
  5
3597
  8
AM_0
 10
313.33292713026088
 20
252.27579419125621
 30
0.0
 40
5.0000001000000003
 50
348.0238700000001
 51
0.0
  0
ARC
  5
359C
  8
AM_0
 10
360.33287713026078
 20
237.7921211912562
 30
0.0
 40
4.0000001999999979
 50
270.0
 51
0.0
  0
ARC
  5
35A0
  8
AM_0
 10
359.33288713026087
 20
346.59742019125628
 30
0.0
 40
5.0000001000000003
 50
0.0
 51
88.499997000000647
  0
ARC
  5
35A1
  8
AM_0
 10
382.3328971302609
 20
222.49588619125629
 30
0.0
 40
5.0000001000000003
 50
179.999989999999
 51
235.15011000000041
  0
ARC
  5
35A2
  8
AM_0
 10
378.33287713026078
 20
216.7513181912561
 30
0.0
 40
2.00000007
 50
0.0
 51
90.00000299999769
  0
ARC
  5
35A3
  8
AM_0
 10
288.3328771302609
 20
216.7513181912561
 30
0.0
 40
2.00000007
 50
90.00000299999769
 51
180.00001000000091
  0
ARC
  5
35A4
  8
AM_0
 10
312.3328771302609
 20
206.7513191912561
 30
0.0
 40
1.0000000199999981
 50
90.00000299999769
 51
180.00001000000091
  0
ARC
  5
35A7
  8
AM_0
 10
356.33288713026087
 20
223.75132019125621
 30
0.0
 40
5.0000001000000003
 50
180.00001000000091
 51
270.0
  0
ARC
  5
35AF
  8
AM_0
 10
359.33288713026087
 20
311.54213819125619
 30
0.0
 40
8.0000000999999976
 50
90.00000299999769
 51
180.00001000000091
  0
ARC
  5
35B0
  8
AM_0
 10
307.28222713026088
 20
223.75132019125621
 30
0.0
 40
5.0000001000000003
 50
270.0
 51
348.0238700000001
  0
ARC
  5
35BF
  8
AM_0
 10
327.3328771302609
 20
315.37606319125609
 30
0.0
 40
1.0000000199999981
 50
179.999989999999
 51
270.0
  0
ARC
  5
35C0
  8
AM_0
 10
327.3328771302609
 20
312.37606319125621
 30
0.0
 40
2.00000007
 50
0.0
 51
90.00000299999769
  0
ARC
  5
35C1
  8
AM_0
 10
327.3328771302609
 20
341.27809019125613
 30
0.0
 40
2.00000007
 50
270.0
 51
0.0
  0
ARC
  5
35C2
  8
AM_0
 10
310.33292713026088
 20
350.75134019125602
 30
0.0
 40
2.00000007
 50
90.00000299999769
 51
180.00001000000091
  0
ARC
  5
35C3
  8
AM_0
 10
306.3328771302609
 20
335.25130019125629
 30
0.0
 40
2.00000007
 50
270.0
 51
0.0
  0
ARC
  5
35C4
  8
AM_0
 10
305.33288713026087
 20
331.25134019125608
 30
0.0
 40
2.00000007
 50
90.00000299999769
 51
180.00001000000091
  0
ARC
  5
35C5
  8
AM_0
 10
305.33288713026087
 20
326.13934019125628
 30
0.0
 40
2.00000007
 50
179.999989999999
 51
270.0
  0
ARC
  5
35C6
  8
AM_0
 10
301.33292713026088
 20
316.61864819125628
 30
0.0
 40
2.00000007
 50
270.0
 51
0.0
  0
ARC
  5
35C7
  8
AM_0
 10
306.3328771302609
 20
221.15427419125609
 30
0.0
 40
2.00000007
 50
270.0
 51
0.0
  0
ARC
  5
35C8
  8
AM_0
 10
305.33288713026087
 20
217.15425719125631
 30
0.0
 40
2.00000007
 50
90.00000299999769
 51
127.01006999999861
  0
ARC
  5
35C9
  8
AM_0
 10
301.33292713026088
 20
224.12131319125621
 30
0.0
 40
2.00000007
 50
0.0
 51
90.00000299999769
  0
ARC
  5
35D0
  8
AM_0
 10
306.3328771302609
 20
347.98522019125602
 30
0.0
 40
2.00000007
 50
271.50000000000267
 51
0.0
  0
LINE
  5
3F5E
  8
ﾁｭｳｼﾝｾﾝ
 10
585.32913058241502
 20
301.75130519125611
 30
0.0
 11
682.24053606900816
 21
301.75130519125611
 31
0.0
  0
LINE
  5
3F5F
  8
AM_0
 10
388.33283713026083
 20
313.75129019125598
 30
0.0
 11
422.33288713026087
 21
313.75129019125598
 31
0.0
  0
LINE
  5
3F60
  8
AM_0
 10
422.33288713026087
 20
316.75129019125598
 30
0.0
 11
422.33288713026087
 21
289.75130519125611
 31
0.0
  0
LINE
  5
3F61
  8
AM_0
 10
388.33283713026083
 20
289.75130519125611
 30
0.0
 11
422.33288713026087
 21
289.75130519125611
 31
0.0
  0
LINE
  5
3F63
  8
ﾁｭｳｼﾝｾﾝ
 10
633.78483332571159
 20
356.816877535358
 30
0.0
 11
633.78483332571159
 21
202.51703219125599
 31
0.0
  0
LINE
  5
3F64
  8
AM_0
 10
390.33284713026092
 20
316.75129019125598
 30
0.0
 11
390.33284713026092
 21
313.75129019125598
 31
0.0
  0
LINE
  5
3F65
  8
AM_0
 10
576.22700432571162
 20
320.77120019125618
 30
0.0
 11
580.80740432571145
 21
324.28591019125611
 31
0.0
  0
LINE
  5
3F66
  8
AM_0
 10
580.80740432571145
 20
324.2858801912559
 30
0.0
 11
580.05380432571155
 21
330.01000019125598
 31
0.0
  0
LINE
  5
3F67
  8
AM_0
 10
580.05380432571155
 20
330.00997019125589
 30
0.0
 11
574.71980432571149
 21
332.21941019125597
 31
0.0
  0
LINE
  5
3F68
  8
AM_0
 10
574.71983432571164
 20
332.21941019125597
 30
0.0
 11
570.13937432571163
 21
328.70473019125609
 31
0.0
  0
LINE
  5
3F69
  8
AM_0
 10
570.13937432571163
 20
328.70473019125609
 30
0.0
 11
570.89294432571194
 21
322.98061019125601
 31
0.0
  0
LINE
  5
3F6A
  8
AM_0
 10
570.89294432571194
 20
322.98061019125601
 30
0.0
 11
576.22697432571158
 21
320.77117019125598
 31
0.0
  0
LINE
  5
3F6B
  8
AM_0
 10
686.76231032571161
 20
324.28579019125601
 30
0.0
 11
691.34274032571147
 21
320.77111019125601
 31
0.0
  0
LINE
  5
3F6C
  8
AM_0
 10
687.51588332571146
 20
330.0099101912561
 30
0.0
 11
686.7622803257118
 21
324.28579019125601
 31
0.0
  0
LINE
  5
3F6D
  8
AM_0
 10
692.84992832571152
 20
332.21935019125601
 30
0.0
 11
687.51589832571153
 21
330.00994019125602
 31
0.0
  0
LINE
  5
3F6E
  8
AM_0
 10
697.43035832571172
 20
328.70464019125609
 30
0.0
 11
692.84992832571152
 21
332.21932019125609
 31
0.0
  0
LINE
  5
3F6F
  8
AM_0
 10
691.34274032571147
 20
320.77114019125588
 30
0.0
 11
696.67677032571135
 21
322.9805501912561
 31
0.0
  0
LINE
  5
3F70
  8
AM_0
 10
657.33166232571193
 20
217.36086119125599
 30
0.0
 11
656.57807732571155
 21
211.6367531912561
 31
0.0
  0
LINE
  5
3F71
  8
AM_0
 10
656.57809232571162
 20
211.63673819125609
 30
0.0
 11
661.1585193257115
 21
208.12206119125611
 31
0.0
  0
LINE
  5
3F72
  8
AM_0
 10
662.66572232571161
 20
219.570286191256
 30
0.0
 11
657.33169232571163
 21
217.36086119125599
 31
0.0
  0
LINE
  5
3F73
  8
AM_0
 10
667.24613732571152
 20
216.05557619125611
 30
0.0
 11
662.66570732571154
 21
219.57027119125601
 31
0.0
  0
LINE
  5
3F74
  8
AM_0
 10
661.1585193257115
 20
208.1220761912561
 30
0.0
 11
666.49254932571148
 21
210.331501191256
 31
0.0
  0
LINE
  5
3F75
  8
AM_0
 10
666.49251932571156
 20
210.33148619125609
 30
0.0
 11
667.24612232571155
 21
216.05559419125601
 31
0.0
  0
LINE
  5
3F76
  8
AM_0
 10
610.99158932571163
 20
211.63676819125601
 30
0.0
 11
610.23798632571163
 21
217.36087619125601
 31
0.0
  0
LINE
  5
3F77
  8
AM_0
 10
606.41114432571146
 20
208.1220761912561
 30
0.0
 11
610.99158932571163
 21
211.6367531912561
 31
0.0
  0
LINE
  5
3F78
  8
AM_0
 10
610.23801632571156
 20
217.36084619125609
 30
0.0
 11
604.90400132571165
 21
219.57027119125601
 31
0.0
  0
LINE
  5
3F79
  8
AM_0
 10
604.90397132571161
 20
219.570286191256
 30
0.0
 11
600.32355632571125
 21
216.05559419125601
 31
0.0
  0
LINE
  5
3F7A
  8
AM_0
 10
601.07715932571159
 20
210.33147119125601
 30
0.0
 11
606.4111743257115
 21
208.12204319125601
 31
0.0
  0
LINE
  5
3F7B
  8
AM_0
 10
600.32352632571155
 20
216.055609191256
 30
0.0
 11
601.07712932571155
 21
210.331501191256
 31
0.0
  0
LINE
  5
3F7C
  8
AM_0
 10
637.78481732571163
 20
316.75129019125598
 30
0.0
 11
637.78481732571163
 21
309.75130019125601
 31
0.0
  0
LINE
  5
3F7D
  8
AM_0
 10
629.78483132571193
 20
316.75129019125598
 30
0.0
 11
629.78483132571193
 21
309.75130019125601
 31
0.0
  0
LINE
  5
3F7E
  8
AM_0
 10
629.78483132571193
 20
316.75129019125598
 30
0.0
 11
637.78481732571163
 21
316.75129019125598
 31
0.0
  0
LINE
  5
3F7F
  8
AM_0
 10
629.78483132571193
 20
309.75130019125601
 30
0.0
 11
637.78481732571163
 21
309.75130019125601
 31
0.0
  0
LINE
  5
3F80
  8
AM_0
 10
390.33284713026092
 20
316.75129019125598
 30
0.0
 11
422.33288713026087
 21
316.75129019125598
 31
0.0
  0
LINE
  5
3F8D
  8
AM_0
 10
697.43029532571154
 20
328.70470019125611
 30
0.0
 11
696.67671032571172
 21
322.98061019125601
 31
0.0
  0
LINE
  5
3F97
  8
AM_0
 10
711.78483332571136
 20
218.751316191256
 30
0.0
 11
701.01641732571159
 21
321.38149019125598
 31
0.0
  0
LINE
  5
3F98
  8
AM_0
 10
679.78484732571178
 20
209.751316191256
 30
0.0
 11
675.78483332571159
 21
209.751316191256
 31
0.0
  0
LINE
  5
3F99
  8
AM_0
 10
680.78483432571193
 20
207.75133319125609
 30
0.0
 11
586.78487432571137
 21
207.75133319125609
 31
0.0
  0
LINE
  5
3F9A
  8
AM_0
 10
591.78483032571125
 20
209.751316191256
 30
0.0
 11
587.78483132571193
 21
209.751316191256
 31
0.0
  0
LINE
  5
3F9B
  8
AM_0
 10
672.78483332571147
 20
218.751316191256
 30
0.0
 11
672.78483332571147
 21
212.751316191256
 31
0.0
  0
LINE
  5
3F9C
  8
AM_0
 10
681.78483332571136
 20
206.751316191256
 30
0.0
 11
681.78483332571136
 21
216.75133319125609
 31
0.0
  0
LINE
  5
3F9D
  8
ﾁｭｳｼﾝｾﾝ1
 10
568.78484432571156
 20
223.296772191256
 30
0.0
 11
568.78484432571156
 21
202.20586019125599
 31
0.0
  0
LINE
  5
3F9E
  8
ﾁｭｳｼﾝｾﾝ1
 10
698.78484932571178
 20
223.296772191256
 30
0.0
 11
698.78484932571178
 21
202.20586019125599
 31
0.0
  0
LINE
  5
3F9F
  8
AM_0
 10
599.78483132571193
 20
223.75131719125611
 30
0.0
 11
667.78484732571155
 21
223.75131719125611
 31
0.0
  0
LINE
  5
3FAF
  8
ｶｸﾚｾﾝ2
 10
574.78487432571137
 20
218.751316191256
 30
0.0
 11
574.78487432571137
 21
206.751316191256
 31
0.0
  0
LINE
  5
3FB0
  8
ｶｸﾚｾﾝ2
 10
562.7848743257116
 20
218.751316191256
 30
0.0
 11
562.7848743257116
 21
206.751316191256
 31
0.0
  0
LINE
  5
3FB1
  8
AM_0
 10
555.78482432571172
 20
206.751316191256
 30
0.0
 11
555.78482432571172
 21
218.751316191256
 31
0.0
  0
LINE
  5
3FB2
  8
AM_0
 10
555.78482432571172
 20
206.751316191256
 30
0.0
 11
585.78482432571161
 21
206.751316191256
 31
0.0
  0
LINE
  5
3FB3
  8
AM_0
 10
583.7848743257116
 20
218.751316191256
 30
0.0
 11
557.78483432571124
 21
218.751316191256
 31
0.0
  0
LINE
  5
3FB8
  8
ｶｸﾚｾﾝ2
 10
692.7848343257117
 20
218.751316191256
 30
0.0
 11
692.7848343257117
 21
206.751316191256
 31
0.0
  0
LINE
  5
3FBD
  8
AM_0
 10
555.78482432571172
 20
218.751316191256
 30
0.0
 11
566.55326432571155
 21
321.38149019125598
 31
0.0
  0
LINE
  5
3FBF
  8
ｶｸﾚｾﾝ2
 10
704.78484932571166
 20
218.751316191256
 30
0.0
 11
704.78484932571166
 21
206.751316191256
 31
0.0
  0
LINE
  5
3FC0
  8
AM_0
 10
711.78483332571136
 20
206.751316191256
 30
0.0
 11
681.78483332571136
 21
206.751316191256
 31
0.0
  0
LINE
  5
3FC1
  8
AM_0
 10
683.78483432571193
 20
218.751316191256
 30
0.0
 11
709.78485032571155
 21
218.751316191256
 31
0.0
  0
LINE
  5
3FC3
  8
AM_0
 10
594.78483032571137
 20
218.751316191256
 30
0.0
 11
594.78483032571137
 21
212.751316191256
 31
0.0
  0
LINE
  5
3FC4
  8
AM_0
 10
585.78482432571161
 20
206.751316191256
 30
0.0
 11
585.78482432571161
 21
216.75133319125609
 31
0.0
  0
LINE
  5
3FC5
  8
AM_0
 10
686.78483432571193
 20
317.00386019125608
 30
0.0
 11
686.78483432571193
 21
255.751303191256
 31
0.0
  0
LINE
  5
3FC6
  8
AM_0
 10
711.78483332571136
 20
206.751316191256
 30
0.0
 11
711.78483332571136
 21
218.751316191256
 31
0.0
  0
LINE
  5
3FC8
  8
AM_0
 10
580.7848743257116
 20
317.00386019125608
 30
0.0
 11
580.7848743257116
 21
255.751303191256
 31
0.0
  0
LINE
  5
3FC9
  8
AM_0
 10
585.78482432571161
 20
286.75130519125611
 30
0.0
 11
585.78482432571161
 21
223.75131719125611
 31
0.0
  0
LINE
  5
3FCA
  8
AM_0
 10
681.78483332571136
 20
286.75130519125611
 30
0.0
 11
681.78483332571136
 21
223.75131719125611
 31
0.0
  0
LINE
  5
3FDE
  8
ﾁｭｳｼﾝｾﾝ
 10
707.95922342364065
 20
281.751304191256
 30
0.0
 11
506.77009318235872
 21
281.751304191256
 31
0.0
  0
CIRCLE
  5
3FDF
  8
AM_0
 10
575.47337432571157
 20
326.49529019125612
 30
0.0
 40
4.9999998000000003
  0
CIRCLE
  5
3FE0
  8
AM_0
 10
692.09631032571167
 20
326.49523019125621
 30
0.0
 40
4.9999998000000003
  0
CIRCLE
  5
3FE1
  8
AM_0
 10
661.9120743257115
 20
213.84618119125611
 30
0.0
 40
4.9999998000000003
  0
CIRCLE
  5
3FE2
  8
AM_0
 10
605.65754132571135
 20
213.84618119125611
 30
0.0
 40
4.9999998000000003
  0
ARC
  5
3FE3
  8
AM_0
 10
633.78483332571159
 20
301.75130519125611
 30
0.0
 40
12.0000003
 50
109.4712200000001
 51
70.52878900000546
  0
CIRCLE
  5
3FED
  8
AM_0
 62
     2
 10
633.78483332571159
 20
301.75130519125611
 30
0.0
 40
4.0000001999999979
  0
CIRCLE
  5
3FEE
  8
AM_0
 10
633.78483332571159
 20
301.75130519125611
 30
0.0
 40
3.0
  0
ARC
  5
3FF2
  8
AM_0
 10
694.37296832571155
 20
312.62329019125599
 30
0.0
 40
3.0
 50
27.000573000003559
 51
84.294260999995842
  0
ARC
  5
3FF5
  8
AM_0
 10
573.19670432571195
 20
312.62329019125599
 30
0.0
 40
3.0
 50
95.705737999992436
 51
152.999419999997
  0
ARC
  5
3FF6
  8
AM_0
 10
580.7848743257116
 20
223.75131719125611
 30
0.0
 40
5.0000001000000003
 50
270.0
 51
0.0
  0
ARC
  5
3FF7
  8
AM_0
 10
585.78482432571161
 20
317.00386019125608
 30
0.0
 40
5.0000001000000003
 50
138.71941000000211
 51
180.00001000000091
  0
ARC
  5
3FF8
  8
AM_0
 10
588.28339532571135
 20
332.28466019125591
 30
0.0
 40
3.0
 50
132.00064999999441
 51
189.2943400000016
  0
ARC
  5
3FF9
  8
AM_0
 10
681.78483332571136
 20
317.00386019125608
 30
0.0
 40
5.0000001000000003
 50
0.0
 51
41.280591000003277
  0
ARC
  5
3FFA
  8
AM_0
 10
680.78483432571193
 20
206.751316191256
 30
0.0
 40
1.0000000199999981
 50
0.0
 51
90.00000299999769
  0
ARC
  5
3FFB
  8
AM_0
 10
586.78487432571137
 20
206.751316191256
 30
0.0
 40
1.0000000199999981
 50
90.00000299999769
 51
180.00001000000091
  0
ARC
  5
3FFC
  8
AM_0
 10
591.78483032571125
 20
212.751316191256
 30
0.0
 40
3.0
 50
270.0
 51
0.0
  0
ARC
  5
3FFD
  8
AM_0
 10
587.78483132571193
 20
207.75133319125609
 30
0.0
 40
2.00000007
 50
90.00000299999769
 51
180.00001000000091
  0
ARC
  5
3FFE
  8
AM_0
 10
678.85207832571155
 20
337.58773019125613
 30
0.0
 40
5.0000001000000003
 50
334.93703000000107
 51
64.582444000007499
  0
ARC
  5
4002
  8
AM_0
 10
633.78483332571159
 20
281.751304191256
 30
0.0
 40
71.000000999999983
 50
5.9898141999989969
 51
27.000573000003559
  0
ARC
  5
4003
  8
AM_0
 10
557.78483432571124
 20
216.75133319125609
 30
0.0
 40
2.00000007
 50
90.00000299999769
 51
180.00001000000091
  0
ARC
  5
4005
  8
AM_0
 10
633.78483332571159
 20
286.75130519125611
 30
0.0
 40
48.0
 50
0.0
 51
77.663515021271778
  0
ARC
  5
4006
  8
AM_0
 10
633.78483332571159
 20
286.75130519125611
 30
0.0
 40
48.0
 50
102.33648497872819
 51
180.00001000000091
  0
ARC
  5
4008
  8
AM_0
 10
571.50656432571157
 20
329.539060191256
 30
0.0
 40
13.9999986
 50
266.80063999999248
 51
25.062968999998159
  0
ARC
  5
4009
  8
AM_0
 10
686.78483432571193
 20
223.75131719125611
 30
0.0
 40
5.0000001000000003
 50
179.999989999999
 51
270.0
  0
ARC
  5
400A
  8
AM_0
 10
675.78483332571159
 20
212.751316191256
 30
0.0
 40
3.0
 50
179.999989999999
 51
270.0
  0
ARC
  5
4010
  8
AM_0
 10
583.7848743257116
 20
216.75133319125609
 30
0.0
 40
2.00000007
 50
0.0
 51
90.00000299999769
  0
ARC
  5
4011
  8
AM_0
 10
696.06310832571148
 20
329.539060191256
 30
0.0
 40
13.9999986
 50
154.93704000000471
 51
273.19937000000078
  0
ARC
  5
4013
  8
AM_0
 10
709.78485032571155
 20
216.75133319125609
 30
0.0
 40
2.00000007
 50
0.0
 51
90.00000299999769
  0
ARC
  5
4014
  8
AM_0
 10
599.78483132571193
 20
218.751316191256
 30
0.0
 40
5.0000001000000003
 50
90.00000299999769
 51
180.00001000000091
  0
ARC
  5
4015
  8
AM_0
 10
633.78483332571159
 20
281.751304191256
 30
0.0
 40
71.000000999999983
 50
47.99935899999911
 51
132.00064999999441
  0
ARC
  5
4016
  8
AM_0
 10
683.78483432571193
 20
216.75133319125609
 30
0.0
 40
2.00000007
 50
90.00000299999769
 51
180.00001000000091
  0
ARC
  5
4017
  8
AM_0
 10
667.78484732571155
 20
218.751316191256
 30
0.0
 40
5.0000001000000003
 50
0.0
 51
90.00000299999769
  0
ARC
  5
4018
  8
AM_0
 10
633.78483332571159
 20
281.751304191256
 30
0.0
 40
71.000000999999983
 50
152.999419999997
 51
174.01019000000019
  0
ARC
  5
401B
  8
AM_0
 10
614.78483132571193
 20
255.751303191256
 30
0.0
 40
34.000002000000002
 50
179.999989999999
 51
211.46696999999929
  0
ARC
  5
401C
  8
AM_0
 10
697.12350332571168
 20
310.56865019125621
 30
0.0
 40
5.0000001000000003
 50
5.9898155000026119
 51
93.199358999991276
  0
ARC
  5
401D
  8
AM_0
 10
679.78484732571178
 20
207.75133319125609
 30
0.0
 40
2.00000007
 50
0.0
 51
90.00000299999769
  0
ARC
  5
401E
  8
AM_0
 10
652.78484732571155
 20
255.751303191256
 30
0.0
 40
34.000002000000002
 50
328.53302000000161
 51
0.0
  0
ARC
  5
401F
  8
AM_0
 10
379.33286713026109
 20
331.13806019125599
 30
0.0
 40
2.00000007
 50
179.999989999999
 51
240.0000100000054
  0
ARC
  5
4020
  8
AM_0
 10
379.33286713026109
 20
272.36455319125599
 30
0.0
 40
2.00000007
 50
120.0000000000001
 51
180.00001000000091
  0
ARC
  5
4021
  8
AM_0
 10
586.4440743257112
 20
319.29445019125609
 30
0.0
 40
20.000000700000001
 50
121.7361700000021
 51
174.01019000000019
  0
ARC
  5
4022
  8
AM_0
 10
681.1256073257116
 20
319.29445019125609
 30
0.0
 40
20.000000700000001
 50
5.9898155000026119
 51
58.263835999999969
  0
ARC
  5
4023
  8
AM_0
 10
588.71760032571194
 20
337.58773019125613
 30
0.0
 40
5.0000001000000003
 50
115.41756000000269
 51
205.06296999999901
  0
ARC
  5
4024
  8
AM_0
 10
633.78483332571159
 20
242.75131919125599
 30
0.0
 40
110.000004
 50
58.263835999999969
 51
121.7361700000021
  0
ARC
  5
4025
  8
AM_0
 10
679.28629832571141
 20
332.28466019125591
 30
0.0
 40
3.0
 50
350.70566999999772
 51
47.99935899999911
  0
ARC
  5
4026
  8
AM_0
 10
570.44618432571156
 20
310.56865019125621
 30
0.0
 40
5.0000001000000003
 50
86.800639000002249
 51
174.01019000000019
  0
LINE
  5
404B
  8
AM_0
 10
383.33283713026083
 20
335.25130219125612
 30
0.0
 11
388.33283713026083
 21
330.25130219125617
 31
0.0
  0
LINE
  5
404C
  8
AM_0
 10
378.83283713026083
 20
335.25130219125612
 30
0.0
 11
383.33283713026083
 21
335.25130219125612
 31
0.0
  0
LINE
  5
404D
  8
AM_0
 10
378.33283713026083
 20
334.75130219125612
 30
0.0
 11
378.3328371302602
 21
268.75130219125663
 31
0.0
  0
LINE
  5
404E
  8
AM_0
 10
388.33283713026083
 20
330.25130219125617
 30
0.0
 11
388.33283713026083
 21
273.25130219125612
 31
0.0
  0
LINE
  5
404F
  8
AM_0
 10
378.83283713026083
 20
268.25130219125612
 30
0.0
 11
383.33283713026083
 21
268.25130219125612
 31
0.0
  0
LINE
  5
4050
  8
AM_0
 10
383.33283713026083
 20
268.25130219125612
 30
0.0
 11
388.33283713026083
 21
273.25130219125612
 31
0.0
  0
LINE
  5
4051
  8
AM_0
 10
378.83283713026083
 20
335.25130219125612
 30
0.0
 11
378.33283713026083
 21
334.75130219125612
 31
0.0
1001
GENIUS_GENFIL_13
1070
     0
1040
0.5
1040
0.5
1040
20.0
1040
0.0
1002
{
1002
}
1001
GENIUS_GENOBJ-N-CHA_13
1002
{
1000
OWNER
1000
GEN
1002
}
1001
GENIUS_GENODEF_13
1002
{
1000
HIER
1070
     0
1002
}
1002
{
1000
MANEDIT
1070
     0
1002
}
1002
{
1000
NOSEL
1070
     0
1002
}
1002
{
1000
BEHIND
1070
     0
1002
}
1002
{
1000
OTHER
1070
     0
1002
}
1002
{
1000
REACTOR
1002
}
  0
LINE
  5
4052
  8
AM_0
 10
378.33283713026083
 20
268.75130219125612
 30
0.0
 11
378.83283713026083
 21
268.25130219125612
 31
0.0
1001
GENIUS_GENFIL_13
1070
     0
1040
0.5
1040
0.5
1040
20.0
1040
0.0
1002
{
1002
}
1001
GENIUS_GENOBJ-N-CHA_13
1002
{
1000
OWNER
1000
GEN
1002
}
1001
GENIUS_GENODEF_13
1002
{
1000
HIER
1070
     0
1002
}
1002
{
1000
MANEDIT
1070
     0
1002
}
1002
{
1000
NOSEL
1070
     0
1002
}
1002
{
1000
BEHIND
1070
     0
1002
}
1002
{
1000
OTHER
1070
     0
1002
}
1002
{
1000
REACTOR
1002
}
  0
LINE
  5
4053
  8
AM_0
 10
383.33283713026083
 20
335.25130219125612
 30
0.0
 11
383.33283713026083
 21
268.25130219125612
 31
0.0
  0
CIRCLE
  5
4054
  8
AM_0
 10
633.78483332571159
 20
301.75130519125611
 30
0.0
 40
33.499999999999893
  0
CIRCLE
  5
4055
  8
AM_0
 10
633.78483332571159
 20
301.75130519125611
 30
0.0
 40
28.49999999999994
  0
LINE
  5
4472
  8
ﾁｭｳｼﾝｾﾝ1
 10
368.33288713026087
 20
223.29679019125609
 30
0.0
 11
368.33288713026087
 21
202.2058781912562
 31
0.0
  0
LINE
  5
4473
  8
ｶｸﾚｾﾝ2
 10
374.33291713026091
 20
218.75133419125609
 30
0.0
 11
374.33291713026091
 21
206.75133419125609
 31
0.0
  0
LINE
  5
4474
  8
ｶｸﾚｾﾝ2
 10
362.33291713026091
 20
218.75133419125609
 30
0.0
 11
362.33291713026091
 21
206.75133419125609
 31
0.0
  0
LINE
  5
4475
  8
ﾁｭｳｼﾝｾﾝ1
 10
298.33292713026088
 20
223.29679019125609
 30
0.0
 11
298.33292713026088
 21
202.2058781912562
 31
0.0
  0
LINE
  5
4476
  8
ｶｸﾚｾﾝ2
 10
304.33295713026081
 20
218.75133419125609
 30
0.0
 11
304.33295713026081
 21
206.75133419125609
 31
0.0
  0
LINE
  5
4477
  8
ｶｸﾚｾﾝ2
 10
292.33295713026081
 20
218.75133419125609
 30
0.0
 11
292.33295713026081
 21
206.75133419125609
 31
0.0
  0
LINE
  5
44FE
  8
AM_0
 10
557.78483332571136
 20
248.2494347636686
 30
0.0
 11
557.78483332571136
 21
315.2494347636686
 31
0.0
  0
LINE
  5
44FF
  8
AM_0
 10
556.78483332571136
 20
315.2494347636686
 30
0.0
 11
559.78483332571159
 21
315.2494347636686
 31
0.0
  0
LINE
  5
4500
  8
AM_0
 10
518.78483332571147
 20
235.7494347636686
 30
0.0
 11
554.85463231911649
 21
237.00901989993091
 31
0.0
  0
LINE
  5
4501
  8
AM_0
 10
556.78483332571136
 20
239.0078015539691
 30
0.0
 11
556.78483332571136
 21
324.4910679733681
 31
0.0
  0
ARC
  5
4502
  8
AM_0
 10
554.78483332571159
 20
239.0078015539691
 30
0.0
 40
2.0
 50
271.9999999999971
 51
0.0
1001
GENIUS_GENODEF_13
1002
{
1000
HIER
1070
     0
1002
}
1002
{
1000
MANEDIT
1070
     0
1002
}
1002
{
1000
NOSEL
1070
     0
1002
}
1002
{
1000
BEHIND
1070
     0
1002
}
1002
{
1000
OTHER
1070
     0
1002
}
1002
{
1000
REACTOR
1002
}
1001
GENIUS_GENOBJ-N-FIL_13
1002
{
1000
OWNER
1000
GEN
1002
}
  0
LINE
  5
4503
  8
AM_0
 10
554.85463231911649
 20
326.48984962740622
 30
0.0
 11
518.78483332571147
 21
327.7494347636686
 31
0.0
  0
ARC
  5
4504
  8
AM_0
 10
554.7848333257117
 20
324.4910679733681
 30
0.0
 40
2.0
 50
0.0
 51
88.000000000002899
1001
GENIUS_GENOBJ-N-FIL_13
1002
{
1000
OWNER
1000
GEN
1002
}
1001
GENIUS_GENODEF_13
1002
{
1000
HIER
1070
     0
1002
}
1002
{
1000
MANEDIT
1070
     0
1002
}
1002
{
1000
NOSEL
1070
     0
1002
}
1002
{
1000
BEHIND
1070
     0
1002
}
1002
{
1000
OTHER
1070
     0
1002
}
1002
{
1000
REACTOR
1002
}
  0
LINE
  5
4505
  8
AM_0
 10
518.78483332571147
 20
327.7494347636686
 30
0.0
 11
518.78483332571147
 21
235.74943476366829
 31
0.0
  0
LINE
  5
4506
  8
ﾁｭｳｼﾝｾﾝ1
 10
507.7848333257113
 20
240.7494347636692
 30
0.0
 11
523.61235633824822
 21
240.74943476366909
 31
0.0
  0
LINE
  5
4507
  8
AM_0
 10
514.78483332571136
 20
327.7494347636686
 30
0.0
 11
514.78483332571136
 21
306.93492986413622
 31
0.0
  0
LINE
  5
4508
  8
AM_0
 10
514.78483332571136
 20
256.56393966320093
 30
0.0
 11
514.78483332571136
 21
235.7494347636694
 31
0.0
  0
LINE
  5
4509
  8
AM_0
 10
510.78483332571142
 20
321.61365309450798
 30
0.0
 11
510.78483332571142
 21
241.8852164328292
 31
0.0
  0
LINE
  5
450A
  8
AM_0
 10
512.72589581358363
 20
244.65678973597559
 30
0.0
 11
513.78483332571147
 21
244.74943476366909
 31
0.0
  0
LINE
  5
450B
  8
AM_0
 10
512.72589581358363
 20
236.84207979136269
 30
0.0
 11
513.78483332571147
 21
236.74943476366909
 31
0.0
  0
ARC
  5
450C
  8
AM_0
 10
517.18483332571145
 20
240.74943476366909
 30
0.0
 40
6.5
 50
151.82726586813479
 51
208.1727341318651
  0
ARC
  5
450D
  8
AM_0
 10
512.8653450019799
 20
238.43599130830941
 30
0.0
 40
1.6000000000000001
 50
208.1727341318651
 51
265.00000000000028
  0
LINE
  5
450E
  8
AM_0
 10
511.10535966428318
 20
243.0494347636691
 30
0.0
 11
513.39491934307887
 21
240.74943476366909
 31
0.0
  0
LINE
  5
450F
  8
AM_0
 10
513.0848333257112
 20
241.06093476366911
 30
0.0
 11
513.0848333257112
 21
240.43793476366909
 31
0.0
  0
LINE
  5
4510
  8
AM_0
 10
511.10535966428318
 20
238.4494347636691
 30
0.0
 11
513.39491934307887
 21
240.74943476366909
 31
0.0
  0
LINE
  5
4511
  8
AM_0
 10
510.69230163537679
 20
241.06093476366911
 30
0.0
 11
513.0848333257112
 21
241.06093476366911
 31
0.0
  0
LINE
  5
4512
  8
AM_0
 10
510.69230163537679
 20
240.43793476366909
 30
0.0
 11
513.0848333257112
 21
240.43793476366909
 31
0.0
  0
ARC
  5
4513
  8
AM_0
 10
512.8653450019799
 20
243.06287821902879
 30
0.0
 40
1.6000000000000001
 50
94.99999999999973
 51
151.82726586813479
  0
LINE
  5
4514
  8
AM_0
 10
514.78483332571136
 20
327.7494347636686
 30
0.0
 11
518.78483332571147
 21
327.7494347636686
 31
0.0
  0
LINE
  5
4515
  8
AM_0
 10
513.78483332571125
 20
326.74943476366838
 30
0.0
 11
514.78483332571147
 21
327.7494347636686
 31
0.0
  0
LINE
  5
4516
  8
AM_0
 10
518.78483332571147
 20
235.74943476366829
 30
0.0
 11
514.78483332571136
 21
235.7494347636694
 31
0.0
  0
LINE
  5
4517
  8
AM_0N
 10
514.78483332571136
 20
244.54943476366921
 30
0.0
 11
513.78483332571147
 21
244.54943476366921
 31
0.0
  0
LINE
  5
4518
  8
AM_0N
 10
513.78483332571147
 20
240.9494347636691
 30
0.0
 11
514.78483332571136
 21
241.31340499793529
 31
0.0
  0
LINE
  5
4519
  8
AM_0N
 10
513.78483332571147
 20
240.54943476366921
 30
0.0
 11
514.78483332571136
 21
240.91340499793529
 31
0.0
  0
LINE
  5
451A
  8
AM_0N
 10
513.78483332571147
 20
236.74943476366909
 30
0.0
 11
513.78483332571147
 21
244.74943476366909
 31
0.0
  0
LINE
  5
451B
  8
AM_0N
 10
513.78483332571147
 20
236.94943476366919
 30
0.0
 11
514.78483332571136
 21
236.94943476366919
 31
0.0
  0
LINE
  5
451C
  8
AM_0
 10
510.78483332571142
 20
256.56393966320081
 30
0.0
 11
514.78483332571136
 21
256.56393966320093
 31
0.0
  0
LINE
  5
451D
  8
AM_0
 10
514.78483332571136
 20
254.90708541370839
 30
0.0
 11
510.78483332571142
 21
256.56393966320081
 31
0.0
  0
LINE
  5
451E
  8
AM_0
 10
510.78483332571142
 20
306.93492986413622
 30
0.0
 11
514.78483332571136
 21
306.93492986413622
 31
0.0
  0
LINE
  5
451F
  8
AM_0
 10
514.78483332571136
 20
308.59178411362871
 30
0.0
 11
510.78483332571142
 21
306.93492986413622
 31
0.0
  0
LINE
  5
4520
  8
ﾁｭｳｼﾝｾﾝ1
 10
507.78483332571142
 20
322.74943476366792
 30
0.0
 11
523.61235633824822
 21
322.74943476366798
 31
0.0
  0
LINE
  5
4521
  8
AM_0
 10
512.72589581358363
 20
318.84207979136158
 30
0.0
 11
513.78483332571147
 21
318.74943476366798
 31
0.0
  0
LINE
  5
4522
  8
AM_0
 10
512.72589581358363
 20
326.65678973597443
 30
0.0
 11
513.78483332571147
 21
326.74943476366798
 31
0.0
  0
ARC
  5
4523
  8
AM_0
 10
517.18483332571145
 20
322.74943476366798
 30
0.0
 40
6.5
 50
151.82726586813479
 51
208.1727341318651
  0
ARC
  5
4524
  8
AM_0
 10
512.8653450019799
 20
325.0628782190276
 30
0.0
 40
1.6000000000000001
 50
94.99999999999973
 51
151.82726586813479
  0
LINE
  5
4525
  8
AM_0
 10
511.10535966428318
 20
320.44943476366802
 30
0.0
 11
513.39491934307887
 21
322.74943476366798
 31
0.0
  0
LINE
  5
4526
  8
AM_0
 10
513.0848333257112
 20
322.43793476366801
 30
0.0
 11
513.0848333257112
 21
323.060934763668
 31
0.0
  0
LINE
  5
4527
  8
AM_0
 10
511.10535966428318
 20
325.04943476366788
 30
0.0
 11
513.39491934307887
 21
322.74943476366798
 31
0.0
  0
LINE
  5
4528
  8
AM_0
 10
510.69230163537679
 20
322.43793476366801
 30
0.0
 11
513.0848333257112
 21
322.43793476366801
 31
0.0
  0
LINE
  5
4529
  8
AM_0
 10
510.69230163537679
 20
323.060934763668
 30
0.0
 11
513.0848333257112
 21
323.060934763668
 31
0.0
  0
ARC
  5
452A
  8
AM_0
 10
512.8653450019799
 20
320.4359913083083
 30
0.0
 40
1.6000000000000001
 50
208.1727341318651
 51
265.00000000000028
  0
LINE
  5
452B
  8
AM_0N
 10
514.78483332571136
 20
318.94943476366802
 30
0.0
 11
513.78483332571147
 21
318.94943476366802
 31
0.0
  0
LINE
  5
452C
  8
AM_0N
 10
513.78483332571147
 20
322.54943476366788
 30
0.0
 11
514.78483332571136
 21
322.18546452940183
 31
0.0
  0
LINE
  5
452D
  8
AM_0N
 10
513.78483332571147
 20
322.94943476366802
 30
0.0
 11
514.78483332571136
 21
322.58546452940169
 31
0.0
  0
LINE
  5
452E
  8
AM_0N
 10
513.78483332571147
 20
326.74943476366798
 30
0.0
 11
513.78483332571147
 21
318.74943476366798
 31
0.0
  0
LINE
  5
452F
  8
AM_0N
 10
513.78483332571147
 20
326.54943476366788
 30
0.0
 11
514.78483332571136
 21
326.54943476366788
 31
0.0
  0
LINE
  5
4530
  8
AM_0
 10
565.55470828086925
 20
311.86460746442521
 30
0.0
 11
559.78483332571159
 21
311.71024989106093
 31
0.0
  0
LINE
  5
4532
  8
AM_0
 10
559.78483332571159
 20
256.87398016779719
 30
0.0
 11
559.78483332571159
 21
315.2494347636686
 31
0.0
  0
LINE
  5
4533
  8
AM_0
 10
556.78483332571136
 20
248.2494347636686
 30
0.0
 11
558.87990550485802
 21
248.2494347636686
 31
0.0
  0
LINE
  5
4D23
  8
ﾁｭｳｼﾝｾﾝ
 10
109.541883837903
 20
577.64349648769667
 30
0.0
 11
428.55257713026077
 21
577.64349648769667
 31
0.0
  0
LINE
  5
4D24
  8
AM_0
 10
326.33288713026081
 20
527.57626648769667
 30
0.0
 11
326.33288713026081
 21
506.93154648769678
 31
0.0
  0
LINE
  5
4D25
  8
AM_0
 10
327.33288713026087
 20
526.10555648769684
 30
0.0
 11
327.33288713026087
 21
512.55850648769683
 31
0.0
  0
LINE
  5
4D26
  8
AM_0
 10
326.33288713026081
 20
512.55850648769683
 30
0.0
 11
327.33288713026087
 21
512.55850648769683
 31
0.0
  0
LINE
  5
4D27
  8
AM_0
 10
326.33288713026081
 20
526.10555648769684
 30
0.0
 11
327.33288713026087
 21
526.10555648769684
 31
0.0
  0
LINE
  5
4D28
  8
AM_0
 10
331.33285713026089
 20
514.55850648769683
 30
0.0
 11
331.33285713026089
 21
524.10552648769692
 31
0.0
  0
LINE
  5
4D29
  8
AM_0
 10
327.33288713026087
 20
522.21877648769669
 30
0.0
 11
330.33288713026081
 21
522.21877648769669
 31
0.0
  0
LINE
  5
4D2A
  8
AM_0
 10
327.33288713026087
 20
516.44527648769667
 30
0.0
 11
330.33288713026081
 21
516.44527648769667
 31
0.0
  0
LINE
  5
4D2B
  8
AM_0
 10
327.33288713026087
 20
513.55850648769683
 30
0.0
 11
330.33288713026081
 21
513.55850648769683
 31
0.0
  0
LINE
  5
4D2C
  8
AM_0
 10
327.33288713026087
 20
525.10555648769684
 30
0.0
 11
330.33288713026081
 21
525.10555648769684
 31
0.0
  0
LINE
  5
4D2D
  8
AM_0
 10
286.33288713026081
 20
652.85723648769704
 30
0.0
 11
286.33288713026081
 21
641.40536648769694
 31
0.0
  0
LINE
  5
4D30
  8
AM_0
 10
380.33288713026087
 20
652.07165648769694
 30
0.0
 11
380.33288713026087
 21
629.21532648769698
 31
0.0
  0
LINE
  5
4D31
  8
AM_0
 10
318.33291713026108
 20
655.64349648769667
 30
0.0
 11
378.38524713026078
 21
654.0709864876967
 31
0.0
  0
LINE
  5
4D32
  8
AM_0
 10
288.2805471302608
 20
654.85653648769699
 30
0.0
 11
318.33288713026087
 21
655.64349648769667
 31
0.0
  0
LINE
  5
4D33
  8
AM_0
 10
315.33288713026081
 20
648.64349648769689
 30
0.0
 11
315.33288713026081
 21
506.64349648769678
 31
0.0
  0
LINE
  5
4D35
  8
AM_0
 10
377.33288713026087
 20
627.18844648769675
 30
0.0
 11
377.33288713026087
 21
528.09853648769695
 31
0.0
  0
LINE
  5
4D3A
  8
AM_0
 10
377.3329171302608
 20
627.18847648769668
 30
0.0
 11
378.38524713026078
 21
627.21603648769678
 31
0.0
  0
LINE
  5
4D3C
  8
AM_0
 10
380.33288713026087
 20
503.21532648769693
 30
0.0
 11
380.33288713026087
 21
526.07165648769706
 31
0.0
  0
LINE
  5
4D3D
  8
AM_0
 10
286.33288713026081
 20
502.42977648769681
 30
0.0
 11
286.33288713026081
 21
513.88162648769685
 31
0.0
  0
LINE
  5
4D3E
  8
AM_0
 10
318.33291713026108
 20
499.64352648769687
 30
0.0
 11
378.38524713026078
 21
501.21603648769678
 31
0.0
  0
LINE
  5
4D3F
  8
AM_0
 10
288.2805471302608
 20
500.43041648769679
 30
0.0
 11
318.33288713026087
 21
499.64349648769678
 31
0.0
  0
LINE
  5
4D41
  8
AM_0
 10
318.33288713026087
 20
651.78750648769676
 30
0.0
 11
311.33288713026081
 21
655.46020648769695
 31
0.0
  0
LINE
  5
4D42
  8
AM_0
 10
315.7359271302609
 20
648.63293648769695
 30
0.0
 11
311.3329171302608
 21
650.94305648769694
 31
0.0
  0
LINE
  5
4D43
  8
AM_0
 10
311.33288713026081
 20
655.46017648769703
 30
0.0
 11
311.33288713026081
 21
650.94308648769697
 31
0.0
  0
LINE
  5
4D44
  8
AM_0
 10
378.38524713026078
 20
528.07095648769689
 30
0.0
 11
377.33288713026087
 21
528.0985064876968
 31
0.0
  0
LINE
  5
4D45
  8
AM_0
 10
364.33291713026091
 20
527.39248648769706
 30
0.0
 11
364.33291713026091
 21
627.89449648769676
 31
0.0
  0
LINE
  5
4D46
  8
AM_0
 10
372.76867713026093
 20
626.04278648769696
 30
0.0
 11
368.0711671302609
 21
626.45376648769695
 31
0.0
  0
LINE
  5
4D47
  8
AM_0
 10
372.76867713026093
 20
529.24416648769659
 30
0.0
 11
368.0711671302609
 21
528.83318648769705
 31
0.0
  0
LINE
  5
4D48
  8
AM_0
 10
361.59438713026083
 20
524.40392648769694
 30
0.0
 11
355.89709713026087
 21
523.90548648769675
 31
0.0
  0
LINE
  5
4D49
  8
AM_0
 10
351.33288713026087
 20
505.64028648769681
 30
0.0
 11
351.33288713026087
 21
518.9244664876968
 31
0.0
  0
LINE
  5
4D4A
  8
AM_0
 10
318.33288713026087
 20
648.56493648769685
 30
0.0
 11
318.33288713026087
 21
651.78750648769676
 31
0.0
  0
LINE
  5
4D4B
  8
AM_0
 10
311.33288713026081
 20
499.82681648769682
 30
0.0
 11
311.33288713026081
 21
504.34390648769681
 31
0.0
  0
LINE
  5
4D4C
  8
AM_0
 10
315.73589713026092
 20
506.65405648769678
 30
0.0
 11
311.33288713026081
 21
504.34393648769668
 31
0.0
  0
LINE
  5
4D4D
  8
AM_0
 10
318.33288713026087
 20
503.49947648769682
 30
0.0
 11
311.33288713026081
 21
499.82681648769682
 31
0.0
  0
LINE
  5
4D4E
  8
AM_0
 10
318.33288713026087
 20
506.72204648769667
 30
0.0
 11
318.33288713026087
 21
503.49947648769682
 31
0.0
  0
LINE
  5
4D4F
  8
AM_0
 10
328.06875713026091
 20
506.97698648769688
 30
0.0
 11
315.3329171302608
 21
506.64349648769678
 31
0.0
  0
LINE
  5
4D50
  8
AM_0
 10
328.06875713026091
 20
648.30999648769648
 30
0.0
 11
315.3329171302608
 21
648.64349648769689
 31
0.0
  0
LINE
  5
4D53
  8
AM_0
 10
326.33288713026081
 20
527.57626648769667
 30
0.0
 11
329.33288713026081
 21
527.57626648769667
 31
0.0
  0
LINE
  5
4D54
  8
AM_0
 10
329.33291713026091
 20
527.57626648769667
 30
0.0
 11
329.33291713026091
 21
627.710726487697
 31
0.0
  0
LINE
  5
4D55
  8
AM_0
 10
329.33291713026091
 20
527.57626648769667
 30
0.0
 11
342.91488713026081
 21
530.13464648769695
 31
0.0
  0
LINE
  5
4D56
  8
AM_0
 10
330.4293171302611
 20
507.64022648769679
 30
0.0
 11
341.06609713026108
 21
513.75344648769681
 31
0.0
  0
LINE
  5
4D57
  8
AM_0
 10
351.33288713026087
 20
636.36248648769686
 30
0.0
 11
351.33288713026087
 21
649.64669648769689
 31
0.0
  0
LINE
  5
4D58
  8
AM_0
 10
361.41146713026092
 20
530.61898648769682
 30
0.0
 11
342.91488713026081
 21
530.13464648769695
 31
0.0
  0
LINE
  5
4D59
  8
AM_0
 10
348.41143713026082
 20
514.54720648769705
 30
0.0
 11
343.42669713026089
 21
514.41668648769689
 31
0.0
  0
LINE
  5
4D5A
  8
AM_0
 10
361.59438713026083
 20
630.88308648769703
 30
0.0
 11
355.8971271302608
 21
631.38152648769699
 31
0.0
  0
LINE
  5
4D5B
  8
AM_0
 10
330.42934713026079
 20
647.6467264876967
 30
0.0
 11
341.06609713026108
 21
641.53353648769689
 31
0.0
  0
LINE
  5
4D5C
  8
AM_0
 10
329.33291713026091
 20
627.71075648769681
 30
0.0
 11
342.91488713026081
 21
625.15237648769698
 31
0.0
  0
LINE
  5
4D5D
  8
AM_0
 10
361.41146713026092
 20
624.66799648769666
 30
0.0
 11
342.91485713026083
 21
625.15234648769672
 31
0.0
  0
LINE
  5
4D5E
  8
AM_0
 10
348.41143713026082
 20
640.73977648769699
 30
0.0
 11
343.42669713026089
 21
640.87029648769681
 31
0.0
  0
LINE
  5
4D5F
  8
AM_0
 10
327.33288713026087
 20
630.18145648769689
 30
0.0
 11
330.33288713026081
 21
630.18145648769689
 31
0.0
  0
LINE
  5
4D60
  8
AM_0
 10
327.33288713026087
 20
641.72845648769669
 30
0.0
 11
330.33288713026081
 21
641.72845648769669
 31
0.0
  0
LINE
  5
4D61
  8
AM_0
 10
327.33288713026087
 20
638.8417064876968
 30
0.0
 11
330.33288713026081
 21
638.8417064876968
 31
0.0
  0
LINE
  5
4D62
  8
AM_0
 10
327.33288713026087
 20
633.06820648769678
 30
0.0
 11
330.33288713026081
 21
633.06820648769678
 31
0.0
  0
LINE
  5
4D63
  8
AM_0
 10
331.33285713026089
 20
640.72848648769696
 30
0.0
 11
331.33285713026089
 21
631.18145648769701
 31
0.0
  0
LINE
  5
4D64
  8
AM_0
 10
326.33288713026081
 20
629.18142648769685
 30
0.0
 11
327.33288713026087
 21
629.18142648769685
 31
0.0
  0
LINE
  5
4D65
  8
AM_0
 10
326.33288713026081
 20
642.72848648769696
 30
0.0
 11
327.33288713026087
 21
642.72848648769696
 31
0.0
  0
LINE
  5
4D66
  8
AM_0
 10
327.33288713026087
 20
629.18142648769685
 30
0.0
 11
327.33288713026087
 21
642.72848648769696
 31
0.0
  0
LINE
  5
4D67
  8
AM_0
 10
326.33288713026081
 20
627.710726487697
 30
0.0
 11
326.33288713026081
 21
648.35543648769703
 31
0.0
  0
LINE
  5
4D68
  8
AM_0
 10
326.33288713026081
 20
627.710726487697
 30
0.0
 11
329.33288713026081
 21
627.710726487697
 31
0.0
  0
LINE
  5
4D69
  8
AM_0
 10
315.3329171302608
 20
506.64349648769678
 30
0.0
 11
310.28057713026078
 21
506.77578648769668
 31
0.0
  0
LINE
  5
4D6A
  8
AM_0
 10
315.33288713026081
 20
648.64349648769689
 30
0.0
 11
310.28057713026078
 21
648.51119648769679
 31
0.0
  0
LINE
  5
4D6B
  8
AM_0
 10
308.33291713026091
 20
508.77511648769678
 30
0.0
 11
308.33291713026091
 21
646.51186648769681
 31
0.0
  0
LINE
  5
4D6C
  8
AM_0
 10
278.3329171302608
 20
514.14349648769678
 30
0.0
 11
278.3329171302608
 21
641.14349648769689
 31
0.0
  0
LINE
  5
4D6D
  8
AM_0
 10
303.57271713026108
 20
513.48257648769686
 30
0.0
 11
278.33294713026078
 21
514.14349648769678
 31
0.0
  0
LINE
  5
4D6E
  8
AM_0
 10
305.33288713026081
 20
512.43221648769679
 30
0.0
 11
306.33291713026091
 21
512.43221648769679
 31
0.0
  0
LINE
  5
4D6F
  8
AM_0
 10
303.33288713026081
 20
514.43221648769668
 30
0.0
 11
303.33288713026081
 21
523.60345648769692
 31
0.0
  0
LINE
  5
4D70
  8
AM_0
 10
303.33288713026081
 20
640.85479648769672
 30
0.0
 11
303.33288713026081
 21
631.68353648769676
 31
0.0
  0
LINE
  5
4D71
  8
AM_0
 10
303.57271713026108
 20
641.80441648769681
 30
0.0
 11
278.33294713026078
 21
641.14349648769689
 31
0.0
  0
LINE
  5
4D72
  8
AM_0
 10
305.33288713026081
 20
642.85479648769672
 30
0.0
 11
306.33291713026091
 21
642.85479648769672
 31
0.0
  0
LINE
  5
4D73
  8
AM_0
 10
278.3329171302608
 20
525.6034564876968
 30
0.0
 11
308.33291713026091
 21
525.6034564876968
 31
0.0
  0
LINE
  5
4D74
  8
AM_0
 10
278.3329171302608
 20
540.49346648769676
 30
0.0
 11
308.33291713026091
 21
540.49346648769676
 31
0.0
  0
LINE
  5
4D75
  8
AM_0
 10
278.3329171302608
 20
614.79351648769682
 30
0.0
 11
308.33291713026091
 21
614.79351648769682
 31
0.0
  0
LINE
  5
4D76
  8
AM_0
 10
278.3329171302608
 20
629.68353648769698
 30
0.0
 11
308.33291713026091
 21
629.68353648769698
 31
0.0
  0
LINE
  5
4D77
  8
AM_0
 10
390.33288713026087
 20
581.64346648769686
 30
0.0
 11
422.33288713026087
 21
581.64346648769686
 31
0.0
  0
LINE
  5
4D78
  8
AM_0
 10
390.33288713026087
 20
581.64346648769686
 30
0.0
 11
390.33288713026087
 21
573.64349648769689
 31
0.0
  0
LINE
  5
4D79
  8
AM_0
 10
388.3328371302606
 20
565.64349648769667
 30
0.0
 11
422.33288713026087
 21
565.64349648769689
 31
0.0
  0
LINE
  5
4D7A
  8
AM_0
 10
388.3328371302606
 20
589.64349648769667
 30
0.0
 11
422.33288713026087
 21
589.64349648769667
 31
0.0
  0
LINE
  5
4D7C
  8
AM_0
 10
422.33288713026087
 20
589.64349648769667
 30
0.0
 11
422.33288713026087
 21
565.64349648769689
 31
0.0
  0
LINE
  5
4D7F
  8
AM_0
 10
390.33288713026087
 20
573.64349648769689
 30
0.0
 11
422.33288713026087
 21
573.64349648769689
 31
0.0
  0
ARC
  5
4D80
  8
AM_0
 10
330.33288713026081
 20
524.10552648769692
 30
0.0
 40
1.0
 50
0.0
 51
90.000003000000945
  0
ARC
  5
4D81
  8
AM_0
 10
330.33288713026081
 20
521.2187764876968
 30
0.0
 40
1.0
 50
0.0
 51
90.000003000000945
  0
ARC
  5
4D82
  8
AM_0
 10
330.33288713026081
 20
515.44527648769679
 30
0.0
 40
1.0
 50
0.0
 51
90.000003000000945
  0
ARC
  5
4D83
  8
AM_0
 10
330.33288713026081
 20
514.55850648769683
 30
0.0
 40
1.0
 50
269.999989999999
 51
0.0000006832495047
  0
ARC
  5
4D84
  8
AM_0
 10
330.33288713026081
 20
517.44524648769675
 30
0.0
 40
1.0
 50
269.999989999999
 51
0.0000006832495047
  0
ARC
  5
4D85
  8
AM_0
 10
330.33288713026081
 20
523.21877648769669
 30
0.0
 40
1.0
 50
269.999989999999
 51
0.0000006832495047
  0
ARC
  5
4D86
  8
AM_0
 10
378.33288713026087
 20
652.07165648769694
 30
0.0
 40
2.0
 50
0.0
 51
88.499997000000647
  0
ARC
  5
4D87
  8
AM_0
 10
288.33288713026081
 20
652.85723648769704
 30
0.0
 40
2.0
 50
91.500001000001546
 51
180.00001000000091
  0
ARC
  5
4D88
  8
AM_0
 10
378.33288713026087
 20
629.21532648769698
 30
0.0
 40
2.0
 50
271.49999999999937
 51
0.0
  0
ARC
  5
4D89
  8
AM_0
 10
298.33288713026087
 20
642.64349648769678
 30
0.0
 40
6.0
 50
359.45751000000109
 51
190.86121000000429
  0
CIRCLE
  5
4D8A
  8
AM_0
 10
368.33288713026087
 20
642.64349648769678
 30
0.0
 40
6.0
  0
ARC
  5
4D8F
  8
AM_0
 10
378.33288713026087
 20
503.21532648769693
 30
0.0
 40
2.0
 50
271.49999999999937
 51
0.0
  0
ARC
  5
4D90
  8
AM_0
 10
288.33288713026081
 20
502.42977648769681
 30
0.0
 40
2.0
 50
180.00001000000091
 51
268.50000000000063
  0
ARC
  5
4D91
  8
AM_0
 10
378.33288713026087
 20
526.07165648769706
 30
0.0
 40
2.0
 50
0.0
 51
88.499997000000647
  0
CIRCLE
  5
4D93
  8
AM_0
 10
368.33288713026087
 20
512.64349648769689
 30
0.0
 40
6.0
  0
ARC
  5
4D94
  8
AM_0
 10
372.33288713026087
 20
621.06182648769698
 30
0.0
 40
5.0
 50
0.0
 51
85.000004000000885
  0
ARC
  5
4D95
  8
AM_0
 10
372.33288713026087
 20
534.2251264876968
 30
0.0
 40
5.0
 50
275.0
 51
0.0
  0
ARC
  5
4D96
  8
AM_0
 10
356.33288713026087
 20
518.9244664876968
 30
0.0
 40
5.0
 50
95.00000199999856
 51
180.00001000000091
  0
ARC
  5
4D97
  8
AM_0
 10
356.33288713026087
 20
636.36248648769686
 30
0.0
 40
5.0
 50
180.00001000000091
 51
265.00001000000037
  0
ARC
  5
4D98
  8
AM_0
 10
356.33288713026087
 20
505.64028648769681
 30
0.0
 40
5.0
 50
180.00001000000091
 51
271.49999999999937
  0
ARC
  5
4D99
  8
AM_0
 10
356.33288713026087
 20
649.64669648769689
 30
0.0
 40
5.0
 50
88.499997000000647
 51
180.00001000000091
  0
ARC
  5
4D9A
  8
AM_0
 10
348.33288713026121
 20
517.54617648769693
 30
0.0
 40
3.0
 50
271.49999999999937
 51
0.0
  0
ARC
  5
4D9B
  8
AM_0
 10
327.93786713026088
 20
511.97527648769682
 30
0.0
 40
5.0
 50
271.49999999999937
 51
299.88701999999751
  0
ARC
  5
4D9C
  8
AM_0
 10
343.55755713026082
 20
509.41839648769678
 30
0.0
 40
5.0
 50
91.500001000001546
 51
119.88701999999751
  0
ARC
  5
4D9D
  8
AM_0
 10
361.33291713026091
 20
533.61794648769705
 30
0.0
 40
3.0
 50
271.49999999999937
 51
0.0
  0
ARC
  5
4D9E
  8
AM_0
 10
361.33291713026091
 20
527.39248648769706
 30
0.0
 40
3.0
 50
275.0
 51
0.0
  0
ARC
  5
4D9F
  8
AM_0
 10
368.50692713026092
 20
523.85220648769689
 30
0.0
 40
5.0
 50
95.00000199999856
 51
153.73432999999969
  0
ARC
  5
4DA0
  8
AM_0
 10
368.50692713026092
 20
631.43475648769675
 30
0.0
 40
5.0
 50
206.2656700000002
 51
265.00001000000037
  0
ARC
  5
4DA1
  8
AM_0
 10
361.33291713026091
 20
621.66903648769699
 30
0.0
 40
3.0
 50
0.0
 51
88.499997000000647
  0
ARC
  5
4DA2
  8
AM_0
 10
327.93786713026088
 20
643.31170648769694
 30
0.0
 40
5.0
 50
60.11298000000248
 51
88.499997000000647
  0
ARC
  5
4DA3
  8
AM_0
 10
361.33291713026091
 20
627.89449648769676
 30
0.0
 40
3.0
 50
0.0
 51
85.000004000000885
  0
ARC
  5
4DA4
  8
AM_0
 10
343.55755713026082
 20
645.86858648769703
 30
0.0
 40
5.0
 50
240.11298000000241
 51
268.50000000000063
  0
ARC
  5
4DA5
  8
AM_0
 10
348.33288713026121
 20
637.74081648769675
 30
0.0
 40
3.0
 50
0.0
 51
88.499997000000647
  0
ARC
  5
4DA6
  8
AM_0
 10
330.33288713026081
 20
632.06820648769678
 30
0.0
 40
1.0
 50
0.0
 51
90.000003000000945
  0
ARC
  5
4DA7
  8
AM_0
 10
330.33288713026081
 20
637.84173648769695
 30
0.0
 40
1.0
 50
0.0
 51
90.000003000000945
  0
ARC
  5
4DA8
  8
AM_0
 10
330.33288713026081
 20
640.72848648769696
 30
0.0
 40
1.0
 50
0.0
 51
90.000003000000945
  0
ARC
  5
4DA9
  8
AM_0
 10
330.33288713026081
 20
639.8417064876968
 30
0.0
 40
1.0
 50
269.999989999999
 51
0.0000006832495047
  0
ARC
  5
4DAA
  8
AM_0
 10
330.33288713026081
 20
634.06820648769667
 30
0.0
 40
1.0
 50
269.999989999999
 51
0.0000006832495047
  0
ARC
  5
4DAB
  8
AM_0
 10
330.33288713026081
 20
631.18145648769701
 30
0.0
 40
1.0
 50
269.999989999999
 51
0.0000006832495047
  0
ARC
  5
4DAC
  8
AM_0
 10
430.82162713026082
 20
577.64349648769667
 30
0.0
 40
101.4887199999999
 50
151.89333000000309
 51
208.10666999999691
  0
ARC
  5
4DAD
  8
AM_0
 10
310.33291713026108
 20
508.77511648769678
 30
0.0
 40
2.0
 50
180.00001000000091
 51
268.50000000000063
  0
ARC
  5
4DAE
  8
AM_0
 10
310.33291713026108
 20
646.51186648769681
 30
0.0
 40
2.0
 50
91.500001000001546
 51
180.00001000000091
  0
ARC
  5
4DAF
  8
AM_0
 10
305.33288713026081
 20
514.43221648769668
 30
0.0
 40
2.0
 50
180.00001000000091
 51
270.0
  0
ARC
  5
4DB0
  8
AM_0
 10
306.33291713026091
 20
510.43221648769668
 30
0.0
 40
2.0
 50
0.0
 51
90.000003000000945
  0
ARC
  5
4DB1
  8
AM_0
 10
306.33291713026091
 20
644.85479648769694
 30
0.0
 40
2.0
 50
270.0
 51
0.0
  0
ARC
  5
4DB2
  8
AM_0
 10
305.33288713026081
 20
640.85479648769672
 30
0.0
 40
2.0
 50
90.000003000000945
 51
180.00001000000091
  0
ARC
  5
4DB3
  8
AM_0
 10
301.33288713026081
 20
523.60345648769692
 30
0.0
 40
2.0
 50
0.0
 51
90.000003000000945
  0
ARC
  5
4DB4
  8
AM_0
 10
301.33288713026081
 20
631.68353648769676
 30
0.0
 40
2.0
 50
270.0
 51
0.0
  0
ARC
  5
4DB6
  8
AM_0
 10
298.33288713026087
 20
512.64349648769689
 30
0.0
 40
6.0
 50
169.13878999999559
 51
0.5425729200004517
  0
ARC
  5
4DB7
  8
AM_0
 10
390.33288713026087
 20
577.64346648769686
 30
0.0
 40
3.9999962
 50
90.000003000000945
 51
120.00085842362
  0
LINE
  5
4FFE
  8
AM_0
 10
119.3329171302608
 20
528.14349648769689
 30
0.0
 11
119.3329171302608
 21
528.6735264876969
 31
0.0
  0
LINE
  5
4FFF
  8
AM_0
 10
119.3329171302608
 20
530.24346648769676
 30
0.0
 11
119.3329171302608
 21
530.79351648769682
 31
0.0
  0
LINE
  5
5000
  8
AM_0
 10
119.3329171302608
 20
534.81353648769709
 30
0.0
 11
119.3329171302608
 21
535.28350648769685
 31
0.0
  0
LINE
  5
5001
  8
AM_0
 10
119.1128871302606
 20
531.26348648769692
 30
0.0
 11
117.8628871302609
 21
531.92345648769685
 31
0.0
  0
LINE
  5
5002
  8
AM_0
 10
119.1228971302608
 20
529.15347648769682
 30
0.0
 11
117.8829071302608
 21
529.7834764876967
 31
0.0
  0
LINE
  5
5003
  8
AM_0
 10
119.10287713026079
 20
535.79345648769709
 30
0.0
 11
117.822907130261
 21
536.54345648769674
 31
0.0
  0
LINE
  5
5004
  8
AM_0
 10
119.572907130261
 20
529.04351648769682
 30
0.0
 11
121.832917130261
 21
529.04351648769682
 31
0.0
  0
LINE
  5
5005
  8
AM_0
 10
119.58291713026109
 20
531.14349648769678
 30
0.0
 11
121.3329171302608
 21
531.14349648769678
 31
0.0
  0
LINE
  5
5006
  8
AM_0
 10
119.6029371302609
 20
535.66351648769705
 30
0.0
 11
121.3329171302608
 21
535.66351648769705
 31
0.0
  0
LINE
  5
5007
  8
AM_0
 10
119.6329071302608
 20
534.52349648769689
 30
0.0
 11
122.33291713026109
 21
534.52349648769689
 31
0.0
  0
LINE
  5
5008
  8
AM_0
 10
119.61294713026111
 20
530.00347648769684
 30
0.0
 11
122.33291713026109
 21
530.00347648769684
 31
0.0
  0
LINE
  5
5009
  8
AM_0
 10
119.0829171302608
 20
534.68346648769682
 30
0.0
 11
117.7829271302609
 21
535.53347648769682
 31
0.0
  0
LINE
  5
500A
  8
AM_0
 10
119.0929271302608
 20
530.14346648769686
 30
0.0
 11
117.81289713026101
 21
530.91347648769693
 31
0.0
  0
LINE
  5
500B
  8
AM_0
 10
119.1029371302609
 20
528.0334764876967
 30
0.0
 11
117.8329771302608
 21
528.76345648769677
 31
0.0
  0
LINE
  5
500C
  8
AM_0
 10
119.6029371302609
 20
527.89349648769689
 30
0.0
 11
121.832917130261
 21
527.89349648769689
 31
0.0
  0
LINE
  5
500D
  8
AM_0
 10
117.33291713026109
 20
529.62347648769685
 30
0.0
 11
117.33291713026109
 21
572.64349648769701
 31
0.0
  0
LINE
  5
500E
  8
AM_0
 10
117.822907130261
 20
536.54348648769667
 30
0.0
 11
117.8028871302609
 21
536.55346648769694
 31
0.0
  0
LINE
  5
500F
  8
AM_0
 10
115.8329171302608
 20
560.36346648769688
 30
0.0
 11
117.33291713026109
 21
560.36346648769688
 31
0.0
  0
LINE
  5
5010
  8
AM_0
 10
115.8329171302608
 20
562.49346648769688
 30
0.0
 11
117.33291713026109
 21
562.49346648769688
 31
0.0
  0
LINE
  5
5011
  8
AM_0
 10
115.8329171302608
 20
557.64352648769682
 30
0.0
 11
117.33291713026109
 21
557.51351648769707
 31
0.0
  0
LINE
  5
5012
  8
AM_0
 10
115.8329171302608
 20
557.64349648769689
 30
0.0
 11
115.8329171302608
 21
577.64349648769701
 31
0.0
  0
LINE
  5
5013
  8
AM_0
 10
119.3329171302608
 20
542.25347648769684
 30
0.0
 11
119.3329171302608
 21
543.31353648769675
 31
0.0
  0
LINE
  5
5014
  8
AM_0
 10
119.3329171302608
 20
552.01348648769692
 30
0.0
 11
119.3329171302608
 21
553.38348648769693
 31
0.0
  0
LINE
  5
5015
  8
AM_0
 10
119.3329171302608
 20
572.03350648769685
 30
0.0
 11
119.3329171302608
 21
573.19353648769686
 31
0.0
  0
LINE
  5
5016
  8
AM_0
 10
119.3329171302608
 20
562.03350648769708
 30
0.0
 11
119.3329171302608
 21
563.25347648769673
 31
0.0
  0
LINE
  5
5017
  8
AM_0
 10
121.3329171302608
 20
573.64349648769701
 30
0.0
 11
118.3329171302609
 21
573.64349648769701
 31
0.0
  0
LINE
  5
5018
  8
AM_0
 10
121.3329171302608
 20
571.64349648769689
 30
0.0
 11
118.3329171302609
 21
571.64349648769689
 31
0.0
  0
LINE
  5
5019
  8
AM_0
 10
121.3329171302608
 20
563.64349648769678
 30
0.0
 11
118.3329171302609
 21
563.64349648769678
 31
0.0
  0
LINE
  5
501A
  8
AM_0
 10
121.3329171302608
 20
561.64349648769689
 30
0.0
 11
118.3329171302609
 21
561.64349648769689
 31
0.0
  0
LINE
  5
501B
  8
AM_0
 10
121.3329171302608
 20
553.64349648769689
 30
0.0
 11
118.3329171302609
 21
553.64349648769689
 31
0.0
  0
LINE
  5
501C
  8
AM_0
 10
121.3329171302608
 20
551.64349648769678
 30
0.0
 11
118.3329171302609
 21
551.64349648769678
 31
0.0
  0
LINE
  5
501D
  8
AM_0
 10
119.19290713026101
 20
543.94350648769705
 30
0.0
 11
118.0429371302608
 21
544.30349648769709
 31
0.0
  0
LINE
  5
501E
  8
AM_0
 10
119.4829471302608
 20
543.90350648769675
 30
0.0
 11
121.3329171302608
 21
543.90350648769675
 31
0.0
  0
LINE
  5
501F
  8
AM_0
 10
119.14285713026079
 20
542.03347648769682
 30
0.0
 11
117.94290713026101
 21
542.55346648769694
 31
0.0
  0
LINE
  5
5020
  8
AM_0
 10
119.5329271302608
 20
541.95354648769694
 30
0.0
 11
121.6329071302608
 21
541.95354648769694
 31
0.0
  0
LINE
  5
5021
  8
AM_0
 10
115.8329171302608
 20
594.92352648769679
 30
0.0
 11
117.33291713026109
 21
594.92352648769679
 31
0.0
  0
LINE
  5
5022
  8
AM_0
 10
115.8329171302608
 20
592.79351648769682
 30
0.0
 11
117.33291713026109
 21
592.79351648769682
 31
0.0
  0
LINE
  5
5023
  8
AM_0
 10
115.8329771302608
 20
597.64352648769682
 30
0.0
 11
117.33291713026109
 21
597.77352648769704
 31
0.0
  0
LINE
  5
5024
  8
AM_0
 10
115.8329171302608
 20
597.64349648769701
 30
0.0
 11
115.8329171302608
 21
577.64349648769701
 31
0.0
  0
LINE
  5
5025
  8
AM_0
 10
119.3329171302608
 20
627.14349648769701
 30
0.0
 11
119.3329171302608
 21
626.61346648769666
 31
0.0
  0
LINE
  5
5026
  8
AM_0
 10
119.3329171302608
 20
625.04351648769705
 30
0.0
 11
119.3329171302608
 21
624.49346648769699
 31
0.0
  0
LINE
  5
5027
  8
AM_0
 10
119.3329171302608
 20
620.47344648769695
 30
0.0
 11
119.3329171302608
 21
620.00347648769673
 31
0.0
  0
LINE
  5
5028
  8
AM_0
 10
119.3329171302608
 20
613.03350648769697
 30
0.0
 11
119.3329171302608
 21
611.97344648769695
 31
0.0
  0
LINE
  5
5029
  8
AM_0
 10
119.3329171302608
 20
603.27349648769689
 30
0.0
 11
119.3329171302608
 21
601.90350648769697
 31
0.0
  0
LINE
  5
502A
  8
AM_0
 10
119.3329171302608
 20
583.25347648769662
 30
0.0
 11
119.3329171302608
 21
582.09344648769695
 31
0.0
  0
LINE
  5
502B
  8
AM_0
 10
119.3329171302608
 20
593.25347648769673
 30
0.0
 11
119.3329171302608
 21
592.04351648769682
 31
0.0
  0
LINE
  5
502C
  8
AM_0
 10
121.3329171302608
 20
581.64349648769701
 30
0.0
 11
118.3329171302609
 21
581.64349648769701
 31
0.0
  0
LINE
  5
502D
  8
AM_0
 10
121.3329171302608
 20
583.64349648769689
 30
0.0
 11
118.3329171302609
 21
583.64349648769689
 31
0.0
  0
LINE
  5
502E
  8
AM_0
 10
121.3329171302608
 20
591.64349648769701
 30
0.0
 11
118.3329171302609
 21
591.64349648769701
 31
0.0
  0
LINE
  5
502F
  8
AM_0
 10
121.3329171302608
 20
593.64349648769701
 30
0.0
 11
118.3329171302609
 21
593.64349648769701
 31
0.0
  0
LINE
  5
5030
  8
AM_0
 10
121.3329171302608
 20
601.64349648769701
 30
0.0
 11
118.3329171302609
 21
601.64349648769701
 31
0.0
  0
LINE
  5
5031
  8
AM_0
 10
121.3329171302608
 20
603.64349648769701
 30
0.0
 11
118.3329171302609
 21
603.64349648769701
 31
0.0
  0
LINE
  5
5032
  8
AM_0
 10
119.1128871302606
 20
624.03350648769685
 30
0.0
 11
117.86294713026111
 21
623.36352648769673
 31
0.0
  0
LINE
  5
5033
  8
AM_0
 10
119.1229571302608
 20
626.14346648769686
 30
0.0
 11
117.8829071302608
 21
625.513456487697
 31
0.0
  0
LINE
  5
5034
  8
AM_0
 10
119.19290713026101
 20
611.34347648769665
 30
0.0
 11
118.0428771302611
 21
610.99346648769699
 31
0.0
  0
LINE
  5
5035
  8
AM_0
 10
119.1029371302609
 20
619.49343648769695
 30
0.0
 11
117.822907130261
 21
618.74343648769695
 31
0.0
  0
LINE
  5
5036
  8
AM_0
 10
119.572907130261
 20
626.24346648769699
 30
0.0
 11
121.832917130261
 21
626.24346648769699
 31
0.0
  0
LINE
  5
5037
  8
AM_0
 10
119.58291713026109
 20
624.14349648769701
 30
0.0
 11
121.3329171302608
 21
624.14349648769701
 31
0.0
  0
LINE
  5
5038
  8
AM_0
 10
119.6029371302609
 20
619.63348648769704
 30
0.0
 11
121.3329171302608
 21
619.63348648769704
 31
0.0
  0
LINE
  5
5039
  8
AM_0
 10
119.4829471302608
 20
611.38348648769704
 30
0.0
 11
121.3329171302608
 21
611.38348648769704
 31
0.0
  0
LINE
  5
503A
  8
AM_0
 10
119.6329071302608
 20
620.77349648769666
 30
0.0
 11
122.33291713026109
 21
620.77349648769666
 31
0.0
  0
LINE
  5
503B
  8
AM_0
 10
119.61294713026111
 20
625.28350648769685
 30
0.0
 11
122.33291713026109
 21
625.28350648769685
 31
0.0
  0
LINE
  5
503C
  8
AM_0
 10
119.1429771302608
 20
613.253506487697
 30
0.0
 11
117.9429671302608
 21
612.74349648769703
 31
0.0
  0
LINE
  5
503D
  8
AM_0
 10
119.0829171302608
 20
620.6034564876968
 30
0.0
 11
117.7829271302609
 21
619.75347648769673
 31
0.0
  0
LINE
  5
503E
  8
AM_0
 10
119.0928671302608
 20
625.14346648769697
 30
0.0
 11
117.81289713026101
 21
624.373506487697
 31
0.0
  0
LINE
  5
503F
  8
AM_0
 10
119.10287713026079
 20
627.26348648769681
 30
0.0
 11
117.832857130261
 21
626.52349648769678
 31
0.0
  0
LINE
  5
5040
  8
AM_0
 10
119.5329271302608
 20
613.33343648769699
 30
0.0
 11
121.6329071302608
 21
613.33343648769699
 31
0.0
  0
LINE
  5
5041
  8
AM_0
 10
119.6029371302609
 20
627.39349648769689
 30
0.0
 11
121.832917130261
 21
627.39349648769689
 31
0.0
  0
LINE
  5
5042
  8
AM_0
 10
117.33291713026109
 20
625.66351648769694
 30
0.0
 11
117.33291713026109
 21
582.64349648769701
 31
0.0
  0
LINE
  5
5043
  8
AM_0
 10
269.3329171302608
 20
614.79351648769705
 30
0.0
 11
278.3329171302608
 21
614.79351648769705
 31
0.0
  0
LINE
  5
5044
  8
AM_0
 10
270.3329171302608
 20
525.6034564876968
 30
0.0
 11
278.33291713026091
 21
525.6034564876968
 31
0.0
  0
LINE
  5
5045
  8
AM_0
 10
269.3329171302608
 20
540.49346648769676
 30
0.0
 11
278.3329171302608
 21
540.49346648769676
 31
0.0
  0
LINE
  5
5046
  8
AM_0
 10
270.3329171302608
 20
514.14349648769678
 30
0.0
 11
278.33291713026091
 21
514.14349648769712
 31
0.0
  0
LINE
  5
5047
  8
AM_0
 10
270.3329171302608
 20
629.68352648769678
 30
0.0
 11
278.33291713026091
 21
629.68352648769678
 31
0.0
  0
LINE
  5
5048
  8
AM_0
 10
270.3329171302608
 20
641.14349648769701
 30
0.0
 11
278.33291713026091
 21
641.14349648769701
 31
0.0
  0
LINE
  5
5049
  8
AM_0
 10
122.33291713026109
 20
520.21343648769675
 30
0.0
 11
125.1528671302607
 21
520.15343648769692
 31
0.0
  0
LINE
  5
504A
  8
AM_0
 10
163.33291713026111
 20
531.29351648769682
 30
0.0
 11
269.3329171302608
 21
531.29351648769682
 31
0.0
  0
LINE
  5
504B
  8
AM_0
 10
264.04287713026088
 20
517.14349648769689
 30
0.0
 11
269.3329171302608
 21
517.14349648769689
 31
0.0
  0
LINE
  5
504C
  8
AM_0
 10
136.00290713026081
 20
544.28350648769685
 30
0.0
 11
230.35287713026091
 21
544.28350648769685
 31
0.0
  0
LINE
  5
504D
  8
AM_0
 10
218.33291713026091
 20
541.64349648769689
 30
0.0
 11
136.86862713026099
 21
541.64349648769689
 31
0.0
  0
LINE
  5
504E
  8
AM_0
 10
218.33291713026091
 20
540.92352648769679
 30
0.0
 11
266.15292713026088
 21
540.92352648769679
 31
0.0
  0
LINE
  5
504F
  8
AM_0
 10
136.00290713026081
 20
540.92352648769679
 30
0.0
 11
218.33291713026091
 21
540.92352648769679
 31
0.0
  0
LINE
  5
5050
  8
AM_0
 10
136.0305471302608
 20
519.38348648769681
 30
0.0
 11
141.8329171302608
 21
519.38348648769681
 31
0.0
  0
LINE
  5
5051
  8
AM_0
 10
145.3329171302608
 20
515.78350648769685
 30
0.0
 11
262.1429171302608
 21
515.78350648769685
 31
0.0
  0
LINE
  5
5052
  8
AM_0
 10
136.09280713026101
 20
524.66351648769694
 30
0.0
 11
141.8329171302608
 21
524.66351648769694
 31
0.0
  0
LINE
  5
5053
  8
AM_0
 10
132.3329171302608
 20
529.29351648769682
 30
0.0
 11
132.3329171302608
 21
543.34344648769695
 31
0.0
  0
LINE
  5
5054
  8
AM_0
 10
122.33291713026109
 20
529.29351648769682
 30
0.0
 11
132.3329171302608
 21
529.29351648769682
 31
0.0
  0
LINE
  5
5055
  8
AM_0
 10
264.07290713026077
 20
517.27340648769678
 30
0.0
 11
267.53292713026087
 21
530.18352648769678
 31
0.0
  0
LINE
  5
5056
  8
AM_0
 10
126.094207130261
 20
517.48449648769667
 30
0.0
 11
125.61294713026101
 21
519.39349648769689
 31
0.0
  0
LINE
  5
5057
  8
AM_0
 10
126.522927130261
 20
517.51342648769696
 30
0.0
 11
125.60287713026079
 21
521.39352648769682
 31
0.0
  0
LINE
  5
5058
  8
AM_0
 10
143.33291713026091
 20
515.75445648769676
 30
0.0
 11
143.33291713026091
 21
523.16351648769705
 31
0.0
  0
LINE
  5
5059
  8
AM_0
 10
124.1629371302608
 20
520.523496487697
 30
0.0
 11
125.81289713026101
 21
520.523496487697
 31
0.0
  0
LINE
  5
505A
  8
AM_0
 10
163.33291713026111
 20
623.99346648769699
 30
0.0
 11
269.3329171302608
 21
623.99346648769699
 31
0.0
  0
LINE
  5
505B
  8
AM_0
 10
269.3329171302608
 20
515.14349648769678
 30
0.0
 11
269.3329171302608
 21
640.14349648769701
 31
0.0
  0
LINE
  5
505C
  8
AM_0
 10
122.33291713026109
 20
635.0734864876971
 30
0.0
 11
125.15292713026111
 21
635.14349648769701
 31
0.0
  0
LINE
  5
505D
  8
AM_0
 10
122.33291713026109
 20
520.21343648769675
 30
0.0
 11
122.33291713026109
 21
577.64349648769701
 31
0.0
  0
LINE
  5
505E
  8
AM_0
 10
262.6728871302609
 20
541.64349648769689
 30
0.0
 11
218.33291713026091
 21
541.64349648769689
 31
0.0
  0
LINE
  5
505F
  8
AM_0
 10
132.3329171302608
 20
625.99346648769676
 30
0.0
 11
132.3329171302608
 21
611.95354648769694
 31
0.0
  0
LINE
  5
5060
  8
AM_0
 10
122.33291713026109
 20
611.95354648769694
 30
0.0
 11
132.3329171302608
 21
611.95354648769694
 31
0.0
  0
LINE
  5
5061
  8
AM_0
 10
122.33291713026109
 20
620.33343648769699
 30
0.0
 11
132.3329171302608
 21
620.33343648769699
 31
0.0
  0
LINE
  5
5062
  8
AM_0
 10
122.33291713026109
 20
625.99346648769676
 30
0.0
 11
132.3329171302608
 21
625.99346648769676
 31
0.0
  0
LINE
  5
5063
  8
AM_0
 10
197.77499713026091
 20
563.64349648769678
 30
0.0
 11
127.8829071302608
 21
563.64349648769678
 31
0.0
  0
LINE
  5
5064
  8
AM_0
 10
145.3329171302608
 20
639.50347648769673
 30
0.0
 11
262.1429171302608
 21
639.50347648769673
 31
0.0
  0
LINE
  5
5065
  8
AM_0
 10
136.2872071302609
 20
630.63348648769704
 30
0.0
 11
141.8329171302608
 21
630.63348648769704
 31
0.0
  0
LINE
  5
5066
  8
AM_0
 10
133.54220713026069
 20
624.63680648769673
 30
0.0
 11
134.327187130261
 21
628.98348648769695
 31
0.0
  0
LINE
  5
5067
  8
AM_0
 10
136.22335713026081
 20
635.91351648769694
 30
0.0
 11
141.8329171302608
 21
635.91351648769694
 31
0.0
  0
LINE
  5
5068
  8
AM_0
 10
128.46292713026079
 20
639.31353648769675
 30
0.0
 11
141.8329171302608
 21
639.31353648769675
 31
0.0
  0
LINE
  5
5069
  8
AM_0
 10
128.44290713026101
 20
640.94353648769686
 30
0.0
 11
141.94290713026101
 21
640.94353648769686
 31
0.0
  0
LINE
  5
506A
  8
AM_0
 10
145.3329171302608
 20
643.56353648769675
 30
0.0
 11
263.41653713026079
 21
643.56353648769675
 31
0.0
  0
LINE
  5
506B
  8
AM_0
 10
145.3329171302608
 20
642.89349648769701
 30
0.0
 11
263.56057713026092
 21
642.89349648769701
 31
0.0
  0
LINE
  5
506C
  8
AM_0
 10
145.3329171302608
 20
641.53350648769697
 30
0.0
 11
263.85287713026088
 21
641.53350648769697
 31
0.0
  0
LINE
  5
506D
  8
AM_0
 10
131.84719713026081
 20
628.68352648769689
 30
0.0
 11
134.26718713026079
 21
628.68352648769689
 31
0.0
  0
LINE
  5
506E
  8
AM_0
 10
134.2771371302608
 20
634.33352648769676
 30
0.0
 11
133.31710713026101
 21
629.86343648769673
 31
0.0
  0
LINE
  5
506F
  8
AM_0
 10
124.1429171302607
 20
632.74346648769676
 30
0.0
 11
133.93570713026091
 21
632.74346648769676
 31
0.0
  0
LINE
  5
5070
  8
AM_0
 10
262.6728871302609
 20
613.64349648769678
 30
0.0
 11
136.882907130261
 21
613.64349648769678
 31
0.0
  0
LINE
  5
5071
  8
AM_0
 10
262.6728871302609
 20
611.64349648769701
 30
0.0
 11
248.3329171302608
 21
611.64349648769701
 31
0.0
  0
LINE
  5
5072
  8
AM_0
 10
262.68002713026112
 20
603.64349648769701
 30
0.0
 11
248.3329171302608
 21
603.64349648769701
 31
0.0
  0
LINE
  5
5073
  8
AM_0
 10
126.522927130261
 20
637.77352648769704
 30
0.0
 11
125.60287713026079
 21
633.90347648769693
 31
0.0
  0
LINE
  5
5074
  8
AM_0
 10
262.66574713026091
 20
601.64349648769701
 30
0.0
 11
136.882907130261
 21
601.64349648769701
 31
0.0
  0
LINE
  5
5075
  8
AM_0
 10
124.1629371302608
 20
634.76348648769704
 30
0.0
 11
125.81289713026101
 21
634.76348648769704
 31
0.0
  0
LINE
  5
5076
  8
AM_0
 10
126.50290713026079
 20
639.43343648769701
 30
0.0
 11
125.61294713026101
 21
635.90353648769678
 31
0.0
  0
LINE
  5
5077
  8
AM_0
 10
197.77163713026101
 20
593.64349648769701
 30
0.0
 11
127.8829071302608
 21
593.64349648769701
 31
0.0
  0
LINE
  5
5078
  8
AM_0
 10
143.33291713026091
 20
639.53350648769685
 30
0.0
 11
143.33291713026091
 21
632.13348648769704
 31
0.0
  0
LINE
  5
5079
  8
AM_0
 10
197.77163713026101
 20
591.64349648769701
 30
0.0
 11
127.8829071302608
 21
591.64349648769701
 31
0.0
  0
LINE
  5
507A
  8
AM_0
 10
197.77499713026091
 20
583.64349648769689
 30
0.0
 11
127.8829071302608
 21
583.64349648769689
 31
0.0
  0
LINE
  5
507B
  8
AM_0
 10
197.77499713026091
 20
581.64349648769701
 30
0.0
 11
127.8829071302608
 21
581.64349648769701
 31
0.0
  0
LINE
  5
507C
  8
AM_0
 10
264.07290713026077
 20
638.02352648769681
 30
0.0
 11
267.53292713026087
 21
625.10345648769703
 31
0.0
  0
LINE
  5
507D
  8
AM_0
 10
265.79330713026093
 20
638.14349648769689
 30
0.0
 11
269.3329171302608
 21
638.14349648769689
 31
0.0
  0
LINE
  5
507E
  8
AM_0
 10
269.04287713026099
 20
628.68352648769689
 30
0.0
 11
266.62289713026092
 21
628.68352648769689
 31
0.0
  0
LINE
  5
507F
  8
AM_0
 10
264.88311713026093
 20
642.37865648769673
 30
0.0
 11
267.57293713026093
 21
629.86343648769673
 31
0.0
  0
LINE
  5
5080
  8
AM_0
 10
122.33291713026109
 20
635.07354648769694
 30
0.0
 11
122.33291713026109
 21
577.64349648769701
 31
0.0
  0
LINE
  5
5081
  8
AM_0
 10
122.33291713026109
 20
543.34344648769695
 30
0.0
 11
132.3329171302608
 21
543.34344648769695
 31
0.0
  0
LINE
  5
5082
  8
AM_0
 10
128.0335471302609
 20
515.97344648769695
 30
0.0
 11
142.07565713026119
 21
515.97344648769695
 31
0.0
  0
LINE
  5
5083
  8
AM_0
 10
122.33291713026109
 20
534.95354648769694
 30
0.0
 11
132.3329171302608
 21
534.95354648769694
 31
0.0
  0
LINE
  5
5084
  8
AM_0
 10
124.1429171302607
 20
522.54351648769682
 30
0.0
 11
133.93570713026091
 21
522.54351648769682
 31
0.0
  0
LINE
  5
5085
  8
AM_0
 10
145.3329171302608
 20
513.75347648769707
 30
0.0
 11
186.65927713026079
 21
513.75347648769707
 31
0.0
  0
LINE
  5
5086
  8
AM_0
 10
135.79293713026081
 20
551.16351648769694
 30
0.0
 11
230.3329171302608
 21
551.16351648769694
 31
0.0
  0
LINE
  5
5087
  8
AM_0
 10
230.3329171302608
 20
543.64349648769678
 30
0.0
 11
136.86862713026099
 21
543.64349648769678
 31
0.0
  0
LINE
  5
5088
  8
AM_0
 10
136.00290713026081
 20
614.37347648769696
 30
0.0
 11
266.15292713026088
 21
614.37347648769696
 31
0.0
  0
LINE
  5
5089
  8
AM_0
 10
136.00290713026081
 20
611.01348648769704
 30
0.0
 11
230.35287713026091
 21
611.01348648769704
 31
0.0
  0
LINE
  5
508A
  8
AM_0
 10
135.79293713026081
 20
604.13348648769681
 30
0.0
 11
230.3329171302608
 21
604.13348648769681
 31
0.0
  0
LINE
  5
508B
  8
AM_0
 10
135.79293713026081
 20
601.21343648769687
 30
0.0
 11
266.36715713026092
 21
601.21343648769687
 31
0.0
  0
LINE
  5
508C
  8
AM_0
 10
126.662937130261
 20
593.99346648769699
 30
0.0
 11
199.0041871302609
 21
593.99346648769699
 31
0.0
  0
LINE
  5
508D
  8
AM_0
 10
126.662937130261
 20
591.32354648769694
 30
0.0
 11
198.9916071302608
 21
591.32354648769694
 31
0.0
  0
LINE
  5
508E
  8
AM_0
 10
126.6029371302606
 20
583.92352648769668
 30
0.0
 11
199.06802713026079
 21
583.92352648769668
 31
0.0
  0
LINE
  5
508F
  8
AM_0
 10
126.6029371302606
 20
581.38348648769704
 30
0.0
 11
199.06802713026079
 21
581.38348648769704
 31
0.0
  0
LINE
  5
5090
  8
AM_0
 10
126.6029371302606
 20
573.91351648769694
 30
0.0
 11
199.06802713026079
 21
573.91351648769694
 31
0.0
  0
LINE
  5
5091
  8
AM_0
 10
197.77499713026091
 20
571.64349648769689
 30
0.0
 11
127.8829071302608
 21
571.64349648769689
 31
0.0
  0
LINE
  5
5092
  8
AM_0
 10
197.77499713026091
 20
573.64349648769701
 30
0.0
 11
127.8829071302608
 21
573.64349648769701
 31
0.0
  0
LINE
  5
5093
  8
AM_0
 10
126.662937130261
 20
563.96343648769687
 30
0.0
 11
199.0041871302609
 21
563.96343648769687
 31
0.0
  0
LINE
  5
5094
  8
AM_0
 10
197.77499713026091
 20
561.64349648769689
 30
0.0
 11
127.8829071302608
 21
561.64349648769689
 31
0.0
  0
LINE
  5
5095
  8
AM_0
 10
126.662937130261
 20
561.3035264876969
 30
0.0
 11
199.0041871302609
 21
561.3035264876969
 31
0.0
  0
LINE
  5
5096
  8
AM_0
 10
262.66574713026091
 20
553.64349648769689
 30
0.0
 11
136.86862713026099
 21
553.64349648769689
 31
0.0
  0
LINE
  5
5097
  8
AM_0
 10
135.79293713026081
 20
554.08343648769676
 30
0.0
 11
266.36715713026092
 21
554.08343648769676
 31
0.0
  0
LINE
  5
5098
  8
AM_0
 10
262.66574713026091
 20
551.64349648769678
 30
0.0
 11
248.3329171302608
 21
551.64349648769678
 31
0.0
  0
LINE
  5
5099
  8
AM_0
 10
262.6728871302609
 20
543.64349648769678
 30
0.0
 11
248.3329171302608
 21
543.64349648769678
 31
0.0
  0
LINE
  5
509A
  8
AM_0
 10
126.6029371302606
 20
571.37347648769685
 30
0.0
 11
199.06802713026079
 21
571.37347648769685
 31
0.0
  0
LINE
  5
509B
  8
AM_0
 10
133.5421471302609
 20
530.65011648769678
 30
0.0
 11
134.327187130261
 21
526.30343648769679
 31
0.0
  0
LINE
  5
509C
  8
AM_0
 10
131.84719713026081
 20
526.60345648769692
 30
0.0
 11
134.26718713026079
 21
526.60345648769692
 31
0.0
  0
LINE
  5
509D
  8
AM_0
 10
134.2771971302609
 20
520.95348648769675
 30
0.0
 11
133.31717713026069
 21
525.42345648769685
 31
0.0
  0
LINE
  5
509E
  8
AM_0
 10
249.84652713026099
 20
507.64349648769689
 30
0.0
 11
261.34909713026087
 21
507.64349648769689
 31
0.0
  0
LINE
  5
509F
  8
AM_0
 10
268.33294713026112
 20
517.14346648769697
 30
0.0
 11
262.60714713026113
 21
508.32650648769692
 31
0.0
  0
LINE
  5
50A0
  8
AM_0
 10
231.8329171302608
 20
550.14349648769689
 30
0.0
 11
231.8329171302608
 21
545.14349648769689
 31
0.0
  0
LINE
  5
50A1
  8
AM_0
 10
246.8329171302608
 20
550.14349648769689
 30
0.0
 11
246.8329171302608
 21
545.14349648769689
 31
0.0
  0
LINE
  5
50A2
  8
AM_0
 10
230.3329171302608
 20
551.64349648769678
 30
0.0
 11
136.86862713026099
 21
551.64349648769678
 31
0.0
  0
LINE
  5
50A3
  8
AM_0
 10
231.35287713026099
 20
550.14349648769689
 30
0.0
 11
231.35287713026099
 21
545.28350648769685
 31
0.0
  0
LINE
  5
50A4
  8
AM_0
 10
247.31289713026089
 20
550.14349648769689
 30
0.0
 11
247.31289713026089
 21
545.28350648769685
 31
0.0
  0
LINE
  5
50A5
  8
AM_0
 10
248.3329171302608
 20
551.16351648769694
 30
0.0
 11
266.36715713026092
 21
551.16351648769694
 31
0.0
  0
LINE
  5
50A6
  8
AM_0
 10
248.31289713026089
 20
544.28350648769685
 30
0.0
 11
266.15292713026088
 21
544.28350648769685
 31
0.0
  0
LINE
  5
50A7
  8
AM_0
 10
247.31289713026089
 20
605.14349648769678
 30
0.0
 11
247.31289713026089
 21
610.00347648769673
 31
0.0
  0
LINE
  5
50A8
  8
AM_0
 10
231.35287713026099
 20
605.14349648769678
 30
0.0
 11
231.35287713026099
 21
610.00347648769673
 31
0.0
  0
LINE
  5
50A9
  8
AM_0
 10
246.8329171302608
 20
605.14349648769678
 30
0.0
 11
246.8329171302608
 21
610.14349648769701
 31
0.0
  0
LINE
  5
50AA
  8
AM_0
 10
231.8329171302608
 20
605.14349648769678
 30
0.0
 11
231.8329171302608
 21
610.14349648769701
 31
0.0
  0
LINE
  5
50AB
  8
AM_0
 10
230.3329171302608
 20
611.64349648769701
 30
0.0
 11
136.882907130261
 21
611.64349648769701
 31
0.0
  0
LINE
  5
50AC
  8
AM_0
 10
248.31289713026089
 20
611.01348648769704
 30
0.0
 11
266.15292713026088
 21
611.01348648769704
 31
0.0
  0
LINE
  5
50AD
  8
AM_0
 10
248.3329171302608
 20
604.13348648769681
 30
0.0
 11
266.37863713026093
 21
604.13348648769681
 31
0.0
  0
LINE
  5
50AE
  8
AM_0
 10
230.3329171302608
 20
603.64349648769701
 30
0.0
 11
136.882907130261
 21
603.64349648769701
 31
0.0
  0
LINE
  5
50AF
  8
AM_0
 10
203.33291713026091
 20
598.14349648769701
 30
0.0
 11
203.33291713026091
 21
557.14349648769689
 31
0.0
  0
LINE
  5
50B0
  8
AM_0
 10
266.3329171302608
 20
598.14349648769701
 30
0.0
 11
266.3329171302608
 21
557.14349648769689
 31
0.0
  0
LINE
  5
50B1
  8
AM_0
 10
203.33291713026091
 20
598.14349648769701
 30
0.0
 11
266.3329171302608
 21
598.14349648769701
 31
0.0
  0
LINE
  5
50B2
  8
AM_0
 10
203.33291713026091
 20
557.14349648769689
 30
0.0
 11
266.3329171302608
 21
557.14349648769689
 31
0.0
  0
LINE
  5
50B3
  8
AM_0
 10
203.33291713026091
 20
590.64349648769701
 30
0.0
 11
266.3329171302608
 21
590.64349648769701
 31
0.0
  0
LINE
  5
50B4
  8
AM_0
 10
163.33291713026111
 20
623.99340648769703
 30
0.0
 11
132.3329171302608
 21
621.96340648769694
 31
0.0
  0
LINE
  5
50B5
  8
AM_0
 10
163.33291713026111
 20
531.29345648769709
 30
0.0
 11
132.3329171302608
 21
533.32345648769706
 31
0.0
  0
ARC
  5
50B6
  8
AM_0
 10
121.8334071302608
 20
527.39397648769682
 30
0.0
 40
0.49952301
 50
359.9452300000014
 51
90.054773999999597
  0
ARC
  5
50B7
  8
AM_0
 10
121.8295671302609
 20
529.54693648769694
 30
0.0
 40
0.5033929900000002
 50
270.38491000000062
 51
359.61509999999811
  0
ARC
  5
50B8
  8
AM_0
 10
121.32882713026081
 20
532.1476464876971
 30
0.0
 40
1.004119999999999
 50
270.23460999999998
 51
359.76539000000002
  0
ARC
  5
50B9
  8
AM_0
 10
121.3304771302611
 20
536.66595648769692
 30
0.0
 40
1.002470999999999
 50
270.14107000000013
 51
359.85892999999987
  0
ARC
  5
50BA
  8
AM_0
 10
118.33169713026081
 20
531.76702648769685
 30
0.0
 40
0.9987969999999998
 50
179.62728000000101
 51
238.70795000000021
  0
ARC
  5
50BB
  8
AM_0
 10
118.3306571302608
 20
532.804746487697
 30
0.0
 40
0.9977070099999998
 50
180.074020000004
 51
242.04481000000081
  0
ARC
  5
50BC
  8
AM_0
 10
118.3320071302611
 20
536.3682264876968
 30
0.0
 40
0.9990889999999998
 50
179.6950899999965
 51
236.66209000000279
  0
ARC
  5
50BD
  8
AM_0
 10
118.331397130261
 20
537.40276648769691
 30
0.0
 40
0.9984580299999999
 50
179.95957999999851
 51
239.38657000000219
  0
ARC
  5
50BE
  8
AM_0
 10
119.5962871302611
 20
536.66448648769688
 30
0.0
 40
1.0010449999999991
 50
240.4718700000011
 51
270.37970999999948
  0
ARC
  5
50BF
  8
AM_0
 10
119.62570713026081
 20
535.5239864876969
 30
0.0
 40
1.000521999999999
 50
237.1461799999995
 51
270.41344000000032
  0
ARC
  5
50C0
  8
AM_0
 10
119.58810713026079
 20
532.14410648769694
 30
0.0
 40
1.0006820000000001
 50
241.65062000000191
 51
269.70392999999888
  0
ARC
  5
50C1
  8
AM_0
 10
119.604277130261
 20
531.00713648769693
 30
0.0
 40
1.0037439999999991
 50
239.37113000000019
 51
270.49190000000061
  0
ARC
  5
50C2
  8
AM_0
 10
119.578767130261
 20
530.04278648769696
 30
0.0
 40
0.9993420200000001
 50
242.86200000000241
 51
269.6654599999984
  0
ARC
  5
50C3
  8
AM_0
 10
119.61361713026059
 20
528.89458648769687
 30
0.0
 40
1.001123999999999
 50
239.3278200000014
 51
269.38767999999868
  0
ARC
  5
50C4
  8
AM_0
 10
118.3285871302611
 20
530.6738864876969
 30
0.0
 40
0.9956849800000001
 50
180.02113
 51
243.4091400000006
  0
ARC
  5
50C5
  8
AM_0
 10
118.33053713026079
 20
529.62810648769687
 30
0.0
 40
0.9976310099999999
 50
180.2678099999986
 51
240.07924000000099
  0
ARC
  5
50C6
  8
AM_0
 10
118.331397130261
 20
537.40276648769691
 30
0.0
 40
0.9984580299999999
 50
179.95957999999851
 51
239.38657000000219
  0
ARC
  5
50C7
  8
AM_0
 10
121.32968713026079
 20
536.67022648769694
 30
0.0
 40
1.0032760000000001
 50
334.19810000000479
 51
359.6181099999983
  0
ARC
  5
50C8
  8
AM_0
 10
121.3331071302608
 20
560.64361648769682
 30
0.0
 40
0.9998210099999999
 50
359.98971999999799
 51
90.010282000001538
  0
ARC
  5
50C9
  8
AM_0
 10
121.32797713026081
 20
564.64837648769685
 30
0.0
 40
1.004939
 50
270.2809399999997
 51
359.71907000000078
  0
ARC
  5
50CA
  8
AM_0
 10
121.3331071302608
 20
570.64361648769682
 30
0.0
 40
0.9998279799999998
 50
359.99015999999688
 51
90.009838000000187
  0
ARC
  5
50CB
  8
AM_0
 10
121.32797713026081
 20
574.64837648769685
 30
0.0
 40
1.004942999999999
 50
270.28113999999943
 51
359.71886999999822
  0
ARC
  5
50CC
  8
AM_0
 10
118.32797713026081
 20
572.64837648769685
 30
0.0
 40
0.9950770099999999
 50
89.715859999999481
 51
180.28414000000049
  0
ARC
  5
50CD
  8
AM_0
 10
118.3331071302608
 20
572.64373648769697
 30
0.0
 40
1.0002040000000001
 50
180.01165999999679
 51
269.98832000000078
  0
ARC
  5
50CE
  8
AM_0
 10
118.32797713026081
 20
562.64837648769696
 30
0.0
 40
0.9950810099999999
 50
89.716072000000096
 51
180.2839200000044
  0
ARC
  5
50CF
  8
AM_0
 10
118.3331071302608
 20
562.64373648769686
 30
0.0
 40
1.0001999999999991
 50
180.01145999999861
 51
269.98854000000142
  0
ARC
  5
50D0
  8
AM_0
 10
118.32797713026081
 20
552.64837648769685
 30
0.0
 40
0.9950849999999999
 50
89.716282999999393
 51
180.28371999999919
  0
ARC
  5
50D1
  8
AM_0
 10
118.3331071302608
 20
552.64373648769686
 30
0.0
 40
1.0001959999999981
 50
180.01124999999939
 51
269.98875000000061
  0
ARC
  5
50D2
  8
AM_0
 10
118.329437130261
 20
543.47198648769677
 30
0.0
 40
0.9965090199999998
 50
179.9137499999965
 51
247.1784500000004
  0
ARC
  5
50D3
  8
AM_0
 10
118.3293171302608
 20
545.25787648769676
 30
0.0
 40
0.99638802
 50
180.24990999999889
 51
253.29664000000031
  0
ARC
  5
50D4
  8
AM_0
 10
119.47348713026111
 20
544.90618648769691
 30
0.0
 40
1.002699
 50
253.7527199999989
 51
270.54064000000108
  0
ARC
  5
50D5
  8
AM_0
 10
119.5359271302607
 20
542.95867648769706
 30
0.0
 40
1.005233
 50
246.98639000000031
 51
269.82924999999938
  0
ARC
  5
50D6
  8
AM_0
 10
121.63345713026079
 20
541.25408648769678
 30
0.0
 40
0.6994530000000001
 50
359.95517000000092
 51
90.044829000000746
  0
ARC
  5
50D7
  8
AM_0
 10
121.3331071302608
 20
550.6436164876967
 30
0.0
 40
0.9998239899999999
 50
359.98991999999532
 51
90.01007700000045
  0
ARC
  5
50D8
  8
AM_0
 10
121.32797713026081
 20
554.64837648769685
 30
0.0
 40
1.0049469
 50
270.2813699999993
 51
359.71863000000081
  0
ARC
  5
50D9
  8
AM_0
 10
121.3295671302606
 20
544.90679648769685
 30
0.0
 40
1.003352
 50
270.19111000000021
 51
359.80890000000107
  0
ARC
  5
50DA
  8
AM_0
 10
121.82833713026081
 20
627.8981264876968
 30
0.0
 40
0.50463498
 50
270.52383000000037
 51
359.47616999999963
  0
ARC
  5
50DB
  8
AM_0
 10
121.834627130261
 20
625.74517648769699
 30
0.0
 40
0.4983060100000002
 50
359.80488999999778
 51
90.195107000000036
  0
ARC
  5
50DC
  8
AM_0
 10
121.33389713026121
 20
623.14446648769695
 30
0.0
 40
0.9990100299999999
 50
359.94319000000121
 51
90.056809000000058
  0
ARC
  5
50DD
  8
AM_0
 10
121.6283871302611
 20
614.03802648769704
 30
0.0
 40
0.704566
 50
270.37010000000009
 51
359.62990999999778
  0
ARC
  5
50DE
  8
AM_0
 10
121.3305971302607
 20
618.63116648769699
 30
0.0
 40
1.002353
 50
0.1343268199984526
 51
89.865672999999347
  0
ARC
  5
50DF
  8
AM_0
 10
121.3346271302611
 20
610.38518648769696
 30
0.0
 40
0.9982839799999999
 50
359.90142000000009
 51
90.098576000001358
  0
ARC
  5
50E0
  8
AM_0
 10
121.32797713026081
 20
604.64837648769696
 30
0.0
 40
1.004942999999999
 50
270.28111000000013
 51
359.71888999999987
  0
ARC
  5
50E1
  8
AM_0
 10
121.3331071302608
 20
600.6436164876967
 30
0.0
 40
0.9998289899999999
 50
359.99019000000038
 51
90.009811000000937
  0
ARC
  5
50E2
  8
AM_0
 10
121.32797713026081
 20
594.64837648769685
 30
0.0
 40
1.004939
 50
270.2809100000008
 51
359.71909999999991
  0
ARC
  5
50E3
  8
AM_0
 10
121.3331071302608
 20
590.64361648769682
 30
0.0
 40
0.9998210099999999
 50
359.98975000000149
 51
90.010254999998992
  0
ARC
  5
50E4
  8
AM_0
 10
121.32797713026081
 20
584.64837648769685
 30
0.0
 40
1.0049469
 50
270.28135000000037
 51
359.71866000000068
  0
ARC
  5
50E5
  8
AM_0
 10
121.3331071302608
 20
580.64361648769682
 30
0.0
 40
0.9998249999999999
 50
359.98994999999883
 51
90.010050000001243
  0
ARC
  5
50E6
  8
AM_0
 10
118.3331071302608
 20
582.64373648769686
 30
0.0
 40
1.0001959999999981
 50
180.0112199999958
 51
269.98878000000087
  0
ARC
  5
50E7
  8
AM_0
 10
118.32797713026081
 20
582.64837648769685
 30
0.0
 40
0.9950849999999999
 50
89.716311000000914
 51
180.28368999999961
  0
ARC
  5
50E8
  8
AM_0
 10
118.3331071302608
 20
592.64373648769686
 30
0.0
 40
1.0001999999999991
 50
180.01143000000161
 51
269.98856999999839
  0
ARC
  5
50E9
  8
AM_0
 10
118.32797713026081
 20
592.64837648769685
 30
0.0
 40
0.99508202
 50
89.716099000001435
 51
180.2839099999978
  0
ARC
  5
50EA
  8
AM_0
 10
118.3331071302608
 20
602.64373648769697
 30
0.0
 40
1.000203
 50
180.01164999999551
 51
269.98835000000122
  0
ARC
  5
50EB
  8
AM_0
 10
118.32797713026081
 20
602.64837648769685
 30
0.0
 40
0.99507803
 50
89.715887000001331
 51
180.28410999999991
  0
ARC
  5
50EC
  8
AM_0
 10
118.3293171302608
 20
611.82500648769701
 30
0.0
 40
0.9963999999999998
 50
112.8173600000008
 51
180.0904199999996
  0
ARC
  5
50ED
  8
AM_0
 10
118.32919713026099
 20
610.0392464876968
 30
0.0
 40
0.9962710099999999
 50
106.6979199999999
 51
180.33004999999989
  0
ARC
  5
50EE
  8
AM_0
 10
119.4720771302607
 20
610.39080648769698
 30
0.0
 40
0.9927430199999999
 50
89.374554999998736
 51
106.33207000000171
  0
ARC
  5
50EF
  8
AM_0
 10
119.5339071302609
 20
612.33807648769687
 30
0.0
 40
0.9954450099999999
 50
90.056904999999645
 51
113.12745
  0
ARC
  5
50F0
  8
AM_0
 10
118.3273671302606
 20
623.52251648769675
 30
0.0
 40
0.9944329899999999
 50
121.1521299999998
 51
179.94050999999911
  0
ARC
  5
50F1
  8
AM_0
 10
118.32614713026101
 20
622.48492648769695
 30
0.0
 40
0.9932109699999999
 50
117.7993199999991
 51
180.08187000000001
  0
ARC
  5
50F2
  8
AM_0
 10
118.327727130261
 20
618.92107648769695
 30
0.0
 40
0.9948369899999999
 50
123.2049600000028
 51
180.43785999999801
  0
ARC
  5
50F3
  8
AM_0
 10
118.3269371302608
 20
617.886656487697
 30
0.0
 40
0.99404597
 50
120.46820000000049
 51
180.18564000000021
  0
ARC
  5
50F4
  8
AM_0
 10
119.6123371302608
 20
618.63702648769697
 30
0.0
 40
0.99648702
 50
90.540720999998626
 51
120.74377000000059
  0
ARC
  5
50F5
  8
AM_0
 10
119.6395571302608
 20
619.77727648769701
 30
0.0
 40
0.99617702
 50
90.381317999999226
 51
123.9704899999999
  0
ARC
  5
50F6
  8
AM_0
 10
119.5680271302608
 20
623.14812648769703
 30
0.0
 40
0.99545902
 50
89.141290999999924
 51
117.2038199999995
  0
ARC
  5
50F7
  8
AM_0
 10
119.6017771302608
 20
624.28924648769703
 30
0.0
 40
0.99427301
 50
89.356066000000013
 51
120.7809100000017
  0
ARC
  5
50F8
  8
AM_0
 10
119.5577171302608
 20
625.24944648769667
 30
0.0
 40
0.99411702
 50
89.122643999998516
 51
115.93498000000019
  0
ARC
  5
50F9
  8
AM_0
 10
119.594947130261
 20
626.39764648769699
 30
0.0
 40
0.9959030199999999
 50
89.541266999999124
 51
119.6071699999994
  0
ARC
  5
50FA
  8
AM_0
 10
118.3285271302606
 20
624.62322648769702
 30
0.0
 40
0.995579
 50
116.5870900000007
 51
179.98263999999989
  0
ARC
  5
50FB
  8
AM_0
 10
118.32614713026101
 20
625.66143648769685
 30
0.0
 40
0.99319202
 50
119.77338
 51
179.87958999999799
  0
ARC
  5
50FC
  8
AM_0
 10
135.47372713026081
 20
536.43316648769667
 30
0.0
 40
1.0032491999999991
 50
314.98118999999758
 51
5.167643400001003
  0
ARC
  5
50FD
  8
AM_0
 10
270.3327371302608
 20
640.14373648769697
 30
0.0
 40
0.99980682
 50
89.98893100000069
 51
180.0110699999974
  0
ARC
  5
50FE
  8
AM_0
 10
262.13418713026078
 20
517.78973648769693
 30
0.0
 40
2.0062942999999991
 50
270.24932999999891
 51
345.08844000000403
  0
ARC
  5
50FF
  8
AM_0
 10
270.33200713026088
 20
628.684386487697
 30
0.0
 40
0.9990923399999999
 50
89.947921999999295
 51
180.05208000000431
  0
ARC
  5
5100
  8
AM_0
 10
144.32571713026081
 20
582.64349648769701
 30
0.0
 40
1.0000259
 50
89.587534000000232
 51
270.4124599999987
  0
ARC
  5
5101
  8
AM_0
 10
136.29239713026081
 20
628.63824648769685
 30
0.0
 40
1.9952742999999991
 50
90.148580000000095
 51
170.03521999999899
  0
ARC
  5
5102
  8
AM_0
 10
136.23025713026081
 20
633.91643648769696
 30
0.0
 40
1.997119399999999
 50
89.801366999998493
 51
167.94475999999821
  0
ARC
  5
5103
  8
AM_0
 10
131.8497671302608
 20
630.18584648769695
 30
0.0
 40
1.502416299999999
 50
269.90137999999882
 51
347.60813000000093
  0
ARC
  5
5104
  8
AM_0
 10
128.4631671302609
 20
637.32122648769678
 30
0.0
 40
1.9922863
 50
90.007721000000544
 51
166.8783899999971
  0
ARC
  5
5105
  8
AM_0
 10
124.13815713026121
 20
634.24834648769695
 30
0.0
 40
1.5048382
 50
270.18264000000067
 51
346.75308000000138
  0
ARC
  5
5106
  8
AM_0
 10
124.152497130261
 20
636.26885648769701
 30
0.0
 40
1.505448699999999
 50
270.39686999999992
 51
345.95247000000012
  0
ARC
  5
5107
  8
AM_0
 10
128.437777130261
 20
638.94891648769681
 30
0.0
 40
1.994612099999999
 50
89.851991999999015
 51
165.93885999999711
  0
ARC
  5
5108
  8
AM_0
 10
145.3262071302608
 20
637.51018648769696
 30
0.0
 40
1.9933081999999991
 50
89.807323000000935
 51
180.19266999999849
  0
ARC
  5
5109
  8
AM_0
 10
145.32705713026081
 20
639.53936648769695
 30
0.0
 40
1.994130499999996
 50
89.831105999999224
 51
180.16889000000049
  0
ARC
  5
510A
  8
AM_0
 10
145.329437130261
 20
640.89703648769694
 30
0.0
 40
1.996488899999999
 50
89.899147999998391
 51
180.10084999999879
  0
ARC
  5
510B
  8
AM_0
 10
145.3266971302611
 20
641.56695648769698
 30
0.0
 40
1.9964978999999961
 50
89.821482000000245
 51
165.6006099999997
  0
ARC
  5
510C
  8
AM_0
 10
141.82919713026101
 20
632.13726648769671
 30
0.0
 40
1.5037541000000001
 50
270.14287000000093
 51
359.85713999999848
  0
ARC
  5
510D
  8
AM_0
 10
141.8280371302609
 20
637.41839648769678
 30
0.0
 40
1.504891299999997
 50
270.1859300000005
 51
359.81406999999621
  0
ARC
  5
510E
  8
AM_0
 10
141.8260271302608
 20
640.82037648769699
 30
0.0
 40
1.506942899999999
 50
270.2633699999991
 51
359.73663000000079
  0
ARC
  5
510F
  8
AM_0
 10
141.93783713026099
 20
642.44866648769676
 30
0.0
 40
1.505230099999999
 50
270.19421
 51
345.17177999999871
  0
ARC
  5
5110
  8
AM_0
 10
268.98306713026079
 20
625.49578648769705
 30
0.0
 40
1.5022733999999991
 50
195.1365099999966
 51
269.99412000000041
  0
ARC
  5
5111
  8
AM_0
 10
262.14236713026099
 20
637.50433648769695
 30
0.0
 40
1.9991226
 50
15.05079100000003
 51
89.984388999999666
  0
ARC
  5
5112
  8
AM_0
 10
270.32589713026078
 20
515.13653648769684
 30
0.0
 40
0.99304521
 50
179.5973099999994
 51
270.40268000000009
  0
ARC
  5
5113
  8
AM_0
 10
270.32522713026083
 20
526.59588648769693
 30
0.0
 40
0.99237448
 50
179.55801999999801
 51
270.4419699999998
  0
ARC
  5
5114
  8
AM_0
 10
269.03860713026091
 20
630.18377648769695
 30
0.0
 40
1.500286
 50
192.32631000000171
 51
270.16416999999848
  0
ARC
  5
5115
  8
AM_0
 10
131.48849713026081
 20
619.23772648769705
 30
0.0
 40
5.0059714
 50
279.71098000000171
 51
354.67888000000482
  0
ARC
  5
5116
  8
AM_0
 10
131.95388713026071
 20
615.31097648769685
 30
0.0
 40
6.0044340999999992
 50
45.225578000001079
 51
86.380821999999384
  0
ARC
  5
5117
  8
AM_0
 10
135.4748871302609
 20
618.86419648769686
 30
0.0
 40
1.002184699999999
 50
354.8038600000034
 51
45.047306999998277
  0
ARC
  5
5118
  8
AM_0
 10
131.95260713026079
 20
539.98882648769688
 30
0.0
 40
6.0073843
 50
273.6297400000006
 51
314.76385000000192
  0
ARC
  5
5119
  8
AM_0
 10
131.49575713026081
 20
536.05498648769685
 30
0.0
 40
4.9991421999999961
 50
5.3780268999992682
 51
80.360064999999054
  0
ARC
  5
511A
  8
AM_0
 10
128.46975713026109
 20
517.97405648769677
 30
0.0
 40
2.0005671999999981
 50
193.3095900000024
 51
269.80430999999942
  0
ARC
  5
511B
  8
AM_0
 10
124.1461571302607
 20
521.04583648769676
 30
0.0
 40
1.497715799999999
 50
13.424378999996071
 51
90.122645000001114
  0
ARC
  5
511C
  8
AM_0
 10
124.1606171302609
 20
519.02520648769678
 30
0.0
 40
1.4982997
 50
14.229739999998021
 51
89.910950000001222
  0
ARC
  5
511D
  8
AM_0
 10
145.33297713026079
 20
517.78350648769685
 30
0.0
 40
2.0000371999999991
 50
180.0010599999959
 51
269.99892999999969
  0
ARC
  5
511E
  8
AM_0
 10
145.33383713026069
 20
515.75445648769676
 30
0.0
 40
2.0009109999999981
 50
180.00001000000091
 51
269.97390999999988
  0
ARC
  5
511F
  8
AM_0
 10
141.8309671302608
 20
523.16155648769677
 30
0.0
 40
1.501982699999999
 50
0.0755872020005832
 51
89.924413000001564
  0
ARC
  5
5120
  8
AM_0
 10
141.82980713026109
 20
517.88030648769677
 30
0.0
 40
1.503128599999999
 50
0.1191296500022061
 51
89.880869999998822
  0
ARC
  5
5121
  8
AM_0
 10
268.97653713026091
 20
529.79974648769689
 30
0.0
 40
1.4937901
 50
89.756423999998432
 51
165.1129200000008
  0
ARC
  5
5122
  8
AM_0
 10
144.32571713026081
 20
592.64349648769678
 30
0.0
 40
1.0000259
 50
89.587534000000232
 51
270.4124599999987
  0
ARC
  5
5123
  8
AM_0
 10
144.32571713026081
 20
602.64349648769701
 30
0.0
 40
1.0000259
 50
89.587534000000232
 51
270.4124599999987
  0
ARC
  5
5124
  8
AM_0
 10
144.32571713026081
 20
612.64349648769701
 30
0.0
 40
1.0000259
 50
89.587534000000232
 51
270.4124599999987
  0
ARC
  5
5125
  8
AM_0
 10
126.5946971302609
 20
582.65350648769697
 30
0.0
 40
1.2700266
 50
89.629327999999504
 51
270.37065999999959
  0
ARC
  5
5126
  8
AM_0
 10
126.65664713026101
 20
592.65850648769685
 30
0.0
 40
1.3350147999999991
 50
89.730435000000341
 51
270.2695700000001
  0
ARC
  5
5127
  8
AM_0
 10
135.78720713026081
 20
602.67352648769702
 30
0.0
 40
1.460011199999999
 50
89.775248000001227
 51
270.22474000000028
  0
ARC
  5
5128
  8
AM_0
 10
136.00290713026081
 20
612.69353648769686
 30
0.0
 40
1.6800002000000001
 50
90.000003000000945
 51
270.0
  0
ARC
  5
5129
  8
AM_0
 10
127.8829071302608
 20
582.64349648769701
 30
0.0
 40
1.0000056999999991
 50
90.000003000000945
 51
270.0
  0
ARC
  5
512A
  8
AM_0
 10
127.8829071302608
 20
592.64349648769678
 30
0.0
 40
1.0000056999999991
 50
90.000003000000945
 51
270.0
  0
ARC
  5
512B
  8
AM_0
 10
136.87576713026061
 20
612.64349648769701
 30
0.0
 40
1.0000255999999981
 50
89.589474000000749
 51
270.41051999999962
  0
ARC
  5
512C
  8
AM_0
 10
136.87576713026061
 20
602.64349648769701
 30
0.0
 40
1.0000255999999981
 50
89.589474000000749
 51
270.41051999999962
  0
ARC
  5
512D
  8
AM_0
 10
266.15292713026088
 20
612.69353648769686
 30
0.0
 40
1.6800077
 50
269.999989999999
 51
90.000003000000945
  0
ARC
  5
512E
  8
AM_0
 10
262.6728871302609
 20
612.64349648769701
 30
0.0
 40
1.0000040999999991
 50
269.999989999999
 51
90.000003000000945
  0
ARC
  5
512F
  8
AM_0
 10
262.6728871302609
 20
542.64349648769678
 30
0.0
 40
1.0000040999999991
 50
269.999989999999
 51
90.000003000000945
  0
ARC
  5
5130
  8
AM_0
 10
266.15292713026088
 20
542.60345648769692
 30
0.0
 40
1.6800077
 50
269.999989999999
 51
90.000003000000945
  0
ARC
  5
5131
  8
AM_0
 10
127.8829071302608
 20
572.64349648769701
 30
0.0
 40
1.0000056999999991
 50
90.000003000000945
 51
270.0
  0
ARC
  5
5132
  8
AM_0
 10
144.32571713026081
 20
562.64349648769689
 30
0.0
 40
1.0000259
 50
89.587534000000232
 51
270.4124599999987
  0
ARC
  5
5133
  8
AM_0
 10
144.32571713026081
 20
552.64349648769678
 30
0.0
 40
1.0000259
 50
89.587534000000232
 51
270.4124599999987
  0
ARC
  5
5134
  8
AM_0
 10
126.65664713026101
 20
562.63348648769693
 30
0.0
 40
1.3300148000000001
 50
89.729417999999583
 51
270.27058999999991
  0
ARC
  5
5135
  8
AM_0
 10
144.32571713026081
 20
572.64349648769701
 30
0.0
 40
1.0000259
 50
89.587534000000232
 51
270.4124599999987
  0
ARC
  5
5136
  8
AM_0
 10
144.32571713026081
 20
542.64349648769678
 30
0.0
 40
1.0000259
 50
89.587534000000232
 51
270.4124599999987
  0
ARC
  5
5137
  8
AM_0
 10
126.5946971302609
 20
572.64349648769701
 30
0.0
 40
1.2700266
 50
89.629320999999507
 51
270.3706899999986
  0
ARC
  5
5138
  8
AM_0
 10
127.8829071302608
 20
562.64349648769689
 30
0.0
 40
1.0000056999999991
 50
90.000003000000945
 51
270.0
  0
ARC
  5
5139
  8
AM_0
 10
132.06607713026079
 20
624.90350648769675
 30
0.0
 40
1.5
 50
280.24789000000129
 51
349.76261999999917
  0
ARC
  5
513A
  8
AM_0
 10
132.06607713026079
 20
530.38348648769693
 30
0.0
 40
1.5
 50
10.237378999998541
 51
79.752109999998723
  0
ARC
  5
513B
  8
AM_0
 10
136.29239713026081
 20
526.64873648769708
 30
0.0
 40
1.9952742999999991
 50
189.9647800000009
 51
269.85141999999991
  0
ARC
  5
513C
  8
AM_0
 10
131.8497671302608
 20
525.10113648769675
 30
0.0
 40
1.502416299999999
 50
12.391887000000411
 51
90.098616999999123
  0
ARC
  5
513D
  8
AM_0
 10
136.23025713026081
 20
521.37054648769686
 30
0.0
 40
1.997119399999999
 50
192.0552400000017
 51
270.1986299999989
  0
ARC
  5
513E
  8
AM_0
 10
136.00290713026081
 20
542.59344648769695
 30
0.0
 40
1.6800002000000001
 50
90.000003000000945
 51
270.0
  0
ARC
  5
513F
  8
AM_0
 10
136.87576713026061
 20
542.64349648769678
 30
0.0
 40
1.0000255999999981
 50
89.589474000000749
 51
270.41051999999962
  0
ARC
  5
5140
  8
AM_0
 10
136.87576713026061
 20
552.64349648769678
 30
0.0
 40
1.0000255999999981
 50
89.589474000000749
 51
270.41051999999962
  0
ARC
  5
5141
  8
AM_0
 10
135.78720713026081
 20
552.61346648769688
 30
0.0
 40
1.460011199999999
 50
89.775248000001227
 51
270.22474000000028
  0
ARC
  5
5142
  8
AM_0
 10
186.65927713026079
 20
512.25347648769684
 30
0.0
 40
1.5
 50
1.5000027000022329
 51
90.000003000000945
  0
ARC
  5
5143
  8
AM_0
 10
261.34909713026087
 20
509.14349648769678
 30
0.0
 40
1.5
 50
269.999989999999
 51
326.99999999999892
  0
ARC
  5
5144
  8
AM_0
 10
249.84652713026099
 20
506.14349648769678
 30
0.0
 40
1.5
 50
90.000003000000945
 51
178.4999999999973
  0
ARC
  5
5145
  8
AM_0
 10
263.85287713026088
 20
640.03350648769685
 30
0.0
 40
1.5
 50
12.12979199999535
 51
90.000003000000945
  0
ARC
  5
5146
  8
AM_0
 10
263.56057713026092
 20
641.39349648769701
 30
0.0
 40
1.5
 50
12.12979199999535
 51
90.000003000000945
  0
ARC
  5
5147
  8
AM_0
 10
263.41653713026079
 20
642.06353648769698
 30
0.0
 40
1.5
 50
12.12979199999535
 51
90.000003000000945
  0
ARC
  5
5148
  8
AM_0
 10
266.37289713026092
 20
552.61346648769688
 30
0.0
 40
1.460011199999999
 50
269.77524999999991
 51
90.224750000000085
  0
ARC
  5
5149
  8
AM_0
 10
262.6728871302609
 20
552.64349648769678
 30
0.0
 40
1.0000255999999981
 50
269.58947000000001
 51
90.410531000001029
  0
ARC
  5
514A
  8
AM_0
 10
266.37289713026092
 20
602.67352648769702
 30
0.0
 40
1.460011199999999
 50
269.77524999999991
 51
90.224750000000085
  0
ARC
  5
514B
  8
AM_0
 10
262.6728871302609
 20
602.64349648769701
 30
0.0
 40
1.0000255999999981
 50
269.58947000000001
 51
90.410531000001029
  0
ARC
  5
514C
  8
AM_0
 10
198.99789713026081
 20
592.65850648769685
 30
0.0
 40
1.3350147999999991
 50
269.7304299999999
 51
90.269556000001344
  0
ARC
  5
514D
  8
AM_0
 10
197.77163713026101
 20
592.64349648769678
 30
0.0
 40
1.0000056999999991
 50
269.999989999999
 51
90.000003000000945
  0
ARC
  5
514E
  8
AM_0
 10
197.77163713026101
 20
582.64349648769701
 30
0.0
 40
1.0000056999999991
 50
269.999989999999
 51
90.000003000000945
  0
ARC
  5
514F
  8
AM_0
 10
199.05984713026089
 20
582.65350648769697
 30
0.0
 40
1.2700266
 50
269.62931999999989
 51
90.370670000001468
  0
ARC
  5
5150
  8
AM_0
 10
197.77163713026101
 20
572.64349648769701
 30
0.0
 40
1.0000056999999991
 50
269.999989999999
 51
90.000003000000945
  0
ARC
  5
5151
  8
AM_0
 10
199.05984713026089
 20
572.64349648769701
 30
0.0
 40
1.2700266
 50
269.62931999999989
 51
90.370670000001468
  0
ARC
  5
5152
  8
AM_0
 10
197.77163713026101
 20
562.64349648769689
 30
0.0
 40
1.0000056999999991
 50
269.999989999999
 51
90.000003000000945
  0
ARC
  5
5153
  8
AM_0
 10
198.99789713026081
 20
562.63348648769693
 30
0.0
 40
1.3300148000000001
 50
269.7294199999987
 51
90.270567000000995
  0
ARC
  5
5154
  8
AM_0
 10
248.3329171302608
 20
550.14349648769689
 30
0.0
 40
1.5
 50
90.000003000000945
 51
180.00001000000091
  0
ARC
  5
5155
  8
AM_0
 10
248.3329171302608
 20
545.14349648769689
 30
0.0
 40
1.5
 50
179.999989999999
 51
270.0
  0
ARC
  5
5156
  8
AM_0
 10
230.3329171302608
 20
550.14349648769689
 30
0.0
 40
1.5
 50
0.0
 51
90.000003000000945
  0
ARC
  5
5157
  8
AM_0
 10
230.3329171302608
 20
545.14349648769689
 30
0.0
 40
1.5
 50
269.999989999999
 51
0.0000006832495047
  0
ARC
  5
5158
  8
AM_0
 10
248.3329171302608
 20
550.14349648769689
 30
0.0
 40
1.02
 50
90.000003000000945
 51
180.00001000000091
  0
ARC
  5
5159
  8
AM_0
 10
230.3329171302608
 20
550.14349648769689
 30
0.0
 40
1.02
 50
0.0
 51
90.000003000000945
  0
ARC
  5
515A
  8
AM_0
 10
230.35287713026091
 20
545.28350648769685
 30
0.0
 40
1.0
 50
269.999989999999
 51
0.0000006832495047
  0
ARC
  5
515B
  8
AM_0
 10
248.31289713026089
 20
545.28350648769685
 30
0.0
 40
1.0
 50
179.999989999999
 51
270.0
  0
CIRCLE
  5
515C
  8
AM_0
 10
236.8329171302608
 20
549.14349648769689
 30
0.0
 40
1.1000000000000001
  0
CIRCLE
  5
515D
  8
AM_0
 10
236.8329171302608
 20
549.14349648769689
 30
0.0
 40
1.149999999999999
  0
CIRCLE
  5
515E
  8
AM_0
 10
241.8329171302608
 20
549.14349648769689
 30
0.0
 40
1.0
  0
ARC
  5
515F
  8
AM_0
 10
248.3329171302608
 20
605.14349648769678
 30
0.0
 40
1.5
 50
179.999989999999
 51
270.0
  0
ARC
  5
5160
  8
AM_0
 10
248.3329171302608
 20
610.14349648769701
 30
0.0
 40
1.5
 50
90.000003000000945
 51
180.00001000000091
  0
ARC
  5
5161
  8
AM_0
 10
230.3329171302608
 20
605.14349648769678
 30
0.0
 40
1.5
 50
269.999989999999
 51
0.0000006832495047
  0
ARC
  5
5162
  8
AM_0
 10
230.3329171302608
 20
610.14349648769701
 30
0.0
 40
1.5
 50
0.0
 51
90.000003000000945
  0
ARC
  5
5163
  8
AM_0
 10
248.3329171302608
 20
605.14349648769678
 30
0.0
 40
1.02
 50
179.999989999999
 51
270.0
  0
ARC
  5
5164
  8
AM_0
 10
230.3329171302608
 20
605.14349648769678
 30
0.0
 40
1.02
 50
269.999989999999
 51
0.0000006832429909
  0
ARC
  5
5165
  8
AM_0
 10
230.35287713026091
 20
610.00347648769673
 30
0.0
 40
1.0
 50
0.0
 51
90.000003000000945
  0
ARC
  5
5166
  8
AM_0
 10
248.31289713026089
 20
610.00347648769673
 30
0.0
 40
1.0
 50
90.000003000000945
 51
180.00001000000091
  0
CIRCLE
  5
5167
  8
AM_0
 10
241.8329171302608
 20
606.14349648769701
 30
0.0
 40
1.0
  0
CIRCLE
  5
5168
  8
AM_0
 10
236.8329171302608
 20
606.14349648769701
 30
0.0
 40
1.149999999999999
  0
CIRCLE
  5
5169
  8
AM_0
 10
236.8329171302608
 20
606.14349648769701
 30
0.0
 40
1.1000000000000001
  0
ARC
  5
516A
  8
AM_0
 10
128.0335471302609
 20
517.97344648769695
 30
0.0
 40
2.0
 50
194.15074999999919
 51
269.999989999999
  0
ARC
  5
516B
  8
AM_0
 10
142.07565713026119
 20
514.47344648769695
 30
0.0
 40
1.5
 50
21.46170899999715
 51
90.000003000000945
  0
LINE
  5
516C
  8
ﾁｭｳｼﾝｾﾝ1
 10
358.33288713026087
 20
642.64349648769678
 30
0.0
 11
378.33288713026087
 21
642.64349648769678
 31
0.0
  0
LINE
  5
516D
  8
ﾁｭｳｼﾝｾﾝ1
 10
368.33288713026087
 20
652.64349648769689
 30
0.0
 11
368.33288713026087
 21
632.64349648769689
 31
0.0
  0
LINE
  5
516F
  8
AM_0
 10
248.3590669793017
 20
503.64349648769712
 30
0.0
 11
248.6769929329958
 21
515.78350648769685
 31
0.0
  0
LINE
  5
5170
  8
AM_0
 10
188.30663498406091
 20
503.64349648769712
 30
0.0
 11
187.9887930026305
 21
515.78350648769685
 31
0.0
  0
LINE
  5
5171
  8
AM_0
 10
184.83287713026101
 20
501.64349648769678
 30
0.0
 11
251.83287713026121
 21
501.64349648769678
 31
0.0
  0
LINE
  5
5172
  8
AM_0
 10
184.83287713026101
 20
500.64349648769689
 30
0.0
 11
184.83287713026101
 21
501.64349648769678
 31
0.0
  0
LINE
  5
5173
  8
AM_0
 10
251.83287713026121
 20
500.64349648769689
 30
0.0
 11
251.83287713026121
 21
501.64349648769678
 31
0.0
  0
LINE
  5
5174
  8
AM_0
 10
170.33287713026101
 20
462.64349648769689
 30
0.0
 11
171.5924622665234
 21
498.71329548110191
 31
0.0
  0
LINE
  5
5175
  8
AM_0
 10
173.59124392056171
 20
500.64349648769689
 30
0.0
 11
263.0745103399608
 21
500.64349648769689
 31
0.0
  0
ARC
  5
5176
  8
AM_0
 10
173.59124392056171
 20
498.64349648769689
 30
0.0
 40
2.0
 50
90.0
 51
178.0000000000029
1001
GENIUS_GENODEF_13
1002
{
1000
HIER
1070
     0
1002
}
1002
{
1000
MANEDIT
1070
     0
1002
}
1002
{
1000
NOSEL
1070
     0
1002
}
1002
{
1000
BEHIND
1070
     0
1002
}
1002
{
1000
OTHER
1070
     0
1002
}
1002
{
1000
REACTOR
1002
}
1001
GENIUS_GENOBJ-N-FIL_13
1002
{
1000
OWNER
1000
GEN
1002
}
  0
LINE
  5
5177
  8
AM_0
 10
265.07329199399902
 20
498.71329548110191
 30
0.0
 11
266.33287713026129
 21
462.64349648769689
 31
0.0
  0
ARC
  5
5178
  8
AM_0
 10
263.0745103399608
 20
498.64349648769689
 30
0.0
 40
2.0
 50
1.9999999999971021
 51
90.0
1001
GENIUS_GENOBJ-N-FIL_13
1002
{
1000
OWNER
1000
GEN
1002
}
1001
GENIUS_GENODEF_13
1002
{
1000
HIER
1070
     0
1002
}
1002
{
1000
MANEDIT
1070
     0
1002
}
1002
{
1000
NOSEL
1070
     0
1002
}
1002
{
1000
BEHIND
1070
     0
1002
}
1002
{
1000
OTHER
1070
     0
1002
}
1002
{
1000
REACTOR
1002
}
  0
LINE
  5
5179
  8
AM_0
 10
266.33287713026129
 20
462.64349648769689
 30
0.0
 11
170.33287713026081
 21
462.64349648769689
 31
0.0
  0
LINE
  5
517A
  8
AM_0
 10
170.43763943873631
 20
465.64349648769678
 30
0.0
 11
169.33287713026101
 21
465.64349648769678
 31
0.0
  0
LINE
  5
517B
  8
AM_0
 10
171.55510406247231
 20
497.64349648769678
 30
0.0
 11
169.33287713026101
 21
497.64349648769678
 31
0.0
  0
LINE
  5
517C
  8
ﾁｭｳｼﾝｾﾝ1
 10
175.33287713026169
 20
452.37878898769691
 30
0.0
 11
175.33287713026181
 21
465.37878898769679
 31
0.0
  0
LINE
  5
517D
  8
ﾁｭｳｼﾝｾﾝ
 10
218.3328771302611
 20
507.93552716092597
 30
0.0
 11
218.3328771302611
 21
450.19297384688753
 31
0.0
  0
LINE
  5
517E
  8
AM_0
 10
166.83287713026101
 20
468.14349648769678
 30
0.0
 11
169.33287713026101
 21
468.14349648769661
 31
0.0
  0
LINE
  5
517F
  8
AM_0
 10
169.33287713026101
 20
495.1434964876965
 30
0.0
 11
166.83287713026101
 21
495.14349648769678
 31
0.0
  0
LINE
  5
5180
  8
AM_0
 10
155.93420603391519
 20
492.14349648769678
 30
0.0
 11
155.93420603391519
 21
471.14349648769678
 31
0.0
  0
LINE
  5
5181
  8
AM_0
 10
140.93420603391519
 20
473.61187143368159
 30
0.0
 11
140.93420603391519
 21
489.6751215417126
 31
0.0
  0
LINE
  5
5182
  8
AM_0
 10
153.93420603391519
 20
493.64349648769678
 30
0.0
 11
153.93420603391519
 21
469.64349648769678
 31
0.0
  0
LINE
  5
5183
  8
AM_0
 10
144.43420603391519
 20
481.64349648769678
 30
0.0
 11
144.93420603391519
 21
482.14349648769678
 31
0.0
  0
LINE
  5
5184
  8
AM_0
 10
151.43420603391519
 20
469.94349648769668
 30
0.0
 11
151.43420603391519
 21
493.34349648769648
 31
0.0
  0
LINE
  5
5185
  8
AM_0
 10
161.3328771302611
 20
470.14349648769678
 30
0.0
 11
161.3328771302611
 21
493.14349648769678
 31
0.0
  0
LINE
  5
5186
  8
AM_0
 10
155.43420603391519
 20
482.34349648769859
 30
0.0
 11
155.43420603391519
 21
480.94349648769548
 31
0.0
  0
LINE
  5
5187
  8
AM_0
 10
157.53384176048601
 20
490.74349648769669
 30
0.0
 11
156.78384176048709
 21
472.54349648769647
 31
0.0
  0
LINE
  5
5188
  8
AM_0
 10
156.58287713026101
 20
490.74349648769669
 30
0.0
 11
155.93420603391519
 21
475.00241121638061
 31
0.0
  0
LINE
  5
5189
  8
AM_0
 10
157.3315697208331
 20
491.45915520006082
 30
0.0
 11
156.5843096774251
 21
471.83112472652971
 31
0.0
  0
LINE
  5
518A
  8
AM_0
 10
156.78240921332301
 20
491.45586824886459
 30
0.0
 11
156.03384176048709
 21
471.7934964876967
 31
0.0
  0
LINE
  5
518B
  8
AM_0
 10
153.93420603391519
 20
469.64349648769678
 30
0.0
 11
151.73420603391509
 21
469.64349648769678
 31
0.0
  0
ARC
  5
518C
  8
AM_0
 10
165.83287713026121
 20
469.14349648769678
 30
0.0
 40
0.5
 50
0.0
 51
90.000000000013017
  0
ARC
  5
518D
  8
AM_0
 10
166.8328771302611
 20
468.64349648769678
 30
0.0
 40
0.5
 50
180.0
 51
270.0
  0
LINE
  5
518E
  8
AM_0
 10
166.3328771302611
 20
469.14349648769678
 30
0.0
 11
166.3328771302611
 21
468.64349648769678
 31
0.0
  0
LINE
  5
518F
  8
AM_0
 10
157.33287713026101
 20
472.54349648769647
 30
0.0
 11
160.83287713026101
 21
472.54349648769647
 31
0.0
  0
LINE
  5
5190
  8
AM_0
 10
166.3328771302611
 20
470.78742516628972
 30
0.0
 11
166.3328771302611
 21
480.49956780910469
 31
0.0
  0
LINE
  5
5191
  8
AM_0
 10
161.83287713026101
 20
469.64349648769678
 30
0.0
 11
165.83287713026101
 21
469.64349648769678
 31
0.0
  0
LINE
  5
5192
  8
AM_0
 10
165.83287713026101
 20
470.28742516628972
 30
0.0
 11
161.3328771302611
 21
470.28742516628972
 31
0.0
  0
ARC
  5
5193
  8
AM_0
 10
165.83287713026121
 20
470.78742516628972
 30
0.0
 40
0.5
 50
270.0
 51
0.0
  0
ARC
  5
5194
  8
AM_0
 10
160.83287713026101
 20
472.04349648769681
 30
0.0
 40
0.5
 50
0.0
 51
90.0
  0
ARC
  5
5195
  8
AM_0
 10
161.83287713026101
 20
470.14349648769678
 30
0.0
 40
0.5
 50
180.0
 51
270.0
  0
LINE
  5
5196
  8
AM_0
 10
165.83287713026101
 20
480.99956780910469
 30
0.0
 11
161.3328771302611
 21
480.99956780910469
 31
0.0
  0
ARC
  5
5197
  8
AM_0
 10
165.83287713026101
 20
480.4995678091048
 30
0.0
 40
0.5
 50
0.0
 51
90.0
  0
LINE
  5
5198
  8
AM_0
 10
155.43420603391519
 20
475.49832573540448
 30
0.0
 11
155.43420603391519
 21
476.67056892183763
 31
0.0
  0
LINE
  5
5199
  8
AM_0
 10
156.8605741889121
 20
472.54349648769647
 30
0.0
 11
157.33287713026101
 21
472.54349648769647
 31
0.0
  0
LINE
  5
519A
  8
AM_0
 10
156.76398169437289
 20
472.46937872095992
 30
0.0
 11
156.78384176048709
 21
472.54349648769647
 31
0.0
  0
ARC
  5
519B
  8
AM_0
 10
156.8605741889121
 20
472.4434964876969
 30
0.0
 40
0.1000000000000346
 50
90.0
 51
164.99980499355539
  0
ARC
  5
519C
  8
AM_0
 10
155.13420603391509
 20
472.35666350718878
 30
0.0
 40
0.3000000000000043
 50
0.0
 51
90.0
  0
LINE
  5
519D
  8
AM_0
 10
153.93420603391519
 20
470.24349648769669
 30
0.0
 11
155.15416173707209
 21
470.3248268679078
 31
0.0
  0
LINE
  5
519E
  8
AM_0
 10
153.93420603391519
 20
471.39974852353669
 30
0.0
 11
155.13420603391501
 21
471.39974852353669
 31
0.0
  0
LINE
  5
519F
  8
AM_0
 10
155.43420603391519
 20
470.64349648769678
 30
0.0
 11
153.93420603391519
 21
470.64349648769678
 31
0.0
  0
ARC
  5
51A0
  8
AM_0
 10
155.43420603391519
 20
471.14349648769678
 30
0.0
 40
0.5
 50
270.0
 51
0.0
  0
LINE
  5
51A1
  8
AM_0
 10
155.43420603391519
 20
470.62416241526478
 30
0.0
 11
155.43420603391519
 21
470.64349648769678
 31
0.0
  0
LINE
  5
51A2
  8
AM_0
 10
155.43420603391519
 20
470.34349648769683
 30
0.0
 11
155.43420603391519
 21
470.62416241526478
 31
0.0
  0
LINE
  5
51A3
  8
AM_0
 10
155.15416173707209
 20
470.3248268679078
 30
0.0
 11
155.43420603391519
 21
470.34349648769683
 31
0.0
  0
ARC
  5
51A4
  8
AM_0
 10
155.13420603391509
 20
470.62416241526478
 30
0.0
 40
0.3000000000000007
 50
273.81407483428171
 51
0.0
  0
LINE
  5
51A5
  8
AM_0
 10
156.50614470183609
 20
471.7934964876967
 30
0.0
 11
156.58287713026189
 21
471.7934964876967
 31
0.0
  0
LINE
  5
51A6
  8
AM_0
 10
156.58287713026189
 20
471.7934964876967
 30
0.0
 11
156.60273719637499
 21
471.86761425443308
 31
0.0
  0
LINE
  5
51A7
  8
AM_0
 10
156.01398169437289
 20
471.86761425443308
 30
0.0
 11
156.03384176048709
 21
471.7934964876967
 31
0.0
  0
LINE
  5
51A8
  8
AM_0
 10
156.03384176048709
 20
471.7934964876967
 30
0.0
 11
156.1105741889121
 21
471.7934964876967
 31
0.0
  0
LINE
  5
51A9
  8
AM_0
 10
156.60273719637499
 20
471.86761425443308
 30
0.0
 11
156.76398169437289
 21
472.46937872095992
 31
0.0
  0
LINE
  5
51AA
  8
AM_0
 10
156.1105741889121
 20
471.7934964876967
 30
0.0
 11
156.50614470183609
 21
471.7934964876967
 31
0.0
  0
LINE
  5
51AB
  8
AM_0
 10
155.9342060339161
 20
472.16533701925761
 30
0.0
 11
156.01398169437289
 21
471.86761425443308
 31
0.0
  0
ARC
  5
51AC
  8
AM_0
 10
156.50614470183609
 20
471.89349648769678
 30
0.0
 40
0.0999999999999866
 50
270.0
 51
344.99980499343371
  0
ARC
  5
51AD
  8
AM_0
 10
156.1105741889121
 20
471.89349648769678
 30
0.0
 40
0.1000000000000014
 50
195.00019500656629
 51
270.0
  0
LINE
  5
51AE
  8
AM_0
 10
155.43420603391519
 20
471.69974852353653
 30
0.0
 11
155.43420603391519
 21
472.35666350718878
 31
0.0
  0
ARC
  5
51AF
  8
AM_0
 10
155.13420603391509
 20
471.69974852353693
 30
0.0
 40
0.3000000000000007
 50
270.0
 51
0.0
  0
LINE
  5
51B0
  8
AM_0
 10
153.93420603391519
 20
475.19832573540469
 30
0.0
 11
155.13420603391501
 21
475.19832573540469
 31
0.0
  0
LINE
  5
51B1
  8
AM_0
 10
155.13420603391501
 20
472.65666350718868
 30
0.0
 11
153.93420603391519
 21
472.65666350718868
 31
0.0
  0
LINE
  5
51B2
  8
AM_0
 10
156.78384176048709
 20
472.54349648769647
 30
0.0
 11
156.8605741889121
 21
472.54349648769647
 31
0.0
  0
ARC
  5
51B3
  8
AM_0
 10
155.13420603391509
 20
475.49832573540482
 30
0.0
 40
0.3000000000000007
 50
270.0
 51
0.0
  0
LINE
  5
51B4
  8
AM_0
 10
155.13420603391501
 20
476.9705689218377
 30
0.0
 11
153.93420603391519
 21
476.9705689218377
 31
0.0
  0
ARC
  5
51B5
  8
AM_0
 10
155.13420603391509
 20
476.6705689218378
 30
0.0
 40
0.3000000000000043
 50
0.0
 51
90.0
  0
LINE
  5
51B6
  8
AM_0
 10
155.13420603391501
 20
480.6434964876957
 30
0.0
 11
153.93420603391519
 21
480.6434964876957
 31
0.0
  0
ARC
  5
51B7
  8
AM_0
 10
155.13420603391509
 20
480.94349648769588
 30
0.0
 40
0.3000000000000007
 50
270.0
 51
0.0
  0
LINE
  5
51B8
  8
AM_0
 10
144.93420603391519
 20
471.51021665904949
 30
0.0
 11
151.43420603391519
 21
471.51021665904949
 31
0.0
  0
LINE
  5
51B9
  8
AM_0
 10
144.93420603391519
 20
471.0102166590496
 30
0.0
 11
151.43420603391519
 21
471.0102166590496
 31
0.0
  0
LINE
  5
51BA
  8
AM_0
 10
151.43420603391519
 20
481.14349648769678
 30
0.0
 11
144.93420603391519
 21
481.14349648769678
 31
0.0
  0
LINE
  5
51BB
  8
AM_0
 10
144.43420603391519
 20
480.64349648769678
 30
0.0
 11
151.43420603391519
 21
480.64349648769678
 31
0.0
  0
LINE
  5
51BC
  8
AM_0
 10
151.13420603391501
 20
470.64349648769678
 30
0.0
 11
144.29625596909699
 21
470.64349648769678
 31
0.0
  0
LINE
  5
51BD
  8
AM_0
 10
151.43420603391519
 20
480.29680841915558
 30
0.0
 11
144.93420603391519
 21
480.29680841915558
 31
0.0
  0
LINE
  5
51BE
  8
AM_0
 10
151.43420603391519
 20
471.99018455623758
 30
0.0
 11
144.93420603391519
 21
471.99018455623758
 31
0.0
  0
ARC
  5
51BF
  8
AM_0
 10
151.73420603391509
 20
469.94349648769668
 30
0.0
 40
0.2999999999999971
 50
180.0
 51
270.0
  0
ARC
  5
51C0
  8
AM_0
 10
151.13420603391509
 20
470.34349648769683
 30
0.0
 40
0.2999999999999971
 50
0.0
 51
90.0
  0
ARC
  5
51C1
  8
AM_0
 10
153.05920603391519
 20
476.14349648769678
 30
0.0
 40
9.124999999999984
 50
152.92493329271929
 51
207.07506670728071
  0
LINE
  5
51C2
  8
AM_0
 10
143.65607156943261
 20
470.87527520809908
 30
0.0
 11
141.29402163425061
 21
472.84365015408417
 31
0.0
  0
LINE
  5
51C3
  8
AM_0
 10
144.43420603391519
 20
471.22192907120478
 30
0.0
 11
144.93420603391519
 21
470.64349648769678
 31
0.0
  0
ARC
  5
51C4
  8
AM_0
 10
144.29625596909699
 20
471.64349648769678
 30
0.0
 40
1.0
 50
230.19442890774391
 51
270.0
  0
LINE
  5
51C5
  8
AM_0
 10
144.93420603391519
 20
471.0102166590496
 30
0.0
 11
144.43420603391519
 21
471.22192907120478
 31
0.0
  0
LINE
  5
51C6
  8
AM_0
 10
144.43420603391519
 20
471.68420434417573
 30
0.0
 11
144.93420603391519
 21
471.0102166590496
 31
0.0
  0
LINE
  5
51C7
  8
AM_0
 10
144.93420603391519
 20
471.51021665904949
 30
0.0
 11
144.43420603391519
 21
471.68420434417573
 31
0.0
  0
LINE
  5
51C8
  8
AM_0
 10
144.43420603391519
 20
472.22192907120478
 30
0.0
 11
144.93420603391519
 21
471.51021665904949
 31
0.0
  0
LINE
  5
51C9
  8
AM_0
 10
144.93420603391519
 20
471.99018455623758
 30
0.0
 11
144.43420603391519
 21
472.22192907120478
 31
0.0
  0
ARC
  5
51CA
  8
AM_0
 10
141.93420603391519
 20
473.6118714336817
 30
0.0
 40
1.0000000000000291
 50
180.0
 51
230.19442890773479
  0
LINE
  5
51CB
  8
AM_0
 10
144.93420603391519
 20
481.14349648769678
 30
0.0
 11
144.43420603391519
 21
481.64349648769678
 31
0.0
  0
LINE
  5
51CC
  8
AM_0
 10
144.43420603391519
 20
480.64349648769678
 30
0.0
 11
144.93420603391519
 21
481.14349648769678
 31
0.0
  0
LINE
  5
51CD
  8
AM_0
 10
144.93420603391519
 20
480.29680841915558
 30
0.0
 11
144.43420603391519
 21
480.64349648769678
 31
0.0
  0
LINE
  5
51CE
  8
AM_0
 10
151.73420603391509
 20
493.64349648769678
 30
0.0
 11
153.93420603391519
 21
493.64349648769678
 31
0.0
  0
ARC
  5
51CF
  8
AM_0
 10
165.83287713026101
 20
494.14349648769678
 30
0.0
 40
0.5
 50
269.99999999998693
 51
0.0
  0
LINE
  5
51D0
  8
AM_0
 10
160.83287713026101
 20
490.74349648769669
 30
0.0
 11
157.6105741889121
 21
490.74349648769669
 31
0.0
  0
LINE
  5
51D1
  8
AM_0
 10
166.3328771302611
 20
482.78742516628972
 30
0.0
 11
166.3328771302611
 21
492.49956780910492
 31
0.0
  0
LINE
  5
51D2
  8
AM_0
 10
161.3328771302611
 20
482.28742516628978
 30
0.0
 11
165.83287713026101
 21
482.28742516628978
 31
0.0
  0
ARC
  5
51D3
  8
AM_0
 10
165.83287713026101
 20
482.78742516628972
 30
0.0
 40
0.5
 50
270.0
 51
0.0
  0
LINE
  5
51D4
  8
AM_0
 10
161.3328771302611
 20
492.9995678091048
 30
0.0
 11
165.83287713026101
 21
492.9995678091048
 31
0.0
  0
LINE
  5
51D5
  8
AM_0
 10
165.83287713026101
 20
493.64349648769678
 30
0.0
 11
161.83287713026101
 21
493.64349648769678
 31
0.0
  0
ARC
  5
51D6
  8
AM_0
 10
165.83287713026101
 20
492.49956780910492
 30
0.0
 40
0.5
 50
0.0
 51
90.0
  0
ARC
  5
51D7
  8
AM_0
 10
160.83287713026101
 20
491.24349648769669
 30
0.0
 40
0.5
 50
270.0
 51
0.0
  0
ARC
  5
51D8
  8
AM_0
 10
161.83287713026101
 20
493.14349648769678
 30
0.0
 40
0.5
 50
90.0
 51
180.0
  0
ARC
  5
51D9
  8
AM_0
 10
155.13420603391509
 20
487.78866723998868
 30
0.0
 40
0.3000000000000114
 50
0.0
 51
90.0
  0
LINE
  5
51DA
  8
AM_0
 10
153.93420603391519
 20
482.64349648769871
 30
0.0
 11
155.13420603391501
 21
482.64349648769871
 31
0.0
  0
ARC
  5
51DB
  8
AM_0
 10
155.13420603391509
 20
482.34349648769881
 30
0.0
 40
0.2999999999999971
 50
0.0
 51
90.0
  0
LINE
  5
51DC
  8
AM_0
 10
153.93420603391519
 20
486.31642405355558
 30
0.0
 11
155.13420603391501
 21
486.31642405355558
 31
0.0
  0
ARC
  5
51DD
  8
AM_0
 10
155.13420603391509
 20
486.61642405355582
 30
0.0
 40
0.3000000000000007
 50
270.0
 51
0.0
  0
LINE
  5
51DE
  8
AM_0
 10
155.43420603391519
 20
486.61642405355582
 30
0.0
 11
155.43420603391519
 21
487.78866723998868
 31
0.0
  0
LINE
  5
51DF
  8
AM_0
 10
156.8605741889121
 20
491.49349648769669
 30
0.0
 11
157.25614470183609
 21
491.49349648769669
 31
0.0
  0
LINE
  5
51E0
  8
AM_0
 10
156.8605741889121
 20
491.49349648769669
 30
0.0
 11
157.25614470183609
 21
491.49349648769669
 31
0.0
  0
LINE
  5
51E1
  8
AM_0
 10
157.35273719637499
 20
491.41937872096031
 30
0.0
 11
157.51398169437289
 21
490.81761425443312
 31
0.0
  0
LINE
  5
51E2
  8
AM_0
 10
157.35273719637499
 20
491.41937872096031
 30
0.0
 11
157.51398169437289
 21
490.81761425443312
 31
0.0
  0
ARC
  5
51E3
  8
AM_0
 10
157.6105741889121
 20
490.84349648769683
 30
0.0
 40
0.0999999999999943
 50
195.00019500651879
 51
270.0
  0
ARC
  5
51E4
  8
AM_0
 10
157.25614470183609
 20
491.39349648769678
 30
0.0
 40
0.0999999999999943
 50
15.000195006505431
 51
90.0
  0
LINE
  5
51E5
  8
AM_0
 10
155.93335944537401
 20
491.1184964876968
 30
0.0
 11
156.01398169437289
 21
490.81761425443312
 31
0.0
  0
LINE
  5
51E6
  8
AM_0
 10
156.585587782467
 20
490.78276102079479
 30
0.0
 11
156.76398169437289
 21
491.41937872096031
 31
0.0
  0
LINE
  5
51E7
  8
AM_0
 10
156.60273719637499
 20
490.81761425443312
 30
0.0
 11
156.76398169437289
 21
491.41937872096031
 31
0.0
  0
LINE
  5
51E8
  8
AM_0
 10
155.43420603391519
 20
490.93032946820568
 30
0.0
 11
155.43420603391519
 21
491.58724445185669
 31
0.0
  0
LINE
  5
51E9
  8
AM_0
 10
155.93420603391519
 20
491.1153370192585
 30
0.0
 11
156.01398169437289
 21
490.81761425443312
 31
0.0
  0
LINE
  5
51EA
  8
AM_0
 10
153.93420603391519
 20
490.63032946820567
 30
0.0
 11
155.13420603391501
 21
490.63032946820567
 31
0.0
  0
LINE
  5
51EB
  8
AM_0
 10
155.13420603391501
 20
488.08866723998881
 30
0.0
 11
153.93420603391519
 21
488.0886672399896
 31
0.0
  0
LINE
  5
51EC
  8
AM_0
 10
156.53877696735111
 20
490.74349648769669
 30
0.0
 11
156.585587782467
 21
490.78276102079479
 31
0.0
  0
LINE
  5
51ED
  8
AM_0
 10
156.1105741889121
 20
490.74349648769669
 30
0.0
 11
156.53877696735111
 21
490.74349648769669
 31
0.0
  0
LINE
  5
51EE
  8
AM_0
 10
156.1105741889121
 20
490.74349648769669
 30
0.0
 11
156.50614470183609
 21
490.74349648769669
 31
0.0
  0
ARC
  5
51EF
  8
AM_0
 10
156.1105741889121
 20
490.84349648769683
 30
0.0
 40
0.0999999999999943
 50
195.00019500651879
 51
270.0
  0
ARC
  5
51F0
  8
AM_0
 10
156.50614470183609
 20
490.84349648769683
 30
0.0
 40
0.0999999999999608
 50
270.0
 51
344.99980499348112
  0
ARC
  5
51F1
  8
AM_0
 10
155.13420603391509
 20
490.93032946820568
 30
0.0
 40
0.3000000000000007
 50
270.0
 51
0.0
  0
LINE
  5
51F2
  8
AM_0
 10
153.93420603391519
 20
492.64349648769678
 30
0.0
 11
155.43420603391519
 21
492.64349648769678
 31
0.0
  0
LINE
  5
51F3
  8
AM_0
 10
155.13420603391501
 20
491.8872444518567
 30
0.0
 11
153.93420603391519
 21
491.8872444518567
 31
0.0
  0
LINE
  5
51F4
  8
AM_0
 10
155.15416173707209
 20
492.96216610748672
 30
0.0
 11
153.93420603391519
 21
493.04349648769642
 31
0.0
  0
ARC
  5
51F5
  8
AM_0
 10
155.43420603391519
 20
492.14349648769678
 30
0.0
 40
0.5
 50
0.0
 51
90.0
  0
ARC
  5
51F6
  8
AM_0
 10
156.8605741889121
 20
491.39349648769678
 30
0.0
 40
0.0999999999999606
 50
90.0
 51
164.99980499349451
  0
ARC
  5
51F7
  8
AM_0
 10
155.13420603391509
 20
491.58724445185669
 30
0.0
 40
0.2999999999999971
 50
0.0
 51
90.0
  0
LINE
  5
51F8
  8
AM_0
 10
155.43420603391519
 20
492.64349648769678
 30
0.0
 11
155.43420603391519
 21
492.66283056012969
 31
0.0
  0
ARC
  5
51F9
  8
AM_0
 10
155.13420603391509
 20
492.66283056012969
 30
0.0
 40
0.3000000000000043
 50
0.0
 51
86.185925165718274
  0
ARC
  5
51FA
  8
AM_0
 10
166.83287713026101
 20
494.64349648769678
 30
0.0
 40
0.5
 50
90.0
 51
180.0
  0
LINE
  5
51FB
  8
AM_0
 10
166.3328771302611
 20
494.64349648769678
 30
0.0
 11
166.3328771302611
 21
494.14349648769678
 31
0.0
  0
LINE
  5
51FC
  8
AM_0
 10
144.93420603391519
 20
491.29680841915558
 30
0.0
 11
151.43420603391519
 21
491.29680841915558
 31
0.0
  0
LINE
  5
51FD
  8
AM_0
 10
144.93420603391519
 20
482.99018455623769
 30
0.0
 11
151.43420603391519
 21
482.99018455623769
 31
0.0
  0
LINE
  5
51FE
  8
AM_0
 10
144.29625596909699
 20
492.64349648769678
 30
0.0
 11
151.13420603391501
 21
492.64349648769678
 31
0.0
  0
LINE
  5
51FF
  8
AM_0
 10
151.43420603391519
 20
482.64349648769678
 30
0.0
 11
144.43420603391519
 21
482.64349648769678
 31
0.0
  0
LINE
  5
5200
  8
AM_0
 10
144.93420603391519
 20
482.14349648769678
 30
0.0
 11
151.43420603391519
 21
482.14349648769678
 31
0.0
  0
LINE
  5
5201
  8
AM_0
 10
151.43420603391519
 20
492.27677631634452
 30
0.0
 11
144.93420603391519
 21
492.27677631634452
 31
0.0
  0
LINE
  5
5202
  8
AM_0
 10
151.43420603391519
 20
491.77677631634452
 30
0.0
 11
144.93420603391519
 21
491.77677631634452
 31
0.0
  0
ARC
  5
5203
  8
AM_0
 10
151.13420603391509
 20
492.94349648769679
 30
0.0
 40
0.3000000000000043
 50
270.0
 51
0.0
  0
ARC
  5
5204
  8
AM_0
 10
151.73420603391509
 20
493.34349648769683
 30
0.0
 40
0.2999999999999971
 50
90.0
 51
180.0
  0
ARC
  5
5205
  8
AM_0
 10
153.05920603391519
 20
487.14349648769678
 30
0.0
 40
9.124999999999984
 50
152.92493329271929
 51
207.07506670728071
  0
LINE
  5
5206
  8
AM_0
 10
144.43420603391519
 20
482.64349648769678
 30
0.0
 11
144.93420603391519
 21
482.99018455623769
 31
0.0
  0
LINE
  5
5207
  8
AM_0
 10
144.93420603391519
 20
482.14349648769678
 30
0.0
 11
144.43420603391519
 21
482.64349648769678
 31
0.0
  0
LINE
  5
5208
  8
AM_0
 10
141.29402163425061
 20
490.4433428213099
 30
0.0
 11
143.65607156943261
 21
492.41171776729408
 31
0.0
  0
LINE
  5
5209
  8
AM_0
 10
144.93420603391519
 20
492.64349648769678
 30
0.0
 11
144.43420603391519
 21
492.06506390418963
 31
0.0
  0
ARC
  5
520A
  8
AM_0
 10
144.29625596909699
 20
491.64349648769678
 30
0.0
 40
1.0000000000000411
 50
90.0
 51
129.805571092256
  0
LINE
  5
520B
  8
AM_0
 10
144.43420603391519
 20
491.0650639041898
 30
0.0
 11
144.93420603391519
 21
491.29680841915558
 31
0.0
  0
LINE
  5
520C
  8
AM_0
 10
144.93420603391519
 20
491.77677631634452
 30
0.0
 11
144.43420603391519
 21
491.0650639041898
 31
0.0
  0
LINE
  5
520D
  8
AM_0
 10
144.43420603391519
 20
491.60278863121772
 30
0.0
 11
144.93420603391519
 21
491.77677631634452
 31
0.0
  0
LINE
  5
520E
  8
AM_0
 10
144.93420603391519
 20
492.27677631634452
 30
0.0
 11
144.43420603391519
 21
491.60278863121772
 31
0.0
  0
LINE
  5
520F
  8
AM_0
 10
144.43420603391519
 20
492.06506390418963
 30
0.0
 11
144.93420603391519
 21
492.27677631634452
 31
0.0
  0
ARC
  5
5210
  8
AM_0
 10
141.93420603391519
 20
489.6751215417126
 30
0.0
 40
1.0
 50
129.80557109226521
 51
180.0
  0
LINE
  5
5211
  8
AM_0
 10
266.33287713026118
 20
458.64349648769689
 30
0.0
 11
245.5183722307288
 21
458.64349648769689
 31
0.0
  0
LINE
  5
5212
  8
AM_0
 10
191.1473820297935
 20
458.64349648769689
 30
0.0
 11
170.33287713026169
 21
458.64349648769689
 31
0.0
  0
LINE
  5
5213
  8
AM_0
 10
260.1970954611001
 20
454.64349648769689
 30
0.0
 11
176.46865879942189
 21
454.64349648769689
 31
0.0
  0
LINE
  5
5214
  8
AM_0
 10
179.24023210256809
 20
456.58455897556911
 30
0.0
 11
179.33287713026169
 21
457.64349648769712
 31
0.0
  0
LINE
  5
5215
  8
AM_0
 10
171.4255221579551
 20
456.58455897556911
 30
0.0
 11
171.33287713026169
 21
457.64349648769712
 31
0.0
  0
ARC
  5
5216
  8
AM_0
 10
175.33287713026169
 20
461.04349648769693
 30
0.0
 40
6.5
 50
241.82726586813479
 51
298.17273413186518
  0
ARC
  5
5217
  8
AM_0
 10
173.01943367490199
 20
456.72400816396549
 30
0.0
 40
1.6000000000000001
 50
184.99999999999969
 51
241.82726586813479
  0
LINE
  5
5218
  8
AM_0
 10
177.63287713026159
 20
454.96402282626872
 30
0.0
 11
175.33287713026169
 21
457.25358250506417
 31
0.0
  0
LINE
  5
5219
  8
AM_0
 10
175.6443771302618
 20
456.94349648769679
 30
0.0
 11
175.0213771302617
 21
456.94349648769679
 31
0.0
  0
LINE
  5
521A
  8
AM_0
 10
173.0328771302618
 20
454.96402282626872
 30
0.0
 11
175.33287713026169
 21
457.25358250506417
 31
0.0
  0
LINE
  5
521B
  8
AM_0
 10
175.6443771302618
 20
454.55096479736238
 30
0.0
 11
175.6443771302618
 21
456.94349648769679
 31
0.0
  0
LINE
  5
521C
  8
AM_0
 10
175.0213771302617
 20
454.55096479736238
 30
0.0
 11
175.0213771302617
 21
456.94349648769679
 31
0.0
  0
ARC
  5
521D
  8
AM_0
 10
177.6463205856214
 20
456.72400816396549
 30
0.0
 40
1.6000000000000001
 50
298.17273413186518
 51
355.00000000000023
  0
LINE
  5
521E
  8
AM_0
 10
266.33287713026129
 20
458.64349648769689
 30
0.0
 11
266.33287713026129
 21
462.64349648769689
 31
0.0
  0
LINE
  5
521F
  8
AM_0
 10
170.33287713026081
 20
462.64349648769689
 30
0.0
 11
170.33287713026189
 21
458.64349648769689
 31
0.0
  0
LINE
  5
5220
  8
AM_0N
 10
179.13287713026159
 20
458.64349648769689
 30
0.0
 11
179.13287713026159
 21
457.64349648769712
 31
0.0
  0
LINE
  5
5221
  8
AM_0N
 10
175.5328771302618
 20
457.64349648769712
 30
0.0
 11
175.8968473645279
 21
458.64349648769689
 31
0.0
  0
LINE
  5
5222
  8
AM_0N
 10
175.1328771302617
 20
457.64349648769712
 30
0.0
 11
175.49684736452781
 21
458.64349648769689
 31
0.0
  0
LINE
  5
5223
  8
AM_0N
 10
171.33287713026169
 20
457.64349648769712
 30
0.0
 11
179.33287713026169
 21
457.64349648769712
 31
0.0
  0
LINE
  5
5224
  8
AM_0N
 10
171.5328771302618
 20
457.64349648769712
 30
0.0
 11
171.5328771302618
 21
458.64349648769689
 31
0.0
  0
LINE
  5
5225
  8
AM_0
 10
191.14738202979331
 20
454.64349648769689
 30
0.0
 11
191.14738202979331
 21
458.64349648769689
 31
0.0
  0
LINE
  5
5226
  8
AM_0
 10
189.49052778030079
 20
458.64349648769689
 30
0.0
 11
191.14738202979331
 21
454.64349648769689
 31
0.0
  0
LINE
  5
5227
  8
AM_0
 10
245.5183722307288
 20
454.64349648769689
 30
0.0
 11
245.5183722307288
 21
458.64349648769689
 31
0.0
  0
LINE
  5
5228
  8
AM_0
 10
247.17522648022131
 20
458.64349648769689
 30
0.0
 11
245.5183722307288
 21
454.64349648769689
 31
0.0
  0
LINE
  5
5229
  8
AM_0
 10
184.83287713026101
 20
503.64349648769712
 30
0.0
 11
251.83287713026121
 21
503.64349648769712
 31
0.0
  0
LINE
  5
522A
  8
AM_0
 10
184.83287713026101
 20
503.64349648769712
 30
0.0
 11
184.83287713026101
 21
501.64349648769678
 31
0.0
  0
LINE
  5
522B
  8
AM_0
 10
251.83287713026121
 20
503.64349648769712
 30
0.0
 11
251.83287713026121
 21
501.64349648769678
 31
0.0
  0
LINE
  5
522C
  8
ﾁｭｳｼﾝｾﾝ1
 10
261.3328771302605
 20
452.37878898769691
 30
0.0
 11
261.3328771302605
 21
465.37878898769679
 31
0.0
  0
LINE
  5
522D
  8
AM_0
 10
257.42552215795411
 20
456.58455897556911
 30
0.0
 11
257.3328771302605
 21
457.64349648769712
 31
0.0
  0
LINE
  5
522E
  8
AM_0
 10
265.24023210256712
 20
456.58455897556911
 30
0.0
 11
265.3328771302605
 21
457.64349648769712
 31
0.0
  0
ARC
  5
522F
  8
AM_0
 10
261.33287713026073
 20
461.04349648769681
 30
0.0
 40
6.5
 50
241.82726586813479
 51
298.17273413186518
  0
ARC
  5
5230
  8
AM_0
 10
263.6463205856204
 20
456.72400816396538
 30
0.0
 40
1.6000000000000001
 50
298.17273413186518
 51
355.00000000000023
  0
LINE
  5
5231
  8
AM_0
 10
259.03287713026072
 20
454.96402282626872
 30
0.0
 11
261.3328771302605
 21
457.25358250506417
 31
0.0
  0
LINE
  5
5232
  8
AM_0
 10
261.02137713026048
 20
456.94349648769679
 30
0.0
 11
261.64437713026052
 21
456.94349648769679
 31
0.0
  0
LINE
  5
5233
  8
AM_0
 10
263.63287713026062
 20
454.96402282626872
 30
0.0
 11
261.3328771302605
 21
457.25358250506417
 31
0.0
  0
LINE
  5
5234
  8
AM_0
 10
261.02137713026048
 20
454.55096479736238
 30
0.0
 11
261.02137713026048
 21
456.94349648769679
 31
0.0
  0
LINE
  5
5235
  8
AM_0
 10
261.64437713026052
 20
454.55096479736238
 30
0.0
 11
261.64437713026052
 21
456.94349648769679
 31
0.0
  0
ARC
  5
5236
  8
AM_0
 10
259.01943367490111
 20
456.72400816396538
 30
0.0
 40
1.6000000000000001
 50
184.99999999999969
 51
241.82726586813479
  0
LINE
  5
5237
  8
AM_0N
 10
257.5328771302606
 20
458.64349648769689
 30
0.0
 11
257.5328771302606
 21
457.64349648769712
 31
0.0
  0
LINE
  5
5238
  8
AM_0N
 10
261.13287713026062
 20
457.64349648769712
 30
0.0
 11
260.76890689599441
 21
458.64349648769689
 31
0.0
  0
LINE
  5
5239
  8
AM_0N
 10
261.5328771302606
 20
457.64349648769712
 30
0.0
 11
261.1689068959945
 21
458.64349648769689
 31
0.0
  0
LINE
  5
523A
  8
AM_0N
 10
265.3328771302605
 20
457.64349648769712
 30
0.0
 11
257.3328771302605
 21
457.64349648769712
 31
0.0
  0
LINE
  5
523B
  8
AM_0N
 10
265.13287713026062
 20
457.64349648769712
 30
0.0
 11
265.13287713026062
 21
458.64349648769689
 31
0.0
  0
LINE
  5
523C
  8
AM_0
 10
169.33287713026101
 20
465.64349648769678
 30
0.0
 11
169.33287713026101
 21
497.64349648769678
 31
0.0
  0
LINE
  5
523E
  8
ﾁｭｳｼﾝｾﾝ1
 10
288.3328871302611
 20
642.64349648769678
 30
0.0
 11
308.33288713026087
 21
642.64349648769678
 31
0.0
  0
LINE
  5
523F
  8
ﾁｭｳｼﾝｾﾝ1
 10
298.33288713026087
 20
652.64349648769689
 30
0.0
 11
298.33288713026087
 21
632.64349648769689
 31
0.0
  0
LINE
  5
5240
  8
ﾁｭｳｼﾝｾﾝ1
 10
288.3328871302611
 20
512.64349648769689
 30
0.0
 11
308.33288713026087
 21
512.64349648769689
 31
0.0
  0
LINE
  5
5241
  8
ﾁｭｳｼﾝｾﾝ1
 10
298.33288713026087
 20
522.64349648769678
 30
0.0
 11
298.33288713026087
 21
502.64349648769678
 31
0.0
  0
LINE
  5
5242
  8
ﾁｭｳｼﾝｾﾝ1
 10
358.33288713026087
 20
512.64349648769689
 30
0.0
 11
378.33288713026087
 21
512.64349648769689
 31
0.0
  0
LINE
  5
5243
  8
ﾁｭｳｼﾝｾﾝ1
 10
368.33288713026087
 20
522.64349648769678
 30
0.0
 11
368.33288713026087
 21
502.64349648769678
 31
0.0
  0
ARC
  5
5244
  8
AM_0
 10
379.33286713026109
 20
607.03025148769666
 30
0.0
 40
2.00000007
 50
179.999989999999
 51
240.0000100000054
  0
ARC
  5
5245
  8
AM_0
 10
379.33286713026109
 20
548.25674448769666
 30
0.0
 40
2.00000007
 50
120.0000000000001
 51
180.00001000000091
  0
LINE
  5
5246
  8
AM_0
 10
383.33283713026083
 20
611.14349348769667
 30
0.0
 11
388.33283713026083
 21
606.14349348769701
 31
0.0
  0
LINE
  5
5247
  8
AM_0
 10
378.83283713026083
 20
611.14349348769667
 30
0.0
 11
383.33283713026083
 21
611.14349348769667
 31
0.0
  0
LINE
  5
5248
  8
AM_0
 10
378.33283713026083
 20
610.64349348769667
 30
0.0
 11
378.3328371302602
 21
544.64349348769736
 31
0.0
  0
LINE
  5
5249
  8
AM_0
 10
388.33283713026083
 20
606.14349348769701
 30
0.0
 11
388.33283713026083
 21
549.1434934876969
 31
0.0
  0
LINE
  5
524A
  8
AM_0
 10
378.83283713026083
 20
544.14349348769667
 30
0.0
 11
383.33283713026083
 21
544.14349348769667
 31
0.0
  0
LINE
  5
524B
  8
AM_0
 10
383.33283713026083
 20
544.14349348769667
 30
0.0
 11
388.33283713026083
 21
549.1434934876969
 31
0.0
  0
LINE
  5
524C
  8
AM_0
 10
378.83283713026083
 20
611.14349348769667
 30
0.0
 11
378.33283713026083
 21
610.64349348769667
 31
0.0
1001
GENIUS_GENFIL_13
1070
     0
1040
0.5
1040
0.5
1040
20.0
1040
0.0
1002
{
1002
}
1001
GENIUS_GENOBJ-N-CHA_13
1002
{
1000
OWNER
1000
GEN
1002
}
1001
GENIUS_GENODEF_13
1002
{
1000
HIER
1070
     0
1002
}
1002
{
1000
MANEDIT
1070
     0
1002
}
1002
{
1000
NOSEL
1070
     0
1002
}
1002
{
1000
BEHIND
1070
     0
1002
}
1002
{
1000
OTHER
1070
     0
1002
}
1002
{
1000
REACTOR
1002
}
  0
LINE
  5
524D
  8
AM_0
 10
378.33283713026083
 20
544.64349348769667
 30
0.0
 11
378.83283713026083
 21
544.14349348769667
 31
0.0
1001
GENIUS_GENFIL_13
1070
     0
1040
0.5
1040
0.5
1040
20.0
1040
0.0
1002
{
1002
}
1001
GENIUS_GENOBJ-N-CHA_13
1002
{
1000
OWNER
1000
GEN
1002
}
1001
GENIUS_GENODEF_13
1002
{
1000
HIER
1070
     0
1002
}
1002
{
1000
MANEDIT
1070
     0
1002
}
1002
{
1000
NOSEL
1070
     0
1002
}
1002
{
1000
BEHIND
1070
     0
1002
}
1002
{
1000
OTHER
1070
     0
1002
}
1002
{
1000
REACTOR
1002
}
  0
LINE
  5
524E
  8
AM_0
 10
383.33283713026083
 20
611.14349348769667
 30
0.0
 11
383.33283713026083
 21
544.14349348769667
 31
0.0
  0
ARC
  5
524F
  8
AM_0
 10
390.33288713026087
 20
577.64346648769686
 30
0.0
 40
3.9999962
 50
239.99914157638
 51
270.0
  0
TEXT
  5
5452
  8
AM_0
 10
520.97149590935123
 20
577.76458051735119
 30
0.0
 40
10.0
  1
VX04-015MW~VX04-030MW
  0
ENDSEC
  0
EOF
