  0
SECTION
  2
HEADER
  9
$ACADVER
  1
AC1009
  9
$INSBASE
 10
0.0
 20
0.0
 30
0.0
  9
$EXTMIN
 10
109.5005514310912
 20
207.59031907338411
 30
-0.0015258207003583
  9
$EXTMAX
 10
721.1434268209191
 20
661.04472461906755
 30
0.0000000349246037
  9
$LIMMIN
 10
0.0
 20
0.0
  9
$LIMMAX
 10
853.5
 20
555.00000000000011
  9
$ORTHOMODE
 70
     0
  9
$REGENMODE
 70
     1
  9
$FILLMODE
 70
     1
  9
$QTEXTMODE
 70
     0
  9
$MIRRTEXT
 70
     1
  9
$DRAGMODE
 70
     2
  9
$LTSCALE
 40
3.0
  9
$OSMODE
 70
   551
  9
$ATTMODE
 70
     1
  9
$TEXTSIZE
 40
2.5
  9
$TRACEWID
 40
1.0
  9
$TEXTSTYLE
  7
STANDARD
  9
$CLAYER
  8
AM_0
  9
$CELTYPE
  6
BYLAYER
  9
$CECOLOR
 62
   256
  9
$DIMSCALE
 40
1.0
  9
$DIMASZ
 40
2.5
  9
$DIMEXO
 40
1.0
  9
$DIMDLI
 40
8.0
  9
$DIMRND
 40
0.0
  9
$DIMDLE
 40
0.0
  9
$DIMEXE
 40
0.6
  9
$DIMTP
 40
0.1
  9
$DIMTM
 40
0.1
  9
$DIMTXT
 40
2.5
  9
$DIMCEN
 40
0.0
  9
$DIMTSZ
 40
0.0
  9
$DIMTOL
 70
     0
  9
$DIMLIM
 70
     0
  9
$DIMTIH
 70
     0
  9
$DIMTOH
 70
     0
  9
$DIMSE1
 70
     0
  9
$DIMSE2
 70
     0
  9
$DIMTAD
 70
     1
  9
$DIMZIN
 70
     8
  9
$DIMBLK
  1

  9
$DIMASO
 70
     1
  9
$DIMSHO
 70
     1
  9
$DIMPOST
  1

  9
$DIMAPOST
  1
"
  9
$DIMALT
 70
     0
  9
$DIMALTD
 70
     2
  9
$DIMALTF
 40
0.0393701
  9
$DIMLFAC
 40
1.0
  9
$DIMTOFL
 70
     1
  9
$DIMTVP
 40
0.0
  9
$DIMTIX
 70
     0
  9
$DIMSOXD
 70
     0
  9
$DIMSAH
 70
     0
  9
$DIMBLK1
  1

  9
$DIMBLK2
  1

  9
$DIMSTYLE
  2
AM_ISO
  9
$DIMCLRD
 70
   256
  9
$DIMCLRE
 70
   256
  9
$DIMCLRT
 70
     4
  9
$DIMTFAC
 40
0.71
  9
$DIMGAP
 40
0.8
  9
$LUNITS
 70
     2
  9
$LUPREC
 70
     2
  9
$SKETCHINC
 40
1.0
  9
$FILLETRAD
 40
15.0
  9
$AUNITS
 70
     0
  9
$AUPREC
 70
     0
  9
$MENU
  1
.
  9
$ELEVATION
 40
0.0
  9
$PELEVATION
 40
0.0
  9
$THICKNESS
 40
0.0
  9
$LIMCHECK
 70
     0
  9
$BLIPMODE
 70
     0
  9
$CHAMFERA
 40
6.0
  9
$CHAMFERB
 40
3.0
  9
$SKPOLY
 70
     0
  9
$TDCREATE
 40
2452065.7887456599
  9
$TDUPDATE
 40
2458541.5995852891
  9
$TDINDWG
 40
0.0887756829
  9
$TDUSRTIMER
 40
0.0887756713
  9
$USRTIMER
 70
     1
  9
$ANGBASE
 50
0.0
  9
$ANGDIR
 70
     0
  9
$PDMODE
 70
     0
  9
$PDSIZE
 40
0.0
  9
$PLINEWID
 40
0.0
  9
$COORDS
 70
     1
  9
$SPLFRAME
 70
     0
  9
$SPLINETYPE
 70
     6
  9
$SPLINESEGS
 70
     8
  9
$ATTDIA
 70
     1
  9
$ATTREQ
 70
     1
  9
$HANDLING
 70
     1
  9
$HANDSEED
  5
6072
  9
$SURFTAB1
 70
     6
  9
$SURFTAB2
 70
     6
  9
$SURFTYPE
 70
     6
  9
$SURFU
 70
     6
  9
$SURFV
 70
     6
  9
$UCSNAME
  2

  9
$UCSORG
 10
0.0
 20
0.0
 30
0.0
  9
$UCSXDIR
 10
1.0
 20
0.0
 30
0.0
  9
$UCSYDIR
 10
0.0
 20
1.0
 30
0.0
  9
$PUCSNAME
  2

  9
$PUCSORG
 10
0.0
 20
0.0
 30
0.0
  9
$PUCSXDIR
 10
1.0
 20
0.0
 30
0.0
  9
$PUCSYDIR
 10
0.0
 20
1.0
 30
0.0
  9
$USERI1
 70
     0
  9
$USERI2
 70
     0
  9
$USERI3
 70
     0
  9
$USERI4
 70
     0
  9
$USERI5
 70
     0
  9
$USERR1
 40
0.0
  9
$USERR2
 40
0.0
  9
$USERR3
 40
0.0
  9
$USERR4
 40
0.0
  9
$USERR5
 40
0.0
  9
$WORLDVIEW
 70
     1
  9
$SHADEDGE
 70
     3
  9
$SHADEDIF
 70
    70
  9
$TILEMODE
 70
     1
  9
$MAXACTVP
 70
    64
  9
$PLIMCHECK
 70
     0
  9
$PEXTMIN
 10
1.0000000000000000E+020
 20
1.0000000000000000E+020
 30
1.0000000000000000E+020
  9
$PEXTMAX
 10
-1.0000000000000000E+020
 20
-1.0000000000000000E+020
 30
-1.0000000000000000E+020
  9
$PLIMMIN
 10
0.0
 20
0.0
  9
$PLIMMAX
 10
420.0
 20
297.0
  9
$UNITMODE
 70
     0
  9
$VISRETAIN
 70
     1
  9
$PLINEGEN
 70
     0
  9
$PSLTSCALE
 70
     1
  0
ENDSEC
  0
SECTION
  2
TABLES
  0
TABLE
  2
VPORT
 70
     1
  0
VPORT
  2
*ACTIVE
 70
     0
 10
0.0
 20
0.0
 11
1.0
 21
1.0
 12
415.32198912600512
 22
434.31752184622582
 13
0.0
 23
0.0
 14
7.5
 24
7.5
 15
30.0
 25
30.0
 16
0.0
 26
0.0
 36
1.0
 17
0.0
 27
0.0
 37
0.0
 40
456.56736485148912
 41
1.7571592210767459
 42
50.0
 43
0.0
 44
0.0
 50
0.0
 51
0.0
 71
     0
 72
   100
 73
     1
 74
     3
 75
     0
 76
     0
 77
     0
 78
     0
  0
ENDTAB
  0
TABLE
  2
LTYPE
 70
    27
  0
LTYPE
  2
CONTINUOUS
 70
     0
  3
Solid line
 72
    65
 73
     0
 40
0.0
  0
LTYPE
  2
AM_ISO02W050
 70
     0
  3
__ __ __ __ __ __ __ __ __ __ __ __ __ __ __
 72
    65
 73
     2
 40
7.5
 49
6.0
 49
-1.5
  0
LTYPE
  2
AM_ISO08W050
 70
     0
  3
____ . ____ . ____ . ____ . ____ . ____ . ____
 72
    65
 73
     4
 40
18.0
 49
12.0
 49
-1.5
 49
3.0
 49
-1.5
  0
LTYPE
  2
AM_ISO09W050
 70
     0
  3
_____ . . _____ . . _____ . . ____ .. ____
 72
    65
 73
     6
 40
22.5
 49
12.0
 49
-1.5
 49
3.0
 49
-1.5
 49
3.0
 49
-1.5
  0
LTYPE
  2
AMCONSTR
 70
     0
  3
_______________________
 72
    65
 73
     2
 40
9999.0
 49
9999.0
 49
0.0
  0
LTYPE
  2
AM_ISO08W050X2
 70
     0
  3
__ . __ . __ . __ . __ . __
 72
    65
 73
     4
 40
9.0
 49
6.0
 49
-0.75
 49
1.5
 49
-0.75
  0
LTYPE
  2
AM_ISO02W050X2
 70
     0
  3
 _ _ _ _ _ _ _ _ _ _ _ _
 72
    65
 73
     2
 40
3.75
 49
3.0
 49
-0.75
  0
LTYPE
  2
AMZIGZAG
 70
     0
  3
/\/-/\/-/\/-/\/-/\/-/\/
 72
    65
 73
     2
 40
11.0001
 49
0.0001
 49
-11.0
  0
LTYPE
  2
ACISOWELD
 70
     0
  3
_ _ _ _ _
 72
    65
 73
     2
 40
2.0
 49
2.0
 49
-1.0
  0
LTYPE
  2
ACISOTGB
 70
     0
  3
__ . . __ . .
 72
    65
 73
     6
 40
9.0
 49
4.0
 49
-1.0
 49
1.0
 49
-1.0
 49
1.0
 49
-1.0
  0
LTYPE
  2
ACISOTGL
 70
     0
  3
_ _ _ _ _
 72
    65
 73
     2
 40
3.0
 49
2.0
 49
-1.0
  0
LTYPE
  2
CENTER
 70
     0
  3
__ . __
 72
    65
 73
     4
 40
7.0
 49
4.0
 49
-1.0
 49
1.0
 49
-1.0
  0
LTYPE
  2
HIDDEN
 70
     0
  3
Hidden __ __ __ __ __ __ __ __ __ __ __ __ __ _
 72
    65
 73
     2
 40
9.5249999999999986
 49
6.3499999999999979
 49
-3.174999999999998
  0
LTYPE
  2
PHANTOM2
 70
     0
  3
Phantom (.5x) ___ _ _ ___ _ _ ___ _ _ ___ _ _
 72
    65
 73
     6
 40
31.75
 49
15.875
 49
-3.174999999999998
 49
3.174999999999998
 49
-3.174999999999998
 49
3.174999999999998
 49
-3.174999999999998
  0
LTYPE
  2
ACANSTGBM
 70
     0
  3
__ . . __ . .
 72
    65
 73
     6
 40
9.0
 49
4.0
 49
-1.0
 49
1.0
 49
-1.0
 49
1.0
 49
-1.0
  0
LTYPE
  2
ACANSTGLM
 70
     0
  3
_ _ _ _ _
 72
    65
 73
     2
 40
3.0
 49
2.0
 49
-1.0
  0
LTYPE
  2
GEN7
 70
     0
  3
____ . ____ . ____ . ____ . ____ . ____ . ____
 72
    65
 73
     4
 40
14.25
 49
9.75
 49
-1.5
 49
1.5
 49
-1.5
  0
LTYPE
  2
GEN3B
 70
     0
  3
 - - - - -
 72
    65
 73
     2
 40
1.0
 49
0.5
 49
-0.5
  0
LTYPE
  2
GEN7A
 70
     0
  3
__ . __ . __
 72
    65
 73
     4
 40
7.375
 49
4.75
 49
-0.875
 49
0.875
 49
-0.875
  0
LTYPE
  2
ACJISTGB
 70
     0
  3
__ . . __ . .
 72
    65
 73
     6
 40
9.0
 49
4.0
 49
-1.0
 49
1.0
 49
-1.0
 49
1.0
 49
-1.0
  0
LTYPE
  2
ACJISTGL
 70
     0
  3
_ _ _ _ _
 72
    65
 73
     2
 40
3.0
 49
2.0
 49
-1.0
  0
LTYPE
  2
CENTER2
 70
     0
  3
Center (.5x) ___ _ ___ _ ___ _ ___ _ ___ _ ___
 72
    65
 73
     4
 40
1.125
 49
0.75
 49
-0.125
 49
0.125
 49
-0.125
  0
LTYPE
  2
HIDDEN2
 70
     0
  3
Hidden (.5x) _ _ _ _ _ _ _ _ _ _ _ _ _ _ _ _ _
 72
    65
 73
     2
 40
0.1875
 49
0.125
 49
-0.0625
  0
LTYPE
  2
AMZIGZAG2
 70
     0
  3
/\/-/\/-/\/-/\/-/\/-/\/
 72
    65
 73
     2
 40
0.4401
 49
0.0001
 49
-0.4400000000000001
  0
LTYPE
  2
ACANSTGB
 70
     0
  3
__ . . __ . .
 72
    65
 73
     6
 40
0.35433070866
 49
0.15748031496
 49
-0.03937007874
 49
0.03937007874
 49
-0.03937007874
 49
0.03937007874
 49
-0.03937007874
  0
LTYPE
  2
ACANSTGL
 70
     0
  3
_ _ _ _ _
 72
    65
 73
     2
 40
0.11811023622
 49
0.07874015748
 49
-0.03937007874
  0
ENDTAB
  0
TABLE
  2
LAYER
 70
     8
  0
LAYER
  2
0
 70
     0
 62
     7
  6
CONTINUOUS
  0
LAYER
  2
AM_0
 70
     0
 62
     7
  6
CONTINUOUS
  0
LAYER
  2
AM_5
 70
     0
 62
     2
  6
CONTINUOUS
  0
LAYER
  2
DEFPOINTS
 70
     0
 62
     7
  6
CONTINUOUS
  0
LAYER
  2
ｶｸﾚｾﾝ2
 70
     0
 62
     3
  6
GEN3B
  0
LAYER
  2
ﾁｭｳｼﾝｾﾝ
 70
     0
 62
     1
  6
GEN7
  0
LAYER
  2
ﾁｭｳｼﾝｾﾝ1
 70
     0
 62
     1
  6
GEN7A
  0
LAYER
  2
AM_0N
 70
     0
 62
     7
  6
CONTINUOUS
  0
ENDTAB
  0
TABLE
  2
STYLE
 70
    10
  0
STYLE
  2
STANDARD
 70
     0
 40
0.0
 41
0.8299999999999999
 50
0.0
 71
     0
 42
2.5
  3
txt.shx
  4
bigfont.shx
  0
STYLE
  2
ANNOTATIVE
 70
     0
 40
0.0
 41
1.0
 50
0.0
 71
     0
 42
0.2
  3
txt
  4

  0
STYLE
  2

 70
     1
 40
0.0
 41
1.0
 50
0.0
 71
     0
 42
2.5
  3
ltypeshp.shx
  4

  0
STYLE
  2
ACISOTS
 70
     0
 40
1.0
 41
1.0
 50
0.0
 71
     0
 42
2.5
  3
isocp.shx
  4
extfont.shx
  0
STYLE
  2
ACISOGDT
 70
     0
 40
0.0
 41
1.0
 50
0.0
 71
     0
 42
2.5
  3
amgdt.shx
  4

  0
STYLE
  2
ACANSTS
 70
     0
 40
1.0
 41
1.0
 50
0.0
 71
     0
 42
2.5
  3
romans.shx
  4
bigfont.shx
  0
STYLE
  2
ACANSGDT
 70
     0
 40
0.0
 41
1.0
 50
0.0
 71
     0
 42
2.5
  3
amgdt.shx
  4

  0
STYLE
  2
ACJISTS
 70
     0
 40
1.0
 41
1.0
 50
0.0
 71
     0
 42
2.5
  3
isocp.shx
  4
bigfont.shx
  0
STYLE
  2
ACJISGDT
 70
     0
 40
0.0
 41
1.0
 50
0.0
 71
     0
 42
2.5
  3
amgdt.shx
  4

  0
STYLE
  2

 70
     1
 40
0.0
 41
1.0
 50
0.0
 71
     0
 42
2.5
  3
genltshp.shx
  4

  0
ENDTAB
  0
TABLE
  2
VIEW
 70
     6
  0
VIEW
  2
AM_VIEW1
 70
     0
 40
277.50000000000011
 10
249.64779005524869
 20
416.25
 41
499.29558011049721
 11
0.0
 21
0.0
 31
1.0
 12
0.0
 22
0.0
 32
0.0
 42
50.0
 43
0.0
 44
0.0
 50
0.0
 71
     0
  0
VIEW
  2
AM_VIEW2
 70
     0
 40
277.50000000000011
 10
603.85220994475117
 20
416.25
 41
499.29558011049721
 11
0.0
 21
0.0
 31
1.0
 12
0.0
 22
0.0
 32
0.0
 42
50.0
 43
0.0
 44
0.0
 50
0.0
 71
     0
  0
VIEW
  2
AM_VIEW3
 70
     0
 40
277.50000000000011
 10
249.64779005524869
 20
138.75
 41
499.29558011049721
 11
0.0
 21
0.0
 31
1.0
 12
0.0
 22
0.0
 32
0.0
 42
50.0
 43
0.0
 44
0.0
 50
0.0
 71
     0
  0
VIEW
  2
AM_VIEW4
 70
     0
 40
277.50000000000011
 10
603.85220994475117
 20
138.75
 41
499.29558011049721
 11
0.0
 21
0.0
 31
1.0
 12
0.0
 22
0.0
 32
0.0
 42
50.0
 43
0.0
 44
0.0
 50
0.0
 71
     0
  0
VIEW
  2
AM_VIEW5
 70
     0
 40
277.50000000000011
 10
426.75
 20
277.50000000000011
 41
499.2955801104971
 11
0.0
 21
0.0
 31
1.0
 12
0.0
 22
0.0
 32
0.0
 42
50.0
 43
0.0
 44
0.0
 50
0.0
 71
     0
  0
VIEW
  2
AM_VIEW6
 70
     0
 40
554.99445000000014
 10
426.75
 20
277.5
 41
998.5811743093924
 11
0.0
 21
0.0
 31
1.0
 12
0.0
 22
0.0
 32
0.0
 42
50.0
 43
0.0
 44
0.0
 50
0.0
 71
     0
  0
ENDTAB
  0
TABLE
  2
UCS
 70
     0
  0
ENDTAB
  0
TABLE
  2
APPID
 70
    98
  0
APPID
  2
ACAD
 70
     0
  0
APPID
  2
ACADANNOTATIVE
 70
     0
  0
APPID
  2
MCAD_NO_VIS
 70
     0
  0
APPID
  2
ACAD_TEMP_GRAPHIC
 70
     0
  0
APPID
  2
ACATTRIBSERVICES
 70
     0
  0
APPID
  2
GENIUS_GENREC_14
 70
     0
  0
APPID
  2
GENIUS_GENOBJ-N-REC_13
 70
     0
  0
APPID
  2
GENIUS_GENODEF_13
 70
     0
  0
APPID
  2
GENIUS_GENOLIS_13
 70
     0
  0
APPID
  2
GENIUS_GENOBJ-N-TIT_13
 70
     0
  0
APPID
  2
GENIUS_GENOENT_13
 70
     0
  0
APPID
  2
GENIUS_GENTITLE_13
 70
     0
  0
APPID
  2
GENIUS_GENOREF_13
 70
     0
  0
APPID
  2
GENIUS_GENSCREG_15
 70
     0
  0
APPID
  2
GENIUS_GENOBJ-N-SDF_13
 70
     0
  0
APPID
  2
GENIUS_GENFIL_13
 70
     0
  0
APPID
  2
GENIUS_GENOBJ-N-CHA_13
 70
     0
  0
APPID
  2
GENIUS_GENDTOL_13
 70
     0
  0
APPID
  2
GENIUS_GENOBJ-N-FIL_13
 70
     0
  0
APPID
  2
AD_DRAW
 70
     0
  0
APPID
  2
DESIGNERASSEMBLIES
 70
     0
  0
APPID
  2
ASURF_PCURVE_APPNAME
 70
     0
  0
APPID
  2
GENIUS_GE3SECT_13
 70
     0
  0
APPID
  2
GENIUS_GENCFG_13
 70
     0
  0
APPID
  2
GENIUS_GE3CFG0_13
 70
     0
  0
APPID
  2
GENIUS_GENCFG0_13
 70
     0
  0
APPID
  2
GENIUS_GENCFG1_13
 70
     0
  0
APPID
  2
GENIUS_GENCFG2_13
 70
     0
  0
APPID
  2
GENIUS_GENCFG3_13
 70
     0
  0
APPID
  2
GENIUS_GENCFG4_13
 70
     0
  0
APPID
  2
GENIUS_GEVCFG0_13
 70
     0
  0
APPID
  2
GENIUS_GENHINW_13
 70
     0
  0
APPID
  2
GENIUS_FIRSTVISTXT_14
 70
     0
  0
APPID
  2
GENIUS_GENOBJ-N-LEADER_13
 70
     0
  0
APPID
  2
GEV_VCCNULL_SWITCH_OFF
 70
     0
  0
APPID
  2
GENIUS_GEFCFG0_13
 70
     0
  0
APPID
  2
GENIUS_GENZVEED_13
 70
     0
  0
APPID
  2
GENIUS_GENSCREG_13
 70
     0
  0
APPID
  2
GENIUS_DUMCFG0_13
 70
     0
  0
APPID
  2
GEVID936201362
 70
     0
  0
APPID
  2
GEVDC
 70
     0
  0
APPID
  2
GEVCON
 70
     0
  0
APPID
  2
VCC
 70
     0
  0
APPID
  2
GEVPT
 70
     0
  0
APPID
  2
GEVIT
 70
     0
  0
APPID
  2
GENBH
 70
     0
  0
APPID
  2
GEVMK
 70
     0
  0
APPID
  2
GENIUS_GENBH_13
 70
     0
  0
APPID
  2
GENIUS_GENOBJ-NBEHI-BHF_13
 70
     0
  0
APPID
  2
GENIUS_GENOBJ-NBEHI-BHB_13
 70
     0
  0
APPID
  2
GENIUS_GENOBJ-F-DESC_13
 70
     0
  0
APPID
  2
GENIUS_GEFDESC_14
 70
     0
  0
APPID
  2
GENIUS_GENOBJ-F-PART_13
 70
     0
  0
APPID
  2
GENIUS_GEFSTDP_13
 70
     0
  0
APPID
  2
GENIUS_GEFPARTINS_13
 70
     0
  0
APPID
  2
GENIUS_GENTRA_14
 70
     0
  0
APPID
  2
GENIUS_GENINF13_13
 70
     0
  0
APPID
  2
GENIUS_GENOBJ-N-INFOPT_13
 70
     0
  0
APPID
  2
GENIUS_GENOBJ-N-RSSYM_13
 70
     0
  0
APPID
  2
GENIUS_GENSYMENT_13
 70
     0
  0
APPID
  2
GENIUS_GENSCSYM_13
 70
     0
  0
APPID
  2
GENIUS_GEFINFNAM_13
 70
     0
  0
APPID
  2
GENIUS_GENOBJ-N-CEN_13
 70
     0
  0
APPID
  2
GENIUS_GENOBJ-N-CRS_13
 70
     0
  0
APPID
  2
GENIUS_GENOBJ-N-CRC_13
 70
     0
  0
APPID
  2
GENIUS_GENCRC_14
 70
     0
  0
APPID
  2
GEVID942827039
 70
     0
  0
APPID
  2
GEVID942827040
 70
     0
  0
APPID
  2
GEVID942827041
 70
     0
  0
APPID
  2
GENIUS_GENOBJ-F-SCPASSM_13
 70
     0
  0
APPID
  2
GENIUS_GENDIMSH_14
 70
     0
  0
APPID
  2
GEVID942827042
 70
     0
  0
APPID
  2
GEVID946020473
 70
     0
  0
APPID
  2
GEVID946020474
 70
     0
  0
APPID
  2
GEVID946020475
 70
     0
  0
APPID
  2
GENIUS_GENOBJ-N-HTC_13
 70
     0
  0
APPID
  2
GENIUS_GENHATCH_13
 70
     0
  0
APPID
  2
GEVID948854295
 70
     0
  0
APPID
  2
GEVID939402019
 70
     0
  0
APPID
  2
GEVID952919491
 70
     0
  0
APPID
  2
GEVID952919492
 70
     0
  0
APPID
  2
GENIUS_GEFWELD_13
 70
     0
  0
APPID
  2
GENIUS_GENOBJ-F-WELS_13
 70
     0
  0
APPID
  2
GEVID952919493
 70
     0
  0
APPID
  2
GENIUS_GENOBJ-N-RSBK_13
 70
     0
  0
APPID
  2
GENIUS_GENOBJ-N-LIB_13
 70
     0
  0
APPID
  2
GENIUS_GENSCALE_13
 70
     0
  0
APPID
  2
GEVID986376691
 70
     0
  0
APPID
  2
DCO15
 70
     0
  0
APPID
  2
ACADM_DIM_EDIT
 70
     0
  0
APPID
  2
AMDT_DM_ADJ
 70
     0
  0
APPID
  2
ACAD_PSEXT
 70
     0
  0
APPID
  2
ACAD_DSTYLE_DIMJAG
 70
     0
  0
APPID
  2
ACAD_DSTYLE_DIMBREAK
 70
     0
  0
APPID
  2
ACAD_NAV_VCDISPLAY
 70
     0
  0
APPID
  2
ACADANNOPO
 70
     0
  0
APPID
  2
ACAD_EXEMPT_FROM_CAD_STANDARDS
 70
     0
  0
APPID
  2
ACAD_MLEADERVER
 70
     0
  0
ENDTAB
  0
TABLE
  2
DIMSTYLE
 70
    22
  0
DIMSTYLE
  2
STANDARD
 70
     0
  3

  4

  5

  6

  7

 40
1.0
 41
0.18
 42
0.0625
 43
0.38
 44
0.18
 45
0.0
 46
0.0
 47
0.0
 48
0.0
140
0.18
141
0.09
142
0.0
143
25.399999999999999
144
1.0
145
0.0
146
1.0
147
0.09
 71
     0
 72
     0
 73
     1
 74
     1
 75
     0
 76
     0
 77
     0
 78
     0
170
     0
171
     2
172
     0
173
     0
174
     0
175
     0
176
     0
177
     0
178
     0
  0
DIMSTYLE
  2
ANNOTATIVE
 70
     0
  3

  4

  5

  6

  7

 40
1.0
 41
0.18
 42
0.0625
 43
0.38
 44
0.18
 45
0.0
 46
0.0
 47
0.0
 48
0.0
140
0.18
141
0.09
142
0.0
143
25.399999999999999
144
1.0
145
0.0
146
1.0
147
0.09
 71
     0
 72
     0
 73
     1
 74
     1
 75
     0
 76
     0
 77
     0
 78
     0
170
     0
171
     2
172
     0
173
     0
174
     0
175
     0
176
     0
177
     0
178
     0
  0
DIMSTYLE
  2
AM_ISO
 70
     0
  3

  4
"
  5

  6

  7

 40
1.0
 41
2.5
 42
1.0
 43
8.0
 44
0.6
 45
0.0
 46
0.0
 47
0.1
 48
0.1
140
2.5
141
0.0
142
0.0
143
0.0393701
144
1.0
145
0.0
146
0.71
147
0.8
 71
     0
 72
     0
 73
     0
 74
     0
 75
     0
 76
     0
 77
     1
 78
     8
170
     0
171
     2
172
     1
173
     0
174
     0
175
     0
176
   256
177
   256
178
     4
  0
DIMSTYLE
  2
AM_ISO$3
 70
     0
  3

  4
"
  5

  6

  7

 40
1.0
 41
2.5
 42
1.0
 43
8.0
 44
0.6
 45
0.0
 46
0.0
 47
0.1
 48
0.1
140
2.5
141
0.0
142
0.0
143
0.0393701
144
1.0
145
0.0
146
0.71
147
0.8
 71
     0
 72
     0
 73
     0
 74
     1
 75
     0
 76
     0
 77
     1
 78
     8
170
     0
171
     2
172
     0
173
     0
174
     0
175
     0
176
   256
177
   256
178
     4
  0
DIMSTYLE
  2
AM_ISO$4
 70
     0
  3

  4
"
  5

  6

  7

 40
1.0
 41
2.5
 42
1.0
 43
8.0
 44
0.6
 45
0.0
 46
0.0
 47
0.1
 48
0.1
140
2.5
141
0.0
142
0.0
143
0.0393701
144
1.0
145
0.0
146
0.71
147
0.8
 71
     0
 72
     0
 73
     0
 74
     1
 75
     0
 76
     0
 77
     1
 78
     8
170
     0
171
     2
172
     0
173
     0
174
     0
175
     0
176
   256
177
   256
178
     4
  0
DIMSTYLE
  2
AM_ISO$6
 70
     0
  3

  4
"
  5

  6

  7

 40
1.0
 41
2.5
 42
1.0
 43
8.0
 44
0.6
 45
0.0
 46
0.0
 47
0.1
 48
0.1
140
2.5
141
0.0
142
0.0
143
0.0393701
144
1.0
145
0.0
146
0.71
147
0.8
 71
     0
 72
     0
 73
     0
 74
     0
 75
     0
 76
     0
 77
     0
 78
     8
170
     0
171
     2
172
     1
173
     0
174
     0
175
     0
176
   256
177
   256
178
     4
  0
DIMSTYLE
  2
AM_ISO$7
 70
     0
  3

  4
"
  5

  6

  7

 40
1.0
 41
2.5
 42
1.0
 43
8.0
 44
0.6
 45
0.0
 46
0.0
 47
0.1
 48
0.1
140
2.5
141
0.0
142
0.0
143
0.0393701
144
1.0
145
0.0
146
0.71
147
0.8
 71
     0
 72
     0
 73
     0
 74
     0
 75
     0
 76
     0
 77
     1
 78
     8
170
     0
171
     2
172
     1
173
     0
174
     0
175
     0
176
   256
177
   256
178
     4
  0
DIMSTYLE
  2
AM_ISO$SF
 70
     0
  3

  4
"
  5

  6

  7

 40
1.0
 41
2.5
 42
1.0
 43
10.0
 44
1.0
 45
0.0
 46
0.0
 47
0.1
 48
0.1
140
3.5
141
0.0
142
0.0
143
0.0393701
144
1.0
145
0.0
146
0.71
147
1.5
 71
     0
 72
     0
 73
     0
 74
     0
 75
     1
 76
     1
 77
     1
 78
     8
170
     0
171
     2
172
     1
173
     0
174
     0
175
     0
176
   256
177
   256
178
     2
  0
DIMSTYLE
  2
AM_ISO$SH
 70
     0
  3

  4
"
  5

  6

  7

 40
1.0
 41
2.5
 42
1.0
 43
10.0
 44
1.0
 45
0.0
 46
0.0
 47
0.1
 48
0.1
140
3.5
141
0.0
142
0.0
143
0.0393701
144
2.0
145
0.0
146
0.71
147
1.5
 71
     0
 72
     0
 73
     0
 74
     0
 75
     1
 76
     1
 77
     1
 78
     8
170
     0
171
     2
172
     1
173
     1
174
     0
175
     0
176
   256
177
   256
178
     2
  0
DIMSTYLE
  2
AM_JIS
 70
     0
  3

  4
"
  5

  6

  7

 40
1.0
 41
2.5
 42
1.0
 43
7.0
 44
1.0
 45
0.0
 46
0.0
 47
0.1
 48
0.1000000001
140
2.5
141
0.0
142
0.0
143
0.0393701
144
1.0
145
0.0
146
0.71
147
1.0
 71
     0
 72
     0
 73
     0
 74
     0
 75
     0
 76
     0
 77
     3
 78
     8
170
     0
171
     2
172
     1
173
     0
174
     0
175
     0
176
   256
177
   256
178
     4
  0
DIMSTYLE
  2
AM_JIS$3
 70
     0
  3

  4
"
  5

  6

  7

 40
1.0
 41
2.5
 42
1.0
 43
7.0
 44
1.0
 45
0.0
 46
0.0
 47
0.1
 48
0.1000000001
140
2.5
141
0.0
142
0.0
143
0.0393701
144
1.0
145
0.0
146
0.71
147
1.0
 71
     0
 72
     0
 73
     0
 74
     1
 75
     0
 76
     0
 77
     3
 78
     8
170
     0
171
     2
172
     0
173
     0
174
     0
175
     0
176
   256
177
   256
178
     4
  0
DIMSTYLE
  2
AM_JIS$4
 70
     0
  3

  4
"
  5

  6

  7

 40
1.0
 41
2.5
 42
1.0
 43
7.0
 44
1.0
 45
0.0
 46
0.0
 47
0.1
 48
0.1000000001
140
2.5
141
0.0
142
0.0
143
0.0393701
144
1.0
145
0.0
146
0.71
147
1.0
 71
     0
 72
     0
 73
     0
 74
     0
 75
     0
 76
     0
 77
     3
 78
     8
170
     0
171
     2
172
     0
173
     0
174
     0
175
     0
176
   256
177
   256
178
     4
  0
DIMSTYLE
  2
AM_JIS$6
 70
     0
  3

  4
"
  5

  6

  7

 40
1.0
 41
2.5
 42
1.0
 43
7.0
 44
1.0
 45
0.0
 46
0.0
 47
0.1
 48
0.1000000001
140
2.5
141
0.0
142
0.0
143
0.0393701
144
1.0
145
0.0
146
0.71
147
1.0
 71
     0
 72
     0
 73
     0
 74
     0
 75
     0
 76
     0
 77
     0
 78
     8
170
     0
171
     2
172
     1
173
     0
174
     0
175
     0
176
   256
177
   256
178
     4
  0
DIMSTYLE
  2
AM_JIS$7
 70
     0
  3

  4
"
  5

  6

  7

 40
1.0
 41
2.5
 42
1.0
 43
7.0
 44
1.0
 45
0.0
 46
0.0
 47
0.1
 48
0.1000000001
140
2.5
141
0.0
142
0.0
143
0.0393701
144
1.0
145
0.0
146
0.71
147
1.0
 71
     0
 72
     0
 73
     0
 74
     0
 75
     0
 76
     0
 77
     3
 78
     8
170
     0
171
     2
172
     1
173
     0
174
     0
175
     0
176
   256
177
   256
178
     4
  0
DIMSTYLE
  2
AM_JIS$SF
 70
     0
  3

  4
"
  5

  6

  7

 40
1.0
 41
2.5
 42
1.0
 43
10.0
 44
1.0
 45
0.0
 46
0.0
 47
0.1
 48
0.1
140
3.5
141
0.0
142
0.0
143
0.0393701
144
1.0
145
0.0
146
0.71
147
1.5
 71
     0
 72
     0
 73
     0
 74
     0
 75
     1
 76
     1
 77
     3
 78
     8
170
     0
171
     2
172
     1
173
     0
174
     0
175
     0
176
   256
177
   256
178
     4
  0
DIMSTYLE
  2
AM_JIS$SH
 70
     0
  3

  4
"
  5

  6

  7

 40
1.0
 41
2.5
 42
1.0
 43
10.0
 44
1.0
 45
0.0
 46
0.0
 47
0.1
 48
0.1
140
3.5
141
0.0
142
0.0
143
0.0393701
144
1.0
145
0.0
146
0.71
147
1.5
 71
     0
 72
     0
 73
     0
 74
     0
 75
     1
 76
     0
 77
     3
 78
     8
170
     0
171
     2
172
     1
173
     1
174
     0
175
     0
176
   256
177
   256
178
     4
  0
DIMSTYLE
  2
AM_ANSI
 70
     0
  3

  4
mm
  5

  6

  7

 40
1.0
 41
0.12
 42
0.05
 43
0.5
 44
0.1
 45
0.0
 46
0.0
 47
0.1
 48
0.1
140
0.12
141
0.0
142
0.0
143
25.399999999999999
144
1.0
145
0.0
146
0.71
147
0.06
 71
     0
 72
     0
 73
     1
 74
     1
 75
     0
 76
     0
 77
     0
 78
     7
170
     0
171
     2
172
     0
173
     0
174
     0
175
     0
176
   256
177
   256
178
     2
  0
DIMSTYLE
  2
AM_ANSI$3
 70
     0
  3

  4
mm
  5

  6

  7

 40
1.0
 41
0.12
 42
0.05
 43
0.5
 44
0.1
 45
0.0
 46
0.0
 47
0.1
 48
0.1
140
0.12
141
0.0
142
0.0
143
25.399999999999999
144
1.0
145
0.0
146
0.71
147
0.06
 71
     0
 72
     0
 73
     1
 74
     1
 75
     0
 76
     0
 77
     0
 78
     7
170
     0
171
     2
172
     0
173
     0
174
     0
175
     0
176
   256
177
   256
178
     2
  0
DIMSTYLE
  2
AM_ANSI$4
 70
     0
  3

  4
mm
  5

  6

  7

 40
1.0
 41
0.12
 42
0.05
 43
0.5
 44
0.1
 45
0.0
 46
0.0
 47
0.1
 48
0.1
140
0.12
141
0.0
142
0.0
143
25.399999999999999
144
1.0
145
0.0
146
0.71
147
0.06
 71
     0
 72
     0
 73
     1
 74
     1
 75
     0
 76
     0
 77
     0
 78
     7
170
     0
171
     2
172
     0
173
     0
174
     0
175
     0
176
   256
177
   256
178
     2
  0
DIMSTYLE
  2
AM_ANSI$7
 70
     0
  3

  4
mm
  5

  6

  7

 40
1.0
 41
0.12
 42
0.05
 43
0.5
 44
0.1
 45
0.0
 46
0.0
 47
0.1
 48
0.1
140
0.12
141
0.0
142
0.0
143
25.399999999999999
144
1.0
145
0.0
146
0.71
147
0.06
 71
     0
 72
     0
 73
     1
 74
     1
 75
     0
 76
     0
 77
     0
 78
     7
170
     0
171
     2
172
     0
173
     0
174
     0
175
     0
176
   256
177
   256
178
     2
  0
DIMSTYLE
  2
AM_ANSI$SF
 70
     0
  3

  4
mm
  5

  6

  7

 40
1.0
 41
0.12
 42
0.05
 43
0.5
 44
0.1
 45
0.0
 46
0.0
 47
0.1
 48
0.1
140
0.12
141
0.0
142
0.0
143
25.399999999999999
144
1.0
145
0.0
146
0.71
147
0.06
 71
     0
 72
     0
 73
     1
 74
     1
 75
     1
 76
     1
 77
     0
 78
     7
170
     0
171
     2
172
     0
173
     0
174
     0
175
     0
176
   256
177
   256
178
     2
  0
DIMSTYLE
  2
AM_ANSI$SH
 70
     0
  3

  4
mm
  5

  6
GENAXEH
  7

 40
1.0
 41
0.12
 42
0.05
 43
0.5
 44
0.1
 45
0.0
 46
0.0
 47
0.1
 48
0.1
140
0.12
141
0.0
142
0.0
143
25.399999999999999
144
1.0
145
0.0
146
0.71
147
0.06
 71
     0
 72
     0
 73
     1
 74
     1
 75
     1
 76
     1
 77
     0
 78
     7
170
     0
171
     2
172
     0
173
     1
174
     0
175
     0
176
   256
177
   256
178
     2
  0
ENDTAB
  0
ENDSEC
  0
SECTION
  2
BLOCKS
  0
BLOCK
  8
0
  2
$MODEL_SPACE
 70
     0
 10
0.0
 20
0.0
 30
0.0
  3
$MODEL_SPACE
  1

  0
ENDBLK
  5
5EEC
  8
0
  0
BLOCK
 67
     1
  8
0
  2
$PAPER_SPACE
 70
     0
 10
0.0
 20
0.0
 30
0.0
  3
$PAPER_SPACE
  1

  0
ENDBLK
  5
5EE8
 67
     1
  8
0
  0
BLOCK
  8
0
  2
GENAXEH
 70
     0
 10
0.0
 20
0.0
 30
0.0
  3
GENAXEH
  1

  0
LINE
  5
73
  8
0
 10
-1.0
 20
0.0
 30
0.0
 11
1.0
 21
0.0
 31
0.0
  0
ENDBLK
  5
75
  8
0
  0
BLOCK
  8
0
  2
_OPEN30
 70
     0
 10
0.0
 20
0.0
 30
0.0
  3
_OPEN30
  1

  0
LINE
  5
31A
  8
0
 62
     0
 10
-1.0
 20
0.26794919
 30
0.0
 11
0.0
 21
0.0
 31
0.0
  0
LINE
  5
31B
  8
0
 62
     0
 10
0.0
 20
0.0
 30
0.0
 11
-1.0
 21
-0.26794919
 31
0.0
  0
LINE
  5
31C
  8
0
 62
     0
 10
0.0
 20
0.0
 30
0.0
 11
-1.0
 21
0.0
 31
0.0
  0
ENDBLK
  5
31E
  8
0
  0
BLOCK
  8
0
  2
_NONE
 70
     0
 10
0.0
 20
0.0
 30
0.0
  3
_NONE
  1

  0
ENDBLK
  5
579
  8
0
  0
BLOCK
  8
0
  2
*U5
 70
     1
 10
0.0
 20
0.0
 30
0.0
  3
*U5
  1

  0
TEXT
  5
5E79
  8
AM_0
 10
547.71280932735715
 20
576.61261360920685
 30
0.0
 40
10.0
  1
ＶＸ０４－０４０～０５０ＭＷ
 41
0.8299999999999999
  0
ENDBLK
  5
5E7B
  8
0
  0
BLOCK
  8
0
  2
_ACMFILLEDHALF
 70
     0
 10
0.0
 20
0.0
 30
0.0
  3
_ACMFILLEDHALF
  1

  0
TRACE
  5
5FEC
  8
AM_0
 62
     0
 10
-0.8
 20
0.0
 30
0.0
 11
-1.0
 21
0.166666666
 31
0.0
 12
0.0
 22
0.0
 32
0.0
 13
0.0
 23
0.0
 33
0.0
  0
LINE
  5
5FED
  8
AM_0
 62
     0
 10
-1.0
 20
0.0
 30
0.0
 11
-0.8
 21
0.0
 31
0.0
  0
ENDBLK
  5
5FEB
  8
0
  0
ENDSEC
  0
SECTION
  2
ENTITIES
  0
LINE
  5
19B2
  8
AM_0
 10
167.33287713026101
 20
240.79941432153771
 30
0.0
 11
132.33286713026081
 21
242.82941532153771
 31
0.0
  0
LINE
  5
19B3
  8
AM_0
 10
167.33287713026101
 20
333.49942332153768
 30
0.0
 11
132.33286713026081
 21
331.46941332153767
 31
0.0
  0
LINE
  5
19B4
  8
AM_0
 10
119.612897130261
 20
239.5094233215377
 30
0.0
 11
122.332877130261
 21
239.5094233215377
 31
0.0
  0
LINE
  5
19B5
  8
AM_0
 10
119.1028971302609
 20
237.53943732153769
 30
0.0
 11
117.832877130261
 21
238.2694303215377
 31
0.0
  0
LINE
  5
19B6
  8
AM_0
 10
122.332877130261
 20
229.7194123215377
 30
0.0
 11
125.1528771302609
 21
229.6494043215377
 31
0.0
  0
LINE
  5
19B7
  8
AM_0
 10
119.0828871302608
 20
244.1894293215376
 30
0.0
 11
117.78289713026101
 21
245.0394043215376
 31
0.0
  0
LINE
  5
19B8
  8
AM_0
 10
119.092877130261
 20
239.64943632153771
 30
0.0
 11
117.8128671302609
 21
240.41944032153771
 31
0.0
  0
LINE
  5
19B9
  8
AM_0
 10
119.6029071302609
 20
237.3994063215377
 30
0.0
 11
121.832927130261
 21
237.3994063215377
 31
0.0
  0
LINE
  5
19BA
  8
AM_0
 10
119.57287713026101
 20
238.54941432153771
 30
0.0
 11
121.832927130261
 21
238.54941432153771
 31
0.0
  0
LINE
  5
19BB
  8
AM_0
 10
119.1229071302609
 20
238.65941532153769
 30
0.0
 11
117.8828571302609
 21
239.2894213215377
 31
0.0
  0
LINE
  5
19BC
  8
AM_0
 10
119.6029071302609
 20
245.1694093215377
 30
0.0
 11
121.3328871302608
 21
245.1694093215377
 31
0.0
  0
LINE
  5
19BD
  8
AM_0
 10
119.6329371302609
 20
244.02939432153769
 30
0.0
 11
122.332877130261
 21
244.02939432153769
 31
0.0
  0
LINE
  5
19BE
  8
AM_0
 10
119.582927130261
 20
240.6494053215377
 30
0.0
 11
121.3328871302608
 21
240.6494053215377
 31
0.0
  0
LINE
  5
19BF
  8
AM_0
 10
119.1028371302608
 20
245.2994293215377
 30
0.0
 11
117.8228571302608
 21
246.04941432153771
 31
0.0
  0
LINE
  5
19C0
  8
AM_0
 10
270.332927130261
 20
223.64941932153769
 30
0.0
 11
278.33288713026081
 21
223.64941932153769
 31
0.0
  0
LINE
  5
19C1
  8
AM_0
 10
270.332927130261
 20
235.6493953215377
 30
0.0
 11
278.33288713026081
 21
235.6493953215377
 31
0.0
  0
LINE
  5
19C2
  8
AM_0
 10
167.33287713026101
 20
240.79941432153771
 30
0.0
 11
269.33287713026101
 21
240.79941432153771
 31
0.0
  0
LINE
  5
19C3
  8
AM_0
 10
269.042897130261
 20
236.11940832153769
 30
0.0
 11
266.63293713026093
 21
236.11940832153769
 31
0.0
  0
LINE
  5
19C4
  8
AM_0
 10
266.13286713026088
 20
228.2294083215377
 30
0.0
 11
267.57286713026087
 21
234.9294043215377
 31
0.0
  0
LINE
  5
19C5
  8
AM_0
 10
264.04288713026091
 20
226.64942232153771
 30
0.0
 11
269.33287713026101
 21
226.64942232153771
 31
0.0
  0
LINE
  5
19C7
  8
AM_0
 10
127.0128771302609
 20
253.77939732153769
 30
0.0
 11
170.33287713026101
 21
253.77939732153769
 31
0.0
  0
LINE
  5
19C8
  8
AM_0
 10
170.33287713026101
 20
251.14940532153781
 30
0.0
 11
127.8829371302609
 21
251.1494053215377
 31
0.0
  0
LINE
  5
19CA
  8
AM_0
 10
127.0128771302609
 20
250.42942032153769
 30
0.0
 11
170.33287713026101
 21
250.42942032153769
 31
0.0
  0
LINE
  5
19CB
  8
AM_0
 10
122.332877130261
 20
252.84940332153769
 30
0.0
 11
125.502917130261
 21
252.84940332153769
 31
0.0
  0
LINE
  5
19CC
  8
AM_0
 10
128.50291713026101
 20
228.88941132153769
 30
0.0
 11
141.83287713026101
 21
228.88941132153769
 31
0.0
  0
LINE
  5
19CD
  8
AM_0
 10
145.33288713026079
 20
225.28940532153771
 30
0.0
 11
262.14286713026098
 21
225.28940532153771
 31
0.0
  0
LINE
  5
19CE
  8
AM_0
 10
128.4428571302609
 20
223.84941732153769
 30
0.0
 11
141.9428571302609
 21
223.84941732153769
 31
0.0
  0
LINE
  5
19CF
  8
AM_0
 10
128.5629171302609
 20
234.1693963215377
 30
0.0
 11
141.83287713026101
 21
234.1693963215377
 31
0.0
  0
LINE
  5
19D0
  8
AM_0
 10
126.052847130261
 20
238.79941632153771
 30
0.0
 11
126.592877130261
 21
235.80940932153769
 31
0.0
  0
LINE
  5
19D1
  8
AM_0
 10
119.332877130261
 20
244.31941932153771
 30
0.0
 11
119.332877130261
 21
244.78940532153771
 31
0.0
  0
LINE
  5
19D2
  8
AM_0
 10
122.332877130261
 20
238.79940132153769
 30
0.0
 11
132.332927130261
 21
238.79940132153769
 31
0.0
  0
LINE
  5
19D3
  8
AM_0
 10
119.332877130261
 20
239.74939632153769
 30
0.0
 11
119.332877130261
 21
240.29940132153769
 31
0.0
  0
LINE
  5
19D4
  8
AM_0
 10
119.112827130261
 20
240.76940232153771
 30
0.0
 11
117.86290713026079
 21
241.4294053215377
 31
0.0
  0
LINE
  5
19D5
  8
AM_0
 10
132.332927130261
 20
238.79940132153769
 30
0.0
 11
132.332927130261
 21
252.84940332153769
 31
0.0
  0
LINE
  5
19D6
  8
AM_0
 10
119.332877130261
 20
237.6494053215377
 30
0.0
 11
119.332877130261
 21
238.17940332153771
 31
0.0
  0
LINE
  5
19D7
  8
AM_0
 10
264.0728571302609
 20
226.7694163215377
 30
0.0
 11
267.53287713026089
 21
239.6894143215377
 31
0.0
  0
LINE
  5
19D8
  8
AM_0
 10
126.502847130261
 20
225.35941332153769
 30
0.0
 11
125.6128371302609
 21
228.8994043215377
 31
0.0
  0
LINE
  5
19D9
  8
AM_0
 10
126.5228871302609
 20
227.01941532153771
 30
0.0
 11
125.6028471302609
 21
230.89942032153769
 31
0.0
  0
LINE
  5
19DA
  8
AM_0
 10
200.33287713026101
 20
223.23940332153771
 30
0.0
 11
200.33287713026101
 21
225.28940532153771
 31
0.0
  0
LINE
  5
19DB
  8
AM_0
 10
143.33287713026101
 20
225.2594203215377
 30
0.0
 11
143.33287713026101
 21
232.66939332153771
 31
0.0
  0
LINE
  5
19DC
  8
AM_0
 10
124.16287713026099
 20
230.02941132153771
 30
0.0
 11
125.8129071302608
 21
230.02941132153771
 31
0.0
  0
LINE
  5
19DF
  8
AM_0
 10
167.33287713026101
 20
333.49939332153758
 30
0.0
 11
269.33287713026101
 21
333.49939332153758
 31
0.0
  0
LINE
  5
19E0
  8
AM_0
 10
269.33287713026101
 20
349.64941332153768
 30
0.0
 11
269.33287713026101
 21
224.6494063215377
 31
0.0
  0
LINE
  5
19E2
  8
AM_0
 10
270.332927130261
 20
350.6494033215377
 30
0.0
 11
278.33288713026081
 21
350.6494033215377
 31
0.0
  0
LINE
  5
19E4
  8
AM_0
 10
269.33287713026101
 20
324.29940132153769
 30
0.0
 11
278.33288713026087
 21
324.29940132153769
 31
0.0
  0
LINE
  5
19E5
  8
AM_0
 10
270.332927130261
 20
338.64939732153772
 30
0.0
 11
278.33288713026081
 21
338.64939732153772
 31
0.0
  0
LINE
  5
19E6
  8
AM_0
 10
269.33287713026101
 20
249.9994123215377
 30
0.0
 11
278.33288713026087
 21
249.9994123215377
 31
0.0
  0
LINE
  5
19E8
  8
AM_0
 10
122.33281713026091
 20
344.57944332153772
 30
0.0
 11
125.152817130261
 21
344.64943332153769
 31
0.0
  0
LINE
  5
19E9
  8
AM_0
 10
122.332877130261
 20
344.57941332153757
 30
0.0
 11
122.332877130261
 21
287.14940832153769
 31
0.0
  0
LINE
  5
19EA
  8
AM_0
 10
117.332927130261
 20
335.16940332153769
 30
0.0
 11
117.332927130261
 21
292.14940632153758
 31
0.0
  0
LINE
  5
19EB
  8
AM_0
 10
119.6029071302609
 20
336.89941332153768
 30
0.0
 11
121.832927130261
 21
336.89941332153768
 31
0.0
  0
LINE
  5
19ED
  8
AM_0
 10
119.5328871302609
 20
322.83941232153768
 30
0.0
 11
121.6328571302609
 21
322.83941232153768
 31
0.0
  0
LINE
  5
19EE
  8
AM_0
 10
119.1028971302609
 20
336.76939332153768
 30
0.0
 11
117.832877130261
 21
336.02941332153767
 31
0.0
  0
LINE
  5
19EF
  8
AM_0
 10
119.0928171302609
 20
334.64941332153768
 30
0.0
 11
117.8128671302609
 21
333.8794333215377
 31
0.0
  0
LINE
  5
19F0
  8
AM_0
 10
119.0828871302608
 20
330.10936332153773
 30
0.0
 11
117.78289713026101
 21
329.25940332153772
 31
0.0
  0
LINE
  5
19F1
  8
AM_0
 10
119.14285713026079
 20
322.75942332153772
 30
0.0
 11
117.9428571302609
 21
322.2494143215377
 31
0.0
  0
LINE
  5
19F2
  8
AM_0
 10
119.612897130261
 20
334.78939332153772
 30
0.0
 11
122.332877130261
 21
334.78939332153772
 31
0.0
  0
LINE
  5
19F3
  8
AM_0
 10
119.6329371302609
 20
330.2794033215377
 30
0.0
 11
122.332877130261
 21
330.2794033215377
 31
0.0
  0
LINE
  5
19F4
  8
AM_0
 10
119.4829071302609
 20
320.88939732153767
 30
0.0
 11
121.3328871302608
 21
320.88939732153767
 31
0.0
  0
LINE
  5
19F5
  8
AM_0
 10
119.6029071302609
 20
329.13940332153771
 30
0.0
 11
121.3328871302608
 21
329.13940332153771
 31
0.0
  0
LINE
  5
19F6
  8
AM_0
 10
119.582927130261
 20
333.6494233215376
 30
0.0
 11
121.3328871302608
 21
333.6494233215376
 31
0.0
  0
LINE
  5
19F7
  8
AM_0
 10
119.57287713026101
 20
335.74939332153758
 30
0.0
 11
121.832927130261
 21
335.74939332153758
 31
0.0
  0
LINE
  5
19F8
  8
AM_0
 10
119.1028971302609
 20
328.99939332153758
 30
0.0
 11
117.8228571302608
 21
328.24938432153772
 31
0.0
  0
LINE
  5
19F9
  8
AM_0
 10
119.192927130261
 20
320.84938932153773
 30
0.0
 11
118.0429071302608
 21
320.4994153215377
 31
0.0
  0
LINE
  5
19FA
  8
AM_0
 10
119.1229071302609
 20
335.6494033215377
 30
0.0
 11
117.8828571302609
 21
335.01940332153771
 31
0.0
  0
LINE
  5
19FB
  8
AM_0
 10
119.112827130261
 20
333.53941332153772
 30
0.0
 11
117.862847130261
 21
332.86942332153768
 31
0.0
  0
LINE
  5
19FC
  8
AM_0
 10
121.3328871302608
 20
313.14940932153769
 30
0.0
 11
118.3328871302608
 21
313.14940932153769
 31
0.0
  0
LINE
  5
19FD
  8
AM_0
 10
121.3328871302608
 20
311.14940832153769
 30
0.0
 11
118.3328871302608
 21
311.14940832153769
 31
0.0
  0
LINE
  5
19FE
  8
AM_0
 10
121.3328871302608
 20
303.14940732153769
 30
0.0
 11
118.3328871302608
 21
303.14940732153769
 31
0.0
  0
LINE
  5
19FF
  8
AM_0
 10
121.3328871302608
 20
301.14940932153769
 30
0.0
 11
118.3328871302608
 21
301.14940932153769
 31
0.0
  0
LINE
  5
1A00
  8
AM_0
 10
121.3328871302608
 20
293.14940832153781
 30
0.0
 11
118.3328871302608
 21
293.14940832153781
 31
0.0
  0
LINE
  5
1A01
  8
AM_0
 10
121.3328871302608
 20
291.14940732153758
 30
0.0
 11
118.3328871302608
 21
291.14940732153758
 31
0.0
  0
LINE
  5
1A02
  8
AM_0
 10
119.332877130261
 20
302.75939232153769
 30
0.0
 11
119.332877130261
 21
301.54940232153768
 31
0.0
  0
LINE
  5
1A03
  8
AM_0
 10
119.332877130261
 20
292.75942332153772
 30
0.0
 11
119.332877130261
 21
291.59938932153761
 31
0.0
  0
LINE
  5
1A04
  8
AM_0
 10
119.332877130261
 20
312.77941332153779
 30
0.0
 11
119.332877130261
 21
311.40941832153771
 31
0.0
  0
LINE
  5
1A05
  8
AM_0
 10
119.332877130261
 20
322.53942432153758
 30
0.0
 11
119.332877130261
 21
321.47942532153769
 31
0.0
  0
LINE
  5
1A06
  8
AM_0
 10
119.332877130261
 20
329.97940332153769
 30
0.0
 11
119.332877130261
 21
329.50942332153761
 31
0.0
  0
LINE
  5
1A07
  8
AM_0
 10
119.332877130261
 20
334.54939332153771
 30
0.0
 11
119.332877130261
 21
333.99940332153773
 31
0.0
  0
LINE
  5
1A08
  8
AM_0
 10
119.332877130261
 20
336.64942332153771
 30
0.0
 11
119.332877130261
 21
336.11941332153771
 31
0.0
  0
LINE
  5
1A09
  8
AM_0
 10
115.832927130261
 20
307.14940932153769
 30
0.0
 11
115.832927130261
 21
287.14940832153769
 31
0.0
  0
LINE
  5
1A0A
  8
AM_0
 10
115.83286713026079
 20
307.14943932153761
 30
0.0
 11
117.33286713026079
 21
307.27941432153767
 31
0.0
  0
LINE
  5
1A0B
  8
AM_0
 10
115.832927130261
 20
304.42940532153767
 30
0.0
 11
117.332927130261
 21
304.42940532153767
 31
0.0
  0
LINE
  5
1A12
  8
AM_0
 10
132.332927130261
 20
335.49940332153773
 30
0.0
 11
132.332927130261
 21
321.45940632153759
 31
0.0
  0
LINE
  5
1A13
  8
AM_0
 10
122.332877130261
 20
321.45940632153759
 30
0.0
 11
132.332927130261
 21
321.45940632153759
 31
0.0
  0
LINE
  5
1A14
  8
AM_0
 10
122.332877130261
 20
329.83942332153771
 30
0.0
 11
132.332927130261
 21
329.83942332153771
 31
0.0
  0
LINE
  5
1A15
  8
AM_0
 10
122.332877130261
 20
335.49940332153773
 30
0.0
 11
132.332927130261
 21
335.49940332153773
 31
0.0
  0
LINE
  5
1A22
  8
AM_0
 10
169.33287713026101
 20
273.14942232153771
 30
0.0
 11
127.8829371302609
 21
273.14942232153771
 31
0.0
  0
LINE
  5
1A28
  8
AM_0
 10
145.33288713026079
 20
349.00942332153772
 30
0.0
 11
262.14286713026098
 21
349.00942332153772
 31
0.0
  0
LINE
  5
1A29
  8
AM_0
 10
128.5629171302609
 20
340.12942332153767
 30
0.0
 11
141.83287713026101
 21
340.12942332153767
 31
0.0
  0
LINE
  5
1A2A
  8
AM_0
 10
126.05290713026091
 20
335.49943332153771
 30
0.0
 11
126.592877130261
 21
338.48944332153758
 31
0.0
  0
LINE
  5
1A2B
  8
AM_0
 10
128.50291713026101
 20
345.41938332153779
 30
0.0
 11
141.83287713026101
 21
345.41938332153779
 31
0.0
  0
LINE
  5
1A2D
  8
AM_0
 10
128.4728871302608
 20
348.81940332153772
 30
0.0
 11
141.83287713026101
 21
348.81940332153772
 31
0.0
  0
LINE
  5
1A2E
  8
AM_0
 10
128.4428571302609
 20
350.44939332153768
 30
0.0
 11
141.9428571302609
 21
350.44939332153768
 31
0.0
  0
LINE
  5
1A2F
  8
AM_0
 10
145.33288713026079
 20
353.06941332153758
 30
0.0
 11
198.332927130261
 21
353.06941332153758
 31
0.0
  0
LINE
  5
1A30
  8
AM_0
 10
145.33288713026079
 20
352.38940332153771
 30
0.0
 11
198.332927130261
 21
352.38940332153771
 31
0.0
  0
LINE
  5
1A31
  8
AM_0
 10
145.33288713026079
 20
351.03943332153767
 30
0.0
 11
198.332927130261
 21
351.03943332153767
 31
0.0
  0
LINE
  5
1A32
  8
AM_0
 10
124.1228571302609
 20
338.18941332153759
 30
0.0
 11
126.5328771302609
 21
338.18941332153759
 31
0.0
  0
LINE
  5
1A33
  8
AM_0
 10
126.54283713026091
 20
343.83943332153768
 30
0.0
 11
125.5828071302609
 21
339.36943332153771
 31
0.0
  0
LINE
  5
1A34
  8
AM_0
 10
124.142867130261
 20
342.24940332153773
 30
0.0
 11
126.20293713026081
 21
342.24940332153773
 31
0.0
  0
LINE
  5
1A35
  8
AM_0
 10
170.33287713026101
 20
323.14940832153769
 30
0.0
 11
136.8829371302609
 21
323.14940832153769
 31
0.0
  0
LINE
  5
1A36
  8
AM_0
 10
170.33287713026101
 20
321.14940732153769
 30
0.0
 11
136.8829371302609
 21
321.14940732153769
 31
0.0
  0
LINE
  5
1A37
  8
AM_0
 10
169.33287713026101
 20
313.14940932153769
 30
0.0
 11
136.8829371302609
 21
313.14940932153769
 31
0.0
  0
LINE
  5
1A38
  8
AM_0
 10
126.5228871302609
 20
347.27941332153767
 30
0.0
 11
125.6029071302609
 21
343.39942332153782
 31
0.0
  0
LINE
  5
1A39
  8
AM_0
 10
169.33287713026101
 20
311.14940832153769
 30
0.0
 11
136.8829371302609
 21
311.14940832153769
 31
0.0
  0
LINE
  5
1A3A
  8
AM_0
 10
124.16287713026099
 20
344.26939332153768
 30
0.0
 11
125.8129071302608
 21
344.26939332153768
 31
0.0
  0
LINE
  5
1A3B
  8
AM_0
 10
126.502847130261
 20
348.93940332153772
 30
0.0
 11
125.6128371302609
 21
345.40942332153759
 31
0.0
  0
LINE
  5
1A3C
  8
AM_0
 10
169.33287713026101
 20
303.14940732153769
 30
0.0
 11
127.8829371302609
 21
303.14940732153769
 31
0.0
  0
LINE
  5
1A3D
  8
AM_0
 10
143.33287713026101
 20
349.03939332153772
 30
0.0
 11
143.33287713026101
 21
341.62942332153767
 31
0.0
  0
LINE
  5
1A3E
  8
AM_0
 10
169.33287713026101
 20
301.14940932153758
 30
0.0
 11
127.8829371302609
 21
301.14940932153769
 31
0.0
  0
LINE
  5
1A3F
  8
AM_0
 10
140.93420603391499
 20
293.14940832153781
 30
0.0
 11
127.8829371302609
 21
293.14940832153781
 31
0.0
  0
LINE
  5
1A40
  8
AM_0
 10
200.33287713026101
 20
351.06940332153772
 30
0.0
 11
200.33287713026101
 21
349.00942332153772
 31
0.0
  0
LINE
  5
1A41
  8
AM_0
 10
140.93420603391499
 20
291.14940732153758
 30
0.0
 11
127.8829371302609
 21
291.14940732153758
 31
0.0
  0
LINE
  5
1A42
  8
AM_0
 10
264.0728571302609
 20
347.5294033215377
 30
0.0
 11
267.53287713026089
 21
334.60942332153769
 31
0.0
  0
LINE
  5
1A43
  8
AM_0
 10
264.04288713026091
 20
347.6494033215377
 30
0.0
 11
269.33287713026101
 21
347.6494033215377
 31
0.0
  0
LINE
  5
1A44
  8
AM_0
 10
269.042897130261
 20
338.18941332153759
 30
0.0
 11
266.63293713026093
 21
338.18941332153759
 31
0.0
  0
LINE
  5
1A45
  8
AM_0
 10
266.1329271302609
 20
346.06942332153778
 30
0.0
 11
267.57292713026089
 21
339.36943332153771
 31
0.0
  0
LINE
  5
1A46
  8
AM_0
 10
122.332877130261
 20
229.7194123215377
 30
0.0
 11
122.332877130261
 21
287.14940832153769
 31
0.0
  0
LINE
  5
1A47
  8
AM_0
 10
117.332927130261
 20
238.55939532153761
 30
0.0
 11
117.332927130261
 21
282.14942232153771
 31
0.0
  0
LINE
  5
1A48
  8
AM_0
 10
119.5328871302609
 20
251.4594043215377
 30
0.0
 11
121.6328571302609
 21
251.4594043215377
 31
0.0
  0
LINE
  5
1A49
  8
AM_0
 10
119.14285713026079
 20
251.5394203215377
 30
0.0
 11
117.9429171302608
 21
252.05939532153761
 31
0.0
  0
LINE
  5
1A4A
  8
AM_0
 10
119.4829071302609
 20
253.40941632153769
 30
0.0
 11
121.3328871302608
 21
253.40941632153769
 31
0.0
  0
LINE
  5
1A4B
  8
AM_0
 10
119.19286713026079
 20
253.44942432153769
 30
0.0
 11
118.0429071302608
 21
253.8094243215377
 31
0.0
  0
LINE
  5
1A4C
  8
AM_0
 10
121.3328871302608
 20
261.14942232153771
 30
0.0
 11
118.3328871302608
 21
261.14942232153771
 31
0.0
  0
LINE
  5
1A4D
  8
AM_0
 10
121.3328871302608
 20
263.1494053215377
 30
0.0
 11
118.3328871302608
 21
263.1494053215377
 31
0.0
  0
LINE
  5
1A4E
  8
AM_0
 10
121.3328871302608
 20
271.1494063215377
 30
0.0
 11
118.3328871302608
 21
271.1494063215377
 31
0.0
  0
LINE
  5
1A4F
  8
AM_0
 10
121.3328871302608
 20
273.14942232153771
 30
0.0
 11
118.3328871302608
 21
273.14942232153771
 31
0.0
  0
LINE
  5
1A50
  8
AM_0
 10
121.3328871302608
 20
281.14940832153769
 30
0.0
 11
118.3328871302608
 21
281.14940832153769
 31
0.0
  0
LINE
  5
1A51
  8
AM_0
 10
121.3328871302608
 20
283.1494063215377
 30
0.0
 11
118.3328871302608
 21
283.1494063215377
 31
0.0
  0
LINE
  5
1A52
  8
AM_0
 10
119.332877130261
 20
271.5394213215377
 30
0.0
 11
119.332877130261
 21
272.75940732153771
 31
0.0
  0
LINE
  5
1A53
  8
AM_0
 10
119.332877130261
 20
281.53940532153769
 30
0.0
 11
119.332877130261
 21
282.69942432153772
 31
0.0
  0
LINE
  5
1A54
  8
AM_0
 10
119.332877130261
 20
261.51940032153772
 30
0.0
 11
119.332877130261
 21
262.88939832153773
 31
0.0
  0
LINE
  5
1A55
  8
AM_0
 10
119.332877130261
 20
251.75940732153771
 30
0.0
 11
119.332877130261
 21
252.81940332153769
 31
0.0
  0
LINE
  5
1A56
  8
AM_0
 10
115.832927130261
 20
267.14942232153771
 30
0.0
 11
115.832927130261
 21
287.14940832153769
 31
0.0
  0
LINE
  5
1A57
  8
AM_0
 10
115.83286713026079
 20
267.14940732153758
 30
0.0
 11
117.33286713026079
 21
267.01940232153771
 31
0.0
  0
LINE
  5
1A58
  8
AM_0
 10
115.832927130261
 20
269.86940832153772
 30
0.0
 11
117.332927130261
 21
269.86940832153772
 31
0.0
  0
LINE
  5
1A59
  8
AM_0
 10
145.33288713026079
 20
221.2294063215376
 30
0.0
 11
198.332927130261
 21
221.2294063215376
 31
0.0
  0
LINE
  5
1A5A
  8
AM_0
 10
128.4728871302608
 20
225.4794223215377
 30
0.0
 11
141.83287713026101
 21
225.4794223215377
 31
0.0
  0
LINE
  5
1A5B
  8
AM_0
 10
122.332877130261
 20
244.45940232153771
 30
0.0
 11
132.332927130261
 21
244.45940232153771
 31
0.0
  0
LINE
  5
1A5C
  8
AM_0
 10
145.33288713026079
 20
221.90941632153769
 30
0.0
 11
198.332927130261
 21
221.90941632153769
 31
0.0
  0
LINE
  5
1A5D
  8
AM_0
 10
124.142867130261
 20
232.04939832153769
 30
0.0
 11
126.20293713026081
 21
232.04939832153769
 31
0.0
  0
LINE
  5
1A5E
  8
AM_0
 10
124.1228571302609
 20
236.11940832153769
 30
0.0
 11
126.5328771302609
 21
236.11940832153769
 31
0.0
  0
LINE
  5
1A5F
  8
AM_0
 10
126.542897130261
 20
230.4694123215377
 30
0.0
 11
125.58286713026089
 21
234.9294043215377
 31
0.0
  0
LINE
  5
1A60
  8
AM_0
 10
145.33288713026079
 20
223.25940732153771
 30
0.0
 11
198.332927130261
 21
223.25940732153771
 31
0.0
  0
LINE
  5
1A61
  8
AM_0
 10
126.79288713026079
 20
260.6594023215377
 30
0.0
 11
169.33287713026101
 21
260.6594023215377
 31
0.0
  0
LINE
  5
1A62
  8
AM_0
 10
170.33287713026101
 20
253.1494063215377
 30
0.0
 11
128.322917130261
 21
253.14940632153761
 31
0.0
  0
LINE
  5
1A63
  8
AM_0
 10
136.0128771302609
 20
323.86940832153772
 30
0.0
 11
170.33287713026101
 21
323.86940832153772
 31
0.0
  0
LINE
  5
1A64
  8
AM_0
 10
136.0128771302609
 20
320.51940432153771
 30
0.0
 11
170.33287713026101
 21
320.51940432153771
 31
0.0
  0
LINE
  5
1A65
  8
AM_0
 10
135.79288713026091
 20
313.63939932153772
 30
0.0
 11
169.33287713026101
 21
313.63939932153772
 31
0.0
  0
LINE
  5
1A66
  8
AM_0
 10
135.79288713026091
 20
310.7094043215377
 30
0.0
 11
169.33287713026101
 21
310.7094043215377
 31
0.0
  0
LINE
  5
1A67
  8
AM_0
 10
126.662897130261
 20
303.48940332153762
 30
0.0
 11
169.33287713026101
 21
303.48940332153762
 31
0.0
  0
LINE
  5
1A68
  8
AM_0
 10
126.662897130261
 20
300.82939932153772
 30
0.0
 11
169.33287713026101
 21
300.82939932153772
 31
0.0
  0
LINE
  5
1A69
  8
AM_0
 10
126.6028971302609
 20
293.41939632153759
 30
0.0
 11
140.93420603391499
 21
293.41939632153759
 31
0.0
  0
LINE
  5
1A6A
  8
AM_0
 10
126.6028971302609
 20
290.88939732153767
 30
0.0
 11
140.93420603391499
 21
290.88939732153767
 31
0.0
  0
LINE
  5
1A6B
  8
AM_0
 10
143.33287713026101
 20
324.38939832153773
 30
0.0
 11
143.33287713026101
 21
324.3193903215377
 31
0.0
  0
LINE
  5
1A6F
  8
AM_0
 10
126.6028971302609
 20
283.41941232153772
 30
0.0
 11
140.93420603391499
 21
283.41941232153772
 31
0.0
  0
LINE
  5
1A70
  8
AM_0
 10
140.93420603391499
 20
281.14940832153769
 30
0.0
 11
127.8829371302609
 21
281.14940832153769
 31
0.0
  0
LINE
  5
1A71
  8
AM_0
 10
140.93420603391499
 20
283.1494063215377
 30
0.0
 11
127.8829371302609
 21
283.1494063215377
 31
0.0
  0
LINE
  5
1A74
  8
AM_0
 10
126.662897130261
 20
273.46941432153773
 30
0.0
 11
169.33287713026101
 21
273.46941432153773
 31
0.0
  0
LINE
  5
1A75
  8
AM_0
 10
115.832927130261
 20
302.29940232153768
 30
0.0
 11
120.11290713026079
 21
302.29940232153768
 31
0.0
  0
LINE
  5
1A78
  8
AM_0
 10
169.33287713026101
 20
271.1494063215377
 30
0.0
 11
127.8829371302609
 21
271.1494063215377
 31
0.0
  0
LINE
  5
1A79
  8
AM_0
 10
126.662897130261
 20
270.80939532153758
 30
0.0
 11
169.33287713026101
 21
270.80939532153769
 31
0.0
  0
LINE
  5
1A7A
  8
AM_0
 10
169.33287713026101
 20
263.1494053215377
 30
0.0
 11
127.8829371302609
 21
263.1494053215377
 31
0.0
  0
LINE
  5
1A7B
  8
AM_0
 10
126.79288713026079
 20
263.58940932153769
 30
0.0
 11
169.33287713026101
 21
263.58940932153769
 31
0.0
  0
LINE
  5
1A7C
  8
AM_0
 10
169.33287713026101
 20
261.14942232153771
 30
0.0
 11
127.8829371302609
 21
261.14942232153771
 31
0.0
  0
LINE
  5
1A7E
  8
AM_0
 10
126.6028971302609
 20
280.87941732153757
 30
0.0
 11
140.93420603391499
 21
280.87941732153757
 31
0.0
  0
LINE
  5
1A7F
  8
AM_0
 10
115.832927130261
 20
271.99939632153769
 30
0.0
 11
120.41287713026099
 21
271.99939632153769
 31
0.0
  0
ARC
  5
1AF8
  8
AM_0
 10
118.32610713026079
 20
335.16733332153768
 30
0.0
 40
0.9931920599999999
 50
119.7734
 51
179.87956
  0
ARC
  5
1AF9
  8
AM_0
 10
118.32847713026079
 20
334.12909332153771
 30
0.0
 40
0.9955880999999999
 50
116.58749
 51
179.98224999999999
  0
ARC
  5
1AFA
  8
AM_0
 10
119.594897130261
 20
335.90353332153768
 30
0.0
 40
0.9959119799999999
 50
89.541443999999998
 51
119.60699
  0
ARC
  5
1AFB
  8
AM_0
 10
119.557667130261
 20
334.7554033215377
 30
0.0
 40
0.99412809
 50
89.122808000000006
 51
115.93481
  0
ARC
  5
1AFC
  8
AM_0
 10
119.601737130261
 20
333.79519332153768
 30
0.0
 40
0.9942600299999999
 50
89.355881999999966
 51
120.78109000000001
  0
ARC
  5
1AFD
  8
AM_0
 10
119.5679871302609
 20
332.65405332153767
 30
0.0
 40
0.99546798
 50
89.141447999999983
 51
117.20366
  0
ARC
  5
1AFE
  8
AM_0
 10
119.6395071302609
 20
329.28319332153768
 30
0.0
 40
0.9962120399999999
 50
90.381906000000001
 51
123.9699
  0
ARC
  5
1AFF
  8
AM_0
 10
119.612297130261
 20
328.14290832153767
 30
0.0
 40
0.9965200799999999
 50
90.541213000000027
 51
120.74328
  0
ARC
  5
1B00
  8
AM_0
 10
118.3269471302609
 20
327.39260232153771
 30
0.0
 40
0.9940760400000001
 50
120.4692
 51
180.18464
  0
ARC
  5
1B01
  8
AM_0
 10
118.327697130261
 20
328.42699632153767
 30
0.0
 40
0.9948280200000002
 50
123.20469
 51
180.43813
  0
ARC
  5
1B02
  8
AM_0
 10
118.32610713026079
 20
331.9908433215378
 30
0.0
 40
0.99321207
 50
117.79934
 51
180.08183
  0
ARC
  5
1B04
  8
AM_0
 10
118.32730713026081
 20
333.02836332153771
 30
0.0
 40
0.99443607
 50
121.15217
 51
179.94049000000001
  0
ARC
  5
1B05
  8
AM_0
 10
119.533877130261
 20
321.8439283215377
 30
0.0
 40
0.9954800999999999
 50
90.057320999999988
 51
113.12703
  0
ARC
  5
1B06
  8
AM_0
 10
135.4735671302609
 20
245.93029032153771
 30
0.0
 40
1.00423602
 50
314.93782999999991
 51
5.6649238999999989
  0
ARC
  5
1B0A
  8
AM_0
 10
119.472047130261
 20
319.89669132153767
 30
0.0
 40
0.992772
 50
89.374808000000016
 51
106.33181999999999
  0
ARC
  5
1B0B
  8
AM_0
 10
118.3291371302609
 20
319.54516032153771
 30
0.0
 40
0.9962600700000001
 50
106.69749
 51
180.33049
  0
ARC
  5
1B0C
  8
AM_0
 10
118.32928713026079
 20
321.33098832153769
 30
0.0
 40
0.99640008
 50
112.81739
 51
180.09039999999999
  0
ARC
  5
1B0D
  8
AM_0
 10
118.32793713026081
 20
312.15432132153768
 30
0.0
 40
0.9950800799999999
 50
89.71592099999998
 51
180.2840699999999
  0
ARC
  5
1B0E
  8
AM_0
 10
118.333067130261
 20
312.14962032153772
 30
0.0
 40
1.000203989999999
 50
180.01167000000001
 51
269.9883200000001
  0
ARC
  5
1B0F
  8
AM_0
 10
118.32793713026081
 20
302.15432232153768
 30
0.0
 40
0.99508401
 50
89.716132999999985
 51
180.28387000000001
  0
ARC
  5
1B10
  8
AM_0
 10
118.333067130261
 20
302.14962132153772
 30
0.0
 40
1.0002000600000001
 50
180.01146999999989
 51
269.98853000000003
  0
ARC
  5
1B11
  8
AM_0
 10
118.32793713026081
 20
292.15435032153772
 30
0.0
 40
0.9950879999999999
 50
89.716344999999961
 51
180.28364999999999
  0
ARC
  5
1B12
  8
AM_0
 10
118.333067130261
 20
292.14958932153769
 30
0.0
 40
1.00019601
 50
180.01124999999999
 51
269.98874000000001
  0
ARC
  5
1B13
  8
AM_0
 10
121.333067130261
 20
290.1495613215377
 30
0.0
 40
0.9998480400000001
 50
359.99122
 51
90.008778999999976
  0
ARC
  5
1B14
  8
AM_0
 10
121.3279971302609
 20
294.15432132153779
 30
0.0
 40
1.00492398
 50
270.28001
 51
359.71999000000011
  0
ARC
  5
1B15
  8
AM_0
 10
121.333067130261
 20
300.14956032153771
 30
0.0
 40
0.9998440499999999
 50
359.99101000000002
 51
90.008991000000023
  0
ARC
  5
1B16
  8
AM_0
 10
121.3279971302609
 20
304.15432032153768
 30
0.0
 40
1.0049280299999981
 50
270.28021999999999
 51
359.71978000000001
  0
ARC
  5
1B17
  8
AM_0
 10
121.333067130261
 20
310.14955932153771
 30
0.0
 40
0.9998520899999999
 50
359.99144999999999
 51
90.008546999999993
  0
ARC
  5
1B18
  8
AM_0
 10
121.3279971302609
 20
314.15432232153768
 30
0.0
 40
1.0049319599999991
 50
270.28041999999999
 51
359.71958000000001
  0
ARC
  5
1B19
  8
AM_0
 10
121.334597130261
 20
319.89110832153767
 30
0.0
 40
0.99829605
 50
359.90204000000011
 51
90.097960999999998
  0
ARC
  5
1B1A
  8
AM_0
 10
121.33048713026091
 20
328.13704932153769
 30
0.0
 40
1.0023759899999991
 50
0.13559199
 51
89.864409999999964
  0
ARC
  5
1B1B
  8
AM_0
 10
121.62835713026089
 20
323.54393832153772
 30
0.0
 40
0.70455201
 50
270.36910999999998
 51
359.63089000000002
  0
ARC
  5
1B1C
  8
AM_0
 10
121.3339071302609
 20
332.6504233215378
 30
0.0
 40
0.9990081
 50
359.94315
 51
90.056843000000015
  0
ARC
  5
1B1D
  8
AM_0
 10
121.83451713026091
 20
335.25106332153757
 30
0.0
 40
0.49836402
 50
359.81141000000002
 51
90.188598000000013
  0
ARC
  5
1B1E
  8
AM_0
 10
121.8283071302608
 20
337.40401332153772
 30
0.0
 40
0.504636
 50
270.52375999999998
 51
359.47624000000002
  0
ARC
  5
1B1F
  8
AM_0
 10
270.333107130261
 20
224.64958932153769
 30
0.0
 40
1.0001800499999991
 50
180.01031
 51
269.98968000000002
  0
ARC
  5
1B20
  8
AM_0
 10
262.13755713026097
 20
227.2947913215377
 30
0.0
 40
2.0053919100000002
 50
270.15275000000003
 51
344.81207000000001
  0
ARC
  5
1B21
  8
AM_0
 10
270.332387130261
 20
236.64886032153771
 30
0.0
 40
0.99947604
 50
179.97009
 51
270.02992
  0
ARC
  5
1B23
  8
AM_0
 10
128.55394713026081
 20
338.13697332153771
 30
0.0
 40
1.9924480200000001
 50
89.742107999999988
 51
169.81179
  0
ARC
  5
1B24
  8
AM_0
 10
128.49772713026101
 20
343.42012332153769
 30
0.0
 40
1.9992880199999981
 50
89.851815000000016
 51
167.89433
  0
ARC
  5
1B25
  8
AM_0
 10
124.1171871302609
 20
339.68962332153768
 30
0.0
 40
1.5002480099999991
 50
270.21661999999998
 51
347.67500000000001
  0
ARC
  5
1B26
  8
AM_0
 10
128.4649671302609
 20
346.8248833215377
 30
0.0
 40
1.9945160699999991
 50
89.771334999999979
 51
166.82803999999999
  0
ARC
  5
1B27
  8
AM_0
 10
124.14133713026079
 20
343.7532133215376
 30
0.0
 40
1.5037760099999991
 50
270.05984000000001
 51
346.39312999999999
  0
ARC
  5
1B28
  8
AM_0
 10
124.1541771302609
 20
345.7726033215377
 30
0.0
 40
1.503232049999998
 50
270.33132000000001
 51
346.01803000000001
  0
ARC
  5
1B29
  8
AM_0
 10
128.4394371302609
 20
348.45259332153768
 30
0.0
 40
1.996816109999999
 50
89.901436000000004
 51
165.88941
  0
ARC
  5
1B2A
  8
AM_0
 10
145.32829713026101
 20
347.01403332153768
 30
0.0
 40
1.9953641399999991
 50
89.866758999999988
 51
180.13323
  0
ARC
  5
1B2B
  8
AM_0
 10
145.32907713026091
 20
349.04320332153759
 30
0.0
 40
1.99618809
 50
89.890486999999965
 51
180.10951
  0
ARC
  5
1B2C
  8
AM_0
 10
145.32646713026091
 20
350.39587332153781
 30
0.0
 40
1.993556189999999
 50
89.814515
 51
180.18548999999999
  0
ARC
  5
1B2D
  8
AM_0
 10
145.32841713026099
 20
351.07066332153772
 30
0.0
 40
1.998724049999999
 50
89.871137000000004
 51
165.55096
  0
ARC
  5
1B2E
  8
AM_0
 10
141.826217130261
 20
341.63611332153772
 30
0.0
 40
1.5066999599999991
 50
270.25416000000001
 51
359.74583999999999
  0
ARC
  5
1B2F
  8
AM_0
 10
141.830057130261
 20
346.9222333215377
 30
0.0
 40
1.5028360199999991
 50
270.10793999999999
 51
359.89206000000001
  0
ARC
  5
1B30
  8
AM_0
 10
141.82804713026101
 20
350.32426332153779
 30
0.0
 40
1.5048719999999991
 50
270.18518
 51
359.81482
  0
ARC
  5
1B31
  8
AM_0
 10
141.9394971302608
 20
351.95242332153782
 30
0.0
 40
1.50301605
 50
270.12945000000002
 51
345.23653999999999
  0
ARC
  5
1B32
  8
AM_0
 10
198.33196713026089
 20
349.03846332153768
 30
0.0
 40
2.0009239199999991
 50
0.026462999
 51
89.973535999999982
  0
ARC
  5
1B33
  8
AM_0
 10
198.3345771302609
 20
350.39110332153763
 30
0.0
 40
1.9982920200000001
 50
359.95103
 51
90.048975000000013
  0
ARC
  5
1B34
  8
AM_0
 10
198.3310971302609
 20
351.06760332153772
 30
0.0
 40
2.0018279999999979
 50
0.052301
 51
89.947696999999977
  0
ARC
  5
1B35
  8
AM_0
 10
268.9831371302609
 20
335.00179332153772
 30
0.0
 40
1.50239199
 50
195.1400099999999
 51
269.99063999999998
  0
ARC
  5
1B36
  8
AM_0
 10
262.14244713026102
 20
347.01043332153779
 30
0.0
 40
1.99898796
 50
15.047801
 51
89.987373000000005
  0
ARC
  5
1B37
  8
AM_0
 10
270.32794713026112
 20
349.65436332153769
 30
0.0
 40
0.9950640599999999
 50
89.714938000000004
 51
180.28505999999999
  0
ARC
  5
1B38
  8
AM_0
 10
270.32725713026099
 20
337.65504732153772
 30
0.0
 40
0.99440004
 50
89.676490999999999
 51
180.32351
  0
ARC
  5
1B39
  8
AM_0
 10
269.03875713026099
 20
339.68986332153759
 30
0.0
 40
1.5004760399999979
 50
192.33223000000001
 51
270.15827999999999
  0
ARC
  5
1B3A
  8
AM_0
 10
264.18034713026088
 20
345.65293332153772
 30
0.0
 40
1.9964880300000001
 50
12.040875
 51
89.926440999999969
  0
ARC
  5
1B3B
  8
AM_0
 10
121.3295871302609
 20
254.4127573215377
 30
0.0
 40
1.0033640100000001
 50
270.19171
 51
359.80828000000002
  0
ARC
  5
1B3C
  8
AM_0
 10
121.3279971302609
 20
264.15432132153768
 30
0.0
 40
1.00492398
 50
270.28003999999999
 51
359.71996999999999
  0
ARC
  5
1B3D
  8
AM_0
 10
121.333067130261
 20
260.14957332153767
 30
0.0
 40
0.9998480400000001
 50
359.99119000000002
 51
90.008807000000004
  0
ARC
  5
1B3E
  8
AM_0
 10
121.63345713026099
 20
250.7599723215377
 30
0.0
 40
0.69944001
 50
359.95416
 51
90.045839999999984
  0
ARC
  5
1B3F
  8
AM_0
 10
119.5358871302609
 20
252.46463832153771
 30
0.0
 40
1.0052240100000001
 50
246.98629
 51
269.82936000000001
  0
ARC
  5
1B40
  8
AM_0
 10
119.4734271302609
 20
254.41210032153759
 30
0.0
 40
1.00272801
 50
253.75297
 51
270.54039999999998
  0
ARC
  5
1B41
  8
AM_0
 10
118.32928713026079
 20
254.7637543215377
 30
0.0
 40
0.99638007
 50
180.24949000000001
 51
253.29706999999999
  0
ARC
  5
1B42
  8
AM_0
 10
118.3294071302609
 20
252.97788132153769
 30
0.0
 40
0.9964760700000001
 50
179.91257999999999
 51
247.17966000000001
  0
ARC
  5
1B43
  8
AM_0
 10
118.333067130261
 20
262.14960432153771
 30
0.0
 40
1.00019601
 50
180.01127999999991
 51
269.98872
  0
ARC
  5
1B44
  8
AM_0
 10
118.32793713026081
 20
262.15435032153772
 30
0.0
 40
0.99508401
 50
89.716324
 51
180.28368
  0
ARC
  5
1B45
  8
AM_0
 10
118.333067130261
 20
272.14962132153772
 30
0.0
 40
1.0002000600000001
 50
180.01150000000001
 51
269.98851000000002
  0
ARC
  5
1B46
  8
AM_0
 10
118.32793713026081
 20
272.1543343215377
 30
0.0
 40
0.99508401
 50
89.716106000000025
 51
180.28389000000001
  0
ARC
  5
1B47
  8
AM_0
 10
118.333067130261
 20
282.14962032153772
 30
0.0
 40
1.000203989999999
 50
180.01169999999999
 51
269.98829999999998
  0
ARC
  5
1B48
  8
AM_0
 10
118.32793713026081
 20
282.1543363215377
 30
0.0
 40
0.9950800799999999
 50
89.715893999999963
 51
180.2841
  0
ARC
  5
1B49
  8
AM_0
 10
121.32793713026081
 20
284.1543373215377
 30
0.0
 40
1.0049319599999991
 50
270.28044999999997
 51
359.71955000000008
  0
ARC
  5
1B4A
  8
AM_0
 10
121.333067130261
 20
280.14955932153771
 30
0.0
 40
0.9998520899999999
 50
359.99142999999998
 51
90.008574000000024
  0
ARC
  5
1B4B
  8
AM_0
 10
121.3279971302609
 20
274.15432032153763
 30
0.0
 40
1.0049280299999981
 50
270.28023999999999
 51
359.71976000000001
  0
ARC
  5
1B4C
  8
AM_0
 10
121.333067130261
 20
270.14956032153771
 30
0.0
 40
0.9998440499999999
 50
359.99097999999998
 51
90.00901800000004
  0
ARC
  5
1B4D
  8
AM_0
 10
131.4911871302609
 20
328.74221232153769
 30
0.0
 40
5.004112499999998
 50
279.68356999999997
 51
354.57834000000008
  0
ARC
  5
1B4E
  8
AM_0
 10
131.9536671302609
 20
324.81649332153768
 30
0.0
 40
6.0049157999999991
 50
45.22730700000001
 51
86.379093999999981
  0
ARC
  5
1B4F
  8
AM_0
 10
135.4768671302609
 20
328.3696843215377
 30
0.0
 40
1.001108069999999
 50
354.25024999999999
 51
45.146993999999992
  0
ARC
  5
1B50
  8
AM_0
 10
264.17533713026103
 20
228.6520153215377
 30
0.0
 40
2.0026238699999981
 50
270.21534000000003
 51
347.81734
  0
ARC
  5
1B51
  8
AM_0
 10
269.0399571302608
 20
234.6200923215377
 30
0.0
 40
1.499328059999999
 50
89.888150999999993
 51
168.09384
  0
ARC
  5
1B52
  8
AM_0
 10
131.96287713026101
 20
249.4965883215377
 30
0.0
 40
6.0085923000000001
 50
273.53095000000002
 51
314.61478
  0
ARC
  5
1B53
  8
AM_0
 10
131.4962571302608
 20
245.5613323215378
 30
0.0
 40
4.9985837999999987
 50
5.3731198999999981
 51
80.364975999999999
  0
ARC
  5
1B54
  8
AM_0
 10
118.33048713026091
 20
239.1340723215377
 30
0.0
 40
0.9976240799999999
 50
180.26750999999999
 51
240.07954000000001
  0
ARC
  5
1B55
  8
AM_0
 10
118.3285371302609
 20
240.17977032153769
 30
0.0
 40
0.9956680199999999
 50
180.02043
 51
243.40983
  0
ARC
  5
1B56
  8
AM_0
 10
119.6135871302609
 20
238.40048832153769
 30
0.0
 40
1.0011359699999991
 50
239.328
 51
269.38751000000002
  0
ARC
  5
1B57
  8
AM_0
 10
119.578727130261
 20
239.5486663215377
 30
0.0
 40
0.999288
 50
242.86126999999999
 51
269.66618999999997
  0
ARC
  5
1B58
  8
AM_0
 10
119.60422713026099
 20
240.51306732153759
 30
0.0
 40
1.0036880100000001
 50
239.37027
 51
270.49275
  0
ARC
  5
1B59
  8
AM_0
 10
119.58805713026091
 20
241.6500313215376
 30
0.0
 40
1.00062801
 50
241.6498600000001
 51
269.70470999999998
  0
ARC
  5
1B5A
  8
AM_0
 10
119.6256471302609
 20
245.02991532153769
 30
0.0
 40
1.0005359999999981
 50
237.1464
 51
270.41322000000002
  0
ARC
  5
1B5B
  8
AM_0
 10
119.59624713026101
 20
246.1704013215377
 30
0.0
 40
1.0010120099999991
 50
240.47136
 51
270.3802
  0
ARC
  5
1B5C
  8
AM_0
 10
118.3319571302609
 20
245.87409132153769
 30
0.0
 40
0.99910005
 50
179.69542000000001
 51
236.66176999999999
  0
ARC
  5
1B5D
  8
AM_0
 10
118.3306071302609
 20
242.31070632153771
 30
0.0
 40
0.9977079899999999
 50
180.07405
 51
242.04476
  0
ARC
  5
1B5E
  8
AM_0
 10
118.33165713026079
 20
241.27291032153769
 30
0.0
 40
0.9987801
 50
179.62666999999999
 51
238.70855
  0
ARC
  5
1B5F
  8
AM_0
 10
121.3304271302609
 20
246.17186832153769
 30
0.0
 40
1.00246002
 50
270.14037999999999
 51
359.85962000000001
  0
ARC
  5
1B60
  8
AM_0
 10
118.3313571302608
 20
246.9087133215377
 30
0.0
 40
0.9984600300000001
 50
179.95962
 51
239.38655
  0
ARC
  5
1B61
  8
AM_0
 10
121.32883713026079
 20
241.65349632153769
 30
0.0
 40
1.004084009999999
 50
270.23262999999997
 51
359.76737000000008
  0
ARC
  5
1B62
  8
AM_0
 10
121.8294471302609
 20
239.05280232153771
 30
0.0
 40
0.50340399
 50
270.38612999999998
 51
359.61387000000002
  0
ARC
  5
1B63
  8
AM_0
 10
121.8332871302609
 20
236.89984932153769
 30
0.0
 40
0.4995560100000002
 50
359.94911000000002
 51
90.050894000000014
  0
ARC
  5
1B64
  8
AM_0
 10
128.55895713026069
 20
236.16783732153769
 30
0.0
 40
1.998444029999999
 50
190.33240000000001
 51
270.11369000000002
  0
ARC
  5
1B65
  8
AM_0
 10
128.497787130261
 20
230.88878532153771
 30
0.0
 40
1.9993920899999991
 50
192.1080399999999
 51
270.14582000000001
  0
ARC
  5
1B66
  8
AM_0
 10
124.116017130261
 20
234.6203233215376
 30
0.0
 40
1.499099999999999
 50
11.89856
 51
89.736657999999963
  0
ARC
  5
1B67
  8
AM_0
 10
128.4698871302609
 20
227.48017032153771
 30
0.0
 40
2.0007560699999991
 50
193.3141599999999
 51
270.08645000000001
  0
ARC
  5
1B68
  8
AM_0
 10
124.146287130261
 20
230.55190332153771
 30
0.0
 40
1.497512039999999
 50
13.418233000000001
 51
90.128792999999988
  0
ARC
  5
1B69
  8
AM_0
 10
124.1606871302609
 20
228.53128632153769
 30
0.0
 40
1.498128089999998
 50
14.224575
 51
89.916113999999993
  0
ARC
  5
1B6A
  8
AM_0
 10
128.44438713026079
 20
225.8525473215378
 30
0.0
 40
2.0031319199999991
 50
194.25158999999999
 51
269.95755000000003
  0
ARC
  5
1B6B
  8
AM_0
 10
145.333367130261
 20
227.28984732153771
 30
0.0
 40
2.000452109999999
 50
180.0129
 51
269.9871
  0
ARC
  5
1B6C
  8
AM_0
 10
145.33420713026081
 20
225.26071932153769
 30
0.0
 40
2.0013120899999981
 50
180.03756000000001
 51
269.96244000000002
  0
ARC
  5
1B6D
  8
AM_0
 10
145.3315371302609
 20
223.90802532153771
 30
0.0
 40
1.9986199799999991
 50
179.96046999999999
 51
270.03953000000001
  0
ARC
  5
1B6E
  8
AM_0
 10
145.32682713026099
 20
223.2394633215377
 30
0.0
 40
2.0000761200000001
 50
194.77498
 51
270.17353000000003
  0
ARC
  5
1B6F
  8
AM_0
 10
141.83134713026101
 20
232.6678393215376
 30
0.0
 40
1.5015680099999991
 50
0.059805003
 51
89.940196999999998
  0
ARC
  5
1B70
  8
AM_0
 10
141.83017713026101
 20
227.3866963215377
 30
0.0
 40
1.50271599
 50
0.103436
 51
89.896566000000007
  0
ARC
  5
1B71
  8
AM_0
 10
141.83317713026099
 20
223.97965032153769
 30
0.0
 40
1.49975601
 50
359.99059
 51
90.009407999999965
  0
ARC
  5
1B72
  8
AM_0
 10
141.94444713026101
 20
222.35275932153769
 30
0.0
 40
1.49664405
 50
14.57574
 51
90.058278000000001
  0
ARC
  5
1B73
  8
AM_0
 10
198.3268971302609
 20
225.2654323215377
 30
0.0
 40
2.0060480100000002
 50
270.17248999999998
 51
359.82751000000002
  0
ARC
  5
1B74
  8
AM_0
 10
198.32950713026091
 20
223.91277132153769
 30
0.0
 40
2.0033560499999989
 50
270.09593999999998
 51
359.90406000000002
  0
ARC
  5
1B75
  8
AM_0
 10
198.33097713026089
 20
223.24129332153771
 30
0.0
 40
2.0019000299999989
 50
270.05437999999998
 51
359.94562000000002
  0
ARC
  5
1B76
  8
AM_0
 10
268.97827713026101
 20
239.30342832153769
 30
0.0
 40
1.49599605
 50
89.821707000000004
 51
165.04766000000001
  0
ARC
  5
1B77
  8
AM_0
 10
144.3281271302609
 20
302.14940832153769
 30
0.0
 40
1.000011959999999
 50
89.726507999999981
 51
270.27348000000001
  0
ARC
  5
1B78
  8
AM_0
 10
144.3281271302609
 20
312.14940732153769
 30
0.0
 40
1.000011959999999
 50
89.726507999999981
 51
270.27348000000001
  0
ARC
  5
1B79
  8
AM_0
 10
144.3281271302609
 20
322.14940932153769
 30
0.0
 40
1.000011959999999
 50
89.726507999999981
 51
270.27348000000001
  0
ARC
  5
1B7A
  8
AM_0
 10
126.5971071302608
 20
292.15441332153767
 30
0.0
 40
1.26501207
 50
89.737716000000006
 51
270.26227999999998
  0
ARC
  5
1B7B
  8
AM_0
 10
126.662897130261
 20
302.15941632153772
 30
0.0
 40
1.330008059999999
 50
90.000003000000007
 51
270.0
  0
ARC
  5
1B7C
  8
AM_0
 10
135.79288713026091
 20
312.17440332153768
 30
0.0
 40
1.465004009999999
 50
90.000003000000007
 51
270.0
  0
ARC
  5
1B7D
  8
AM_0
 10
136.00603713026081
 20
322.19439132153769
 30
0.0
 40
1.6750160999999979
 50
89.766540000000006
 51
270.23345999999998
  0
ARC
  5
1B7E
  8
AM_0
 10
127.8829371302609
 20
292.14940632153758
 30
0.0
 40
1.0000000199999981
 50
90.000003000000007
 51
270.0
  0
ARC
  5
1B7F
  8
AM_0
 10
127.8829371302609
 20
302.14940832153769
 30
0.0
 40
1.0000000199999981
 50
90.000003000000007
 51
270.0
  0
ARC
  5
1B80
  8
AM_0
 10
136.87816713026081
 20
322.14940932153769
 30
0.0
 40
1.000011959999999
 50
89.728448
 51
270.27154000000002
  0
ARC
  5
1B81
  8
AM_0
 10
136.87816713026081
 20
312.14940732153769
 30
0.0
 40
1.000011959999999
 50
89.728448
 51
270.27154000000002
  0
ARC
  5
1B86
  8
AM_0
 10
266.15287713026089
 20
322.19439132153769
 30
0.0
 40
1.675004159999999
 50
276.16905573844588
 51
83.830944261554208
  0
ARC
  5
1B89
  8
AM_0
 10
266.15287713026089
 20
252.10442232153781
 30
0.0
 40
1.675004159999999
 50
276.16905573844969
 51
83.830944261550343
  0
ARC
  5
1B8A
  8
AM_0
 10
127.8829371302609
 20
282.14942232153771
 30
0.0
 40
1.0000000199999981
 50
90.000003000000007
 51
270.0
  0
ARC
  5
1B8B
  8
AM_0
 10
144.3281271302609
 20
272.14940832153769
 30
0.0
 40
1.000011959999999
 50
89.726507999999981
 51
270.27348000000001
  0
ARC
  5
1B8C
  8
AM_0
 10
144.3281271302609
 20
262.14940632153758
 30
0.0
 40
1.000011959999999
 50
89.726507999999981
 51
270.27348000000001
  0
ARC
  5
1B8D
  8
AM_0
 10
126.662897130261
 20
272.13941232153769
 30
0.0
 40
1.330008059999999
 50
90.000003000000007
 51
270.0
  0
ARC
  5
1B8E
  8
AM_0
 10
126.79288713026079
 20
262.12441332153787
 30
0.0
 40
1.465004009999999
 50
90.000003000000007
 51
270.0
  0
ARC
  5
1B8F
  8
AM_0
 10
127.87816713026091
 20
252.14942232153771
 30
0.0
 40
1.000011959999999
 50
89.728461999999965
 51
270.27154000000002
  0
ARC
  5
1B91
  8
AM_0
 10
144.3281271302609
 20
252.14942232153771
 30
0.0
 40
1.000011959999999
 50
89.726507999999981
 51
270.27348000000001
  0
ARC
  5
1B92
  8
AM_0
 10
126.5971071302608
 20
282.14942232153771
 30
0.0
 40
1.2700120500000001
 50
89.738748000000001
 51
270.26123999999999
  0
ARC
  5
1B93
  8
AM_0
 10
127.00603713026091
 20
252.10442232153781
 30
0.0
 40
1.6750160999999979
 50
89.764983000000015
 51
270.23500999999999
  0
ARC
  5
1B94
  8
AM_0
 10
127.8829371302609
 20
272.14940832153769
 30
0.0
 40
1.0000000199999981
 50
90.000003000000007
 51
270.0
  0
ARC
  5
1B95
  8
AM_0
 10
127.87816713026091
 20
262.14940632153758
 30
0.0
 40
1.000011959999999
 50
89.728461999999965
 51
270.27154000000002
  0
LINE
  5
25BA
  8
ﾁｭｳｼﾝｾﾝ
 10
218.33287713026101
 20
338.14940832153792
 30
0.0
 11
218.33287713026101
 21
236.14940832153781
 31
0.0
  0
LINE
  5
26B6
  8
AM_0
 10
262.33287713026112
 20
241.14940832153769
 30
0.0
 11
174.33287713026101
 21
241.14940832153769
 31
0.0
  0
ARC
  5
26B7
  8
AM_0
 10
192.4039449421264
 20
246.14940832153769
 30
0.0
 40
5.0
 50
225.0
 51
270.0
1001
GENIUS_GENOBJ-N-FIL_13
1002
{
1000
OWNER
1000
GEN
1002
}
1001
GENIUS_GENODEF_13
1002
{
1000
HIER
1070
     0
1002
}
1002
{
1000
MANEDIT
1070
     0
1002
}
1002
{
1000
NOSEL
1070
     0
1002
}
1002
{
1000
BEHIND
1070
     0
1002
}
1002
{
1000
OTHER
1070
     0
1002
}
1002
{
1000
REACTOR
1002
}
  0
LINE
  5
26B8
  8
AM_0
 10
243.60495506890331
 20
246.14940832153769
 30
0.0
 11
193.06079919161871
 21
246.14940832153769
 31
0.0
  0
ARC
  5
26B9
  8
AM_0
 10
243.60495506890331
 20
251.14940832153781
 30
0.0
 40
5.0
 50
270.0
 51
315.0
1001
GENIUS_GENOBJ-N-FIL_13
1002
{
1000
OWNER
1000
GEN
1002
}
1001
GENIUS_GENODEF_13
1002
{
1000
HIER
1070
     0
1002
}
1002
{
1000
MANEDIT
1070
     0
1002
}
1002
{
1000
NOSEL
1070
     0
1002
}
1002
{
1000
BEHIND
1070
     0
1002
}
1002
{
1000
OTHER
1070
     0
1002
}
1002
{
1000
REACTOR
1002
}
  0
ARC
  5
26BA
  8
AM_0
 10
262.33287713026112
 20
245.14940832153769
 30
0.0
 40
4.0
 50
270.0
 51
0.0
1001
GENIUS_GENOBJ-N-FIL_13
1002
{
1000
OWNER
1000
GEN
1002
}
1001
GENIUS_GENODEF_13
1002
{
1000
HIER
1070
     0
1002
}
1002
{
1000
MANEDIT
1070
     0
1002
}
1002
{
1000
NOSEL
1070
     0
1002
}
1002
{
1000
BEHIND
1070
     0
1002
}
1002
{
1000
OTHER
1070
     0
1002
}
1002
{
1000
REACTOR
1002
}
  0
LINE
  5
26BB
  8
AM_0
 10
262.3328771302609
 20
333.14940832153798
 30
0.0
 11
174.33287713026101
 21
333.14940832153798
 31
0.0
  0
ARC
  5
26BC
  8
AM_0
 10
244.26180931839559
 20
328.14940832153798
 30
0.0
 40
5.0
 50
45.0
 51
90.0
1001
GENIUS_GENOBJ-N-FIL_13
1002
{
1000
OWNER
1000
GEN
1002
}
1001
GENIUS_GENODEF_13
1002
{
1000
HIER
1070
     0
1002
}
1002
{
1000
MANEDIT
1070
     0
1002
}
1002
{
1000
NOSEL
1070
     0
1002
}
1002
{
1000
BEHIND
1070
     0
1002
}
1002
{
1000
OTHER
1070
     0
1002
}
1002
{
1000
REACTOR
1002
}
  0
ARC
  5
26BD
  8
AM_0
 10
192.4039449421266
 20
328.14940832153798
 30
0.0
 40
5.0
 50
90.0
 51
135.0
1001
GENIUS_GENODEF_13
1002
{
1000
HIER
1070
     0
1002
}
1002
{
1000
MANEDIT
1070
     0
1002
}
1002
{
1000
NOSEL
1070
     0
1002
}
1002
{
1000
BEHIND
1070
     0
1002
}
1002
{
1000
OTHER
1070
     0
1002
}
1002
{
1000
REACTOR
1002
}
1001
GENIUS_GENOBJ-N-FIL_13
1002
{
1000
OWNER
1000
GEN
1002
}
  0
LINE
  5
26BE
  8
AM_0
 10
243.60495506890319
 20
328.14940832153798
 30
0.0
 11
193.0607991916188
 21
328.14940832153798
 31
0.0
  0
ARC
  5
26BF
  8
AM_0
 10
193.0607991916188
 20
323.14940832153798
 30
0.0
 40
5.0
 50
90.0
 51
135.0
1001
GENIUS_GENODEF_13
1002
{
1000
HIER
1070
     0
1002
}
1002
{
1000
MANEDIT
1070
     0
1002
}
1002
{
1000
NOSEL
1070
     0
1002
}
1002
{
1000
BEHIND
1070
     0
1002
}
1002
{
1000
OTHER
1070
     0
1002
}
1002
{
1000
REACTOR
1002
}
1001
GENIUS_GENOBJ-N-FIL_13
1002
{
1000
OWNER
1000
GEN
1002
}
  0
ARC
  5
26C0
  8
AM_0
 10
174.33287713026101
 20
329.14940832153798
 30
0.0
 40
4.0
 50
90.0
 51
180.0
1001
GENIUS_GENODEF_13
1002
{
1000
HIER
1070
     0
1002
}
1002
{
1000
MANEDIT
1070
     0
1002
}
1002
{
1000
NOSEL
1070
     0
1002
}
1002
{
1000
BEHIND
1070
     0
1002
}
1002
{
1000
OTHER
1070
     0
1002
}
1002
{
1000
REACTOR
1002
}
1001
GENIUS_GENOBJ-N-FIL_13
1002
{
1000
OWNER
1000
GEN
1002
}
  0
LINE
  5
26C1
  8
AM_0
 10
170.33287713026101
 20
329.14940832153798
 30
0.0
 11
170.33287713026101
 21
245.14940832153769
 31
0.0
  0
ARC
  5
26C2
  8
AM_0
 10
175.33287713026101
 20
263.22047613340311
 30
0.0
 40
5.0
 50
180.0
 51
225.0
1001
GENIUS_GENOBJ-N-FIL_13
1002
{
1000
OWNER
1000
GEN
1002
}
1001
GENIUS_GENODEF_13
1002
{
1000
HIER
1070
     0
1002
}
1002
{
1000
MANEDIT
1070
     0
1002
}
1002
{
1000
NOSEL
1070
     0
1002
}
1002
{
1000
BEHIND
1070
     0
1002
}
1002
{
1000
OTHER
1070
     0
1002
}
1002
{
1000
REACTOR
1002
}
  0
ARC
  5
26C3
  8
AM_0
 10
175.33287713026101
 20
311.07834050967273
 30
0.0
 40
5.0
 50
135.0
 51
180.0
1001
GENIUS_GENOBJ-N-FIL_13
1002
{
1000
OWNER
1000
GEN
1002
}
1001
GENIUS_GENODEF_13
1002
{
1000
HIER
1070
     0
1002
}
1002
{
1000
MANEDIT
1070
     0
1002
}
1002
{
1000
NOSEL
1070
     0
1002
}
1002
{
1000
BEHIND
1070
     0
1002
}
1002
{
1000
OTHER
1070
     0
1002
}
1002
{
1000
REACTOR
1002
}
  0
LINE
  5
26C4
  8
AM_0
 10
175.33287713026101
 20
310.42148626018002
 30
0.0
 11
175.3328771302609
 21
263.87733038289548
 31
0.0
  0
ARC
  5
26C5
  8
AM_0
 10
180.3328771302609
 20
263.87733038289548
 30
0.0
 40
5.0
 50
180.0
 51
225.0
1001
GENIUS_GENOBJ-N-FIL_13
1002
{
1000
OWNER
1000
GEN
1002
}
1001
GENIUS_GENODEF_13
1002
{
1000
HIER
1070
     0
1002
}
1002
{
1000
MANEDIT
1070
     0
1002
}
1002
{
1000
NOSEL
1070
     0
1002
}
1002
{
1000
BEHIND
1070
     0
1002
}
1002
{
1000
OTHER
1070
     0
1002
}
1002
{
1000
REACTOR
1002
}
  0
ARC
  5
26C6
  8
AM_0
 10
174.33287713026101
 20
245.14940832153769
 30
0.0
 40
4.0
 50
180.0
 51
270.0
1001
GENIUS_GENODEF_13
1002
{
1000
HIER
1070
     0
1002
}
1002
{
1000
MANEDIT
1070
     0
1002
}
1002
{
1000
NOSEL
1070
     0
1002
}
1002
{
1000
BEHIND
1070
     0
1002
}
1002
{
1000
OTHER
1070
     0
1002
}
1002
{
1000
REACTOR
1002
}
1001
GENIUS_GENOBJ-N-FIL_13
1002
{
1000
OWNER
1000
GEN
1002
}
  0
LINE
  5
26C7
  8
AM_0
 10
266.33287713026101
 20
329.14940832153798
 30
0.0
 11
266.33287713026112
 21
245.14940832153769
 31
0.0
  0
ARC
  5
26C8
  8
AM_0
 10
261.33287713026112
 20
311.0783405096725
 30
0.0
 40
5.0
 50
0.0
 51
45.0
1001
GENIUS_GENOBJ-N-FIL_13
1002
{
1000
OWNER
1000
GEN
1002
}
1001
GENIUS_GENODEF_13
1002
{
1000
HIER
1070
     0
1002
}
1002
{
1000
MANEDIT
1070
     0
1002
}
1002
{
1000
NOSEL
1070
     0
1002
}
1002
{
1000
BEHIND
1070
     0
1002
}
1002
{
1000
OTHER
1070
     0
1002
}
1002
{
1000
REACTOR
1002
}
  0
ARC
  5
26C9
  8
AM_0
 10
261.33287713026112
 20
263.22047613340328
 30
0.0
 40
5.0
 50
315.0
 51
0.0
1001
GENIUS_GENOBJ-N-FIL_13
1002
{
1000
OWNER
1000
GEN
1002
}
1001
GENIUS_GENODEF_13
1002
{
1000
HIER
1070
     0
1002
}
1002
{
1000
MANEDIT
1070
     0
1002
}
1002
{
1000
NOSEL
1070
     0
1002
}
1002
{
1000
BEHIND
1070
     0
1002
}
1002
{
1000
OTHER
1070
     0
1002
}
1002
{
1000
REACTOR
1002
}
  0
LINE
  5
26CA
  8
AM_0
 10
247.79734322432819
 20
331.68494222747057
 30
0.0
 11
264.86841103619372
 21
314.61387441560521
 31
0.0
  0
LINE
  5
26CB
  8
AM_0
 10
247.1404889748357
 20
326.68494222747057
 30
0.0
 11
259.86841103619361
 21
313.95702016611301
 31
0.0
  0
ARC
  5
26CC
  8
AM_0
 10
243.60495506890319
 20
323.14940832153798
 30
0.0
 40
5.0
 50
45.0
 51
90.0
1001
GENIUS_GENOBJ-N-FIL_13
1002
{
1000
OWNER
1000
GEN
1002
}
1001
GENIUS_GENODEF_13
1002
{
1000
HIER
1070
     0
1002
}
1002
{
1000
MANEDIT
1070
     0
1002
}
1002
{
1000
NOSEL
1070
     0
1002
}
1002
{
1000
BEHIND
1070
     0
1002
}
1002
{
1000
OTHER
1070
     0
1002
}
1002
{
1000
REACTOR
1002
}
  0
LINE
  5
26CD
  8
AM_0
 10
261.3328771302609
 20
310.4214862601803
 30
0.0
 11
261.33287713026112
 21
263.87733038289548
 31
0.0
  0
ARC
  5
26CE
  8
AM_0
 10
256.3328771302609
 20
310.4214862601803
 30
0.0
 40
5.0
 50
0.0
 51
45.0
1001
GENIUS_GENODEF_13
1002
{
1000
HIER
1070
     0
1002
}
1002
{
1000
MANEDIT
1070
     0
1002
}
1002
{
1000
NOSEL
1070
     0
1002
}
1002
{
1000
BEHIND
1070
     0
1002
}
1002
{
1000
OTHER
1070
     0
1002
}
1002
{
1000
REACTOR
1002
}
1001
GENIUS_GENOBJ-N-FIL_13
1002
{
1000
OWNER
1000
GEN
1002
}
  0
ARC
  5
26CF
  8
AM_0
 10
262.3328771302609
 20
329.14940832153798
 30
0.0
 40
4.0
 50
0.0
 51
90.0
1001
GENIUS_GENODEF_13
1002
{
1000
HIER
1070
     0
1002
}
1002
{
1000
MANEDIT
1070
     0
1002
}
1002
{
1000
NOSEL
1070
     0
1002
}
1002
{
1000
BEHIND
1070
     0
1002
}
1002
{
1000
OTHER
1070
     0
1002
}
1002
{
1000
REACTOR
1002
}
1001
GENIUS_GENOBJ-N-FIL_13
1002
{
1000
OWNER
1000
GEN
1002
}
  0
LINE
  5
26D0
  8
ﾁｭｳｼﾝｾﾝ1
 10
261.33287713026237
 20
322.14940832153752
 30
0.0
 11
261.33287713026323
 21
334.14940832153752
 31
0.0
  0
LINE
  5
26D1
  8
ﾁｭｳｼﾝｾﾝ1
 10
267.33287713026277
 20
328.14940832153718
 30
0.0
 11
255.3328771302628
 21
328.14940832153798
 31
0.0
  0
LINE
  5
26D2
  8
AM_0
 10
166.83287713026101
 20
300.64940832153798
 30
0.0
 11
169.3328771302609
 21
300.64940832153798
 31
0.0
  0
LINE
  5
26D3
  8
AM_0
 10
169.33287713026101
 20
273.64940832153798
 30
0.0
 11
166.83287713026101
 21
273.64940832153798
 31
0.0
  0
LINE
  5
26D4
  8
AM_0
 10
155.93420603391499
 20
276.64940832153809
 30
0.0
 11
155.93420603391499
 21
297.64940832153809
 31
0.0
  0
LINE
  5
26D5
  8
AM_0
 10
140.93420603391499
 20
295.18103337555289
 30
0.0
 11
140.93420603391499
 21
279.11778326752199
 31
0.0
  0
LINE
  5
26D6
  8
AM_0
 10
153.93420603391499
 20
275.14940832153798
 30
0.0
 11
153.93420603391499
 21
299.14940832153798
 31
0.0
  0
LINE
  5
26D7
  8
AM_0
 10
144.43420603391499
 20
287.14940832153809
 30
0.0
 11
144.93420603391499
 21
286.64940832153798
 31
0.0
  0
LINE
  5
26D8
  8
AM_0
 10
151.43420603391499
 20
298.84940832153791
 30
0.0
 11
151.43420603391499
 21
275.44940832153787
 31
0.0
  0
LINE
  5
26D9
  8
AM_0
 10
161.33287713026101
 20
298.64940832153798
 30
0.0
 11
161.33287713026101
 21
275.64940832153798
 31
0.0
  0
LINE
  5
26DA
  8
AM_0
 10
155.43420603391499
 20
286.449408321536
 30
0.0
 11
155.43420603391499
 21
287.84940832153899
 31
0.0
  0
LINE
  5
26DB
  8
AM_0
 10
157.53384176048601
 20
278.0494083215379
 30
0.0
 11
156.78384176048681
 21
296.249408321538
 31
0.0
  0
LINE
  5
26DC
  8
AM_0
 10
156.58287713026101
 20
278.0494083215379
 30
0.0
 11
155.93420603391499
 21
293.79049359285392
 31
0.0
  0
LINE
  5
26DD
  8
AM_0
 10
157.33156972083299
 20
277.33374960917399
 30
0.0
 11
156.58430967742501
 21
296.96178008270499
 31
0.0
  0
LINE
  5
26DE
  8
AM_0
 10
156.78240921332281
 20
277.33703656037
 30
0.0
 11
156.03384176048681
 21
296.99940832153789
 31
0.0
  0
LINE
  5
26DF
  8
AM_0
 10
153.93420603391499
 20
299.14940832153798
 30
0.0
 11
151.734206033915
 21
299.14940832153798
 31
0.0
  0
ARC
  5
26E0
  8
AM_0
 10
165.8328771302611
 20
299.64940832153809
 30
0.0
 40
0.5
 50
269.99999999998693
 51
0.0
  0
ARC
  5
26E1
  8
AM_0
 10
166.8328771302611
 20
300.14940832153798
 30
0.0
 40
0.5
 50
90.0
 51
180.0
  0
LINE
  5
26E2
  8
AM_0
 10
166.33287713026101
 20
299.64940832153809
 30
0.0
 11
166.33287713026101
 21
300.14940832153798
 31
0.0
  0
LINE
  5
26E3
  8
AM_0
 10
157.33287713026101
 20
296.249408321538
 30
0.0
 11
160.83287713026101
 21
296.24940832153789
 31
0.0
  0
LINE
  5
26E4
  8
AM_0
 10
166.33287713026101
 20
298.00547964294492
 30
0.0
 11
166.33287713026101
 21
288.2933370001299
 31
0.0
  0
LINE
  5
26E5
  8
AM_0
 10
161.83287713026101
 20
299.14940832153798
 30
0.0
 11
165.8328771302609
 21
299.14940832153798
 31
0.0
  0
LINE
  5
26E6
  8
AM_0
 10
165.83287713026101
 20
298.50547964294481
 30
0.0
 11
161.33287713026101
 21
298.50547964294481
 31
0.0
  0
ARC
  5
26E7
  8
AM_0
 10
165.8328771302611
 20
298.00547964294492
 30
0.0
 40
0.5
 50
0.0
 51
90.0
  0
ARC
  5
26E8
  8
AM_0
 10
160.83287713026101
 20
296.74940832153789
 30
0.0
 40
0.5
 50
270.0
 51
0.0
  0
ARC
  5
26E9
  8
AM_0
 10
161.83287713026101
 20
298.64940832153798
 30
0.0
 40
0.5
 50
90.0
 51
180.0
  0
LINE
  5
26EA
  8
AM_0
 10
165.83287713026101
 20
287.7933370001299
 30
0.0
 11
161.33287713026101
 21
287.7933370001299
 31
0.0
  0
ARC
  5
26EB
  8
AM_0
 10
165.83287713026101
 20
288.2933370001299
 30
0.0
 40
0.5
 50
270.0
 51
0.0
  0
LINE
  5
26EC
  8
AM_0
 10
155.43420603391499
 20
293.29457907382988
 30
0.0
 11
155.43420603391499
 21
292.1223358873969
 31
0.0
  0
LINE
  5
26ED
  8
AM_0
 10
156.8605741889119
 20
296.249408321538
 30
0.0
 11
157.33287713026101
 21
296.249408321538
 31
0.0
  0
LINE
  5
26EE
  8
AM_0
 10
156.76398169437269
 20
296.3235260882746
 30
0.0
 11
156.78384176048681
 21
296.249408321538
 31
0.0
  0
ARC
  5
26EF
  8
AM_0
 10
156.86057418891201
 20
296.34940832153791
 30
0.0
 40
0.1000000000000346
 50
195.00019500644541
 51
270.0
  0
ARC
  5
26F0
  8
AM_0
 10
155.13420603391501
 20
296.43624130204591
 30
0.0
 40
0.3000000000000043
 50
270.0
 51
0.0
  0
LINE
  5
26F1
  8
AM_0
 10
153.93420603391499
 20
298.54940832153801
 30
0.0
 11
155.15416173707209
 21
298.46807794132701
 31
0.0
  0
LINE
  5
26F2
  8
AM_0
 10
153.93420603391499
 20
297.39315628569801
 30
0.0
 11
155.13420603391501
 21
297.39315628569801
 31
0.0
  0
LINE
  5
26F3
  8
AM_0
 10
155.43420603391499
 20
298.14940832153798
 30
0.0
 11
153.93420603391499
 21
298.14940832153798
 31
0.0
  0
ARC
  5
26F4
  8
AM_0
 10
155.43420603391499
 20
297.64940832153809
 30
0.0
 40
0.5
 50
0.0
 51
90.0
  0
LINE
  5
26F5
  8
AM_0
 10
155.43420603391499
 20
298.16874239396998
 30
0.0
 11
155.43420603391499
 21
298.14940832153798
 31
0.0
  0
LINE
  5
26F6
  8
AM_0
 10
155.43420603391499
 20
298.44940832153787
 30
0.0
 11
155.43420603391499
 21
298.16874239396998
 31
0.0
  0
LINE
  5
26F7
  8
AM_0
 10
155.15416173707209
 20
298.46807794132701
 30
0.0
 11
155.43420603391499
 21
298.44940832153787
 31
0.0
  0
ARC
  5
26F8
  8
AM_0
 10
155.13420603391501
 20
298.16874239396998
 30
0.0
 40
0.3000000000000007
 50
0.0
 51
86.185925165718274
  0
LINE
  5
26F9
  8
AM_0
 10
156.50614470183589
 20
296.99940832153789
 30
0.0
 11
156.58287713026201
 21
296.99940832153789
 31
0.0
  0
LINE
  5
26FA
  8
AM_0
 10
156.58287713026201
 20
296.99940832153789
 30
0.0
 11
156.6027371963751
 21
296.92529055480139
 31
0.0
  0
LINE
  5
26FB
  8
AM_0
 10
156.01398169437289
 20
296.92529055480139
 30
0.0
 11
156.03384176048681
 21
296.99940832153789
 31
0.0
  0
LINE
  5
26FC
  8
AM_0
 10
156.03384176048681
 20
296.99940832153789
 30
0.0
 11
156.1105741889119
 21
296.99940832153789
 31
0.0
  0
LINE
  5
26FD
  8
AM_0
 10
156.6027371963751
 20
296.92529055480139
 30
0.0
 11
156.76398169437269
 21
296.3235260882746
 31
0.0
  0
LINE
  5
26FE
  8
AM_0
 10
156.1105741889119
 20
296.99940832153789
 30
0.0
 11
156.50614470183589
 21
296.99940832153789
 31
0.0
  0
LINE
  5
26FF
  8
AM_0
 10
155.9342060339159
 20
296.62756778997692
 30
0.0
 11
156.01398169437289
 21
296.92529055480139
 31
0.0
  0
ARC
  5
2700
  8
AM_0
 10
156.50614470183601
 20
296.89940832153798
 30
0.0
 40
0.0999999999999866
 50
15.00019500657341
 51
90.0
  0
ARC
  5
2701
  8
AM_0
 10
156.11057418891201
 20
296.89940832153798
 30
0.0
 40
0.1000000000000014
 50
90.0
 51
164.99980499342661
  0
LINE
  5
2702
  8
AM_0
 10
155.43420603391499
 20
297.09315628569789
 30
0.0
 11
155.43420603391499
 21
296.43624130204591
 31
0.0
  0
ARC
  5
2703
  8
AM_0
 10
155.13420603391501
 20
297.09315628569789
 30
0.0
 40
0.3000000000000007
 50
0.0
 51
90.0
  0
LINE
  5
2704
  8
AM_0
 10
153.93420603391499
 20
293.59457907383
 30
0.0
 11
155.13420603391501
 21
293.59457907383
 31
0.0
  0
LINE
  5
2705
  8
AM_0
 10
155.13420603391501
 20
296.13624130204579
 30
0.0
 11
153.93420603391499
 21
296.13624130204579
 31
0.0
  0
LINE
  5
2706
  8
AM_0
 10
156.78384176048681
 20
296.249408321538
 30
0.0
 11
156.8605741889119
 21
296.249408321538
 31
0.0
  0
ARC
  5
2707
  8
AM_0
 10
155.13420603391501
 20
293.29457907382988
 30
0.0
 40
0.3000000000000007
 50
0.0
 51
90.0
  0
LINE
  5
2708
  8
AM_0
 10
155.13420603391501
 20
291.822335887397
 30
0.0
 11
153.93420603391499
 21
291.822335887397
 31
0.0
  0
ARC
  5
2709
  8
AM_0
 10
155.13420603391501
 20
292.1223358873969
 30
0.0
 40
0.3000000000000043
 50
270.0
 51
0.0
  0
LINE
  5
270A
  8
AM_0
 10
155.13420603391501
 20
288.149408321539
 30
0.0
 11
153.93420603391499
 21
288.149408321539
 31
0.0
  0
ARC
  5
270B
  8
AM_0
 10
155.13420603391501
 20
287.84940832153899
 30
0.0
 40
0.3000000000000007
 50
0.0
 51
90.0
  0
LINE
  5
270C
  8
AM_0
 10
144.93420603391499
 20
297.28268815018492
 30
0.0
 11
151.43420603391499
 21
297.28268815018492
 31
0.0
  0
LINE
  5
270D
  8
AM_0
 10
144.93420603391499
 20
297.78268815018492
 30
0.0
 11
151.43420603391499
 21
297.78268815018492
 31
0.0
  0
LINE
  5
270E
  8
AM_0
 10
151.43420603391499
 20
287.64940832153798
 30
0.0
 11
144.93420603391499
 21
287.64940832153798
 31
0.0
  0
LINE
  5
270F
  8
AM_0
 10
144.43420603391499
 20
288.14940832153798
 30
0.0
 11
151.43420603391499
 21
288.14940832153798
 31
0.0
  0
LINE
  5
2710
  8
AM_0
 10
151.13420603391501
 20
298.14940832153798
 30
0.0
 11
144.29625596909699
 21
298.14940832153798
 31
0.0
  0
LINE
  5
2711
  8
AM_0
 10
151.43420603391499
 20
288.49609639007889
 30
0.0
 11
144.93420603391499
 21
288.49609639007889
 31
0.0
  0
LINE
  5
2712
  8
AM_0
 10
151.43420603391499
 20
296.80272025299701
 30
0.0
 11
144.93420603391499
 21
296.80272025299701
 31
0.0
  0
ARC
  5
2713
  8
AM_0
 10
151.734206033915
 20
298.84940832153791
 30
0.0
 40
0.2999999999999971
 50
90.0
 51
180.0
  0
ARC
  5
2714
  8
AM_0
 10
151.13420603391501
 20
298.44940832153787
 30
0.0
 40
0.2999999999999971
 50
270.0
 51
0.0
  0
ARC
  5
2715
  8
AM_0
 10
153.05920603391499
 20
292.64940832153798
 30
0.0
 40
9.124999999999984
 50
152.92493329271929
 51
207.07506670728071
  0
LINE
  5
2716
  8
AM_0
 10
143.6560715694325
 20
297.91762960113539
 30
0.0
 11
141.29402163425041
 21
295.9492546551503
 31
0.0
  0
LINE
  5
2717
  8
AM_0
 10
144.43420603391499
 20
297.57097573802992
 30
0.0
 11
144.93420603391499
 21
298.14940832153798
 31
0.0
  0
ARC
  5
2718
  8
AM_0
 10
144.29625596909699
 20
297.14940832153798
 30
0.0
 40
1.0
 50
90.0
 51
129.805571092256
  0
LINE
  5
2719
  8
AM_0
 10
144.93420603391499
 20
297.78268815018492
 30
0.0
 11
144.43420603391499
 21
297.57097573802992
 31
0.0
  0
LINE
  5
271A
  8
AM_0
 10
144.43420603391499
 20
297.10870046505892
 30
0.0
 11
144.93420603391499
 21
297.78268815018492
 31
0.0
  0
LINE
  5
271B
  8
AM_0
 10
144.93420603391499
 20
297.28268815018492
 30
0.0
 11
144.43420603391499
 21
297.10870046505892
 31
0.0
  0
LINE
  5
271C
  8
AM_0
 10
144.43420603391499
 20
296.57097573802992
 30
0.0
 11
144.93420603391499
 21
297.28268815018492
 31
0.0
  0
LINE
  5
271D
  8
AM_0
 10
144.93420603391499
 20
296.80272025299701
 30
0.0
 11
144.43420603391499
 21
296.57097573802992
 31
0.0
  0
ARC
  5
271E
  8
AM_0
 10
141.93420603391499
 20
295.18103337555289
 30
0.0
 40
1.0000000000000291
 50
129.80557109226521
 51
180.0
  0
LINE
  5
271F
  8
AM_0
 10
144.93420603391499
 20
287.64940832153798
 30
0.0
 11
144.43420603391499
 21
287.14940832153809
 31
0.0
  0
LINE
  5
2720
  8
AM_0
 10
144.43420603391499
 20
288.14940832153798
 30
0.0
 11
144.93420603391499
 21
287.64940832153798
 31
0.0
  0
LINE
  5
2721
  8
AM_0
 10
144.93420603391499
 20
288.49609639007889
 30
0.0
 11
144.43420603391499
 21
288.14940832153798
 31
0.0
  0
LINE
  5
2722
  8
AM_0
 10
151.734206033915
 20
275.14940832153798
 30
0.0
 11
153.93420603391499
 21
275.14940832153798
 31
0.0
  0
ARC
  5
2723
  8
AM_0
 10
165.83287713026101
 20
274.64940832153809
 30
0.0
 40
0.5
 50
0.0
 51
90.000000000006537
  0
LINE
  5
2724
  8
AM_0
 10
160.83287713026101
 20
278.0494083215379
 30
0.0
 11
157.6105741889119
 21
278.0494083215379
 31
0.0
  0
LINE
  5
2725
  8
AM_0
 10
166.33287713026101
 20
286.00547964294481
 30
0.0
 11
166.33287713026101
 21
276.2933370001299
 31
0.0
  0
LINE
  5
2726
  8
AM_0
 10
161.33287713026101
 20
286.50547964294492
 30
0.0
 11
165.83287713026101
 21
286.50547964294492
 31
0.0
  0
ARC
  5
2727
  8
AM_0
 10
165.83287713026101
 20
286.00547964294481
 30
0.0
 40
0.5
 50
0.0
 51
90.0
  0
LINE
  5
2728
  8
AM_0
 10
161.33287713026101
 20
275.7933370001299
 30
0.0
 11
165.83287713026101
 21
275.7933370001299
 31
0.0
  0
LINE
  5
2729
  8
AM_0
 10
165.8328771302609
 20
275.14940832153798
 30
0.0
 11
161.83287713026101
 21
275.14940832153798
 31
0.0
  0
ARC
  5
272A
  8
AM_0
 10
165.83287713026101
 20
276.2933370001299
 30
0.0
 40
0.5
 50
270.0
 51
0.0
  0
ARC
  5
272B
  8
AM_0
 10
160.83287713026101
 20
277.54940832153801
 30
0.0
 40
0.5
 50
0.0
 51
90.0
  0
ARC
  5
272C
  8
AM_0
 10
161.83287713026101
 20
275.64940832153798
 30
0.0
 40
0.5
 50
180.0
 51
270.0
  0
ARC
  5
272D
  8
AM_0
 10
155.13420603391501
 20
281.0042375692459
 30
0.0
 40
0.3000000000000114
 50
270.0
 51
0.0
  0
LINE
  5
272E
  8
AM_0
 10
153.93420603391499
 20
286.14940832153599
 30
0.0
 11
155.13420603391501
 21
286.14940832153599
 31
0.0
  0
ARC
  5
272F
  8
AM_0
 10
155.13420603391501
 20
286.44940832153588
 30
0.0
 40
0.2999999999999971
 50
270.0
 51
0.0
  0
LINE
  5
2730
  8
AM_0
 10
153.93420603391499
 20
282.47648075567889
 30
0.0
 11
155.13420603391501
 21
282.47648075567889
 31
0.0
  0
ARC
  5
2731
  8
AM_0
 10
155.13420603391501
 20
282.17648075567888
 30
0.0
 40
0.3000000000000007
 50
0.0
 51
90.0
  0
LINE
  5
2732
  8
AM_0
 10
155.43420603391499
 20
282.17648075567888
 30
0.0
 11
155.43420603391499
 21
281.0042375692459
 31
0.0
  0
LINE
  5
2733
  8
AM_0
 10
156.8605741889119
 20
277.29940832153801
 30
0.0
 11
157.25614470183589
 21
277.29940832153801
 31
0.0
  0
LINE
  5
2734
  8
AM_0
 10
156.8605741889119
 20
277.29940832153801
 30
0.0
 11
157.25614470183589
 21
277.29940832153801
 31
0.0
  0
LINE
  5
2735
  8
AM_0
 10
157.3527371963751
 20
277.3735260882745
 30
0.0
 11
157.51398169437289
 21
277.97529055480152
 31
0.0
  0
LINE
  5
2736
  8
AM_0
 10
157.3527371963751
 20
277.3735260882745
 30
0.0
 11
157.51398169437289
 21
277.97529055480152
 31
0.0
  0
ARC
  5
2737
  8
AM_0
 10
157.6105741889119
 20
277.94940832153787
 30
0.0
 40
0.0999999999999943
 50
90.0
 51
164.99980499348811
  0
ARC
  5
2738
  8
AM_0
 10
157.25614470183589
 20
277.39940832153798
 30
0.0
 40
0.0999999999999943
 50
270.0
 51
344.99980499349448
  0
LINE
  5
2739
  8
AM_0
 10
155.9333594453739
 20
277.67440832153773
 30
0.0
 11
156.01398169437289
 21
277.97529055480152
 31
0.0
  0
LINE
  5
273A
  8
AM_0
 10
156.585587782467
 20
278.0101437884399
 30
0.0
 11
156.76398169437289
 21
277.3735260882745
 31
0.0
  0
LINE
  5
273B
  8
AM_0
 10
156.6027371963751
 20
277.97529055480152
 30
0.0
 11
156.76398169437289
 21
277.3735260882745
 31
0.0
  0
LINE
  5
273C
  8
AM_0
 10
155.43420603391499
 20
277.86257534102901
 30
0.0
 11
155.43420603391499
 21
277.20566035737789
 31
0.0
  0
LINE
  5
273D
  8
AM_0
 10
155.93420603391499
 20
277.67756778997591
 30
0.0
 11
156.01398169437289
 21
277.97529055480152
 31
0.0
  0
LINE
  5
273E
  8
AM_0
 10
153.93420603391499
 20
278.16257534102903
 30
0.0
 11
155.13420603391501
 21
278.16257534102903
 31
0.0
  0
LINE
  5
273F
  8
AM_0
 10
155.13420603391501
 20
280.70423756924589
 30
0.0
 11
153.93420603391499
 21
280.70423756924492
 31
0.0
  0
LINE
  5
2740
  8
AM_0
 10
156.538776967351
 20
278.0494083215379
 30
0.0
 11
156.585587782467
 21
278.0101437884399
 31
0.0
  0
LINE
  5
2741
  8
AM_0
 10
156.1105741889119
 20
278.0494083215379
 30
0.0
 11
156.538776967351
 21
278.0494083215379
 31
0.0
  0
LINE
  5
2742
  8
AM_0
 10
156.1105741889119
 20
278.0494083215379
 30
0.0
 11
156.50614470183589
 21
278.0494083215379
 31
0.0
  0
ARC
  5
2743
  8
AM_0
 10
156.1105741889119
 20
277.94940832153787
 30
0.0
 40
0.0999999999999943
 50
90.0
 51
164.99980499348811
  0
ARC
  5
2744
  8
AM_0
 10
156.50614470183589
 20
277.94940832153787
 30
0.0
 40
0.0999999999999608
 50
15.00019500651173
 51
90.0
  0
ARC
  5
2745
  8
AM_0
 10
155.13420603391501
 20
277.8625753410289
 30
0.0
 40
0.3000000000000007
 50
0.0
 51
90.0
  0
LINE
  5
2746
  8
AM_0
 10
153.93420603391499
 20
276.14940832153798
 30
0.0
 11
155.43420603391499
 21
276.14940832153798
 31
0.0
  0
LINE
  5
2747
  8
AM_0
 10
155.13420603391501
 20
276.905660357378
 30
0.0
 11
153.93420603391499
 21
276.905660357378
 31
0.0
  0
LINE
  5
2748
  8
AM_0
 10
155.15416173707209
 20
275.83073870174792
 30
0.0
 11
153.93420603391499
 21
275.749408321538
 31
0.0
  0
ARC
  5
2749
  8
AM_0
 10
155.43420603391499
 20
276.64940832153809
 30
0.0
 40
0.5
 50
270.0
 51
0.0
  0
ARC
  5
274A
  8
AM_0
 10
156.8605741889119
 20
277.39940832153798
 30
0.0
 40
0.0999999999999606
 50
195.00019500650541
 51
270.0
  0
ARC
  5
274B
  8
AM_0
 10
155.13420603391501
 20
277.20566035737789
 30
0.0
 40
0.2999999999999971
 50
270.0
 51
0.0
  0
LINE
  5
274C
  8
AM_0
 10
155.43420603391499
 20
276.14940832153798
 30
0.0
 11
155.43420603391499
 21
276.13007424910489
 31
0.0
  0
ARC
  5
274D
  8
AM_0
 10
155.13420603391501
 20
276.13007424910489
 30
0.0
 40
0.3000000000000043
 50
273.81407483428171
 51
0.0
  0
ARC
  5
274E
  8
AM_0
 10
166.83287713026101
 20
274.14940832153798
 30
0.0
 40
0.5
 50
180.0
 51
270.0
  0
LINE
  5
274F
  8
AM_0
 10
166.33287713026101
 20
274.14940832153798
 30
0.0
 11
166.33287713026101
 21
274.64940832153809
 31
0.0
  0
LINE
  5
2750
  8
AM_0
 10
144.93420603391499
 20
277.49609639007889
 30
0.0
 11
151.43420603391499
 21
277.49609639007889
 31
0.0
  0
LINE
  5
2751
  8
AM_0
 10
144.93420603391499
 20
285.80272025299701
 30
0.0
 11
151.43420603391499
 21
285.80272025299701
 31
0.0
  0
LINE
  5
2752
  8
AM_0
 10
144.29625596909699
 20
276.14940832153798
 30
0.0
 11
151.13420603391501
 21
276.14940832153798
 31
0.0
  0
LINE
  5
2753
  8
AM_0
 10
151.43420603391499
 20
286.14940832153798
 30
0.0
 11
144.43420603391499
 21
286.14940832153798
 31
0.0
  0
LINE
  5
2754
  8
AM_0
 10
144.93420603391499
 20
286.64940832153798
 30
0.0
 11
151.43420603391499
 21
286.64940832153798
 31
0.0
  0
LINE
  5
2755
  8
AM_0
 10
151.43420603391499
 20
276.51612849289
 30
0.0
 11
144.93420603391499
 21
276.51612849289
 31
0.0
  0
LINE
  5
2756
  8
AM_0
 10
151.43420603391499
 20
277.01612849288989
 30
0.0
 11
144.93420603391499
 21
277.01612849288989
 31
0.0
  0
ARC
  5
2757
  8
AM_0
 10
151.13420603391501
 20
275.84940832153791
 30
0.0
 40
0.3000000000000043
 50
0.0
 51
90.0
  0
ARC
  5
2758
  8
AM_0
 10
151.734206033915
 20
275.44940832153787
 30
0.0
 40
0.2999999999999971
 50
180.0
 51
270.0
  0
ARC
  5
2759
  8
AM_0
 10
153.05920603391499
 20
281.64940832153798
 30
0.0
 40
9.124999999999984
 50
152.92493329271929
 51
207.07506670728071
  0
LINE
  5
275A
  8
AM_0
 10
144.43420603391499
 20
286.14940832153798
 30
0.0
 11
144.93420603391499
 21
285.80272025299701
 31
0.0
  0
LINE
  5
275B
  8
AM_0
 10
144.93420603391499
 20
286.64940832153798
 30
0.0
 11
144.43420603391499
 21
286.14940832153798
 31
0.0
  0
LINE
  5
275C
  8
AM_0
 10
141.29402163425041
 20
278.34956198792452
 30
0.0
 11
143.6560715694325
 21
276.38118704194051
 31
0.0
  0
LINE
  5
275D
  8
AM_0
 10
144.93420603391499
 20
276.14940832153798
 30
0.0
 11
144.43420603391499
 21
276.72784090504501
 31
0.0
  0
ARC
  5
275E
  8
AM_0
 10
144.29625596909699
 20
277.14940832153798
 30
0.0
 40
1.0000000000000411
 50
230.19442890774391
 51
270.0
  0
LINE
  5
275F
  8
AM_0
 10
144.43420603391499
 20
277.72784090504501
 30
0.0
 11
144.93420603391499
 21
277.49609639007889
 31
0.0
  0
LINE
  5
2760
  8
AM_0
 10
144.93420603391499
 20
277.01612849288989
 30
0.0
 11
144.43420603391499
 21
277.72784090504501
 31
0.0
  0
LINE
  5
2761
  8
AM_0
 10
144.43420603391499
 20
277.19011617801698
 30
0.0
 11
144.93420603391499
 21
277.01612849288989
 31
0.0
  0
LINE
  5
2762
  8
AM_0
 10
144.93420603391499
 20
276.51612849289
 30
0.0
 11
144.43420603391499
 21
277.19011617801698
 31
0.0
  0
LINE
  5
2763
  8
AM_0
 10
144.43420603391499
 20
276.72784090504501
 30
0.0
 11
144.93420603391499
 21
276.51612849289
 31
0.0
  0
ARC
  5
2764
  8
AM_0
 10
141.93420603391499
 20
279.11778326752187
 30
0.0
 40
1.0
 50
180.0
 51
230.19442890773479
  0
CIRCLE
  5
2765
  8
AM_0
 10
175.33287713025931
 20
328.14940832153752
 30
0.0
 40
4.0
  0
LINE
  5
2766
  8
AM_0
 10
175.02137713025931
 20
325.87059991581327
 30
0.0
 11
175.6443771302593
 21
325.87059991581327
 31
0.0
  0
LINE
  5
2767
  8
AM_0
 10
175.02137713025931
 20
330.428216727262
 30
0.0
 11
175.6443771302593
 21
330.428216727262
 31
0.0
  0
LINE
  5
2768
  8
AM_0
 10
175.02137713025931
 20
325.87059991581327
 30
0.0
 11
175.02137713025931
 21
327.83790832153761
 31
0.0
  0
LINE
  5
2769
  8
AM_0
 10
175.02137713025931
 20
328.4609083215376
 30
0.0
 11
175.02137713025931
 21
330.428216727262
 31
0.0
  0
LINE
  5
276A
  8
AM_0
 10
175.02137713025931
 20
328.4609083215376
 30
0.0
 11
173.05406872453489
 21
328.4609083215376
 31
0.0
  0
LINE
  5
276B
  8
AM_0
 10
175.02137713025931
 20
327.83790832153761
 30
0.0
 11
173.05406872453489
 21
327.83790832153761
 31
0.0
  0
LINE
  5
276C
  8
AM_0
 10
173.05406872453489
 20
328.4609083215376
 30
0.0
 11
173.05406872453489
 21
327.83790832153761
 31
0.0
  0
LINE
  5
276D
  8
AM_0
 10
175.6443771302593
 20
325.87059991581327
 30
0.0
 11
175.6443771302593
 21
327.83790832153761
 31
0.0
  0
LINE
  5
276E
  8
AM_0
 10
175.6443771302593
 20
328.4609083215376
 30
0.0
 11
175.6443771302593
 21
330.428216727262
 31
0.0
  0
LINE
  5
276F
  8
AM_0
 10
177.6116855359837
 20
327.83790832153761
 30
0.0
 11
175.6443771302593
 21
327.83790832153761
 31
0.0
  0
LINE
  5
2770
  8
AM_0
 10
177.6116855359837
 20
328.4609083215376
 30
0.0
 11
175.6443771302593
 21
328.4609083215376
 31
0.0
  0
LINE
  5
2771
  8
AM_0
 10
177.6116855359837
 20
328.4609083215376
 30
0.0
 11
177.6116855359837
 21
327.83790832153761
 31
0.0
  0
CIRCLE
  5
2772
  8
AM_0
 10
261.33287713026277
 20
328.14940832153752
 30
0.0
 40
4.0
  0
LINE
  5
2773
  8
AM_0
 10
261.02137713026292
 20
325.87059991581322
 30
0.0
 11
261.64437713026291
 21
325.87059991581322
 31
0.0
  0
LINE
  5
2774
  8
AM_0
 10
261.02137713026292
 20
330.42821672726188
 30
0.0
 11
261.64437713026291
 21
330.42821672726188
 31
0.0
  0
LINE
  5
2775
  8
AM_0
 10
261.02137713026292
 20
325.87059991581322
 30
0.0
 11
261.02137713026292
 21
327.8379083215375
 31
0.0
  0
LINE
  5
2776
  8
AM_0
 10
261.02137713026292
 20
328.4609083215376
 30
0.0
 11
261.02137713026292
 21
330.42821672726188
 31
0.0
  0
LINE
  5
2777
  8
AM_0
 10
261.02137713026292
 20
328.4609083215376
 30
0.0
 11
259.05406872453852
 21
328.4609083215376
 31
0.0
  0
LINE
  5
2778
  8
AM_0
 10
261.02137713026292
 20
327.8379083215375
 30
0.0
 11
259.05406872453852
 21
327.8379083215375
 31
0.0
  0
LINE
  5
2779
  8
AM_0
 10
259.05406872453852
 20
328.4609083215376
 30
0.0
 11
259.05406872453852
 21
327.8379083215375
 31
0.0
  0
LINE
  5
277A
  8
AM_0
 10
261.64437713026291
 20
325.87059991581322
 30
0.0
 11
261.64437713026291
 21
327.8379083215375
 31
0.0
  0
LINE
  5
277B
  8
AM_0
 10
261.64437713026291
 20
328.4609083215376
 30
0.0
 11
261.64437713026291
 21
330.42821672726188
 31
0.0
  0
LINE
  5
277C
  8
AM_0
 10
263.61168553598719
 20
327.8379083215375
 30
0.0
 11
261.64437713026291
 21
327.8379083215375
 31
0.0
  0
LINE
  5
277D
  8
AM_0
 10
263.61168553598719
 20
328.4609083215376
 30
0.0
 11
261.64437713026291
 21
328.4609083215376
 31
0.0
  0
LINE
  5
277E
  8
AM_0
 10
263.61168553598719
 20
328.4609083215376
 30
0.0
 11
263.61168553598719
 21
327.8379083215375
 31
0.0
  0
LINE
  5
277F
  8
AM_0
 10
188.868411036194
 20
331.6849422274708
 30
0.0
 11
171.7973432243281
 21
314.61387441560549
 31
0.0
  0
LINE
  5
2780
  8
AM_0
 10
189.5252652856862
 20
326.68494222747057
 30
0.0
 11
176.79734322432819
 21
313.9570201661129
 31
0.0
  0
ARC
  5
2781
  8
AM_0
 10
180.33287713026101
 20
310.42148626018002
 30
0.0
 40
5.0
 50
135.0
 51
180.0
1001
GENIUS_GENOBJ-N-FIL_13
1002
{
1000
OWNER
1000
GEN
1002
}
1001
GENIUS_GENODEF_13
1002
{
1000
HIER
1070
     0
1002
}
1002
{
1000
MANEDIT
1070
     0
1002
}
1002
{
1000
NOSEL
1070
     0
1002
}
1002
{
1000
BEHIND
1070
     0
1002
}
1002
{
1000
OTHER
1070
     0
1002
}
1002
{
1000
REACTOR
1002
}
  0
LINE
  5
2782
  8
AM_0
 10
247.79734322432819
 20
242.6138744156051
 30
0.0
 11
264.86841103619372
 21
259.6849422274704
 31
0.0
  0
ARC
  5
2783
  8
AM_0
 10
244.26180931839559
 20
246.14940832153769
 30
0.0
 40
5.0
 50
270.0
 51
315.0
1001
GENIUS_GENODEF_13
1002
{
1000
HIER
1070
     0
1002
}
1002
{
1000
MANEDIT
1070
     0
1002
}
1002
{
1000
NOSEL
1070
     0
1002
}
1002
{
1000
BEHIND
1070
     0
1002
}
1002
{
1000
OTHER
1070
     0
1002
}
1002
{
1000
REACTOR
1002
}
1001
GENIUS_GENOBJ-N-FIL_13
1002
{
1000
OWNER
1000
GEN
1002
}
  0
LINE
  5
2784
  8
AM_0
 10
247.14048897483599
 20
247.6138744156051
 30
0.0
 11
259.86841103619372
 21
260.34179647696271
 31
0.0
  0
ARC
  5
2785
  8
AM_0
 10
256.33287713026112
 20
263.87733038289548
 30
0.0
 40
5.0
 50
315.0
 51
0.0
1001
GENIUS_GENOBJ-N-FIL_13
1002
{
1000
OWNER
1000
GEN
1002
}
1001
GENIUS_GENODEF_13
1002
{
1000
HIER
1070
     0
1002
}
1002
{
1000
MANEDIT
1070
     0
1002
}
1002
{
1000
NOSEL
1070
     0
1002
}
1002
{
1000
BEHIND
1070
     0
1002
}
1002
{
1000
OTHER
1070
     0
1002
}
1002
{
1000
REACTOR
1002
}
  0
LINE
  5
2786
  8
AM_0
 10
188.86841103619381
 20
242.6138744156051
 30
0.0
 11
171.7973432243281
 21
259.68494222747029
 31
0.0
  0
LINE
  5
2787
  8
AM_0
 10
189.525265285686
 20
247.6138744156051
 30
0.0
 11
176.79734322432819
 21
260.34179647696271
 31
0.0
  0
ARC
  5
2788
  8
AM_0
 10
193.06079919161871
 20
251.14940832153781
 30
0.0
 40
5.0
 50
225.0
 51
270.0
1001
GENIUS_GENOBJ-N-FIL_13
1002
{
1000
OWNER
1000
GEN
1002
}
1001
GENIUS_GENODEF_13
1002
{
1000
HIER
1070
     0
1002
}
1002
{
1000
MANEDIT
1070
     0
1002
}
1002
{
1000
NOSEL
1070
     0
1002
}
1002
{
1000
BEHIND
1070
     0
1002
}
1002
{
1000
OTHER
1070
     0
1002
}
1002
{
1000
REACTOR
1002
}
  0
CIRCLE
  5
2789
  8
AM_0
 10
175.33287713025911
 20
246.1494083215382
 30
0.0
 40
4.0
  0
LINE
  5
278A
  8
AM_0
 10
175.02137713025931
 20
248.42821672726259
 30
0.0
 11
175.6443771302591
 21
248.42821672726259
 31
0.0
  0
LINE
  5
278B
  8
AM_0
 10
175.02137713025931
 20
243.8705999158139
 30
0.0
 11
175.6443771302591
 21
243.8705999158139
 31
0.0
  0
LINE
  5
278C
  8
AM_0
 10
175.02137713025931
 20
248.42821672726259
 30
0.0
 11
175.02137713025931
 21
246.4609083215382
 31
0.0
  0
LINE
  5
278D
  8
AM_0
 10
175.02137713025931
 20
245.83790832153821
 30
0.0
 11
175.02137713025931
 21
243.8705999158139
 31
0.0
  0
LINE
  5
278E
  8
AM_0
 10
175.02137713025931
 20
245.83790832153821
 30
0.0
 11
173.0540687245348
 21
245.83790832153821
 31
0.0
  0
LINE
  5
278F
  8
AM_0
 10
175.02137713025931
 20
246.4609083215382
 30
0.0
 11
173.0540687245348
 21
246.4609083215382
 31
0.0
  0
LINE
  5
2790
  8
AM_0
 10
173.0540687245348
 20
245.83790832153821
 30
0.0
 11
173.0540687245348
 21
246.4609083215382
 31
0.0
  0
LINE
  5
2791
  8
AM_0
 10
175.6443771302591
 20
248.42821672726259
 30
0.0
 11
175.6443771302591
 21
246.4609083215382
 31
0.0
  0
LINE
  5
2792
  8
AM_0
 10
175.6443771302591
 20
245.83790832153821
 30
0.0
 11
175.6443771302591
 21
243.8705999158139
 31
0.0
  0
LINE
  5
2793
  8
AM_0
 10
177.6116855359835
 20
246.4609083215382
 30
0.0
 11
175.6443771302591
 21
246.4609083215382
 31
0.0
  0
LINE
  5
2794
  8
AM_0
 10
177.6116855359835
 20
245.83790832153821
 30
0.0
 11
175.6443771302591
 21
245.83790832153821
 31
0.0
  0
LINE
  5
2795
  8
AM_0
 10
177.6116855359835
 20
245.83790832153821
 30
0.0
 11
177.6116855359835
 21
246.4609083215382
 31
0.0
  0
CIRCLE
  5
2796
  8
AM_0
 10
261.33287713026272
 20
246.149408321538
 30
0.0
 40
4.0
  0
LINE
  5
2797
  8
AM_0
 10
261.02137713026269
 20
248.4282167272624
 30
0.0
 11
261.64437713026268
 21
248.4282167272624
 31
0.0
  0
LINE
  5
2798
  8
AM_0
 10
261.02137713026269
 20
243.8705999158137
 30
0.0
 11
261.64437713026268
 21
243.8705999158137
 31
0.0
  0
LINE
  5
2799
  8
AM_0
 10
261.02137713026269
 20
248.4282167272624
 30
0.0
 11
261.02137713026269
 21
246.460908321538
 31
0.0
  0
LINE
  5
279A
  8
AM_0
 10
261.02137713026269
 20
245.83790832153801
 30
0.0
 11
261.02137713026269
 21
243.8705999158137
 31
0.0
  0
LINE
  5
279B
  8
AM_0
 10
261.02137713026269
 20
245.83790832153801
 30
0.0
 11
259.0540687245383
 21
245.83790832153801
 31
0.0
  0
LINE
  5
279C
  8
AM_0
 10
261.02137713026269
 20
246.460908321538
 30
0.0
 11
259.0540687245383
 21
246.460908321538
 31
0.0
  0
LINE
  5
279D
  8
AM_0
 10
259.0540687245383
 20
245.83790832153801
 30
0.0
 11
259.0540687245383
 21
246.460908321538
 31
0.0
  0
LINE
  5
279E
  8
AM_0
 10
261.64437713026268
 20
248.4282167272624
 30
0.0
 11
261.64437713026268
 21
246.460908321538
 31
0.0
  0
LINE
  5
279F
  8
AM_0
 10
261.64437713026268
 20
245.83790832153801
 30
0.0
 11
261.64437713026268
 21
243.8705999158137
 31
0.0
  0
LINE
  5
27A0
  8
AM_0
 10
263.61168553598708
 20
246.460908321538
 30
0.0
 11
261.64437713026268
 21
246.460908321538
 31
0.0
  0
LINE
  5
27A1
  8
AM_0
 10
263.61168553598708
 20
245.83790832153801
 30
0.0
 11
261.64437713026268
 21
245.83790832153801
 31
0.0
  0
LINE
  5
27A2
  8
AM_0
 10
263.61168553598708
 20
245.83790832153801
 30
0.0
 11
263.61168553598708
 21
246.460908321538
 31
0.0
  0
LINE
  5
27A3
  8
AM_0
 10
170.33287713026101
 20
256.14940832153792
 30
0.0
 11
169.33287713026101
 21
256.14940832153792
 31
0.0
  0
LINE
  5
27A4
  8
AM_0
 10
170.33287713026101
 20
318.14940832153798
 30
0.0
 11
169.33287713026101
 21
318.14940832153792
 31
0.0
  0
LINE
  5
27A5
  8
AM_0
 10
169.33287713026101
 20
256.14940832153792
 30
0.0
 11
169.33287713026101
 21
318.14940832153792
 31
0.0
  0
LINE
  5
27EA
  8
ﾁｭｳｼﾝｾﾝ1
 10
175.33287713025891
 20
322.14940832153752
 30
0.0
 11
175.3328771302595
 21
334.14940832153752
 31
0.0
  0
LINE
  5
27EB
  8
ﾁｭｳｼﾝｾﾝ1
 10
181.33287713025919
 20
328.14940832153718
 30
0.0
 11
169.33287713025931
 21
328.14940832153798
 31
0.0
  0
LINE
  5
27EC
  8
ﾁｭｳｼﾝｾﾝ1
 10
175.33287713025879
 20
240.1494083215382
 30
0.0
 11
175.3328771302595
 21
252.1494083215382
 31
0.0
  0
LINE
  5
27ED
  8
ﾁｭｳｼﾝｾﾝ1
 10
181.33287713025911
 20
246.149408321538
 30
0.0
 11
169.33287713025919
 21
246.1494083215384
 31
0.0
  0
LINE
  5
27EE
  8
ﾁｭｳｼﾝｾﾝ1
 10
261.33287713026237
 20
240.149408321538
 30
0.0
 11
261.33287713026289
 21
252.149408321538
 31
0.0
  0
LINE
  5
27EF
  8
ﾁｭｳｼﾝｾﾝ1
 10
267.33287713026272
 20
246.14940832153769
 30
0.0
 11
255.33287713026269
 21
246.1494083215384
 31
0.0
  0
LINE
  5
3412
  8
ﾁｭｳｼﾝｾﾝ
 10
431.76875971992172
 20
307.1493823215377
 30
0.0
 11
295.29596713026081
 21
307.1493823215377
 31
0.0
  0
LINE
  5
342B
  8
AM_0
 10
327.3328771302609
 20
337.6668973215377
 30
0.0
 11
330.3328771302609
 21
337.6668973215377
 31
0.0
  0
LINE
  5
342C
  8
AM_0
 10
327.3328771302609
 20
326.11987332153768
 30
0.0
 11
330.3328771302609
 21
326.11987332153768
 31
0.0
  0
LINE
  5
342D
  8
AM_0
 10
327.3328771302609
 20
329.0066173215377
 30
0.0
 11
330.3328771302609
 21
329.0066173215377
 31
0.0
  0
LINE
  5
342E
  8
AM_0
 10
327.3328771302609
 20
334.78011732153772
 30
0.0
 11
330.3328771302609
 21
334.78011732153772
 31
0.0
  0
LINE
  5
342F
  8
AM_0
 10
331.33283713026088
 20
327.11988732153759
 30
0.0
 11
331.33283713026088
 21
336.66690732153762
 31
0.0
  0
LINE
  5
3430
  8
AM_0
 10
327.3328771302609
 20
338.66688732153779
 30
0.0
 11
327.3328771302609
 21
325.11987432153768
 31
0.0
  0
LINE
  5
3432
  8
AM_0
 10
326.33288713026087
 20
338.66688732153779
 30
0.0
 11
327.3328771302609
 21
338.66688732153779
 31
0.0
  0
LINE
  5
3433
  8
AM_0
 10
326.33288713026087
 20
325.11987432153768
 30
0.0
 11
327.3328771302609
 21
325.11987432153768
 31
0.0
  0
LINE
  5
343F
  8
AM_0
 10
286.33292713026088
 20
212.14939632153769
 30
0.0
 11
311.33288713026087
 21
212.14939632153769
 31
0.0
  0
LINE
  5
3440
  8
AM_0
 10
288.3328771302609
 20
224.14941132153771
 30
0.0
 11
307.28222713026088
 21
224.14941132153771
 31
0.0
  0
LINE
  5
3441
  8
AM_0
 10
355.3328971302609
 20
212.14939632153769
 30
0.0
 11
380.33288713026087
 21
212.14939632153769
 31
0.0
  0
LINE
  5
3443
  8
AM_0
 10
315.3328771302609
 20
358.14939732153772
 30
0.0
 11
315.3328771302609
 21
243.00654432153769
 31
0.0
  0
LINE
  5
3444
  8
AM_0
 10
315.3328771302609
 20
358.14939732153772
 30
0.0
 11
359.46377713026078
 21
356.9937673215378
 31
0.0
  0
LINE
  5
3445
  8
AM_0
 10
368.89712713026091
 20
340.8874273215377
 30
0.0
 11
374.59439713026092
 21
340.38897732153771
 31
0.0
  0
LINE
  5
3446
  8
AM_0
 10
377.33288713026087
 20
337.40040732153773
 30
0.0
 11
377.33288713026087
 21
227.8939633215378
 31
0.0
  0
LINE
  5
3447
  8
AM_0
 10
286.33292713026088
 20
222.1493953215377
 30
0.0
 11
286.33292713026088
 21
212.14939632153769
 31
0.0
  0
LINE
  5
3448
  8
AM_0
 10
312.3328771302609
 20
213.14938032153771
 30
0.0
 11
354.33287713026078
 21
213.14938032153771
 31
0.0
  0
LINE
  5
3449
  8
AM_0
 10
380.33288713026087
 20
222.1493953215377
 30
0.0
 11
380.33288713026087
 21
212.14939632153769
 31
0.0
  0
LINE
  5
3451
  8
AM_0
 10
318.3328771302609
 20
294.36566232153768
 30
0.0
 11
318.3328771302609
 21
257.67387132153772
 31
0.0
  0
LINE
  5
3452
  8
AM_0
 10
356.33288713026087
 20
224.14941132153771
 30
0.0
 11
378.33287713026078
 21
224.14941132153771
 31
0.0
  0
LINE
  5
3455
  8
AM_0
 10
329.33288713026087
 20
338.67684732153771
 30
0.0
 11
364.33289713026079
 21
338.67684732153771
 31
0.0
  0
LINE
  5
3457
  8
AM_0
 10
311.33288713026087
 20
212.14939632153769
 30
0.0
 11
311.33288713026087
 21
212.14939632153769
 31
0.0
  0
LINE
  5
3458
  8
AM_0
 10
351.33287713026078
 20
316.94021532153772
 30
0.0
 11
351.33287713026078
 21
229.14939732153769
 31
0.0
  0
LINE
  5
345A
  8
AM_0
 10
364.33289713026079
 20
351.9954973215377
 30
0.0
 11
364.33289713026079
 21
243.19019832153771
 31
0.0
  0
LINE
  5
345E
  8
AM_0
 10
351.33287713026078
 20
239.1902143215377
 30
0.0
 11
360.33287713026078
 21
239.1902143215377
 31
0.0
  0
LINE
  5
3463
  8
AM_0
 10
359.33288713026087
 20
324.94018632153762
 30
0.0
 11
364.33289713026079
 21
324.94018632153762
 31
0.0
  0
LINE
  5
3467
  8
AM_0
 10
355.3328971302609
 20
212.14939632153769
 30
0.0
 11
355.3328971302609
 21
212.14939632153769
 31
0.0
  0
LINE
  5
3468
  8
AM_0
 10
312.17339713026092
 20
228.1118743215377
 30
0.0
 11
318.22406713026101
 21
256.63635132153769
 31
0.0
  0
LINE
  5
3469
  8
AM_0
 10
326.33288713026087
 20
343.6761673215376
 30
0.0
 11
326.33288713026087
 21
320.77414032153769
 31
0.0
  0
LINE
  5
346C
  8
AM_0
 10
329.33288713026087
 20
357.70425732153768
 30
0.0
 11
329.33288713026087
 21
338.67684732153771
 31
0.0
  0
LINE
  5
346D
  8
AM_0
 10
329.33288713026087
 20
357.7042273215377
 30
0.0
 11
342.91487713026089
 21
338.67684732153771
 31
0.0
  0
LINE
  5
346E
  8
AM_0
 10
329.33288713026087
 20
320.4981073215377
 30
0.0
 11
329.33288713026087
 21
294.36566232153768
 31
0.0
  0
LINE
  5
346F
  8
AM_0
 10
342.16250713026079
 20
320.4981073215377
 30
0.0
 11
329.33288713026087
 21
294.36566232153768
 31
0.0
  0
LINE
  5
3470
  8
AM_0
 10
318.3328771302609
 20
294.36566232153768
 30
0.0
 11
329.33288713026087
 21
294.36566232153768
 31
0.0
  0
LINE
  5
3471
  8
AM_0
 10
329.33288713026087
 20
320.4981073215377
 30
0.0
 11
352.1675971302609
 21
320.4981073215377
 31
0.0
  0
LINE
  5
3472
  8
AM_0
 10
310.33292713026088
 20
358.14939732153772
 30
0.0
 11
315.3328771302609
 21
358.14939732153772
 31
0.0
  0
LINE
  5
3473
  8
AM_0
 10
278.33288713026087
 20
223.6493953215377
 30
0.0
 11
286.79480713026101
 21
223.42780932153769
 31
0.0
  0
LINE
  5
3474
  8
AM_0
 10
303.3328771302609
 20
336.64941732153773
 30
0.0
 11
303.3328771302609
 21
322.01672532153782
 31
0.0
  0
LINE
  5
3475
  8
AM_0
 10
278.33288713026087
 20
350.64939732153772
 30
0.0
 11
306.38525713026092
 21
351.38397732153783
 31
0.0
  0
LINE
  5
3476
  8
AM_0
 10
308.33288713026087
 20
356.14941732153778
 30
0.0
 11
308.33288713026087
 21
340.64937732153783
 31
0.0
  0
LINE
  5
3477
  8
ﾁｭｳｼﾝｾﾝ
 10
109.5418838379029
 20
287.14941432153768
 30
0.0
 11
301.9467743260596
 21
287.14941432153768
 31
0.0
  0
LINE
  5
3478
  8
AM_0
 10
303.3328771302609
 20
231.5194063215377
 30
0.0
 11
307.81286713026088
 21
231.5194063215377
 31
0.0
  0
LINE
  5
3479
  8
AM_0
 10
305.33288713026087
 20
224.5523353215377
 30
0.0
 11
306.3328771302609
 21
224.5523353215377
 31
0.0
  0
LINE
  5
347A
  8
AM_0
 10
303.3328771302609
 20
320.01672432153771
 30
0.0
 11
307.77356713026091
 21
320.01672432153771
 31
0.0
  0
LINE
  5
347B
  8
AM_0
 10
305.33288713026087
 20
329.53740732153778
 30
0.0
 11
308.33288713026087
 21
329.53740732153778
 31
0.0
  0
LINE
  5
347C
  8
AM_0
 10
305.33288713026087
 20
338.64939732153772
 30
0.0
 11
306.3328771302609
 21
338.64939732153772
 31
0.0
  0
LINE
  5
347D
  8
AM_0
 10
303.3328771302609
 20
229.51939032153771
 30
0.0
 11
303.3328771302609
 21
224.14941132153771
 31
0.0
  0
LINE
  5
347E
  8
AM_0
 10
308.33288713026087
 20
329.53740732153778
 30
0.0
 11
308.33288713026087
 21
226.5523513215376
 31
0.0
  0
LINE
  5
347F
  8
AM_0
 10
278.33288713026087
 20
338.64939732153772
 30
0.0
 11
304.33292713026088
 21
338.64939732153772
 31
0.0
  0
LINE
  5
3480
  8
AM_0
 10
278.33288713026087
 20
324.29733432153779
 30
0.0
 11
303.3328771302609
 21
324.29733432153779
 31
0.0
  0
LINE
  5
3481
  8
AM_0
 10
278.33288713026087
 20
250.00147932153769
 30
0.0
 11
308.33288713026087
 21
250.00147932153769
 31
0.0
  0
LINE
  5
3482
  8
AM_0
 10
278.33288713026087
 20
235.6493953215377
 30
0.0
 11
308.33288713026087
 21
235.6493953215377
 31
0.0
  0
LINE
  5
3495
  8
AM_0
 10
278.33288713026087
 20
350.64939732153772
 30
0.0
 11
278.33288713026087
 21
223.6493503215377
 31
0.0
  0
ARC
  5
3582
  8
AM_0
 10
330.3328771302609
 20
330.00663732153782
 30
0.0
 40
1.0000000199999981
 50
270.0
 51
0.0
  0
ARC
  5
3583
  8
AM_0
 10
330.3328771302609
 20
333.78015732153767
 30
0.0
 40
1.0000000199999981
 50
0.0
 51
90.00000299999769
  0
ARC
  5
3584
  8
AM_0
 10
330.3328771302609
 20
335.7801073215378
 30
0.0
 40
1.0000000199999981
 50
270.0
 51
0.0
  0
ARC
  5
3585
  8
AM_0
 10
330.3328771302609
 20
328.00662732153779
 30
0.0
 40
1.0000000199999981
 50
0.0
 51
90.00000299999769
  0
ARC
  5
3586
  8
AM_0
 10
330.3328771302609
 20
327.11988732153759
 30
0.0
 40
1.0000000199999981
 50
270.0
 51
0.0
  0
ARC
  5
3587
  8
AM_0
 10
330.3328771302609
 20
336.66690732153762
 30
0.0
 40
1.0000000199999981
 50
0.0
 51
90.00000299999769
  0
ARC
  5
3589
  8
AM_0
 10
374.33288713026087
 20
337.40040732153773
 30
0.0
 40
3.0
 50
0.0
 51
84.999996999998885
  0
ARC
  5
358A
  8
AM_0
 10
369.3328771302609
 20
345.86841732153772
 30
0.0
 40
5.0000001000000003
 50
179.999989999999
 51
265.0
  0
ARC
  5
3595
  8
AM_0
 10
327.3328771302609
 20
343.6761673215376
 30
0.0
 40
1.0000000199999981
 50
90.00000299999769
 51
180.00001000000091
  0
ARC
  5
3596
  8
AM_0
 10
354.33287713026078
 20
212.14939632153769
 30
0.0
 40
1.0000000199999981
 50
0.0
 51
90.00000299999769
  0
ARC
  5
3597
  8
AM_0
 10
313.33292713026088
 20
257.67387132153772
 30
0.0
 40
5.0000001000000003
 50
348.0238700000001
 51
0.0
  0
ARC
  5
359C
  8
AM_0
 10
360.33287713026078
 20
243.19019832153771
 30
0.0
 40
4.0000001999999979
 50
270.0
 51
0.0
  0
ARC
  5
35A0
  8
AM_0
 10
359.33288713026087
 20
351.9954973215377
 30
0.0
 40
5.0000001000000003
 50
0.0
 51
88.499997000000647
  0
ARC
  5
35A1
  8
AM_0
 10
382.3328971302609
 20
227.8939633215378
 30
0.0
 40
5.0000001000000003
 50
179.999989999999
 51
235.15011000000041
  0
ARC
  5
35A2
  8
AM_0
 10
378.33287713026078
 20
222.1493953215377
 30
0.0
 40
2.00000007
 50
0.0
 51
90.00000299999769
  0
ARC
  5
35A3
  8
AM_0
 10
288.3328771302609
 20
222.1493953215377
 30
0.0
 40
2.00000007
 50
90.00000299999769
 51
180.00001000000091
  0
ARC
  5
35A4
  8
AM_0
 10
312.3328771302609
 20
212.14939632153769
 30
0.0
 40
1.0000000199999981
 50
90.00000299999769
 51
180.00001000000091
  0
ARC
  5
35A7
  8
AM_0
 10
356.33288713026087
 20
229.14939732153769
 30
0.0
 40
5.0000001000000003
 50
180.00001000000091
 51
270.0
  0
ARC
  5
35AF
  8
AM_0
 10
359.33288713026087
 20
316.94021532153772
 30
0.0
 40
8.0000000999999976
 50
90.00000299999769
 51
180.00001000000091
  0
ARC
  5
35B0
  8
AM_0
 10
307.28222713026088
 20
229.14939732153769
 30
0.0
 40
5.0000001000000003
 50
270.0
 51
348.0238700000001
  0
ARC
  5
35BF
  8
AM_0
 10
327.3328771302609
 20
320.77414032153769
 30
0.0
 40
1.0000000199999981
 50
179.999989999999
 51
270.0
  0
ARC
  5
35C0
  8
AM_0
 10
327.3328771302609
 20
317.77414032153769
 30
0.0
 40
2.00000007
 50
0.0
 51
90.00000299999769
  0
ARC
  5
35C1
  8
AM_0
 10
327.3328771302609
 20
346.67616732153772
 30
0.0
 40
2.00000007
 50
270.0
 51
0.0
  0
ARC
  5
35C2
  8
AM_0
 10
310.33292713026088
 20
356.14941732153778
 30
0.0
 40
2.00000007
 50
90.00000299999769
 51
180.00001000000091
  0
ARC
  5
35C3
  8
AM_0
 10
306.3328771302609
 20
340.64937732153783
 30
0.0
 40
2.00000007
 50
270.0
 51
0.0
  0
ARC
  5
35C4
  8
AM_0
 10
305.33288713026087
 20
336.64941732153773
 30
0.0
 40
2.00000007
 50
90.00000299999769
 51
180.00001000000091
  0
ARC
  5
35C5
  8
AM_0
 10
305.33288713026087
 20
331.5374173215377
 30
0.0
 40
2.00000007
 50
179.999989999999
 51
270.0
  0
ARC
  5
35C6
  8
AM_0
 10
301.33292713026088
 20
322.01672532153782
 30
0.0
 40
2.00000007
 50
270.0
 51
0.0
  0
ARC
  5
35C7
  8
AM_0
 10
306.3328771302609
 20
226.5523513215376
 30
0.0
 40
2.00000007
 50
270.0
 51
0.0
  0
ARC
  5
35C8
  8
AM_0
 10
305.33288713026087
 20
222.55233432153781
 30
0.0
 40
2.00000007
 50
90.00000299999769
 51
127.01006999999861
  0
ARC
  5
35C9
  8
AM_0
 10
301.33292713026088
 20
229.51939032153771
 30
0.0
 40
2.00000007
 50
0.0
 51
90.00000299999769
  0
ARC
  5
35D0
  8
AM_0
 10
306.3328771302609
 20
353.38329732153778
 30
0.0
 40
2.00000007
 50
271.50000000000267
 51
0.0
  0
LINE
  5
3F5E
  8
ﾁｭｳｼﾝｾﾝ
 10
585.32913058241502
 20
307.1493823215377
 30
0.0
 11
682.24053606900816
 21
307.1493823215377
 31
0.0
  0
LINE
  5
3F63
  8
ﾁｭｳｼﾝｾﾝ
 10
633.78483332571159
 20
362.2149546656396
 30
0.0
 11
633.78483332571159
 21
207.9151093215375
 31
0.0
  0
LINE
  5
3F65
  8
AM_0
 10
576.22700432571162
 20
326.16927732153772
 30
0.0
 11
580.80740432571145
 21
329.68398732153759
 31
0.0
  0
LINE
  5
3F66
  8
AM_0
 10
580.80740432571145
 20
329.68395732153749
 30
0.0
 11
580.05380432571155
 21
335.40807732153758
 31
0.0
  0
LINE
  5
3F67
  8
AM_0
 10
580.05380432571155
 20
335.40804732153748
 30
0.0
 11
574.71980432571149
 21
337.61748732153762
 31
0.0
  0
LINE
  5
3F68
  8
AM_0
 10
574.71983432571164
 20
337.61748732153762
 30
0.0
 11
570.13937432571163
 21
334.10280732153763
 31
0.0
  0
LINE
  5
3F69
  8
AM_0
 10
570.13937432571163
 20
334.10280732153763
 30
0.0
 11
570.89294432571194
 21
328.3786873215376
 31
0.0
  0
LINE
  5
3F6A
  8
AM_0
 10
570.89294432571194
 20
328.3786873215376
 30
0.0
 11
576.22697432571158
 21
326.16924732153763
 31
0.0
  0
LINE
  5
3F6B
  8
AM_0
 10
686.76231032571161
 20
329.6838673215376
 30
0.0
 11
691.34274032571147
 21
326.16918732153749
 31
0.0
  0
LINE
  5
3F6C
  8
AM_0
 10
687.51588332571146
 20
335.40798732153758
 30
0.0
 11
686.7622803257118
 21
329.6838673215376
 31
0.0
  0
LINE
  5
3F6D
  8
AM_0
 10
692.84992832571152
 20
337.61742732153749
 30
0.0
 11
687.51589832571153
 21
335.4080173215375
 31
0.0
  0
LINE
  5
3F6E
  8
AM_0
 10
697.43035832571172
 20
334.10271732153763
 30
0.0
 11
692.84992832571152
 21
337.61739732153762
 31
0.0
  0
LINE
  5
3F6F
  8
AM_0
 10
691.34274032571147
 20
326.16921732153747
 30
0.0
 11
696.67677032571135
 21
328.37862732153769
 31
0.0
  0
LINE
  5
3F70
  8
AM_0
 10
657.33166232571193
 20
222.75893832153761
 30
0.0
 11
656.57807732571155
 21
217.03483032153761
 31
0.0
  0
LINE
  5
3F71
  8
AM_0
 10
656.57809232571162
 20
217.03481532153759
 30
0.0
 11
661.1585193257115
 21
213.52013832153759
 31
0.0
  0
LINE
  5
3F72
  8
AM_0
 10
662.66572232571161
 20
224.96836332153751
 30
0.0
 11
657.33169232571163
 21
222.75893832153761
 31
0.0
  0
LINE
  5
3F73
  8
AM_0
 10
667.24613732571152
 20
221.45365332153759
 30
0.0
 11
662.66570732571154
 21
224.9683483215376
 31
0.0
  0
LINE
  5
3F74
  8
AM_0
 10
661.1585193257115
 20
213.52015332153761
 30
0.0
 11
666.49254932571148
 21
215.72957832153759
 31
0.0
  0
LINE
  5
3F75
  8
AM_0
 10
666.49251932571156
 20
215.7295633215376
 30
0.0
 11
667.24612232571155
 21
221.4536713215376
 31
0.0
  0
LINE
  5
3F76
  8
AM_0
 10
610.99158932571163
 20
217.0348453215376
 30
0.0
 11
610.23798632571163
 21
222.75895332153749
 31
0.0
  0
LINE
  5
3F77
  8
AM_0
 10
606.41114432571146
 20
213.52015332153761
 30
0.0
 11
610.99158932571163
 21
217.03483032153761
 31
0.0
  0
LINE
  5
3F78
  8
AM_0
 10
610.23801632571156
 20
222.75892332153759
 30
0.0
 11
604.90400132571165
 21
224.9683483215376
 31
0.0
  0
LINE
  5
3F79
  8
AM_0
 10
604.90397132571161
 20
224.96836332153751
 30
0.0
 11
600.32355632571125
 21
221.4536713215376
 31
0.0
  0
LINE
  5
3F7A
  8
AM_0
 10
601.07715932571159
 20
215.72954832153761
 30
0.0
 11
606.4111743257115
 21
213.52012032153749
 31
0.0
  0
LINE
  5
3F7B
  8
AM_0
 10
600.32352632571155
 20
221.4536863215375
 30
0.0
 11
601.07712932571155
 21
215.72957832153759
 31
0.0
  0
LINE
  5
3F8D
  8
AM_0
 10
697.43029532571154
 20
334.1027773215377
 30
0.0
 11
696.67671032571172
 21
328.3786873215376
 31
0.0
  0
LINE
  5
3F97
  8
AM_0
 10
711.78483332571136
 20
224.14939332153759
 30
0.0
 11
701.01641732571159
 21
326.77956732153763
 31
0.0
  0
LINE
  5
3F98
  8
AM_0
 10
679.78484732571178
 20
215.1493933215375
 30
0.0
 11
675.78483332571159
 21
215.1493933215375
 31
0.0
  0
LINE
  5
3F99
  8
AM_0
 10
680.78483432571193
 20
213.1494103215376
 30
0.0
 11
586.78487432571137
 21
213.1494103215376
 31
0.0
  0
LINE
  5
3F9A
  8
AM_0
 10
591.78483032571125
 20
215.1493933215375
 30
0.0
 11
587.78483132571193
 21
215.1493933215375
 31
0.0
  0
LINE
  5
3F9B
  8
AM_0
 10
672.78483332571147
 20
224.14939332153759
 30
0.0
 11
672.78483332571147
 21
218.14939332153759
 31
0.0
  0
LINE
  5
3F9C
  8
AM_0
 10
681.78483332571136
 20
212.14939332153759
 30
0.0
 11
681.78483332571136
 21
222.1494103215376
 31
0.0
  0
LINE
  5
3F9D
  8
ﾁｭｳｼﾝｾﾝ1
 10
568.78484432571156
 20
228.69484932153759
 30
0.0
 11
568.78484432571156
 21
207.60393732153759
 31
0.0
  0
LINE
  5
3F9E
  8
ﾁｭｳｼﾝｾﾝ1
 10
698.78484932571178
 20
228.69484932153759
 30
0.0
 11
698.78484932571178
 21
207.60393732153759
 31
0.0
  0
LINE
  5
3F9F
  8
AM_0
 10
599.78483132571193
 20
229.14939432153761
 30
0.0
 11
667.78484732571155
 21
229.14939432153761
 31
0.0
  0
LINE
  5
3FAF
  8
ｶｸﾚｾﾝ2
 10
574.78487432571137
 20
224.14939332153759
 30
0.0
 11
574.78487432571137
 21
212.14939332153759
 31
0.0
  0
LINE
  5
3FB0
  8
ｶｸﾚｾﾝ2
 10
562.7848743257116
 20
224.14939332153759
 30
0.0
 11
562.7848743257116
 21
212.14939332153759
 31
0.0
  0
LINE
  5
3FB1
  8
AM_0
 10
555.78482432571172
 20
212.14939332153759
 30
0.0
 11
555.78482432571172
 21
224.14939332153759
 31
0.0
  0
LINE
  5
3FB2
  8
AM_0
 10
555.78482432571172
 20
212.14939332153759
 30
0.0
 11
585.78482432571161
 21
212.14939332153759
 31
0.0
  0
LINE
  5
3FB3
  8
AM_0
 10
583.7848743257116
 20
224.14939332153759
 30
0.0
 11
557.78483432571124
 21
224.14939332153759
 31
0.0
  0
LINE
  5
3FB8
  8
ｶｸﾚｾﾝ2
 10
692.7848343257117
 20
224.14939332153759
 30
0.0
 11
692.7848343257117
 21
212.14939332153759
 31
0.0
  0
LINE
  5
3FBD
  8
AM_0
 10
555.78482432571172
 20
224.14939332153759
 30
0.0
 11
566.55326432571155
 21
326.77956732153763
 31
0.0
  0
LINE
  5
3FBF
  8
ｶｸﾚｾﾝ2
 10
704.78484932571166
 20
224.14939332153759
 30
0.0
 11
704.78484932571166
 21
212.14939332153759
 31
0.0
  0
LINE
  5
3FC0
  8
AM_0
 10
711.78483332571136
 20
212.14939332153759
 30
0.0
 11
681.78483332571136
 21
212.14939332153759
 31
0.0
  0
LINE
  5
3FC1
  8
AM_0
 10
683.78483432571193
 20
224.14939332153759
 30
0.0
 11
709.78485032571155
 21
224.14939332153759
 31
0.0
  0
LINE
  5
3FC3
  8
AM_0
 10
594.78483032571137
 20
224.14939332153759
 30
0.0
 11
594.78483032571137
 21
218.14939332153759
 31
0.0
  0
LINE
  5
3FC4
  8
AM_0
 10
585.78482432571161
 20
212.14939332153759
 30
0.0
 11
585.78482432571161
 21
222.1494103215376
 31
0.0
  0
LINE
  5
3FC5
  8
AM_0
 10
686.78483432571193
 20
322.40193732153762
 30
0.0
 11
686.78483432571193
 21
261.14938032153748
 31
0.0
  0
LINE
  5
3FC6
  8
AM_0
 10
711.78483332571136
 20
212.14939332153759
 30
0.0
 11
711.78483332571136
 21
224.14939332153759
 31
0.0
  0
LINE
  5
3FC8
  8
AM_0
 10
580.7848743257116
 20
322.40193732153762
 30
0.0
 11
580.7848743257116
 21
261.14938032153748
 31
0.0
  0
LINE
  5
3FC9
  8
AM_0
 10
585.78482432571161
 20
292.1493823215377
 30
0.0
 11
585.78482432571161
 21
229.14939432153761
 31
0.0
  0
LINE
  5
3FCA
  8
AM_0
 10
681.78483332571136
 20
292.1493823215377
 30
0.0
 11
681.78483332571136
 21
229.14939432153761
 31
0.0
  0
LINE
  5
3FDE
  8
ﾁｭｳｼﾝｾﾝ
 10
707.95922342364065
 20
287.14938132153759
 30
0.0
 11
507.77009318235878
 21
287.14938132153759
 31
0.0
  0
CIRCLE
  5
3FDF
  8
AM_0
 10
575.47337432571157
 20
331.89336732153771
 30
0.0
 40
4.9999998000000003
  0
CIRCLE
  5
3FE0
  8
AM_0
 10
692.09631032571167
 20
331.89330732153758
 30
0.0
 40
4.9999998000000003
  0
CIRCLE
  5
3FE1
  8
AM_0
 10
661.9120743257115
 20
219.24425832153759
 30
0.0
 40
4.9999998000000003
  0
CIRCLE
  5
3FE2
  8
AM_0
 10
605.65754132571135
 20
219.24425832153759
 30
0.0
 40
4.9999998000000003
  0
ARC
  5
3FF2
  8
AM_0
 10
694.37296832571155
 20
318.02136732153758
 30
0.0
 40
3.0
 50
27.000573000003559
 51
84.294260999995842
  0
ARC
  5
3FF5
  8
AM_0
 10
573.19670432571195
 20
318.02136732153758
 30
0.0
 40
3.0
 50
95.705737999992436
 51
152.999419999997
  0
ARC
  5
3FF6
  8
AM_0
 10
580.7848743257116
 20
229.14939432153761
 30
0.0
 40
5.0000001000000003
 50
270.0
 51
0.0
  0
ARC
  5
3FF7
  8
AM_0
 10
585.78482432571161
 20
322.40193732153762
 30
0.0
 40
5.0000001000000003
 50
138.71941000000211
 51
180.00001000000091
  0
ARC
  5
3FF8
  8
AM_0
 10
588.28339532571135
 20
337.6827373215375
 30
0.0
 40
3.0
 50
132.00064999999441
 51
189.2943400000016
  0
ARC
  5
3FF9
  8
AM_0
 10
681.78483332571136
 20
322.40193732153762
 30
0.0
 40
5.0000001000000003
 50
0.0
 51
41.280591000003277
  0
ARC
  5
3FFA
  8
AM_0
 10
680.78483432571193
 20
212.14939332153759
 30
0.0
 40
1.0000000199999981
 50
0.0
 51
90.00000299999769
  0
ARC
  5
3FFB
  8
AM_0
 10
586.78487432571137
 20
212.14939332153759
 30
0.0
 40
1.0000000199999981
 50
90.00000299999769
 51
180.00001000000091
  0
ARC
  5
3FFC
  8
AM_0
 10
591.78483032571125
 20
218.14939332153759
 30
0.0
 40
3.0
 50
270.0
 51
0.0
  0
ARC
  5
3FFD
  8
AM_0
 10
587.78483132571193
 20
213.1494103215376
 30
0.0
 40
2.00000007
 50
90.00000299999769
 51
180.00001000000091
  0
ARC
  5
3FFE
  8
AM_0
 10
678.85207832571155
 20
342.98580732153761
 30
0.0
 40
5.0000001000000003
 50
334.93703000000107
 51
64.582444000007499
  0
ARC
  5
4002
  8
AM_0
 10
633.78483332571159
 20
287.14938132153759
 30
0.0
 40
71.000000999999983
 50
5.9898141999989969
 51
27.000573000003559
  0
ARC
  5
4003
  8
AM_0
 10
557.78483432571124
 20
222.1494103215376
 30
0.0
 40
2.00000007
 50
90.00000299999769
 51
180.00001000000091
  0
ARC
  5
4005
  8
AM_0
 10
633.78483332571159
 20
292.1493823215377
 30
0.0
 40
48.0
 50
0.0
 51
77.663515021271778
  0
ARC
  5
4006
  8
AM_0
 10
633.78483332571159
 20
292.1493823215377
 30
0.0
 40
48.0
 50
102.33648497872819
 51
180.00001000000091
  0
ARC
  5
4008
  8
AM_0
 10
571.50656432571157
 20
334.93713732153759
 30
0.0
 40
13.9999986
 50
266.80063999999248
 51
25.062968999998159
  0
ARC
  5
4009
  8
AM_0
 10
686.78483432571193
 20
229.14939432153761
 30
0.0
 40
5.0000001000000003
 50
179.999989999999
 51
270.0
  0
ARC
  5
400A
  8
AM_0
 10
675.78483332571159
 20
218.14939332153759
 30
0.0
 40
3.0
 50
179.999989999999
 51
270.0
  0
ARC
  5
4010
  8
AM_0
 10
583.7848743257116
 20
222.1494103215376
 30
0.0
 40
2.00000007
 50
0.0
 51
90.00000299999769
  0
ARC
  5
4011
  8
AM_0
 10
696.06310832571148
 20
334.93713732153759
 30
0.0
 40
13.9999986
 50
154.93704000000471
 51
273.19937000000078
  0
ARC
  5
4013
  8
AM_0
 10
709.78485032571155
 20
222.1494103215376
 30
0.0
 40
2.00000007
 50
0.0
 51
90.00000299999769
  0
ARC
  5
4014
  8
AM_0
 10
599.78483132571193
 20
224.14939332153759
 30
0.0
 40
5.0000001000000003
 50
90.00000299999769
 51
180.00001000000091
  0
ARC
  5
4015
  8
AM_0
 10
633.78483332571159
 20
287.14938132153759
 30
0.0
 40
71.000000999999983
 50
47.99935899999911
 51
132.00064999999441
  0
ARC
  5
4016
  8
AM_0
 10
683.78483432571193
 20
222.1494103215376
 30
0.0
 40
2.00000007
 50
90.00000299999769
 51
180.00001000000091
  0
ARC
  5
4017
  8
AM_0
 10
667.78484732571155
 20
224.14939332153759
 30
0.0
 40
5.0000001000000003
 50
0.0
 51
90.00000299999769
  0
ARC
  5
4018
  8
AM_0
 10
633.78483332571159
 20
287.14938132153759
 30
0.0
 40
71.000000999999983
 50
152.999419999997
 51
174.01019000000019
  0
ARC
  5
401B
  8
AM_0
 10
614.78483132571193
 20
261.14938032153748
 30
0.0
 40
34.000002000000002
 50
179.999989999999
 51
211.46696999999929
  0
ARC
  5
401C
  8
AM_0
 10
697.12350332571168
 20
315.96672732153769
 30
0.0
 40
5.0000001000000003
 50
5.9898155000026119
 51
93.199358999991276
  0
ARC
  5
401D
  8
AM_0
 10
679.78484732571178
 20
213.1494103215376
 30
0.0
 40
2.00000007
 50
0.0
 51
90.00000299999769
  0
ARC
  5
401E
  8
AM_0
 10
652.78484732571155
 20
261.14938032153748
 30
0.0
 40
34.000002000000002
 50
328.53302000000161
 51
0.0
  0
ARC
  5
401F
  8
AM_0
 10
379.33286713026109
 20
336.53613732153752
 30
0.0
 40
2.00000007
 50
179.999989999999
 51
240.0000100000054
  0
ARC
  5
4020
  8
AM_0
 10
379.33286713026109
 20
277.76263032153759
 30
0.0
 40
2.00000007
 50
120.0000000000001
 51
180.00001000000091
  0
ARC
  5
4021
  8
AM_0
 10
586.4440743257112
 20
324.69252732153763
 30
0.0
 40
20.000000700000001
 50
121.7361700000021
 51
174.01019000000019
  0
ARC
  5
4022
  8
AM_0
 10
681.1256073257116
 20
324.69252732153763
 30
0.0
 40
20.000000700000001
 50
5.9898155000026119
 51
58.263835999999969
  0
ARC
  5
4023
  8
AM_0
 10
588.71760032571194
 20
342.98580732153761
 30
0.0
 40
5.0000001000000003
 50
115.41756000000269
 51
205.06296999999901
  0
ARC
  5
4024
  8
AM_0
 10
633.78483332571159
 20
248.14939632153741
 30
0.0
 40
110.000004
 50
58.263835999999969
 51
121.7361700000021
  0
ARC
  5
4025
  8
AM_0
 10
679.28629832571141
 20
337.6827373215375
 30
0.0
 40
3.0
 50
350.70566999999772
 51
47.99935899999911
  0
ARC
  5
4026
  8
AM_0
 10
570.44618432571156
 20
315.96672732153769
 30
0.0
 40
5.0000001000000003
 50
86.800639000002249
 51
174.01019000000019
  0
LINE
  5
404B
  8
AM_0
 10
383.33283713026083
 20
340.64937932153771
 30
0.0
 11
388.33283713026083
 21
335.64937932153771
 31
0.0
  0
LINE
  5
404C
  8
AM_0
 10
378.83283713026083
 20
340.64937932153771
 30
0.0
 11
383.33283713026083
 21
340.64937932153771
 31
0.0
  0
LINE
  5
404D
  8
AM_0
 10
378.33283713026083
 20
340.14937932153759
 30
0.0
 11
378.3328371302602
 21
274.14937932153811
 31
0.0
  0
LINE
  5
404E
  8
AM_0
 10
388.33283713026083
 20
335.64937932153771
 30
0.0
 11
388.33283713026083
 21
278.64937932153771
 31
0.0
  0
LINE
  5
404F
  8
AM_0
 10
378.83283713026083
 20
273.64937932153759
 30
0.0
 11
383.33283713026083
 21
273.64937932153759
 31
0.0
  0
LINE
  5
4050
  8
AM_0
 10
383.33283713026083
 20
273.64937932153759
 30
0.0
 11
388.33283713026083
 21
278.64937932153771
 31
0.0
  0
LINE
  5
4051
  8
AM_0
 10
378.83283713026083
 20
340.64937932153771
 30
0.0
 11
378.33283713026083
 21
340.14937932153759
 31
0.0
1001
GENIUS_GENFIL_13
1070
     0
1040
0.5
1040
0.5
1040
20.0
1040
0.0
1002
{
1002
}
1001
GENIUS_GENOBJ-N-CHA_13
1002
{
1000
OWNER
1000
GEN
1002
}
1001
GENIUS_GENODEF_13
1002
{
1000
HIER
1070
     0
1002
}
1002
{
1000
MANEDIT
1070
     0
1002
}
1002
{
1000
NOSEL
1070
     0
1002
}
1002
{
1000
BEHIND
1070
     0
1002
}
1002
{
1000
OTHER
1070
     0
1002
}
1002
{
1000
REACTOR
1002
}
  0
LINE
  5
4052
  8
AM_0
 10
378.33283713026083
 20
274.14937932153759
 30
0.0
 11
378.83283713026083
 21
273.64937932153759
 31
0.0
1001
GENIUS_GENFIL_13
1070
     0
1040
0.5
1040
0.5
1040
20.0
1040
0.0
1002
{
1002
}
1001
GENIUS_GENOBJ-N-CHA_13
1002
{
1000
OWNER
1000
GEN
1002
}
1001
GENIUS_GENODEF_13
1002
{
1000
HIER
1070
     0
1002
}
1002
{
1000
MANEDIT
1070
     0
1002
}
1002
{
1000
NOSEL
1070
     0
1002
}
1002
{
1000
BEHIND
1070
     0
1002
}
1002
{
1000
OTHER
1070
     0
1002
}
1002
{
1000
REACTOR
1002
}
  0
LINE
  5
4053
  8
AM_0
 10
383.33283713026083
 20
340.64937932153771
 30
0.0
 11
383.33283713026083
 21
273.64937932153759
 31
0.0
  0
CIRCLE
  5
4054
  8
AM_0
 10
633.78483332571159
 20
307.1493823215377
 30
0.0
 40
33.499999999999893
  0
CIRCLE
  5
4055
  8
AM_0
 10
633.78483332571159
 20
307.1493823215377
 30
0.0
 40
28.49999999999994
  0
LINE
  5
4472
  8
ﾁｭｳｼﾝｾﾝ1
 10
368.33288713026087
 20
228.69486732153771
 30
0.0
 11
368.33288713026087
 21
207.60395532153771
 31
0.0
  0
LINE
  5
4473
  8
ｶｸﾚｾﾝ2
 10
374.33291713026091
 20
224.14941132153771
 30
0.0
 11
374.33291713026091
 21
212.14941132153771
 31
0.0
  0
LINE
  5
4474
  8
ｶｸﾚｾﾝ2
 10
362.33291713026091
 20
224.14941132153771
 30
0.0
 11
362.33291713026091
 21
212.14941132153771
 31
0.0
  0
LINE
  5
4475
  8
ﾁｭｳｼﾝｾﾝ1
 10
298.33292713026088
 20
228.69486732153771
 30
0.0
 11
298.33292713026088
 21
207.60395532153771
 31
0.0
  0
LINE
  5
4476
  8
ｶｸﾚｾﾝ2
 10
304.33295713026081
 20
224.14941132153771
 30
0.0
 11
304.33295713026081
 21
212.14941132153771
 31
0.0
  0
LINE
  5
4477
  8
ｶｸﾚｾﾝ2
 10
292.33295713026081
 20
224.14941132153771
 30
0.0
 11
292.33295713026081
 21
212.14941132153771
 31
0.0
  0
LINE
  5
4BB5
  8
AM_0
 10
390.33284713026092
 20
324.14942832153753
 30
0.0
 11
390.33284713026092
 21
321.14942832153753
 31
0.0
  0
LINE
  5
4BB6
  8
AM_0
 10
390.33284713026092
 20
324.14942832153753
 30
0.0
 11
422.33288713026087
 21
324.14942832153753
 31
0.0
  0
LINE
  5
4BB7
  8
AM_0
 10
388.33283713026083
 20
293.14941132153751
 30
0.0
 11
422.33288713026087
 21
293.14941132153751
 31
0.0
  0
LINE
  5
4BB8
  8
AM_0
 10
388.3328371302606
 20
321.14942832153753
 30
0.0
 11
422.33288713026087
 21
321.14942832153753
 31
0.0
  0
LINE
  5
4BB9
  8
AM_0
 10
422.33288713026087
 20
324.14942832153753
 30
0.0
 11
422.33288713026087
 21
293.14941132153751
 31
0.0
  0
LINE
  5
4BBA
  8
AM_0
 10
629.78483132571159
 20
324.14942832153753
 30
0.0
 11
637.78481732571151
 21
324.14942832153753
 31
0.0
  0
LINE
  5
4BBB
  8
AM_0
 10
629.78483132571159
 20
317.14940832153758
 30
0.0
 11
637.78481732571151
 21
317.14940832153758
 31
0.0
  0
LINE
  5
4BBC
  8
AM_0
 10
637.78481732571151
 20
317.14940832153758
 30
0.0
 11
637.78481732571151
 21
324.14942832153753
 31
0.0
  0
LINE
  5
4BBD
  8
AM_0
 10
629.78483132571159
 20
317.14940832153758
 30
0.0
 11
629.78483132571159
 21
324.14942832153753
 31
0.0
  0
CIRCLE
  5
4BBE
  8
AM_5
 10
633.78483332571159
 20
307.1493823215377
 30
0.0
 40
4.0000001999999979
  0
ARC
  5
4BBF
  8
AM_0
 10
633.78483332571159
 20
307.1493823215377
 30
0.0
 40
14.000001299999999
 50
106.60154000000141
 51
73.398451999997818
  0
CIRCLE
  5
4BC0
  8
AM_0
 10
633.78483332571159
 20
307.1493823215377
 30
0.0
 40
3.0
  0
LINE
  5
4E4C
  8
AM_0
 10
557.78483332571136
 20
253.64751189395011
 30
0.0
 11
557.78483332571136
 21
320.64751189395008
 31
0.0
  0
LINE
  5
4E4D
  8
AM_0
 10
556.78483332571136
 20
320.64751189395008
 30
0.0
 11
559.78483332571159
 21
320.64751189395008
 31
0.0
  0
LINE
  5
4E4E
  8
AM_0
 10
518.78483332571147
 20
241.14751189395011
 30
0.0
 11
554.85463231911649
 21
242.40709703021241
 31
0.0
  0
LINE
  5
4E4F
  8
AM_0
 10
556.78483332571136
 20
244.40587868425061
 30
0.0
 11
556.78483332571136
 21
329.88914510364958
 31
0.0
  0
ARC
  5
4E50
  8
AM_0
 10
554.78483332571159
 20
244.40587868425061
 30
0.0
 40
2.0
 50
271.9999999999971
 51
0.0
1001
GENIUS_GENODEF_13
1002
{
1000
HIER
1070
     0
1002
}
1002
{
1000
MANEDIT
1070
     0
1002
}
1002
{
1000
NOSEL
1070
     0
1002
}
1002
{
1000
BEHIND
1070
     0
1002
}
1002
{
1000
OTHER
1070
     0
1002
}
1002
{
1000
REACTOR
1002
}
1001
GENIUS_GENOBJ-N-FIL_13
1002
{
1000
OWNER
1000
GEN
1002
}
  0
LINE
  5
4E51
  8
AM_0
 10
554.85463231911649
 20
331.88792675768798
 30
0.0
 11
518.78483332571147
 21
333.1475118939502
 31
0.0
  0
ARC
  5
4E52
  8
AM_0
 10
554.7848333257117
 20
329.88914510364958
 30
0.0
 40
2.0
 50
0.0
 51
88.000000000002899
1001
GENIUS_GENOBJ-N-FIL_13
1002
{
1000
OWNER
1000
GEN
1002
}
1001
GENIUS_GENODEF_13
1002
{
1000
HIER
1070
     0
1002
}
1002
{
1000
MANEDIT
1070
     0
1002
}
1002
{
1000
NOSEL
1070
     0
1002
}
1002
{
1000
BEHIND
1070
     0
1002
}
1002
{
1000
OTHER
1070
     0
1002
}
1002
{
1000
REACTOR
1002
}
  0
LINE
  5
4E53
  8
AM_0
 10
518.78483332571147
 20
333.1475118939502
 30
0.0
 11
518.78483332571147
 21
241.1475118939498
 31
0.0
  0
LINE
  5
4E54
  8
ﾁｭｳｼﾝｾﾝ1
 10
507.7848333257113
 20
246.14751189395079
 30
0.0
 11
523.61235633824822
 21
246.14751189395071
 31
0.0
  0
LINE
  5
4E55
  8
AM_0
 10
514.78483332571136
 20
333.1475118939502
 30
0.0
 11
514.78483332571136
 21
312.3330069944177
 31
0.0
  0
LINE
  5
4E56
  8
AM_0
 10
514.78483332571136
 20
261.96201679348241
 30
0.0
 11
514.78483332571136
 21
241.14751189395091
 31
0.0
  0
LINE
  5
4E57
  8
AM_0
 10
510.78483332571142
 20
327.01173022478952
 30
0.0
 11
510.78483332571142
 21
247.2832935631107
 31
0.0
  0
LINE
  5
4E58
  8
AM_0
 10
512.72589581358363
 20
250.05486686625721
 30
0.0
 11
513.78483332571147
 21
250.14751189395059
 31
0.0
  0
LINE
  5
4E59
  8
AM_0
 10
512.72589581358363
 20
242.24015692164431
 30
0.0
 11
513.78483332571147
 21
242.14751189395079
 31
0.0
  0
ARC
  5
4E5A
  8
AM_0
 10
517.18483332571145
 20
246.14751189395071
 30
0.0
 40
6.5
 50
151.82726586813479
 51
208.1727341318651
  0
ARC
  5
4E5B
  8
AM_0
 10
512.8653450019799
 20
243.834068438591
 30
0.0
 40
1.6000000000000001
 50
208.1727341318651
 51
265.00000000000028
  0
LINE
  5
4E5C
  8
AM_0
 10
511.10535966428318
 20
248.4475118939506
 30
0.0
 11
513.39491934307887
 21
246.14751189395071
 31
0.0
  0
LINE
  5
4E5D
  8
AM_0
 10
513.0848333257112
 20
246.4590118939507
 30
0.0
 11
513.0848333257112
 21
245.8360118939506
 31
0.0
  0
LINE
  5
4E5E
  8
AM_0
 10
511.10535966428318
 20
243.8475118939507
 30
0.0
 11
513.39491934307887
 21
246.14751189395071
 31
0.0
  0
LINE
  5
4E5F
  8
AM_0
 10
510.69230163537679
 20
246.4590118939507
 30
0.0
 11
513.0848333257112
 21
246.4590118939507
 31
0.0
  0
LINE
  5
4E60
  8
AM_0
 10
510.69230163537679
 20
245.8360118939506
 30
0.0
 11
513.0848333257112
 21
245.8360118939506
 31
0.0
  0
ARC
  5
4E61
  8
AM_0
 10
512.8653450019799
 20
248.4609553493103
 30
0.0
 40
1.6000000000000001
 50
94.99999999999973
 51
151.82726586813479
  0
LINE
  5
4E62
  8
AM_0
 10
514.78483332571136
 20
333.1475118939502
 30
0.0
 11
518.78483332571147
 21
333.1475118939502
 31
0.0
  0
LINE
  5
4E63
  8
AM_0
 10
513.78483332571125
 20
332.14751189394991
 30
0.0
 11
514.78483332571147
 21
333.1475118939502
 31
0.0
  0
LINE
  5
4E64
  8
AM_0
 10
518.78483332571147
 20
241.1475118939498
 30
0.0
 11
514.78483332571136
 21
241.14751189395091
 31
0.0
  0
LINE
  5
4E65
  8
AM_0N
 10
514.78483332571136
 20
249.94751189395069
 30
0.0
 11
513.78483332571147
 21
249.94751189395069
 31
0.0
  0
LINE
  5
4E66
  8
AM_0N
 10
513.78483332571147
 20
246.3475118939507
 30
0.0
 11
514.78483332571136
 21
246.7114821282168
 31
0.0
  0
LINE
  5
4E67
  8
AM_0N
 10
513.78483332571147
 20
245.94751189395069
 30
0.0
 11
514.78483332571136
 21
246.3114821282168
 31
0.0
  0
LINE
  5
4E68
  8
AM_0N
 10
513.78483332571147
 20
242.14751189395079
 30
0.0
 11
513.78483332571147
 21
250.14751189395059
 31
0.0
  0
LINE
  5
4E69
  8
AM_0N
 10
513.78483332571147
 20
242.3475118939507
 30
0.0
 11
514.78483332571136
 21
242.3475118939507
 31
0.0
  0
LINE
  5
4E6A
  8
AM_0
 10
510.78483332571142
 20
261.96201679348241
 30
0.0
 11
514.78483332571136
 21
261.96201679348241
 31
0.0
  0
LINE
  5
4E6B
  8
AM_0
 10
514.78483332571136
 20
260.30516254398992
 30
0.0
 11
510.78483332571142
 21
261.96201679348241
 31
0.0
  0
LINE
  5
4E6C
  8
AM_0
 10
510.78483332571142
 20
312.3330069944177
 30
0.0
 11
514.78483332571136
 21
312.3330069944177
 31
0.0
  0
LINE
  5
4E6D
  8
AM_0
 10
514.78483332571136
 20
313.9898612439103
 30
0.0
 11
510.78483332571142
 21
312.3330069944177
 31
0.0
  0
LINE
  5
4E6E
  8
ﾁｭｳｼﾝｾﾝ1
 10
507.78483332571142
 20
328.14751189394929
 30
0.0
 11
523.61235633824822
 21
328.14751189394951
 31
0.0
  0
LINE
  5
4E6F
  8
AM_0
 10
512.72589581358363
 20
324.24015692164301
 30
0.0
 11
513.78483332571147
 21
324.14751189394951
 31
0.0
  0
LINE
  5
4E70
  8
AM_0
 10
512.72589581358363
 20
332.05486686625602
 30
0.0
 11
513.78483332571147
 21
332.14751189394951
 31
0.0
  0
ARC
  5
4E71
  8
AM_0
 10
517.18483332571145
 20
328.14751189394951
 30
0.0
 40
6.5
 50
151.82726586813479
 51
208.1727341318651
  0
ARC
  5
4E72
  8
AM_0
 10
512.8653450019799
 20
330.46095534930919
 30
0.0
 40
1.6000000000000001
 50
94.99999999999973
 51
151.82726586813479
  0
LINE
  5
4E73
  8
AM_0
 10
511.10535966428318
 20
325.84751189394962
 30
0.0
 11
513.39491934307887
 21
328.14751189394951
 31
0.0
  0
LINE
  5
4E74
  8
AM_0
 10
513.0848333257112
 20
327.83601189394949
 30
0.0
 11
513.0848333257112
 21
328.45901189394948
 31
0.0
  0
LINE
  5
4E75
  8
AM_0
 10
511.10535966428318
 20
330.44751189394952
 30
0.0
 11
513.39491934307887
 21
328.14751189394951
 31
0.0
  0
LINE
  5
4E76
  8
AM_0
 10
510.69230163537679
 20
327.83601189394949
 30
0.0
 11
513.0848333257112
 21
327.83601189394949
 31
0.0
  0
LINE
  5
4E77
  8
AM_0
 10
510.69230163537679
 20
328.45901189394948
 30
0.0
 11
513.0848333257112
 21
328.45901189394948
 31
0.0
  0
ARC
  5
4E78
  8
AM_0
 10
512.8653450019799
 20
325.8340684385899
 30
0.0
 40
1.6000000000000001
 50
208.1727341318651
 51
265.00000000000028
  0
LINE
  5
4E79
  8
AM_0N
 10
514.78483332571136
 20
324.34751189394927
 30
0.0
 11
513.78483332571147
 21
324.34751189394927
 31
0.0
  0
LINE
  5
4E7A
  8
AM_0N
 10
513.78483332571147
 20
327.94751189394952
 30
0.0
 11
514.78483332571136
 21
327.58354165968319
 31
0.0
  0
LINE
  5
4E7B
  8
AM_0N
 10
513.78483332571147
 20
328.34751189394927
 30
0.0
 11
514.78483332571136
 21
327.98354165968328
 31
0.0
  0
LINE
  5
4E7C
  8
AM_0N
 10
513.78483332571147
 20
332.14751189394951
 30
0.0
 11
513.78483332571147
 21
324.14751189394951
 31
0.0
  0
LINE
  5
4E7D
  8
AM_0N
 10
513.78483332571147
 20
331.94751189394952
 30
0.0
 11
514.78483332571136
 21
331.94751189394952
 31
0.0
  0
LINE
  5
4E7E
  8
AM_0
 10
565.55470828086925
 20
317.2626845947068
 30
0.0
 11
559.78483332571159
 21
317.10832702134252
 31
0.0
  0
LINE
  5
4E80
  8
AM_0
 10
559.78483332571159
 20
262.27205729807878
 30
0.0
 11
559.78483332571159
 21
320.64751189395008
 31
0.0
  0
LINE
  5
4E81
  8
AM_0
 10
556.78483332571136
 20
253.6475118939502
 30
0.0
 11
558.87990550485802
 21
253.6475118939502
 31
0.0
  0
LINE
  5
5B1D
  8
ﾁｭｳｼﾝｾﾝ
 10
109.541883837903
 20
583.04157361797832
 30
0.0
 11
428.55257713026077
 21
583.04157361797832
 31
0.0
  0
LINE
  5
5B1E
  8
AM_0
 10
326.33288713026081
 20
532.97434361797832
 30
0.0
 11
326.33288713026081
 21
512.32962361797831
 31
0.0
  0
LINE
  5
5B1F
  8
AM_0
 10
327.33288713026087
 20
531.50363361797849
 30
0.0
 11
327.33288713026087
 21
517.95658361797825
 31
0.0
  0
LINE
  5
5B20
  8
AM_0
 10
326.33288713026081
 20
517.95658361797825
 30
0.0
 11
327.33288713026087
 21
517.95658361797825
 31
0.0
  0
LINE
  5
5B21
  8
AM_0
 10
326.33288713026081
 20
531.50363361797849
 30
0.0
 11
327.33288713026087
 21
531.50363361797849
 31
0.0
  0
LINE
  5
5B22
  8
AM_0
 10
331.33285713026089
 20
519.95658361797825
 30
0.0
 11
331.33285713026089
 21
529.50360361797846
 31
0.0
  0
LINE
  5
5B23
  8
AM_0
 10
327.33288713026087
 20
527.61685361797856
 30
0.0
 11
330.33288713026081
 21
527.61685361797856
 31
0.0
  0
LINE
  5
5B24
  8
AM_0
 10
327.33288713026087
 20
521.84335361797832
 30
0.0
 11
330.33288713026081
 21
521.84335361797832
 31
0.0
  0
LINE
  5
5B25
  8
AM_0
 10
327.33288713026087
 20
518.95658361797837
 30
0.0
 11
330.33288713026081
 21
518.95658361797837
 31
0.0
  0
LINE
  5
5B26
  8
AM_0
 10
327.33288713026087
 20
530.50363361797815
 30
0.0
 11
330.33288713026081
 21
530.50363361797815
 31
0.0
  0
LINE
  5
5B27
  8
AM_0
 10
286.33288713026081
 20
658.25531361797846
 30
0.0
 11
286.33288713026081
 21
646.80344361797847
 31
0.0
  0
LINE
  5
5B28
  8
AM_0
 10
380.33288713026087
 20
657.46973361797836
 30
0.0
 11
380.33288713026087
 21
634.61340361797852
 31
0.0
  0
LINE
  5
5B29
  8
AM_0
 10
318.33291713026108
 20
661.04157361797832
 30
0.0
 11
378.38524713026078
 21
659.46906361797824
 31
0.0
  0
LINE
  5
5B2A
  8
AM_0
 10
288.2805471302608
 20
660.25461361797852
 30
0.0
 11
318.33288713026087
 21
661.04157361797832
 31
0.0
  0
LINE
  5
5B2B
  8
AM_0
 10
315.33288713026081
 20
654.04157361797832
 30
0.0
 11
315.33288713026081
 21
512.04157361797832
 31
0.0
  0
LINE
  5
5B2C
  8
AM_0
 10
377.33288713026087
 20
632.5865236179784
 30
0.0
 11
377.33288713026087
 21
533.49661361797848
 31
0.0
  0
LINE
  5
5B2D
  8
AM_0
 10
377.3329171302608
 20
632.58655361797832
 30
0.0
 11
378.38524713026078
 21
632.61411361797855
 31
0.0
  0
LINE
  5
5B2E
  8
AM_0
 10
380.33288713026087
 20
508.61340361797829
 30
0.0
 11
380.33288713026087
 21
531.46973361797859
 31
0.0
  0
LINE
  5
5B2F
  8
AM_0
 10
286.33288713026081
 20
507.82785361797852
 30
0.0
 11
286.33288713026081
 21
519.2797036179785
 31
0.0
  0
LINE
  5
5B30
  8
AM_0
 10
318.33291713026108
 20
505.04160361797852
 30
0.0
 11
378.38524713026078
 21
506.61411361797832
 31
0.0
  0
LINE
  5
5B31
  8
AM_0
 10
288.2805471302608
 20
505.82849361797832
 30
0.0
 11
318.33288713026087
 21
505.04157361797832
 31
0.0
  0
LINE
  5
5B32
  8
AM_0
 10
318.33288713026087
 20
657.18558361797852
 30
0.0
 11
311.33288713026081
 21
660.85828361797849
 31
0.0
  0
LINE
  5
5B33
  8
AM_0
 10
315.7359271302609
 20
654.03101361797826
 30
0.0
 11
311.3329171302608
 21
656.34113361797836
 31
0.0
  0
LINE
  5
5B34
  8
AM_0
 10
311.33288713026081
 20
660.85825361797856
 30
0.0
 11
311.33288713026081
 21
656.34116361797851
 31
0.0
  0
LINE
  5
5B35
  8
AM_0
 10
378.38524713026078
 20
533.4690336179782
 30
0.0
 11
377.33288713026087
 21
533.49658361797833
 31
0.0
  0
LINE
  5
5B36
  8
AM_0
 10
364.33291713026091
 20
532.79056361797836
 30
0.0
 11
364.33291713026091
 21
633.29257361797841
 31
0.0
  0
LINE
  5
5B37
  8
AM_0
 10
372.76867713026093
 20
631.44086361797827
 30
0.0
 11
368.0711671302609
 21
631.85184361797826
 31
0.0
  0
LINE
  5
5B38
  8
AM_0
 10
372.76867713026093
 20
534.64224361797824
 30
0.0
 11
368.0711671302609
 21
534.23126361797847
 31
0.0
  0
LINE
  5
5B39
  8
AM_0
 10
361.59438713026083
 20
529.80200361797824
 30
0.0
 11
355.89709713026087
 21
529.30356361797851
 31
0.0
  0
LINE
  5
5B3A
  8
AM_0
 10
351.33288713026087
 20
511.03836361797829
 30
0.0
 11
351.33288713026087
 21
524.32254361797845
 31
0.0
  0
LINE
  5
5B3B
  8
AM_0
 10
318.33288713026087
 20
653.9630136179785
 30
0.0
 11
318.33288713026087
 21
657.18558361797852
 31
0.0
  0
LINE
  5
5B3C
  8
AM_0
 10
311.33288713026081
 20
505.2248936179783
 30
0.0
 11
311.33288713026081
 21
509.74198361797852
 31
0.0
  0
LINE
  5
5B3D
  8
AM_0
 10
315.73589713026092
 20
512.05213361797826
 30
0.0
 11
311.33288713026081
 21
509.74201361797822
 31
0.0
  0
LINE
  5
5B3E
  8
AM_0
 10
318.33288713026087
 20
508.8975536179783
 30
0.0
 11
311.33288713026081
 21
505.2248936179783
 31
0.0
  0
LINE
  5
5B3F
  8
AM_0
 10
318.33288713026087
 20
512.12012361797838
 30
0.0
 11
318.33288713026087
 21
508.8975536179783
 31
0.0
  0
LINE
  5
5B40
  8
AM_0
 10
328.06875713026091
 20
512.37506361797853
 30
0.0
 11
315.3329171302608
 21
512.04157361797832
 31
0.0
  0
LINE
  5
5B41
  8
AM_0
 10
328.06875713026091
 20
653.70807361797824
 30
0.0
 11
315.3329171302608
 21
654.04157361797832
 31
0.0
  0
LINE
  5
5B42
  8
AM_0
 10
326.33288713026081
 20
532.97434361797832
 30
0.0
 11
329.33288713026081
 21
532.97434361797832
 31
0.0
  0
LINE
  5
5B43
  8
AM_0
 10
329.33291713026091
 20
532.97434361797832
 30
0.0
 11
329.33291713026091
 21
633.10880361797854
 31
0.0
  0
LINE
  5
5B44
  8
AM_0
 10
329.33291713026091
 20
532.97434361797832
 30
0.0
 11
342.91488713026081
 21
535.53272361797849
 31
0.0
  0
LINE
  5
5B45
  8
AM_0
 10
330.4293171302611
 20
513.0383036179785
 30
0.0
 11
341.06609713026108
 21
519.15152361797846
 31
0.0
  0
LINE
  5
5B46
  8
AM_0
 10
351.33288713026087
 20
641.76056361797851
 30
0.0
 11
351.33288713026087
 21
655.04477361797831
 31
0.0
  0
LINE
  5
5B47
  8
AM_0
 10
361.41146713026092
 20
536.01706361797835
 30
0.0
 11
342.91488713026081
 21
535.53272361797849
 31
0.0
  0
LINE
  5
5B48
  8
AM_0
 10
348.41143713026082
 20
519.94528361797836
 30
0.0
 11
343.42669713026089
 21
519.81476361797831
 31
0.0
  0
LINE
  5
5B49
  8
AM_0
 10
361.59438713026083
 20
636.28116361797845
 30
0.0
 11
355.8971271302608
 21
636.77960361797852
 31
0.0
  0
LINE
  5
5B4A
  8
AM_0
 10
330.42934713026079
 20
653.04480361797823
 30
0.0
 11
341.06609713026108
 21
646.93161361797831
 31
0.0
  0
LINE
  5
5B4B
  8
AM_0
 10
329.33291713026091
 20
633.10883361797835
 30
0.0
 11
342.91488713026081
 21
630.55045361797852
 31
0.0
  0
LINE
  5
5B4C
  8
AM_0
 10
361.41146713026092
 20
630.06607361797842
 30
0.0
 11
342.91485713026083
 21
630.55042361797837
 31
0.0
  0
LINE
  5
5B4D
  8
AM_0
 10
348.41143713026082
 20
646.13785361797852
 30
0.0
 11
343.42669713026089
 21
646.26837361797845
 31
0.0
  0
LINE
  5
5B4E
  8
AM_0
 10
327.33288713026087
 20
635.57953361797831
 30
0.0
 11
330.33288713026081
 21
635.57953361797831
 31
0.0
  0
LINE
  5
5B4F
  8
AM_0
 10
327.33288713026087
 20
647.12653361797857
 30
0.0
 11
330.33288713026081
 21
647.12653361797857
 31
0.0
  0
LINE
  5
5B50
  8
AM_0
 10
327.33288713026087
 20
644.23978361797845
 30
0.0
 11
330.33288713026081
 21
644.23978361797845
 31
0.0
  0
LINE
  5
5B51
  8
AM_0
 10
327.33288713026087
 20
638.46628361797832
 30
0.0
 11
330.33288713026081
 21
638.46628361797832
 31
0.0
  0
LINE
  5
5B52
  8
AM_0
 10
331.33285713026089
 20
646.12656361797849
 30
0.0
 11
331.33285713026089
 21
636.57953361797854
 31
0.0
  0
LINE
  5
5B53
  8
AM_0
 10
326.33288713026081
 20
634.5795036179785
 30
0.0
 11
327.33288713026087
 21
634.5795036179785
 31
0.0
  0
LINE
  5
5B54
  8
AM_0
 10
326.33288713026081
 20
648.12656361797838
 30
0.0
 11
327.33288713026087
 21
648.12656361797838
 31
0.0
  0
LINE
  5
5B55
  8
AM_0
 10
327.33288713026087
 20
634.5795036179785
 30
0.0
 11
327.33288713026087
 21
648.12656361797838
 31
0.0
  0
LINE
  5
5B56
  8
AM_0
 10
326.33288713026081
 20
633.10880361797854
 30
0.0
 11
326.33288713026081
 21
653.75351361797846
 31
0.0
  0
LINE
  5
5B57
  8
AM_0
 10
326.33288713026081
 20
633.10880361797854
 30
0.0
 11
329.33288713026081
 21
633.10880361797854
 31
0.0
  0
LINE
  5
5B58
  8
AM_0
 10
315.3329171302608
 20
512.04157361797832
 30
0.0
 11
310.28057713026078
 21
512.17386361797833
 31
0.0
  0
LINE
  5
5B59
  8
AM_0
 10
315.33288713026081
 20
654.04157361797832
 30
0.0
 11
310.28057713026078
 21
653.90927361797833
 31
0.0
  0
LINE
  5
5B5A
  8
AM_0
 10
308.33291713026091
 20
514.17319361797831
 30
0.0
 11
308.33291713026091
 21
651.90994361797857
 31
0.0
  0
LINE
  5
5B5B
  8
AM_0
 10
278.3329171302608
 20
519.54157361797832
 30
0.0
 11
278.3329171302608
 21
646.54157361797832
 31
0.0
  0
LINE
  5
5B5C
  8
AM_0
 10
303.57271713026108
 20
518.88065361797851
 30
0.0
 11
278.33294713026078
 21
519.54157361797832
 31
0.0
  0
LINE
  5
5B5D
  8
AM_0
 10
305.33288713026081
 20
517.83029361797821
 30
0.0
 11
306.33291713026091
 21
517.83029361797821
 31
0.0
  0
LINE
  5
5B5E
  8
AM_0
 10
303.33288713026081
 20
519.83029361797833
 30
0.0
 11
303.33288713026081
 21
529.00153361797845
 31
0.0
  0
LINE
  5
5B5F
  8
AM_0
 10
303.33288713026081
 20
646.25287361797825
 30
0.0
 11
303.33288713026081
 21
637.08161361797841
 31
0.0
  0
LINE
  5
5B60
  8
AM_0
 10
303.57271713026108
 20
647.20249361797835
 30
0.0
 11
278.33294713026078
 21
646.54157361797832
 31
0.0
  0
LINE
  5
5B61
  8
AM_0
 10
305.33288713026081
 20
648.25287361797837
 30
0.0
 11
306.33291713026091
 21
648.25287361797837
 31
0.0
  0
LINE
  5
5B62
  8
AM_0
 10
278.3329171302608
 20
531.00153361797857
 30
0.0
 11
308.33291713026091
 21
531.00153361797857
 31
0.0
  0
LINE
  5
5B63
  8
AM_0
 10
278.3329171302608
 20
545.89154361797841
 30
0.0
 11
308.33291713026091
 21
545.89154361797841
 31
0.0
  0
LINE
  5
5B64
  8
AM_0
 10
278.3329171302608
 20
620.19159361797836
 30
0.0
 11
308.33291713026091
 21
620.19159361797836
 31
0.0
  0
LINE
  5
5B65
  8
AM_0
 10
278.3329171302608
 20
635.08161361797852
 30
0.0
 11
308.33291713026091
 21
635.08161361797852
 31
0.0
  0
LINE
  5
5B66
  8
AM_0
 10
390.33288713026087
 20
587.0415436179785
 30
0.0
 11
422.33288713026087
 21
587.0415436179785
 31
0.0
  0
LINE
  5
5B67
  8
AM_0
 10
390.33288713026087
 20
587.0415436179785
 30
0.0
 11
390.33288713026087
 21
579.04157361797832
 31
0.0
  0
LINE
  5
5B68
  8
AM_0
 10
388.3328371302606
 20
569.04157361797832
 30
0.0
 11
422.33288713026087
 21
569.04157361797832
 31
0.0
  0
LINE
  5
5B69
  8
AM_0
 10
388.3328371302606
 20
597.0415736179782
 30
0.0
 11
422.33288713026087
 21
597.0415736179782
 31
0.0
  0
LINE
  5
5B6A
  8
AM_0
 10
422.33288713026087
 20
597.0415736179782
 30
0.0
 11
422.3328871302607
 21
569.04157361797832
 31
0.0
  0
LINE
  5
5B6B
  8
AM_0
 10
390.33288713026087
 20
579.04157361797832
 30
0.0
 11
422.33288713026087
 21
579.04157361797832
 31
0.0
  0
ARC
  5
5B6C
  8
AM_0
 10
330.33288713026081
 20
529.50360361797846
 30
0.0
 40
1.0
 50
0.0
 51
90.000003000000945
  0
ARC
  5
5B6D
  8
AM_0
 10
330.33288713026081
 20
526.61685361797845
 30
0.0
 40
1.0
 50
0.0
 51
90.000003000000945
  0
ARC
  5
5B6E
  8
AM_0
 10
330.33288713026081
 20
520.84335361797832
 30
0.0
 40
1.0
 50
0.0
 51
90.000003000000945
  0
ARC
  5
5B6F
  8
AM_0
 10
330.33288713026081
 20
519.95658361797825
 30
0.0
 40
1.0
 50
269.999989999999
 51
0.0000006832495047
  0
ARC
  5
5B70
  8
AM_0
 10
330.33288713026081
 20
522.8433236179784
 30
0.0
 40
1.0
 50
269.999989999999
 51
0.0000006832495047
  0
ARC
  5
5B71
  8
AM_0
 10
330.33288713026081
 20
528.61685361797845
 30
0.0
 40
1.0
 50
269.999989999999
 51
0.0000006832495047
  0
ARC
  5
5B72
  8
AM_0
 10
378.33288713026087
 20
657.46973361797836
 30
0.0
 40
2.0
 50
0.0
 51
88.499997000000747
  0
ARC
  5
5B73
  8
AM_0
 10
288.33288713026081
 20
658.25531361797846
 30
0.0
 40
2.0
 50
91.500001000001546
 51
180.00001000000091
  0
ARC
  5
5B74
  8
AM_0
 10
378.33288713026087
 20
634.61340361797852
 30
0.0
 40
2.0
 50
271.49999999999949
 51
0.0
  0
ARC
  5
5B75
  8
AM_0
 10
298.33288713026087
 20
648.04157361797832
 30
0.0
 40
6.0
 50
359.45751000000109
 51
190.86121000000429
  0
CIRCLE
  5
5B76
  8
AM_0
 10
368.33288713026087
 20
648.04157361797832
 30
0.0
 40
6.0
  0
ARC
  5
5B77
  8
AM_0
 10
378.33288713026087
 20
508.61340361797829
 30
0.0
 40
2.0
 50
271.49999999999949
 51
0.0
  0
ARC
  5
5B78
  8
AM_0
 10
288.33288713026081
 20
507.82785361797852
 30
0.0
 40
2.0
 50
180.00001000000091
 51
268.5000000000004
  0
ARC
  5
5B79
  8
AM_0
 10
378.33288713026087
 20
531.46973361797859
 30
0.0
 40
2.0
 50
0.0
 51
88.499997000000747
  0
CIRCLE
  5
5B7A
  8
AM_0
 10
368.33288713026087
 20
518.0415736179782
 30
0.0
 40
6.0
  0
ARC
  5
5B7B
  8
AM_0
 10
372.33288713026087
 20
626.4599036179784
 30
0.0
 40
5.0
 50
0.0
 51
85.000004000001198
  0
ARC
  5
5B7C
  8
AM_0
 10
372.33288713026087
 20
539.62320361797833
 30
0.0
 40
5.0
 50
274.99999999999972
 51
0.0
  0
ARC
  5
5B7D
  8
AM_0
 10
356.33288713026087
 20
524.32254361797845
 30
0.0
 40
5.0
 50
95.00000199999856
 51
180.00001000000091
  0
ARC
  5
5B7E
  8
AM_0
 10
356.33288713026087
 20
641.76056361797851
 30
0.0
 40
5.0
 50
180.00001000000091
 51
265.00001000000071
  0
ARC
  5
5B7F
  8
AM_0
 10
356.33288713026087
 20
511.03836361797829
 30
0.0
 40
5.0
 50
180.00001000000091
 51
271.49999999999949
  0
ARC
  5
5B80
  8
AM_0
 10
356.33288713026087
 20
655.04477361797831
 30
0.0
 40
5.0
 50
88.499997000000747
 51
180.00001000000091
  0
ARC
  5
5B81
  8
AM_0
 10
348.33288713026121
 20
522.94425361797835
 30
0.0
 40
3.0
 50
271.49999999999949
 51
0.0
  0
ARC
  5
5B82
  8
AM_0
 10
327.93786713026088
 20
517.37335361797852
 30
0.0
 40
5.0
 50
271.49999999999949
 51
299.88701999999751
  0
ARC
  5
5B83
  8
AM_0
 10
343.55755713026082
 20
514.81647361797832
 30
0.0
 40
5.0
 50
91.500001000001546
 51
119.88701999999751
  0
ARC
  5
5B84
  8
AM_0
 10
361.33291713026091
 20
539.01602361797836
 30
0.0
 40
3.0
 50
271.49999999999949
 51
0.0
  0
ARC
  5
5B85
  8
AM_0
 10
361.33291713026091
 20
532.79056361797836
 30
0.0
 40
3.0
 50
274.99999999999972
 51
0.0
  0
ARC
  5
5B86
  8
AM_0
 10
368.50692713026092
 20
529.25028361797831
 30
0.0
 40
5.0
 50
95.00000199999856
 51
153.73432999999969
  0
ARC
  5
5B87
  8
AM_0
 10
368.50692713026092
 20
636.83283361797839
 30
0.0
 40
5.0
 50
206.2656700000002
 51
265.00001000000071
  0
ARC
  5
5B88
  8
AM_0
 10
361.33291713026091
 20
627.06711361797852
 30
0.0
 40
3.0
 50
0.0
 51
88.499997000000747
  0
ARC
  5
5B89
  8
AM_0
 10
327.93786713026088
 20
648.70978361797847
 30
0.0
 40
5.0
 50
60.11298000000248
 51
88.499997000000747
  0
ARC
  5
5B8A
  8
AM_0
 10
361.33291713026091
 20
633.29257361797841
 30
0.0
 40
3.0
 50
0.0
 51
85.000004000001198
  0
ARC
  5
5B8B
  8
AM_0
 10
343.55755713026082
 20
651.26666361797845
 30
0.0
 40
5.0
 50
240.11298000000241
 51
268.5000000000004
  0
ARC
  5
5B8C
  8
AM_0
 10
348.33288713026121
 20
643.13889361797851
 30
0.0
 40
3.0
 50
0.0
 51
88.499997000000747
  0
ARC
  5
5B8D
  8
AM_0
 10
330.33288713026081
 20
637.46628361797832
 30
0.0
 40
1.0
 50
0.0
 51
90.000003000000945
  0
ARC
  5
5B8E
  8
AM_0
 10
330.33288713026081
 20
643.23981361797826
 30
0.0
 40
1.0
 50
0.0
 51
90.000003000000945
  0
ARC
  5
5B8F
  8
AM_0
 10
330.33288713026081
 20
646.12656361797849
 30
0.0
 40
1.0
 50
0.0
 51
90.000003000000945
  0
ARC
  5
5B90
  8
AM_0
 10
330.33288713026081
 20
645.23978361797845
 30
0.0
 40
1.0
 50
269.999989999999
 51
0.0000006832495047
  0
ARC
  5
5B91
  8
AM_0
 10
330.33288713026081
 20
639.46628361797832
 30
0.0
 40
1.0
 50
269.999989999999
 51
0.0000006832495047
  0
ARC
  5
5B92
  8
AM_0
 10
330.33288713026081
 20
636.57953361797854
 30
0.0
 40
1.0
 50
269.999989999999
 51
0.0000006832495047
  0
ARC
  5
5B93
  8
AM_0
 10
430.82162713026082
 20
583.04157361797832
 30
0.0
 40
101.4887199999999
 50
151.89333000000309
 51
208.1066699999968
  0
ARC
  5
5B94
  8
AM_0
 10
310.33291713026108
 20
514.17319361797831
 30
0.0
 40
2.0
 50
180.00001000000091
 51
268.5000000000004
  0
ARC
  5
5B95
  8
AM_0
 10
310.33291713026108
 20
651.90994361797857
 30
0.0
 40
2.0
 50
91.500001000001546
 51
180.00001000000091
  0
ARC
  5
5B96
  8
AM_0
 10
305.33288713026081
 20
519.83029361797833
 30
0.0
 40
2.0
 50
180.00001000000091
 51
270.0
  0
ARC
  5
5B97
  8
AM_0
 10
306.33291713026091
 20
515.83029361797833
 30
0.0
 40
2.0
 50
0.0
 51
90.000003000000945
  0
ARC
  5
5B98
  8
AM_0
 10
306.33291713026091
 20
650.25287361797825
 30
0.0
 40
2.0
 50
270.0
 51
0.0
  0
ARC
  5
5B99
  8
AM_0
 10
305.33288713026081
 20
646.25287361797825
 30
0.0
 40
2.0
 50
90.000003000000945
 51
180.00001000000091
  0
ARC
  5
5B9A
  8
AM_0
 10
301.33288713026081
 20
529.00153361797845
 30
0.0
 40
2.0
 50
0.0
 51
90.000003000000945
  0
ARC
  5
5B9B
  8
AM_0
 10
301.33288713026081
 20
637.08161361797841
 30
0.0
 40
2.0
 50
270.0
 51
0.0
  0
ARC
  5
5B9C
  8
AM_0
 10
298.33288713026087
 20
518.0415736179782
 30
0.0
 40
6.0
 50
169.13878999999559
 51
0.5425729200004517
  0
ARC
  5
5B9D
  8
AM_0
 10
390.33288713026087
 20
583.0415436179785
 30
0.0
 40
3.9999962
 50
90.000003000000945
 51
120.00085842361911
  0
ARC
  5
5B9E
  8
AM_0
 10
390.33288713026087
 20
583.0415436179785
 30
0.0
 40
3.9999962
 50
239.99914157638091
 51
270.0
  0
LINE
  5
5B9F
  8
AM_0
 10
119.3329171302608
 20
533.54157361797832
 30
0.0
 11
119.3329171302608
 21
534.07160361797855
 31
0.0
  0
LINE
  5
5BA0
  8
AM_0
 10
119.3329171302608
 20
535.6415436179783
 30
0.0
 11
119.3329171302608
 21
536.19159361797847
 31
0.0
  0
LINE
  5
5BA1
  8
AM_0
 10
119.3329171302608
 20
540.21161361797863
 30
0.0
 11
119.3329171302608
 21
540.68158361797839
 31
0.0
  0
LINE
  5
5BA2
  8
AM_0
 10
119.1128871302606
 20
536.66156361797846
 30
0.0
 11
117.8628871302609
 21
537.3215336179785
 31
0.0
  0
LINE
  5
5BA3
  8
AM_0
 10
119.1228971302608
 20
534.55155361797836
 30
0.0
 11
117.8829071302608
 21
535.18155361797835
 31
0.0
  0
LINE
  5
5BA4
  8
AM_0
 10
119.10287713026079
 20
541.19153361797862
 30
0.0
 11
117.822907130261
 21
541.94153361797862
 31
0.0
  0
LINE
  5
5BA5
  8
AM_0
 10
119.572907130261
 20
534.44159361797836
 30
0.0
 11
121.832917130261
 21
534.44159361797836
 31
0.0
  0
LINE
  5
5BA6
  8
AM_0
 10
119.58291713026109
 20
536.54157361797832
 30
0.0
 11
121.3329171302608
 21
536.54157361797832
 31
0.0
  0
LINE
  5
5BA7
  8
AM_0
 10
119.6029371302609
 20
541.06159361797859
 30
0.0
 11
121.3329171302608
 21
541.06159361797859
 31
0.0
  0
LINE
  5
5BA8
  8
AM_0
 10
119.6329071302608
 20
539.92157361797854
 30
0.0
 11
122.33291713026109
 21
539.92157361797854
 31
0.0
  0
LINE
  5
5BA9
  8
AM_0
 10
119.61294713026111
 20
535.40155361797815
 30
0.0
 11
122.33291713026109
 21
535.40155361797815
 31
0.0
  0
LINE
  5
5BAA
  8
AM_0
 10
119.0829171302608
 20
540.08154361797835
 30
0.0
 11
117.7829271302609
 21
540.93155361797835
 31
0.0
  0
LINE
  5
5BAB
  8
AM_0
 10
119.0929271302608
 20
535.5415436179785
 30
0.0
 11
117.81289713026101
 21
536.31155361797835
 31
0.0
  0
LINE
  5
5BAC
  8
AM_0
 10
119.1029371302609
 20
533.43155361797847
 30
0.0
 11
117.8329771302608
 21
534.16153361797831
 31
0.0
  0
LINE
  5
5BAD
  8
AM_0
 10
119.6029371302609
 20
533.29157361797832
 30
0.0
 11
121.832917130261
 21
533.29157361797832
 31
0.0
  0
LINE
  5
5BAE
  8
AM_0
 10
117.33291713026109
 20
535.0215536179785
 30
0.0
 11
117.33291713026109
 21
578.04157361797854
 31
0.0
  0
LINE
  5
5BAF
  8
AM_0
 10
117.822907130261
 20
541.94156361797832
 30
0.0
 11
117.8028871302609
 21
541.95154361797847
 31
0.0
  0
LINE
  5
5BB0
  8
AM_0
 10
115.8329171302608
 20
565.76154361797842
 30
0.0
 11
117.33291713026109
 21
565.76154361797842
 31
0.0
  0
LINE
  5
5BB1
  8
AM_0
 10
115.8329171302608
 20
567.89154361797853
 30
0.0
 11
117.33291713026109
 21
567.89154361797853
 31
0.0
  0
LINE
  5
5BB2
  8
AM_0
 10
115.8329171302608
 20
563.04160361797835
 30
0.0
 11
117.33291713026109
 21
562.91159361797838
 31
0.0
  0
LINE
  5
5BB3
  8
AM_0
 10
115.8329171302608
 20
563.04157361797854
 30
0.0
 11
115.8329171302608
 21
583.04157361797854
 31
0.0
  0
LINE
  5
5BB4
  8
AM_0
 10
119.3329171302608
 20
547.65155361797838
 30
0.0
 11
119.3329171302608
 21
548.71161361797851
 31
0.0
  0
LINE
  5
5BB5
  8
AM_0
 10
119.3329171302608
 20
557.41156361797857
 30
0.0
 11
119.3329171302608
 21
558.78156361797858
 31
0.0
  0
LINE
  5
5BB6
  8
AM_0
 10
119.3329171302608
 20
577.4315836179785
 30
0.0
 11
119.3329171302608
 21
578.59161361797851
 31
0.0
  0
LINE
  5
5BB7
  8
AM_0
 10
119.3329171302608
 20
567.43158361797839
 30
0.0
 11
119.3329171302608
 21
568.65155361797849
 31
0.0
  0
LINE
  5
5BB8
  8
AM_0
 10
121.3329171302608
 20
579.04157361797854
 30
0.0
 11
118.3329171302609
 21
579.04157361797854
 31
0.0
  0
LINE
  5
5BB9
  8
AM_0
 10
121.3329171302608
 20
577.04157361797854
 30
0.0
 11
118.3329171302609
 21
577.04157361797854
 31
0.0
  0
LINE
  5
5BBA
  8
AM_0
 10
121.3329171302608
 20
569.04157361797854
 30
0.0
 11
118.3329171302609
 21
569.04157361797854
 31
0.0
  0
LINE
  5
5BBB
  8
AM_0
 10
121.3329171302608
 20
567.04157361797854
 30
0.0
 11
118.3329171302609
 21
567.04157361797854
 31
0.0
  0
LINE
  5
5BBC
  8
AM_0
 10
121.3329171302608
 20
559.04157361797854
 30
0.0
 11
118.3329171302609
 21
559.04157361797854
 31
0.0
  0
LINE
  5
5BBD
  8
AM_0
 10
121.3329171302608
 20
557.04157361797854
 30
0.0
 11
118.3329171302609
 21
557.04157361797854
 31
0.0
  0
LINE
  5
5BBE
  8
AM_0
 10
119.19290713026101
 20
549.3415836179787
 30
0.0
 11
118.0429371302608
 21
549.70157361797862
 31
0.0
  0
LINE
  5
5BBF
  8
AM_0
 10
119.4829471302608
 20
549.30158361797817
 30
0.0
 11
121.3329171302608
 21
549.30158361797817
 31
0.0
  0
LINE
  5
5BC0
  8
AM_0
 10
119.14285713026079
 20
547.43155361797835
 30
0.0
 11
117.94290713026101
 21
547.95154361797825
 31
0.0
  0
LINE
  5
5BC1
  8
AM_0
 10
119.5329271302608
 20
547.35162361797848
 30
0.0
 11
121.6329071302608
 21
547.35162361797848
 31
0.0
  0
LINE
  5
5BC2
  8
AM_0
 10
115.8329171302608
 20
600.32160361797833
 30
0.0
 11
117.33291713026109
 21
600.32160361797833
 31
0.0
  0
LINE
  5
5BC3
  8
AM_0
 10
115.8329171302608
 20
598.19159361797847
 30
0.0
 11
117.33291713026109
 21
598.19159361797847
 31
0.0
  0
LINE
  5
5BC4
  8
AM_0
 10
115.8329771302608
 20
603.04160361797847
 30
0.0
 11
117.33291713026109
 21
603.17160361797835
 31
0.0
  0
LINE
  5
5BC5
  8
AM_0
 10
115.8329171302608
 20
603.04157361797854
 30
0.0
 11
115.8329171302608
 21
583.04157361797854
 31
0.0
  0
LINE
  5
5BC6
  8
AM_0
 10
119.3329171302608
 20
632.54157361797854
 30
0.0
 11
119.3329171302608
 21
632.01154361797842
 31
0.0
  0
LINE
  5
5BC7
  8
AM_0
 10
119.3329171302608
 20
630.44159361797836
 30
0.0
 11
119.3329171302608
 21
629.89154361797853
 31
0.0
  0
LINE
  5
5BC8
  8
AM_0
 10
119.3329171302608
 20
625.87152361797826
 30
0.0
 11
119.3329171302608
 21
625.40155361797838
 31
0.0
  0
LINE
  5
5BC9
  8
AM_0
 10
119.3329171302608
 20
618.43158361797828
 30
0.0
 11
119.3329171302608
 21
617.37152361797826
 31
0.0
  0
LINE
  5
5BCA
  8
AM_0
 10
119.3329171302608
 20
608.67157361797831
 30
0.0
 11
119.3329171302608
 21
607.30158361797828
 31
0.0
  0
LINE
  5
5BCB
  8
AM_0
 10
119.3329171302608
 20
588.65155361797849
 30
0.0
 11
119.3329171302608
 21
587.49152361797826
 31
0.0
  0
LINE
  5
5BCC
  8
AM_0
 10
119.3329171302608
 20
598.65155361797827
 30
0.0
 11
119.3329171302608
 21
597.44159361797836
 31
0.0
  0
LINE
  5
5BCD
  8
AM_0
 10
121.3329171302608
 20
587.04157361797854
 30
0.0
 11
118.3329171302609
 21
587.04157361797854
 31
0.0
  0
LINE
  5
5BCE
  8
AM_0
 10
121.3329171302608
 20
589.04157361797854
 30
0.0
 11
118.3329171302609
 21
589.04157361797854
 31
0.0
  0
LINE
  5
5BCF
  8
AM_0
 10
121.3329171302608
 20
597.04157361797854
 30
0.0
 11
118.3329171302609
 21
597.04157361797854
 31
0.0
  0
LINE
  5
5BD0
  8
AM_0
 10
121.3329171302608
 20
599.04157361797854
 30
0.0
 11
118.3329171302609
 21
599.04157361797854
 31
0.0
  0
LINE
  5
5BD1
  8
AM_0
 10
121.3329171302608
 20
607.04157361797854
 30
0.0
 11
118.3329171302609
 21
607.04157361797854
 31
0.0
  0
LINE
  5
5BD2
  8
AM_0
 10
121.3329171302608
 20
609.04157361797854
 30
0.0
 11
118.3329171302609
 21
609.04157361797854
 31
0.0
  0
LINE
  5
5BD3
  8
AM_0
 10
119.1128871302606
 20
629.4315836179785
 30
0.0
 11
117.86294713026111
 21
628.76160361797849
 31
0.0
  0
LINE
  5
5BD4
  8
AM_0
 10
119.1229571302608
 20
631.5415436179785
 30
0.0
 11
117.8829071302608
 21
630.91153361797853
 31
0.0
  0
LINE
  5
5BD5
  8
AM_0
 10
119.19290713026101
 20
616.74155361797841
 30
0.0
 11
118.0428771302611
 21
616.39154361797841
 31
0.0
  0
LINE
  5
5BD6
  8
AM_0
 10
119.1029371302609
 20
624.89151361797849
 30
0.0
 11
117.822907130261
 21
624.14151361797826
 31
0.0
  0
LINE
  5
5BD7
  8
AM_0
 10
119.572907130261
 20
631.64154361797853
 30
0.0
 11
121.832917130261
 21
631.64154361797853
 31
0.0
  0
LINE
  5
5BD8
  8
AM_0
 10
119.58291713026109
 20
629.54157361797854
 30
0.0
 11
121.3329171302608
 21
629.54157361797854
 31
0.0
  0
LINE
  5
5BD9
  8
AM_0
 10
119.6029371302609
 20
625.03156361797835
 30
0.0
 11
121.3329171302608
 21
625.03156361797835
 31
0.0
  0
LINE
  5
5BDA
  8
AM_0
 10
119.4829471302608
 20
616.78156361797835
 30
0.0
 11
121.3329171302608
 21
616.78156361797835
 31
0.0
  0
LINE
  5
5BDB
  8
AM_0
 10
119.6329071302608
 20
626.17157361797831
 30
0.0
 11
122.33291713026109
 21
626.17157361797831
 31
0.0
  0
LINE
  5
5BDC
  8
AM_0
 10
119.61294713026111
 20
630.6815836179785
 30
0.0
 11
122.33291713026109
 21
630.6815836179785
 31
0.0
  0
LINE
  5
5BDD
  8
AM_0
 10
119.1429771302608
 20
618.65158361797853
 30
0.0
 11
117.9429671302608
 21
618.14157361797845
 31
0.0
  0
LINE
  5
5BDE
  8
AM_0
 10
119.0829171302608
 20
626.00153361797834
 30
0.0
 11
117.7829271302609
 21
625.15155361797849
 31
0.0
  0
LINE
  5
5BDF
  8
AM_0
 10
119.0928671302608
 20
630.5415436179785
 30
0.0
 11
117.81289713026101
 21
629.77158361797854
 31
0.0
  0
LINE
  5
5BE0
  8
AM_0
 10
119.10287713026079
 20
632.66156361797835
 30
0.0
 11
117.832857130261
 21
631.92157361797831
 31
0.0
  0
LINE
  5
5BE1
  8
AM_0
 10
119.5329271302608
 20
618.73151361797852
 30
0.0
 11
121.6329071302608
 21
618.73151361797852
 31
0.0
  0
LINE
  5
5BE2
  8
AM_0
 10
119.6029371302609
 20
632.79157361797854
 30
0.0
 11
121.832917130261
 21
632.79157361797854
 31
0.0
  0
LINE
  5
5BE3
  8
AM_0
 10
117.33291713026109
 20
631.06159361797825
 30
0.0
 11
117.33291713026109
 21
588.04157361797854
 31
0.0
  0
LINE
  5
5BE4
  8
AM_0
 10
269.3329171302608
 20
620.19159361797836
 30
0.0
 11
278.3329171302608
 21
620.19159361797836
 31
0.0
  0
LINE
  5
5BE5
  8
AM_0
 10
270.3329171302608
 20
531.00153361797857
 30
0.0
 11
278.33291713026091
 21
531.00153361797857
 31
0.0
  0
LINE
  5
5BE6
  8
AM_0
 10
269.3329171302608
 20
545.89154361797853
 30
0.0
 11
278.3329171302608
 21
545.89154361797853
 31
0.0
  0
LINE
  5
5BE7
  8
AM_0
 10
270.3329171302608
 20
519.54157361797854
 30
0.0
 11
278.33291713026091
 21
519.54157361797854
 31
0.0
  0
LINE
  5
5BE8
  8
AM_0
 10
270.3329171302608
 20
635.08160361797832
 30
0.0
 11
278.33291713026091
 21
635.08160361797832
 31
0.0
  0
LINE
  5
5BE9
  8
AM_0
 10
270.3329171302608
 20
646.54157361797854
 30
0.0
 11
278.33291713026091
 21
646.54157361797854
 31
0.0
  0
LINE
  5
5BEA
  8
AM_0
 10
122.33291713026109
 20
525.61151361797852
 30
0.0
 11
125.1528671302607
 21
525.55151361797846
 31
0.0
  0
LINE
  5
5BEB
  8
AM_0
 10
163.33291713026111
 20
536.69159361797836
 30
0.0
 11
269.3329171302608
 21
536.69159361797836
 31
0.0
  0
LINE
  5
5BEC
  8
AM_0
 10
264.04287713026088
 20
522.5415736179782
 30
0.0
 11
269.3329171302608
 21
522.5415736179782
 31
0.0
  0
LINE
  5
5BED
  8
AM_0
 10
136.00290713026081
 20
549.68158361797816
 30
0.0
 11
230.35287713026091
 21
549.68158361797816
 31
0.0
  0
LINE
  5
5BEE
  8
AM_0
 10
218.33291713026091
 20
547.0415736179782
 30
0.0
 11
136.86862713026099
 21
547.0415736179782
 31
0.0
  0
LINE
  5
5BEF
  8
AM_0
 10
218.33291713026091
 20
546.32160361797833
 30
0.0
 11
266.15292713026088
 21
546.32160361797833
 31
0.0
  0
LINE
  5
5BF0
  8
AM_0
 10
136.00290713026081
 20
546.32160361797833
 30
0.0
 11
218.33291713026091
 21
546.32160361797833
 31
0.0
  0
LINE
  5
5BF1
  8
AM_0
 10
136.0305471302608
 20
524.78156361797858
 30
0.0
 11
141.8329171302608
 21
524.78156361797858
 31
0.0
  0
LINE
  5
5BF2
  8
AM_0
 10
145.3329171302608
 20
521.1815836179785
 30
0.0
 11
262.1429171302608
 21
521.1815836179785
 31
0.0
  0
LINE
  5
5BF3
  8
AM_0
 10
136.09280713026101
 20
530.06159361797825
 30
0.0
 11
141.8329171302608
 21
530.06159361797825
 31
0.0
  0
LINE
  5
5BF4
  8
AM_0
 10
132.3329171302608
 20
534.69159361797836
 30
0.0
 11
132.3329171302608
 21
548.74152361797826
 31
0.0
  0
LINE
  5
5BF5
  8
AM_0
 10
122.33291713026109
 20
534.69159361797836
 30
0.0
 11
132.3329171302608
 21
534.69159361797836
 31
0.0
  0
LINE
  5
5BF6
  8
AM_0
 10
264.07290713026077
 20
522.67148361797854
 30
0.0
 11
267.53292713026087
 21
535.58160361797854
 31
0.0
  0
LINE
  5
5BF7
  8
AM_0
 10
126.094207130261
 20
522.88257361797832
 30
0.0
 11
125.61294713026101
 21
524.79157361797832
 31
0.0
  0
LINE
  5
5BF8
  8
AM_0
 10
126.522927130261
 20
522.91150361797827
 30
0.0
 11
125.60287713026079
 21
526.79160361797835
 31
0.0
  0
LINE
  5
5BF9
  8
AM_0
 10
143.33291713026091
 20
521.15253361797863
 30
0.0
 11
143.33291713026091
 21
528.56159361797859
 31
0.0
  0
LINE
  5
5BFA
  8
AM_0
 10
124.1629371302608
 20
525.92157361797854
 30
0.0
 11
125.81289713026101
 21
525.92157361797854
 31
0.0
  0
LINE
  5
5BFB
  8
AM_0
 10
163.33291713026111
 20
629.39154361797853
 30
0.0
 11
269.3329171302608
 21
629.39154361797853
 31
0.0
  0
LINE
  5
5BFC
  8
AM_0
 10
269.3329171302608
 20
520.54157361797832
 30
0.0
 11
269.3329171302608
 21
645.54157361797854
 31
0.0
  0
LINE
  5
5BFD
  8
AM_0
 10
122.33291713026109
 20
640.47156361797852
 30
0.0
 11
125.15292713026111
 21
640.54157361797854
 31
0.0
  0
LINE
  5
5BFE
  8
AM_0
 10
122.33291713026109
 20
525.61151361797852
 30
0.0
 11
122.33291713026109
 21
583.04157361797854
 31
0.0
  0
LINE
  5
5BFF
  8
AM_0
 10
262.6728871302609
 20
547.0415736179782
 30
0.0
 11
218.33291713026091
 21
547.0415736179782
 31
0.0
  0
LINE
  5
5C00
  8
AM_0
 10
132.3329171302608
 20
631.39154361797841
 30
0.0
 11
132.3329171302608
 21
617.35162361797848
 31
0.0
  0
LINE
  5
5C01
  8
AM_0
 10
122.33291713026109
 20
617.35162361797848
 30
0.0
 11
132.3329171302608
 21
617.35162361797848
 31
0.0
  0
LINE
  5
5C02
  8
AM_0
 10
122.33291713026109
 20
625.73151361797841
 30
0.0
 11
132.3329171302608
 21
625.73151361797841
 31
0.0
  0
LINE
  5
5C03
  8
AM_0
 10
122.33291713026109
 20
631.39154361797841
 30
0.0
 11
132.3329171302608
 21
631.39154361797841
 31
0.0
  0
LINE
  5
5C04
  8
AM_0
 10
197.77499713026091
 20
569.04157361797854
 30
0.0
 11
127.8829071302608
 21
569.04157361797854
 31
0.0
  0
LINE
  5
5C05
  8
AM_0
 10
145.3329171302608
 20
644.90155361797849
 30
0.0
 11
262.1429171302608
 21
644.90155361797849
 31
0.0
  0
LINE
  5
5C06
  8
AM_0
 10
136.2872071302609
 20
636.03156361797835
 30
0.0
 11
141.8329171302608
 21
636.03156361797835
 31
0.0
  0
LINE
  5
5C07
  8
AM_0
 10
133.54220713026069
 20
630.03488361797849
 30
0.0
 11
134.327187130261
 21
634.38156361797826
 31
0.0
  0
LINE
  5
5C08
  8
AM_0
 10
136.22335713026081
 20
641.31159361797825
 30
0.0
 11
141.8329171302608
 21
641.31159361797825
 31
0.0
  0
LINE
  5
5C09
  8
AM_0
 10
128.46292713026079
 20
644.71161361797851
 30
0.0
 11
141.8329171302608
 21
644.71161361797851
 31
0.0
  0
LINE
  5
5C0A
  8
AM_0
 10
128.44290713026101
 20
646.34161361797851
 30
0.0
 11
141.94290713026101
 21
646.34161361797851
 31
0.0
  0
LINE
  5
5C0B
  8
AM_0
 10
145.3329171302608
 20
648.96161361797806
 30
0.0
 11
263.41653713026079
 21
648.96161361797806
 31
0.0
  0
LINE
  5
5C0C
  8
AM_0
 10
145.3329171302608
 20
648.29157361797854
 30
0.0
 11
263.56057713026092
 21
648.29157361797854
 31
0.0
  0
LINE
  5
5C0D
  8
AM_0
 10
145.3329171302608
 20
646.93158361797839
 30
0.0
 11
263.85287713026088
 21
646.93158361797839
 31
0.0
  0
LINE
  5
5C0E
  8
AM_0
 10
131.84719713026081
 20
634.0816036179782
 30
0.0
 11
134.26718713026079
 21
634.0816036179782
 31
0.0
  0
LINE
  5
5C0F
  8
AM_0
 10
134.2771371302608
 20
639.73160361797852
 30
0.0
 11
133.31710713026101
 21
635.26151361797838
 31
0.0
  0
LINE
  5
5C10
  8
AM_0
 10
124.1429171302607
 20
638.14154361797853
 30
0.0
 11
133.93570713026091
 21
638.14154361797853
 31
0.0
  0
LINE
  5
5C11
  8
AM_0
 10
262.6728871302609
 20
619.04157361797854
 30
0.0
 11
136.882907130261
 21
619.04157361797854
 31
0.0
  0
LINE
  5
5C12
  8
AM_0
 10
262.6728871302609
 20
617.04157361797854
 30
0.0
 11
248.3329171302608
 21
617.04157361797854
 31
0.0
  0
LINE
  5
5C13
  8
AM_0
 10
262.68002713026112
 20
609.04157361797854
 30
0.0
 11
248.3329171302608
 21
609.04157361797854
 31
0.0
  0
LINE
  5
5C14
  8
AM_0
 10
126.522927130261
 20
643.17160361797846
 30
0.0
 11
125.60287713026079
 21
639.30155361797847
 31
0.0
  0
LINE
  5
5C15
  8
AM_0
 10
262.66574713026091
 20
607.04157361797854
 30
0.0
 11
136.882907130261
 21
607.04157361797854
 31
0.0
  0
LINE
  5
5C16
  8
AM_0
 10
124.1629371302608
 20
640.16156361797846
 30
0.0
 11
125.81289713026101
 21
640.16156361797846
 31
0.0
  0
LINE
  5
5C17
  8
AM_0
 10
126.50290713026079
 20
644.83151361797854
 30
0.0
 11
125.61294713026101
 21
641.30161361797832
 31
0.0
  0
LINE
  5
5C18
  8
AM_0
 10
197.77163713026101
 20
599.04157361797854
 30
0.0
 11
127.8829071302608
 21
599.04157361797854
 31
0.0
  0
LINE
  5
5C19
  8
AM_0
 10
143.33291713026091
 20
644.9315836179785
 30
0.0
 11
143.33291713026091
 21
637.53156361797835
 31
0.0
  0
LINE
  5
5C1A
  8
AM_0
 10
197.77163713026101
 20
597.04157361797854
 30
0.0
 11
127.8829071302608
 21
597.04157361797854
 31
0.0
  0
LINE
  5
5C1B
  8
AM_0
 10
197.77499713026091
 20
589.04157361797854
 30
0.0
 11
127.8829071302608
 21
589.04157361797854
 31
0.0
  0
LINE
  5
5C1C
  8
AM_0
 10
197.77499713026091
 20
587.04157361797854
 30
0.0
 11
127.8829071302608
 21
587.04157361797854
 31
0.0
  0
LINE
  5
5C1D
  8
AM_0
 10
264.07290713026077
 20
643.42160361797835
 30
0.0
 11
267.53292713026087
 21
630.50153361797845
 31
0.0
  0
LINE
  5
5C1E
  8
AM_0
 10
265.79330713026093
 20
643.54157361797854
 30
0.0
 11
269.3329171302608
 21
643.54157361797854
 31
0.0
  0
LINE
  5
5C1F
  8
AM_0
 10
269.04287713026099
 20
634.0816036179782
 30
0.0
 11
266.62289713026092
 21
634.0816036179782
 31
0.0
  0
LINE
  5
5C20
  8
AM_0
 10
264.88311713026093
 20
647.77673361797849
 30
0.0
 11
267.57293713026093
 21
635.26151361797838
 31
0.0
  0
LINE
  5
5C21
  8
AM_0
 10
122.33291713026109
 20
640.47162361797825
 30
0.0
 11
122.33291713026109
 21
583.04157361797854
 31
0.0
  0
LINE
  5
5C22
  8
AM_0
 10
122.33291713026109
 20
548.74152361797826
 30
0.0
 11
132.3329171302608
 21
548.74152361797826
 31
0.0
  0
LINE
  5
5C23
  8
AM_0
 10
128.0335471302609
 20
521.37152361797826
 30
0.0
 11
142.07565713026119
 21
521.37152361797826
 31
0.0
  0
LINE
  5
5C24
  8
AM_0
 10
122.33291713026109
 20
540.35162361797825
 30
0.0
 11
132.3329171302608
 21
540.35162361797825
 31
0.0
  0
LINE
  5
5C25
  8
AM_0
 10
124.1429171302607
 20
527.94159361797836
 30
0.0
 11
133.93570713026091
 21
527.94159361797836
 31
0.0
  0
LINE
  5
5C26
  8
AM_0
 10
145.3329171302608
 20
519.15155361797838
 30
0.0
 11
186.65927713026079
 21
519.15155361797838
 31
0.0
  0
LINE
  5
5C27
  8
AM_0
 10
135.79293713026081
 20
556.56159361797825
 30
0.0
 11
230.3329171302608
 21
556.56159361797825
 31
0.0
  0
LINE
  5
5C28
  8
AM_0
 10
230.3329171302608
 20
549.04157361797832
 30
0.0
 11
136.86862713026099
 21
549.04157361797832
 31
0.0
  0
LINE
  5
5C29
  8
AM_0
 10
136.00290713026081
 20
619.7715536179785
 30
0.0
 11
266.15292713026088
 21
619.7715536179785
 31
0.0
  0
LINE
  5
5C2A
  8
AM_0
 10
136.00290713026081
 20
616.41156361797846
 30
0.0
 11
230.35287713026091
 21
616.41156361797846
 31
0.0
  0
LINE
  5
5C2B
  8
AM_0
 10
135.79293713026081
 20
609.53156361797835
 30
0.0
 11
230.3329171302608
 21
609.53156361797835
 31
0.0
  0
LINE
  5
5C2C
  8
AM_0
 10
135.79293713026081
 20
606.61151361797829
 30
0.0
 11
266.36715713026092
 21
606.61151361797829
 31
0.0
  0
LINE
  5
5C2D
  8
AM_0
 10
126.662937130261
 20
599.39154361797853
 30
0.0
 11
199.0041871302609
 21
599.39154361797853
 31
0.0
  0
LINE
  5
5C2E
  8
AM_0
 10
126.662937130261
 20
596.72162361797825
 30
0.0
 11
198.9916071302608
 21
596.72162361797825
 31
0.0
  0
LINE
  5
5C2F
  8
AM_0
 10
126.6029371302606
 20
589.32160361797833
 30
0.0
 11
199.06802713026079
 21
589.32160361797833
 31
0.0
  0
LINE
  5
5C30
  8
AM_0
 10
126.6029371302606
 20
586.78156361797835
 30
0.0
 11
199.06802713026079
 21
586.78156361797835
 31
0.0
  0
LINE
  5
5C31
  8
AM_0
 10
126.6029371302606
 20
579.31159361797825
 30
0.0
 11
199.06802713026079
 21
579.31159361797825
 31
0.0
  0
LINE
  5
5C32
  8
AM_0
 10
197.77499713026091
 20
577.04157361797854
 30
0.0
 11
127.8829071302608
 21
577.04157361797854
 31
0.0
  0
LINE
  5
5C33
  8
AM_0
 10
197.77499713026091
 20
579.04157361797854
 30
0.0
 11
127.8829071302608
 21
579.04157361797854
 31
0.0
  0
LINE
  5
5C34
  8
AM_0
 10
126.662937130261
 20
569.36151361797852
 30
0.0
 11
199.0041871302609
 21
569.36151361797852
 31
0.0
  0
LINE
  5
5C35
  8
AM_0
 10
197.77499713026091
 20
567.04157361797854
 30
0.0
 11
127.8829071302608
 21
567.04157361797854
 31
0.0
  0
LINE
  5
5C36
  8
AM_0
 10
126.662937130261
 20
566.70160361797855
 30
0.0
 11
199.0041871302609
 21
566.70160361797855
 31
0.0
  0
LINE
  5
5C37
  8
AM_0
 10
262.66574713026091
 20
559.04157361797854
 30
0.0
 11
136.86862713026099
 21
559.04157361797854
 31
0.0
  0
LINE
  5
5C38
  8
AM_0
 10
135.79293713026081
 20
559.48151361797852
 30
0.0
 11
266.36715713026092
 21
559.48151361797852
 31
0.0
  0
LINE
  5
5C39
  8
AM_0
 10
262.66574713026091
 20
557.04157361797854
 30
0.0
 11
248.3329171302608
 21
557.04157361797854
 31
0.0
  0
LINE
  5
5C3A
  8
AM_0
 10
262.6728871302609
 20
549.04157361797832
 30
0.0
 11
248.3329171302608
 21
549.04157361797832
 31
0.0
  0
LINE
  5
5C3B
  8
AM_0
 10
126.6029371302606
 20
576.77155361797838
 30
0.0
 11
199.06802713026079
 21
576.77155361797838
 31
0.0
  0
LINE
  5
5C3C
  8
AM_0
 10
133.5421471302609
 20
536.04819361797854
 30
0.0
 11
134.327187130261
 21
531.70151361797855
 31
0.0
  0
LINE
  5
5C3D
  8
AM_0
 10
131.84719713026081
 20
532.00153361797845
 30
0.0
 11
134.26718713026079
 21
532.00153361797845
 31
0.0
  0
LINE
  5
5C3E
  8
AM_0
 10
134.2771971302609
 20
526.35156361797863
 30
0.0
 11
133.31717713026069
 21
530.8215336179785
 31
0.0
  0
LINE
  5
5C3F
  8
AM_0
 10
249.84652713026099
 20
513.04157361797854
 30
0.0
 11
261.34909713026087
 21
513.04157361797854
 31
0.0
  0
LINE
  5
5C40
  8
AM_0
 10
268.33294713026112
 20
522.5415436179785
 30
0.0
 11
262.60714713026113
 21
513.72458361797851
 31
0.0
  0
LINE
  5
5C41
  8
AM_0
 10
231.8329171302608
 20
555.5415736179782
 30
0.0
 11
231.8329171302608
 21
550.54157361797854
 31
0.0
  0
LINE
  5
5C42
  8
AM_0
 10
246.8329171302608
 20
555.5415736179782
 30
0.0
 11
246.8329171302608
 21
550.54157361797854
 31
0.0
  0
LINE
  5
5C43
  8
AM_0
 10
230.3329171302608
 20
557.04157361797854
 30
0.0
 11
136.86862713026099
 21
557.04157361797854
 31
0.0
  0
LINE
  5
5C44
  8
AM_0
 10
231.35287713026099
 20
555.5415736179782
 30
0.0
 11
231.35287713026099
 21
550.68158361797862
 31
0.0
  0
LINE
  5
5C45
  8
AM_0
 10
247.31289713026089
 20
555.5415736179782
 30
0.0
 11
247.31289713026089
 21
550.68158361797862
 31
0.0
  0
LINE
  5
5C46
  8
AM_0
 10
248.3329171302608
 20
556.56159361797825
 30
0.0
 11
266.36715713026092
 21
556.56159361797825
 31
0.0
  0
LINE
  5
5C47
  8
AM_0
 10
248.31289713026089
 20
549.68158361797816
 30
0.0
 11
266.15292713026088
 21
549.68158361797816
 31
0.0
  0
LINE
  5
5C48
  8
AM_0
 10
247.31289713026089
 20
610.54157361797854
 30
0.0
 11
247.31289713026089
 21
615.40155361797849
 31
0.0
  0
LINE
  5
5C49
  8
AM_0
 10
231.35287713026099
 20
610.54157361797854
 30
0.0
 11
231.35287713026099
 21
615.40155361797849
 31
0.0
  0
LINE
  5
5C4A
  8
AM_0
 10
246.8329171302608
 20
610.54157361797854
 30
0.0
 11
246.8329171302608
 21
615.54157361797854
 31
0.0
  0
LINE
  5
5C4B
  8
AM_0
 10
231.8329171302608
 20
610.54157361797854
 30
0.0
 11
231.8329171302608
 21
615.54157361797854
 31
0.0
  0
LINE
  5
5C4C
  8
AM_0
 10
230.3329171302608
 20
617.04157361797854
 30
0.0
 11
136.882907130261
 21
617.04157361797854
 31
0.0
  0
LINE
  5
5C4D
  8
AM_0
 10
248.31289713026089
 20
616.41156361797846
 30
0.0
 11
266.15292713026088
 21
616.41156361797846
 31
0.0
  0
LINE
  5
5C4E
  8
AM_0
 10
248.3329171302608
 20
609.53156361797835
 30
0.0
 11
266.37863713026093
 21
609.53156361797835
 31
0.0
  0
LINE
  5
5C4F
  8
AM_0
 10
230.3329171302608
 20
609.04157361797854
 30
0.0
 11
136.882907130261
 21
609.04157361797854
 31
0.0
  0
LINE
  5
5C50
  8
AM_0
 10
203.33291713026091
 20
603.54157361797854
 30
0.0
 11
203.33291713026091
 21
562.54157361797854
 31
0.0
  0
LINE
  5
5C51
  8
AM_0
 10
266.3329171302608
 20
603.54157361797854
 30
0.0
 11
266.3329171302608
 21
562.54157361797854
 31
0.0
  0
LINE
  5
5C52
  8
AM_0
 10
203.33291713026091
 20
603.54157361797854
 30
0.0
 11
266.3329171302608
 21
603.54157361797854
 31
0.0
  0
LINE
  5
5C53
  8
AM_0
 10
203.33291713026091
 20
562.54157361797854
 30
0.0
 11
266.3329171302608
 21
562.54157361797854
 31
0.0
  0
LINE
  5
5C54
  8
AM_0
 10
203.33291713026091
 20
596.04157361797854
 30
0.0
 11
266.3329171302608
 21
596.04157361797854
 31
0.0
  0
LINE
  5
5C55
  8
AM_0
 10
163.33291713026111
 20
629.39148361797845
 30
0.0
 11
132.3329171302608
 21
627.36148361797848
 31
0.0
  0
LINE
  5
5C56
  8
AM_0
 10
163.33291713026111
 20
536.69153361797851
 30
0.0
 11
132.3329171302608
 21
538.72153361797837
 31
0.0
  0
ARC
  5
5C57
  8
AM_0
 10
121.8334071302608
 20
532.79205361797835
 30
0.0
 40
0.49952301
 50
359.9452300000014
 51
90.054773999999625
  0
ARC
  5
5C58
  8
AM_0
 10
121.8295671302609
 20
534.94501361797825
 30
0.0
 40
0.5033929900000002
 50
270.38491000000062
 51
359.61509999999811
  0
ARC
  5
5C59
  8
AM_0
 10
121.32882713026081
 20
537.54572361797864
 30
0.0
 40
1.004119999999999
 50
270.23460999999998
 51
359.76539000000002
  0
ARC
  5
5C5A
  8
AM_0
 10
121.3304771302611
 20
542.06403361797845
 30
0.0
 40
1.002470999999999
 50
270.14107000000013
 51
359.85892999999987
  0
ARC
  5
5C5B
  8
AM_0
 10
118.33169713026081
 20
537.1651036179785
 30
0.0
 40
0.9987969999999998
 50
179.62728000000101
 51
238.70795000000021
  0
ARC
  5
5C5C
  8
AM_0
 10
118.3306571302608
 20
538.20282361797854
 30
0.0
 40
0.9977070099999998
 50
180.074020000004
 51
242.04481000000081
  0
ARC
  5
5C5D
  8
AM_0
 10
118.3320071302611
 20
541.76630361797845
 30
0.0
 40
0.9990889999999998
 50
179.6950899999965
 51
236.66209000000279
  0
ARC
  5
5C5E
  8
AM_0
 10
118.331397130261
 20
542.80084361797833
 30
0.0
 40
0.9984580299999999
 50
179.95957999999851
 51
239.38657000000219
  0
ARC
  5
5C5F
  8
AM_0
 10
119.5962871302611
 20
542.06256361797864
 30
0.0
 40
1.0010449999999991
 50
240.4718699999996
 51
270.37970999999948
  0
ARC
  5
5C60
  8
AM_0
 10
119.62570713026081
 20
540.92206361797855
 30
0.0
 40
1.000521999999999
 50
237.1461799999995
 51
270.41344000000038
  0
ARC
  5
5C61
  8
AM_0
 10
119.58810713026079
 20
537.54218361797848
 30
0.0
 40
1.0006820000000001
 50
241.65062000000049
 51
269.70392999999888
  0
ARC
  5
5C62
  8
AM_0
 10
119.604277130261
 20
536.40521361797835
 30
0.0
 40
1.0037439999999991
 50
239.3711300000019
 51
270.49190000000061
  0
ARC
  5
5C63
  8
AM_0
 10
119.578767130261
 20
535.44086361797827
 30
0.0
 40
0.9993420200000001
 50
242.86200000000241
 51
269.6654599999984
  0
ARC
  5
5C64
  8
AM_0
 10
119.61361713026059
 20
534.29266361797818
 30
0.0
 40
1.001123999999999
 50
239.3278200000014
 51
269.38767999999868
  0
ARC
  5
5C65
  8
AM_0
 10
118.3285871302611
 20
536.07196361797855
 30
0.0
 40
0.9956849800000001
 50
180.02113
 51
243.4091400000006
  0
ARC
  5
5C66
  8
AM_0
 10
118.33053713026079
 20
535.02618361797863
 30
0.0
 40
0.9976310099999999
 50
180.2678099999986
 51
240.0792399999994
  0
ARC
  5
5C67
  8
AM_0
 10
118.331397130261
 20
542.80084361797833
 30
0.0
 40
0.9984580299999999
 50
179.95957999999851
 51
239.38657000000219
  0
ARC
  5
5C68
  8
AM_0
 10
121.32968713026079
 20
542.06830361797824
 30
0.0
 40
1.0032760000000001
 50
334.19810000000479
 51
359.6181099999983
  0
ARC
  5
5C69
  8
AM_0
 10
121.3331071302608
 20
566.04169361797835
 30
0.0
 40
0.9998210099999999
 50
359.98971999999799
 51
90.010282000001538
  0
ARC
  5
5C6A
  8
AM_0
 10
121.32797713026081
 20
570.0464536179785
 30
0.0
 40
1.004939
 50
270.2809399999997
 51
359.71907000000078
  0
ARC
  5
5C6B
  8
AM_0
 10
121.3331071302608
 20
576.04169361797835
 30
0.0
 40
0.9998279799999998
 50
359.99015999999688
 51
90.009838000000187
  0
ARC
  5
5C6C
  8
AM_0
 10
121.32797713026081
 20
580.04645361797827
 30
0.0
 40
1.004942999999999
 50
270.28113999999943
 51
359.71886999999822
  0
ARC
  5
5C6D
  8
AM_0
 10
118.32797713026081
 20
578.0464536179785
 30
0.0
 40
0.9950770099999999
 50
89.715859999999481
 51
180.28414000000049
  0
ARC
  5
5C6E
  8
AM_0
 10
118.3331071302608
 20
578.04181361797839
 30
0.0
 40
1.0002040000000001
 50
180.01165999999679
 51
269.98832000000078
  0
ARC
  5
5C6F
  8
AM_0
 10
118.32797713026081
 20
568.04645361797827
 30
0.0
 40
0.9950810099999999
 50
89.716072000000082
 51
180.2839200000044
  0
ARC
  5
5C70
  8
AM_0
 10
118.3331071302608
 20
568.04181361797851
 30
0.0
 40
1.0001999999999991
 50
180.01145999999861
 51
269.98854000000142
  0
ARC
  5
5C71
  8
AM_0
 10
118.32797713026081
 20
558.04645361797805
 30
0.0
 40
0.9950849999999999
 50
89.716282999999422
 51
180.28371999999919
  0
ARC
  5
5C72
  8
AM_0
 10
118.3331071302608
 20
558.04181361797816
 30
0.0
 40
1.0001959999999981
 50
180.01124999999951
 51
269.98875000000061
  0
ARC
  5
5C73
  8
AM_0
 10
118.329437130261
 20
548.87006361797842
 30
0.0
 40
0.9965090199999998
 50
179.9137499999965
 51
247.17844999999909
  0
ARC
  5
5C74
  8
AM_0
 10
118.3293171302608
 20
550.65595361797853
 30
0.0
 40
0.99638802
 50
180.24990999999889
 51
253.29664000000031
  0
ARC
  5
5C75
  8
AM_0
 10
119.47348713026111
 20
550.30426361797845
 30
0.0
 40
1.002699
 50
253.75271999999791
 51
270.54064000000108
  0
ARC
  5
5C76
  8
AM_0
 10
119.5359271302607
 20
548.35675361797837
 30
0.0
 40
1.005233
 50
246.98639000000031
 51
269.82924999999938
  0
ARC
  5
5C77
  8
AM_0
 10
121.63345713026079
 20
546.65216361797832
 30
0.0
 40
0.6994530000000001
 50
359.95517000000092
 51
90.044829000000746
  0
ARC
  5
5C78
  8
AM_0
 10
121.3331071302608
 20
556.04169361797835
 30
0.0
 40
0.9998239899999999
 50
359.98991999999532
 51
90.01007700000045
  0
ARC
  5
5C79
  8
AM_0
 10
121.32797713026081
 20
560.04645361797816
 30
0.0
 40
1.0049469
 50
270.28136999999919
 51
359.71863000000081
  0
ARC
  5
5C7A
  8
AM_0
 10
121.3295671302606
 20
550.30487361797861
 30
0.0
 40
1.003352
 50
270.19111000000021
 51
359.80890000000107
  0
ARC
  5
5C7B
  8
AM_0
 10
121.82833713026081
 20
633.29620361797845
 30
0.0
 40
0.50463498
 50
270.52383000000037
 51
359.47616999999963
  0
ARC
  5
5C7C
  8
AM_0
 10
121.834627130261
 20
631.14325361797853
 30
0.0
 40
0.4983060100000002
 50
359.80488999999778
 51
90.195107000000036
  0
ARC
  5
5C7D
  8
AM_0
 10
121.33389713026121
 20
628.54254361797837
 30
0.0
 40
0.9990100299999999
 50
359.94319000000121
 51
90.056809000000058
  0
ARC
  5
5C7E
  8
AM_0
 10
121.6283871302611
 20
619.43610361797846
 30
0.0
 40
0.704566
 50
270.37010000000009
 51
359.62990999999778
  0
ARC
  5
5C7F
  8
AM_0
 10
121.3305971302607
 20
624.02924361797852
 30
0.0
 40
1.002353
 50
0.1343268199984526
 51
89.865672999999376
  0
ARC
  5
5C80
  8
AM_0
 10
121.3346271302611
 20
615.78326361797849
 30
0.0
 40
0.9982839799999999
 50
359.90142000000009
 51
90.098576000001358
  0
ARC
  5
5C81
  8
AM_0
 10
121.32797713026081
 20
610.0464536179785
 30
0.0
 40
1.004942999999999
 50
270.28111000000013
 51
359.71888999999987
  0
ARC
  5
5C82
  8
AM_0
 10
121.3331071302608
 20
606.04169361797835
 30
0.0
 40
0.9998289899999999
 50
359.99019000000038
 51
90.009811000000937
  0
ARC
  5
5C83
  8
AM_0
 10
121.32797713026081
 20
600.0464536179785
 30
0.0
 40
1.004939
 50
270.2809100000008
 51
359.71909999999991
  0
ARC
  5
5C84
  8
AM_0
 10
121.3331071302608
 20
596.04169361797835
 30
0.0
 40
0.9998210099999999
 50
359.98975000000149
 51
90.010254999998992
  0
ARC
  5
5C85
  8
AM_0
 10
121.32797713026081
 20
590.0464536179785
 30
0.0
 40
1.0049469
 50
270.28135000000037
 51
359.71866000000068
  0
ARC
  5
5C86
  8
AM_0
 10
121.3331071302608
 20
586.04169361797847
 30
0.0
 40
0.9998249999999999
 50
359.98994999999883
 51
90.010050000001243
  0
ARC
  5
5C87
  8
AM_0
 10
118.3331071302608
 20
588.04181361797851
 30
0.0
 40
1.0001959999999981
 50
180.0112199999958
 51
269.98878000000087
  0
ARC
  5
5C88
  8
AM_0
 10
118.32797713026081
 20
588.04645361797839
 30
0.0
 40
0.9950849999999999
 50
89.716311000000914
 51
180.28368999999961
  0
ARC
  5
5C89
  8
AM_0
 10
118.3331071302608
 20
598.04181361797851
 30
0.0
 40
1.0001999999999991
 50
180.01143000000161
 51
269.98856999999839
  0
ARC
  5
5C8A
  8
AM_0
 10
118.32797713026081
 20
598.0464536179785
 30
0.0
 40
0.99508202
 50
89.716099000001435
 51
180.2839099999978
  0
ARC
  5
5C8B
  8
AM_0
 10
118.3331071302608
 20
608.04181361797851
 30
0.0
 40
1.000203
 50
180.01164999999551
 51
269.98835000000122
  0
ARC
  5
5C8C
  8
AM_0
 10
118.32797713026081
 20
608.0464536179785
 30
0.0
 40
0.99507803
 50
89.715887000001331
 51
180.28410999999991
  0
ARC
  5
5C8D
  8
AM_0
 10
118.3293171302608
 20
617.22308361797855
 30
0.0
 40
0.9963999999999998
 50
112.8173600000008
 51
180.0904199999996
  0
ARC
  5
5C8E
  8
AM_0
 10
118.32919713026099
 20
615.43732361797845
 30
0.0
 40
0.9962710099999999
 50
106.6979199999999
 51
180.33004999999989
  0
ARC
  5
5C8F
  8
AM_0
 10
119.4720771302607
 20
615.78888361797851
 30
0.0
 40
0.9927430199999999
 50
89.374554999998736
 51
106.33207000000171
  0
ARC
  5
5C90
  8
AM_0
 10
119.5339071302609
 20
617.73615361797852
 30
0.0
 40
0.9954450099999999
 50
90.056904999999645
 51
113.1274500000013
  0
ARC
  5
5C91
  8
AM_0
 10
118.3273671302606
 20
628.9205936179784
 30
0.0
 40
0.9944329899999999
 50
121.1521299999998
 51
179.94050999999911
  0
ARC
  5
5C92
  8
AM_0
 10
118.32614713026101
 20
627.88300361797826
 30
0.0
 40
0.9932109699999999
 50
117.79932000000061
 51
180.08187000000001
  0
ARC
  5
5C93
  8
AM_0
 10
118.327727130261
 20
624.31915361797849
 30
0.0
 40
0.9948369899999999
 50
123.20496000000099
 51
180.43785999999801
  0
ARC
  5
5C94
  8
AM_0
 10
118.3269371302608
 20
623.28473361797853
 30
0.0
 40
0.99404597
 50
120.4681999999988
 51
180.18564000000021
  0
ARC
  5
5C95
  8
AM_0
 10
119.6123371302608
 20
624.03510361797839
 30
0.0
 40
0.99648702
 50
90.540720999998641
 51
120.74377000000059
  0
ARC
  5
5C96
  8
AM_0
 10
119.6395571302608
 20
625.17535361797854
 30
0.0
 40
0.99617702
 50
90.381317999999226
 51
123.9704899999999
  0
ARC
  5
5C97
  8
AM_0
 10
119.5680271302608
 20
628.54620361797856
 30
0.0
 40
0.99545902
 50
89.141290999999924
 51
117.2038199999995
  0
ARC
  5
5C98
  8
AM_0
 10
119.6017771302608
 20
629.68732361797845
 30
0.0
 40
0.99427301
 50
89.356066000000013
 51
120.7809100000017
  0
ARC
  5
5C99
  8
AM_0
 10
119.5577171302608
 20
630.64752361797832
 30
0.0
 40
0.99411702
 50
89.122643999998516
 51
115.9349799999988
  0
ARC
  5
5C9A
  8
AM_0
 10
119.594947130261
 20
631.79572361797852
 30
0.0
 40
0.9959030199999999
 50
89.541266999999124
 51
119.6071699999994
  0
ARC
  5
5C9B
  8
AM_0
 10
118.3285271302606
 20
630.02130361797845
 30
0.0
 40
0.995579
 50
116.5870900000007
 51
179.98263999999989
  0
ARC
  5
5C9C
  8
AM_0
 10
118.32614713026101
 20
631.05951361797838
 30
0.0
 40
0.99319202
 50
119.77338000000169
 51
179.87958999999799
  0
ARC
  5
5C9D
  8
AM_0
 10
135.47372713026081
 20
541.83124361797832
 30
0.0
 40
1.0032491999999991
 50
314.98118999999758
 51
5.167643400001003
  0
ARC
  5
5C9E
  8
AM_0
 10
270.3327371302608
 20
645.54181361797851
 30
0.0
 40
0.99980682
 50
89.98893100000069
 51
180.0110699999974
  0
ARC
  5
5C9F
  8
AM_0
 10
262.13418713026078
 20
523.18781361797835
 30
0.0
 40
2.0062942999999991
 50
270.24932999999891
 51
345.08844000000403
  0
ARC
  5
5CA0
  8
AM_0
 10
270.33200713026088
 20
634.08246361797853
 30
0.0
 40
0.9990923399999999
 50
89.947921999999295
 51
180.05208000000431
  0
ARC
  5
5CA1
  8
AM_0
 10
144.32571713026081
 20
588.04157361797854
 30
0.0
 40
1.0000259
 50
89.587534000000232
 51
270.4124599999987
  0
ARC
  5
5CA2
  8
AM_0
 10
136.29239713026081
 20
634.0363236179785
 30
0.0
 40
1.9952742999999991
 50
90.148580000000095
 51
170.03521999999899
  0
ARC
  5
5CA3
  8
AM_0
 10
136.23025713026081
 20
639.31451361797849
 30
0.0
 40
1.997119399999999
 50
89.801366999998493
 51
167.94475999999821
  0
ARC
  5
5CA4
  8
AM_0
 10
131.8497671302608
 20
635.58392361797826
 30
0.0
 40
1.502416299999999
 50
269.90137999999882
 51
347.60813000000093
  0
ARC
  5
5CA5
  8
AM_0
 10
128.4631671302609
 20
642.71930361797831
 30
0.0
 40
1.9922863
 50
90.007721000000544
 51
166.8783899999971
  0
ARC
  5
5CA6
  8
AM_0
 10
124.13815713026121
 20
639.64642361797837
 30
0.0
 40
1.5048382
 50
270.18264000000067
 51
346.75308000000138
  0
ARC
  5
5CA7
  8
AM_0
 10
124.152497130261
 20
641.66693361797854
 30
0.0
 40
1.505448699999999
 50
270.39686999999992
 51
345.95247000000012
  0
ARC
  5
5CA8
  8
AM_0
 10
128.437777130261
 20
644.34699361797834
 30
0.0
 40
1.994612099999999
 50
89.851991999999015
 51
165.93885999999711
  0
ARC
  5
5CA9
  8
AM_0
 10
145.3262071302608
 20
642.90826361797849
 30
0.0
 40
1.9933081999999991
 50
89.807323000000935
 51
180.19266999999849
  0
ARC
  5
5CAA
  8
AM_0
 10
145.32705713026081
 20
644.93744361797849
 30
0.0
 40
1.994130499999996
 50
89.831105999999224
 51
180.16889000000049
  0
ARC
  5
5CAB
  8
AM_0
 10
145.329437130261
 20
646.29511361797847
 30
0.0
 40
1.996488899999999
 50
89.899147999998391
 51
180.10084999999879
  0
ARC
  5
5CAC
  8
AM_0
 10
145.3266971302611
 20
646.96503361797852
 30
0.0
 40
1.9964978999999961
 50
89.821482000000245
 51
165.6006099999997
  0
ARC
  5
5CAD
  8
AM_0
 10
141.82919713026101
 20
637.53534361797847
 30
0.0
 40
1.5037541000000001
 50
270.14287000000093
 51
359.85713999999848
  0
ARC
  5
5CAE
  8
AM_0
 10
141.8280371302609
 20
642.81647361797832
 30
0.0
 40
1.504891299999997
 50
270.1859300000005
 51
359.81406999999621
  0
ARC
  5
5CAF
  8
AM_0
 10
141.8260271302608
 20
646.21845361797853
 30
0.0
 40
1.506942899999999
 50
270.26336999999921
 51
359.73663000000079
  0
ARC
  5
5CB0
  8
AM_0
 10
141.93783713026099
 20
647.8467436179784
 30
0.0
 40
1.505230099999999
 50
270.19421
 51
345.17177999999871
  0
ARC
  5
5CB1
  8
AM_0
 10
268.98306713026079
 20
630.89386361797835
 30
0.0
 40
1.5022733999999991
 50
195.1365099999966
 51
269.99412000000041
  0
ARC
  5
5CB2
  8
AM_0
 10
262.14236713026099
 20
642.90241361797837
 30
0.0
 40
1.9991226
 50
15.05079100000003
 51
89.984388999999666
  0
ARC
  5
5CB3
  8
AM_0
 10
270.32589713026078
 20
520.53461361797849
 30
0.0
 40
0.99304521
 50
179.5973099999994
 51
270.40268000000009
  0
ARC
  5
5CB4
  8
AM_0
 10
270.32522713026083
 20
531.99396361797847
 30
0.0
 40
0.99237448
 50
179.55801999999801
 51
270.4419699999998
  0
ARC
  5
5CB5
  8
AM_0
 10
269.03860713026091
 20
635.58185361797848
 30
0.0
 40
1.500286
 50
192.32631000000171
 51
270.16416999999848
  0
ARC
  5
5CB6
  8
AM_0
 10
131.48849713026081
 20
624.63580361797847
 30
0.0
 40
5.0059714
 50
279.71098000000109
 51
354.67888000000482
  0
ARC
  5
5CB7
  8
AM_0
 10
131.95388713026071
 20
620.7090536179785
 30
0.0
 40
6.0044340999999992
 50
45.225578000001079
 51
86.380821999999185
  0
ARC
  5
5CB8
  8
AM_0
 10
135.4748871302609
 20
624.26227361797851
 30
0.0
 40
1.002184699999999
 50
354.8038600000034
 51
45.047306999998277
  0
ARC
  5
5CB9
  8
AM_0
 10
131.95260713026079
 20
545.38690361797842
 30
0.0
 40
6.0073843
 50
273.6297400000006
 51
314.76385000000192
  0
ARC
  5
5CBA
  8
AM_0
 10
131.49575713026081
 20
541.45306361797861
 30
0.0
 40
4.9991421999999961
 50
5.3780268999992682
 51
80.360064999998514
  0
ARC
  5
5CBB
  8
AM_0
 10
128.46975713026109
 20
523.37213361797853
 30
0.0
 40
2.0005671999999981
 50
193.30959000000229
 51
269.80430999999942
  0
ARC
  5
5CBC
  8
AM_0
 10
124.1461571302607
 20
526.44391361797852
 30
0.0
 40
1.497715799999999
 50
13.424378999996071
 51
90.122645000001114
  0
ARC
  5
5CBD
  8
AM_0
 10
124.1606171302609
 20
524.42328361797854
 30
0.0
 40
1.4982997
 50
14.229739999998021
 51
89.910950000001179
  0
ARC
  5
5CBE
  8
AM_0
 10
145.33297713026079
 20
523.1815836179785
 30
0.0
 40
2.0000371999999991
 50
180.0010599999959
 51
269.99892999999969
  0
ARC
  5
5CBF
  8
AM_0
 10
145.33383713026069
 20
521.15253361797863
 30
0.0
 40
2.0009109999999981
 50
180.00001000000091
 51
269.97390999999988
  0
ARC
  5
5CC0
  8
AM_0
 10
141.8309671302608
 20
528.55963361797853
 30
0.0
 40
1.501982699999999
 50
0.0755872020005832
 51
89.924413000001564
  0
ARC
  5
5CC1
  8
AM_0
 10
141.82980713026109
 20
523.27838361797853
 30
0.0
 40
1.503128599999999
 50
0.1191296500022061
 51
89.880869999998822
  0
ARC
  5
5CC2
  8
AM_0
 10
268.97653713026091
 20
535.19782361797832
 30
0.0
 40
1.4937901
 50
89.756423999998475
 51
165.1129200000008
  0
ARC
  5
5CC3
  8
AM_0
 10
144.32571713026081
 20
598.04157361797854
 30
0.0
 40
1.0000259
 50
89.587534000000232
 51
270.4124599999987
  0
ARC
  5
5CC4
  8
AM_0
 10
144.32571713026081
 20
608.04157361797854
 30
0.0
 40
1.0000259
 50
89.587534000000232
 51
270.4124599999987
  0
ARC
  5
5CC5
  8
AM_0
 10
144.32571713026081
 20
618.04157361797854
 30
0.0
 40
1.0000259
 50
89.587534000000232
 51
270.4124599999987
  0
ARC
  5
5CC6
  8
AM_0
 10
126.5946971302609
 20
588.05158361797839
 30
0.0
 40
1.2700266
 50
89.629327999999504
 51
270.37065999999959
  0
ARC
  5
5CC7
  8
AM_0
 10
126.65664713026101
 20
598.0565836179785
 30
0.0
 40
1.3350147999999991
 50
89.730435000000341
 51
270.2695700000001
  0
ARC
  5
5CC8
  8
AM_0
 10
135.78720713026081
 20
608.07160361797855
 30
0.0
 40
1.460011199999999
 50
89.775248000001255
 51
270.22474000000028
  0
ARC
  5
5CC9
  8
AM_0
 10
136.00290713026081
 20
618.09161361797828
 30
0.0
 40
1.6800002000000001
 50
90.000003000000945
 51
270.0
  0
ARC
  5
5CCA
  8
AM_0
 10
127.8829071302608
 20
588.04157361797854
 30
0.0
 40
1.0000056999999991
 50
90.000003000000945
 51
270.0
  0
ARC
  5
5CCB
  8
AM_0
 10
127.8829071302608
 20
598.04157361797854
 30
0.0
 40
1.0000056999999991
 50
90.000003000000945
 51
270.0
  0
ARC
  5
5CCC
  8
AM_0
 10
136.87576713026061
 20
618.04157361797854
 30
0.0
 40
1.0000255999999981
 50
89.589474000000749
 51
270.41051999999962
  0
ARC
  5
5CCD
  8
AM_0
 10
136.87576713026061
 20
608.04157361797854
 30
0.0
 40
1.0000255999999981
 50
89.589474000000749
 51
270.41051999999962
  0
ARC
  5
5CCE
  8
AM_0
 10
266.15292713026088
 20
618.09161361797828
 30
0.0
 40
1.6800077
 50
269.999989999999
 51
90.000003000000945
  0
ARC
  5
5CCF
  8
AM_0
 10
262.6728871302609
 20
618.04157361797854
 30
0.0
 40
1.0000040999999991
 50
269.999989999999
 51
90.000003000000945
  0
ARC
  5
5CD0
  8
AM_0
 10
262.6728871302609
 20
548.04157361797832
 30
0.0
 40
1.0000040999999991
 50
269.999989999999
 51
90.000003000000945
  0
ARC
  5
5CD1
  8
AM_0
 10
266.15292713026088
 20
548.00153361797857
 30
0.0
 40
1.6800077
 50
269.999989999999
 51
90.000003000000945
  0
ARC
  5
5CD2
  8
AM_0
 10
127.8829071302608
 20
578.04157361797854
 30
0.0
 40
1.0000056999999991
 50
90.000003000000945
 51
270.0
  0
ARC
  5
5CD3
  8
AM_0
 10
144.32571713026081
 20
568.04157361797854
 30
0.0
 40
1.0000259
 50
89.587534000000232
 51
270.4124599999987
  0
ARC
  5
5CD4
  8
AM_0
 10
144.32571713026081
 20
558.04157361797832
 30
0.0
 40
1.0000259
 50
89.587534000000232
 51
270.4124599999987
  0
ARC
  5
5CD5
  8
AM_0
 10
126.65664713026101
 20
568.03156361797835
 30
0.0
 40
1.3300148000000001
 50
89.729417999999541
 51
270.27058999999991
  0
ARC
  5
5CD6
  8
AM_0
 10
144.32571713026081
 20
578.04157361797854
 30
0.0
 40
1.0000259
 50
89.587534000000232
 51
270.4124599999987
  0
ARC
  5
5CD7
  8
AM_0
 10
144.32571713026081
 20
548.04157361797832
 30
0.0
 40
1.0000259
 50
89.587534000000232
 51
270.4124599999987
  0
ARC
  5
5CD8
  8
AM_0
 10
126.5946971302609
 20
578.04157361797854
 30
0.0
 40
1.2700266
 50
89.629320999999507
 51
270.3706899999986
  0
ARC
  5
5CD9
  8
AM_0
 10
127.8829071302608
 20
568.04157361797854
 30
0.0
 40
1.0000056999999991
 50
90.000003000000945
 51
270.0
  0
ARC
  5
5CDA
  8
AM_0
 10
132.06607713026079
 20
630.30158361797851
 30
0.0
 40
1.5
 50
280.24789000000129
 51
349.76261999999917
  0
ARC
  5
5CDB
  8
AM_0
 10
132.06607713026079
 20
535.78156361797835
 30
0.0
 40
1.5
 50
10.237378999998541
 51
79.752109999998723
  0
ARC
  5
5CDC
  8
AM_0
 10
136.29239713026081
 20
532.04681361797861
 30
0.0
 40
1.9952742999999991
 50
189.9647800000009
 51
269.85141999999991
  0
ARC
  5
5CDD
  8
AM_0
 10
131.8497671302608
 20
530.49921361797851
 30
0.0
 40
1.502416299999999
 50
12.391887000000411
 51
90.098616999999123
  0
ARC
  5
5CDE
  8
AM_0
 10
136.23025713026081
 20
526.76862361797862
 30
0.0
 40
1.997119399999999
 50
192.0552400000017
 51
270.1986299999989
  0
ARC
  5
5CDF
  8
AM_0
 10
136.00290713026081
 20
547.99152361797849
 30
0.0
 40
1.6800002000000001
 50
90.000003000000945
 51
270.0
  0
ARC
  5
5CE0
  8
AM_0
 10
136.87576713026061
 20
548.04157361797832
 30
0.0
 40
1.0000255999999981
 50
89.589474000000749
 51
270.41051999999962
  0
ARC
  5
5CE1
  8
AM_0
 10
136.87576713026061
 20
558.04157361797832
 30
0.0
 40
1.0000255999999981
 50
89.589474000000749
 51
270.41051999999962
  0
ARC
  5
5CE2
  8
AM_0
 10
135.78720713026081
 20
558.01154361797842
 30
0.0
 40
1.460011199999999
 50
89.775248000001255
 51
270.22474000000028
  0
ARC
  5
5CE3
  8
AM_0
 10
186.65927713026079
 20
517.65155361797861
 30
0.0
 40
1.5
 50
1.5000027000022329
 51
90.000003000000945
  0
ARC
  5
5CE4
  8
AM_0
 10
261.34909713026087
 20
514.54157361797832
 30
0.0
 40
1.5
 50
269.999989999999
 51
326.99999999999892
  0
ARC
  5
5CE5
  8
AM_0
 10
249.84652713026099
 20
511.5415736179782
 30
0.0
 40
1.5
 50
90.000003000000945
 51
178.4999999999973
  0
ARC
  5
5CE6
  8
AM_0
 10
263.85287713026088
 20
645.4315836179785
 30
0.0
 40
1.5
 50
12.12979199999535
 51
90.000003000000945
  0
ARC
  5
5CE7
  8
AM_0
 10
263.56057713026092
 20
646.79157361797854
 30
0.0
 40
1.5
 50
12.12979199999535
 51
90.000003000000945
  0
ARC
  5
5CE8
  8
AM_0
 10
263.41653713026079
 20
647.4616136179784
 30
0.0
 40
1.5
 50
12.12979199999535
 51
90.000003000000945
  0
ARC
  5
5CE9
  8
AM_0
 10
266.37289713026092
 20
558.01154361797842
 30
0.0
 40
1.460011199999999
 50
269.77524999999991
 51
90.224750000000114
  0
ARC
  5
5CEA
  8
AM_0
 10
262.6728871302609
 20
558.04157361797832
 30
0.0
 40
1.0000255999999981
 50
269.58947000000001
 51
90.410531000001029
  0
ARC
  5
5CEB
  8
AM_0
 10
266.37289713026092
 20
608.07160361797855
 30
0.0
 40
1.460011199999999
 50
269.77524999999991
 51
90.224750000000114
  0
ARC
  5
5CEC
  8
AM_0
 10
262.6728871302609
 20
608.04157361797854
 30
0.0
 40
1.0000255999999981
 50
269.58947000000001
 51
90.410531000001029
  0
ARC
  5
5CED
  8
AM_0
 10
198.99789713026081
 20
598.0565836179785
 30
0.0
 40
1.3350147999999991
 50
269.7304299999999
 51
90.269556000001344
  0
ARC
  5
5CEE
  8
AM_0
 10
197.77163713026101
 20
598.04157361797854
 30
0.0
 40
1.0000056999999991
 50
269.999989999999
 51
90.000003000000945
  0
ARC
  5
5CEF
  8
AM_0
 10
197.77163713026101
 20
588.04157361797854
 30
0.0
 40
1.0000056999999991
 50
269.999989999999
 51
90.000003000000945
  0
ARC
  5
5CF0
  8
AM_0
 10
199.05984713026089
 20
588.05158361797839
 30
0.0
 40
1.2700266
 50
269.62932000000001
 51
90.370670000001468
  0
ARC
  5
5CF1
  8
AM_0
 10
197.77163713026101
 20
578.04157361797854
 30
0.0
 40
1.0000056999999991
 50
269.999989999999
 51
90.000003000000945
  0
ARC
  5
5CF2
  8
AM_0
 10
199.05984713026089
 20
578.04157361797854
 30
0.0
 40
1.2700266
 50
269.62932000000001
 51
90.370670000001468
  0
ARC
  5
5CF3
  8
AM_0
 10
197.77163713026101
 20
568.04157361797854
 30
0.0
 40
1.0000056999999991
 50
269.999989999999
 51
90.000003000000945
  0
ARC
  5
5CF4
  8
AM_0
 10
198.99789713026081
 20
568.03156361797835
 30
0.0
 40
1.3300148000000001
 50
269.7294199999987
 51
90.270567000000995
  0
ARC
  5
5CF5
  8
AM_0
 10
248.3329171302608
 20
555.5415736179782
 30
0.0
 40
1.5
 50
90.000003000000945
 51
180.00001000000091
  0
ARC
  5
5CF6
  8
AM_0
 10
248.3329171302608
 20
550.54157361797854
 30
0.0
 40
1.5
 50
179.999989999999
 51
270.0
  0
ARC
  5
5CF7
  8
AM_0
 10
230.3329171302608
 20
555.5415736179782
 30
0.0
 40
1.5
 50
0.0
 51
90.000003000000945
  0
ARC
  5
5CF8
  8
AM_0
 10
230.3329171302608
 20
550.54157361797854
 30
0.0
 40
1.5
 50
269.999989999999
 51
0.0000006832495047
  0
ARC
  5
5CF9
  8
AM_0
 10
248.3329171302608
 20
555.5415736179782
 30
0.0
 40
1.02
 50
90.000003000000945
 51
180.00001000000091
  0
ARC
  5
5CFA
  8
AM_0
 10
230.3329171302608
 20
555.5415736179782
 30
0.0
 40
1.02
 50
0.0
 51
90.000003000000945
  0
ARC
  5
5CFB
  8
AM_0
 10
230.35287713026091
 20
550.68158361797862
 30
0.0
 40
1.0
 50
269.999989999999
 51
0.0000006832495047
  0
ARC
  5
5CFC
  8
AM_0
 10
248.31289713026089
 20
550.68158361797862
 30
0.0
 40
1.0
 50
179.999989999999
 51
270.0
  0
CIRCLE
  5
5CFD
  8
AM_0
 10
236.8329171302608
 20
554.54157361797854
 30
0.0
 40
1.1000000000000001
  0
CIRCLE
  5
5CFE
  8
AM_0
 10
236.8329171302608
 20
554.54157361797854
 30
0.0
 40
1.149999999999999
  0
CIRCLE
  5
5CFF
  8
AM_0
 10
241.8329171302608
 20
554.54157361797854
 30
0.0
 40
1.0
  0
ARC
  5
5D00
  8
AM_0
 10
248.3329171302608
 20
610.54157361797854
 30
0.0
 40
1.5
 50
179.999989999999
 51
270.0
  0
ARC
  5
5D01
  8
AM_0
 10
248.3329171302608
 20
615.54157361797854
 30
0.0
 40
1.5
 50
90.000003000000945
 51
180.00001000000091
  0
ARC
  5
5D02
  8
AM_0
 10
230.3329171302608
 20
610.54157361797854
 30
0.0
 40
1.5
 50
269.999989999999
 51
0.0000006832495047
  0
ARC
  5
5D03
  8
AM_0
 10
230.3329171302608
 20
615.54157361797854
 30
0.0
 40
1.5
 50
0.0
 51
90.000003000000945
  0
ARC
  5
5D04
  8
AM_0
 10
248.3329171302608
 20
610.54157361797854
 30
0.0
 40
1.02
 50
179.999989999999
 51
270.0
  0
ARC
  5
5D05
  8
AM_0
 10
230.3329171302608
 20
610.54157361797854
 30
0.0
 40
1.02
 50
269.999989999999
 51
0.0000006832429909
  0
ARC
  5
5D06
  8
AM_0
 10
230.35287713026091
 20
615.40155361797849
 30
0.0
 40
1.0
 50
0.0
 51
90.000003000000945
  0
ARC
  5
5D07
  8
AM_0
 10
248.31289713026089
 20
615.40155361797849
 30
0.0
 40
1.0
 50
90.000003000000945
 51
180.00001000000091
  0
CIRCLE
  5
5D08
  8
AM_0
 10
241.8329171302608
 20
611.54157361797854
 30
0.0
 40
1.0
  0
CIRCLE
  5
5D09
  8
AM_0
 10
236.8329171302608
 20
611.54157361797854
 30
0.0
 40
1.149999999999999
  0
CIRCLE
  5
5D0A
  8
AM_0
 10
236.8329171302608
 20
611.54157361797854
 30
0.0
 40
1.1000000000000001
  0
ARC
  5
5D0B
  8
AM_0
 10
128.0335471302609
 20
523.37152361797848
 30
0.0
 40
2.0
 50
194.15074999999919
 51
269.999989999999
  0
ARC
  5
5D0C
  8
AM_0
 10
142.07565713026119
 20
519.87152361797848
 30
0.0
 40
1.5
 50
21.46170899999715
 51
90.000003000000945
  0
LINE
  5
5D0D
  8
ﾁｭｳｼﾝｾﾝ1
 10
358.33288713026087
 20
648.04157361797832
 30
0.0
 11
378.33288713026087
 21
648.04157361797832
 31
0.0
  0
LINE
  5
5D0E
  8
ﾁｭｳｼﾝｾﾝ1
 10
368.33288713026087
 20
658.04157361797832
 30
0.0
 11
368.33288713026087
 21
638.04157361797832
 31
0.0
  0
LINE
  5
5D10
  8
AM_0
 10
248.3590669793017
 20
509.04157361797849
 30
0.0
 11
248.6769929329958
 21
521.1815836179785
 31
0.0
  0
LINE
  5
5D11
  8
AM_0
 10
188.30663498406091
 20
509.04157361797849
 30
0.0
 11
187.9887930026305
 21
521.1815836179785
 31
0.0
  0
LINE
  5
5D12
  8
AM_0
 10
184.83287713026101
 20
507.0415736179786
 30
0.0
 11
251.83287713026121
 21
507.0415736179786
 31
0.0
  0
LINE
  5
5D13
  8
AM_0
 10
184.83287713026101
 20
506.0415736179786
 30
0.0
 11
184.83287713026101
 21
507.0415736179786
 31
0.0
  0
LINE
  5
5D14
  8
AM_0
 10
251.83287713026121
 20
506.0415736179786
 30
0.0
 11
251.83287713026121
 21
507.0415736179786
 31
0.0
  0
LINE
  5
5D15
  8
AM_0
 10
170.33287713026101
 20
468.04157361797832
 30
0.0
 11
171.5924622665234
 21
504.1113726113835
 31
0.0
  0
LINE
  5
5D16
  8
AM_0
 10
173.59124392056171
 20
506.0415736179786
 30
0.0
 11
263.0745103399608
 21
506.0415736179786
 31
0.0
  0
ARC
  5
5D17
  8
AM_0
 10
173.59124392056171
 20
504.04157361797849
 30
0.0
 40
2.0
 50
90.0
 51
178.0000000000029
1001
GENIUS_GENODEF_13
1002
{
1000
HIER
1070
     0
1002
}
1002
{
1000
MANEDIT
1070
     0
1002
}
1002
{
1000
NOSEL
1070
     0
1002
}
1002
{
1000
BEHIND
1070
     0
1002
}
1002
{
1000
OTHER
1070
     0
1002
}
1002
{
1000
REACTOR
1002
}
1001
GENIUS_GENOBJ-N-FIL_13
1002
{
1000
OWNER
1000
GEN
1002
}
  0
LINE
  5
5D18
  8
AM_0
 10
265.07329199399902
 20
504.1113726113835
 30
0.0
 11
266.33287713026129
 21
468.0415736179786
 31
0.0
  0
ARC
  5
5D19
  8
AM_0
 10
263.0745103399608
 20
504.04157361797849
 30
0.0
 40
2.0
 50
1.9999999999971021
 51
90.0
1001
GENIUS_GENOBJ-N-FIL_13
1002
{
1000
OWNER
1000
GEN
1002
}
1001
GENIUS_GENODEF_13
1002
{
1000
HIER
1070
     0
1002
}
1002
{
1000
MANEDIT
1070
     0
1002
}
1002
{
1000
NOSEL
1070
     0
1002
}
1002
{
1000
BEHIND
1070
     0
1002
}
1002
{
1000
OTHER
1070
     0
1002
}
1002
{
1000
REACTOR
1002
}
  0
LINE
  5
5D1A
  8
AM_0
 10
266.33287713026129
 20
468.0415736179786
 30
0.0
 11
170.33287713026081
 21
468.04157361797832
 31
0.0
  0
LINE
  5
5D1B
  8
AM_0
 10
170.43763943873631
 20
471.04157361797837
 30
0.0
 11
169.33287713026101
 21
471.04157361797837
 31
0.0
  0
LINE
  5
5D1C
  8
AM_0
 10
171.55510406247231
 20
503.0415736179782
 30
0.0
 11
169.33287713026101
 21
503.0415736179782
 31
0.0
  0
LINE
  5
5D1D
  8
ﾁｭｳｼﾝｾﾝ1
 10
175.33287713026169
 20
457.7768661179785
 30
0.0
 11
175.33287713026181
 21
470.7768661179785
 31
0.0
  0
LINE
  5
5D1E
  8
ﾁｭｳｼﾝｾﾝ
 10
218.3328771302611
 20
513.33360429120762
 30
0.0
 11
218.3328771302611
 21
455.59105097716912
 31
0.0
  0
LINE
  5
5D1F
  8
AM_0
 10
166.83287713026101
 20
473.5415736179782
 30
0.0
 11
169.33287713026101
 21
473.54157361797797
 31
0.0
  0
LINE
  5
5D20
  8
AM_0
 10
169.33287713026101
 20
500.54157361797797
 30
0.0
 11
166.83287713026101
 21
500.54157361797832
 31
0.0
  0
LINE
  5
5D21
  8
AM_0
 10
155.93420603391519
 20
497.5415736179782
 30
0.0
 11
155.93420603391519
 21
476.5415736179782
 31
0.0
  0
LINE
  5
5D22
  8
AM_0
 10
140.93420603391519
 20
479.00994856396318
 30
0.0
 11
140.93420603391519
 21
495.07319867199419
 31
0.0
  0
LINE
  5
5D23
  8
AM_0
 10
153.93420603391519
 20
499.0415736179782
 30
0.0
 11
153.93420603391519
 21
475.04157361797837
 31
0.0
  0
LINE
  5
5D24
  8
AM_0
 10
144.43420603391519
 20
487.04157361797837
 30
0.0
 11
144.93420603391519
 21
487.54157361797837
 31
0.0
  0
LINE
  5
5D25
  8
AM_0
 10
151.43420603391519
 20
475.34157361797821
 30
0.0
 11
151.43420603391519
 21
498.74157361797819
 31
0.0
  0
LINE
  5
5D26
  8
AM_0
 10
161.3328771302611
 20
475.54157361797832
 30
0.0
 11
161.3328771302611
 21
498.5415736179782
 31
0.0
  0
LINE
  5
5D27
  8
AM_0
 10
155.43420603391519
 20
487.74157361798012
 30
0.0
 11
155.43420603391519
 21
486.34157361797719
 31
0.0
  0
LINE
  5
5D28
  8
AM_0
 10
157.53384176048601
 20
496.14157361797822
 30
0.0
 11
156.78384176048709
 21
477.94157361797818
 31
0.0
  0
LINE
  5
5D29
  8
AM_0
 10
156.58287713026101
 20
496.14157361797822
 30
0.0
 11
155.93420603391519
 21
480.4004883466622
 31
0.0
  0
LINE
  5
5D2A
  8
AM_0
 10
157.3315697208331
 20
496.85723233034241
 30
0.0
 11
156.5843096774251
 21
477.2292018568113
 31
0.0
  0
LINE
  5
5D2B
  8
AM_0
 10
156.78240921332301
 20
496.85394537914618
 30
0.0
 11
156.03384176048709
 21
477.19157361797818
 31
0.0
  0
LINE
  5
5D2C
  8
AM_0
 10
153.93420603391519
 20
475.04157361797837
 30
0.0
 11
151.73420603391509
 21
475.04157361797837
 31
0.0
  0
ARC
  5
5D2D
  8
AM_0
 10
165.83287713026121
 20
474.54157361797837
 30
0.0
 40
0.5
 50
0.0
 51
90.000000000013017
  0
ARC
  5
5D2E
  8
AM_0
 10
166.8328771302611
 20
474.0415736179782
 30
0.0
 40
0.5
 50
180.0
 51
270.0
  0
LINE
  5
5D2F
  8
AM_0
 10
166.3328771302611
 20
474.54157361797837
 30
0.0
 11
166.3328771302611
 21
474.0415736179782
 31
0.0
  0
LINE
  5
5D30
  8
AM_0
 10
157.33287713026101
 20
477.94157361797818
 30
0.0
 11
160.83287713026101
 21
477.94157361797818
 31
0.0
  0
LINE
  5
5D31
  8
AM_0
 10
166.3328771302611
 20
476.18550229657131
 30
0.0
 11
166.3328771302611
 21
485.89764493938623
 31
0.0
  0
LINE
  5
5D32
  8
AM_0
 10
161.83287713026101
 20
475.04157361797837
 30
0.0
 11
165.83287713026101
 21
475.04157361797837
 31
0.0
  0
LINE
  5
5D33
  8
AM_0
 10
165.83287713026101
 20
475.68550229657131
 30
0.0
 11
161.3328771302611
 21
475.68550229657131
 31
0.0
  0
ARC
  5
5D34
  8
AM_0
 10
165.83287713026121
 20
476.18550229657131
 30
0.0
 40
0.5
 50
270.0
 51
0.0
  0
ARC
  5
5D35
  8
AM_0
 10
160.83287713026101
 20
477.44157361797829
 30
0.0
 40
0.5
 50
0.0
 51
90.0
  0
ARC
  5
5D36
  8
AM_0
 10
161.83287713026101
 20
475.54157361797832
 30
0.0
 40
0.5
 50
180.0
 51
270.0
  0
LINE
  5
5D37
  8
AM_0
 10
165.83287713026101
 20
486.39764493938623
 30
0.0
 11
161.3328771302611
 21
486.39764493938623
 31
0.0
  0
ARC
  5
5D38
  8
AM_0
 10
165.83287713026101
 20
485.89764493938628
 30
0.0
 40
0.5
 50
0.0
 51
90.0
  0
LINE
  5
5D39
  8
AM_0
 10
155.43420603391519
 20
480.89640286568618
 30
0.0
 11
155.43420603391519
 21
482.06864605211922
 31
0.0
  0
LINE
  5
5D3A
  8
AM_0
 10
156.8605741889121
 20
477.94157361797818
 30
0.0
 11
157.33287713026101
 21
477.94157361797818
 31
0.0
  0
LINE
  5
5D3B
  8
AM_0
 10
156.76398169437289
 20
477.86745585124152
 30
0.0
 11
156.78384176048709
 21
477.94157361797818
 31
0.0
  0
ARC
  5
5D3C
  8
AM_0
 10
156.8605741889121
 20
477.84157361797821
 30
0.0
 40
0.1000000000000346
 50
90.0
 51
164.99980499355539
  0
ARC
  5
5D3D
  8
AM_0
 10
155.13420603391509
 20
477.75474063747021
 30
0.0
 40
0.3000000000000043
 50
0.0
 51
90.0
  0
LINE
  5
5D3E
  8
AM_0
 10
153.93420603391519
 20
475.64157361797822
 30
0.0
 11
155.15416173707209
 21
475.72290399818922
 31
0.0
  0
LINE
  5
5D3F
  8
AM_0
 10
153.93420603391519
 20
476.79782565381822
 30
0.0
 11
155.13420603391501
 21
476.79782565381822
 31
0.0
  0
LINE
  5
5D40
  8
AM_0
 10
155.43420603391519
 20
476.0415736179782
 30
0.0
 11
153.93420603391519
 21
476.0415736179782
 31
0.0
  0
ARC
  5
5D41
  8
AM_0
 10
155.43420603391519
 20
476.5415736179782
 30
0.0
 40
0.5
 50
270.0
 51
0.0
  0
LINE
  5
5D42
  8
AM_0
 10
155.43420603391519
 20
476.02223954554631
 30
0.0
 11
155.43420603391519
 21
476.0415736179782
 31
0.0
  0
LINE
  5
5D43
  8
AM_0
 10
155.43420603391519
 20
475.7415736179783
 30
0.0
 11
155.43420603391519
 21
476.02223954554631
 31
0.0
  0
LINE
  5
5D44
  8
AM_0
 10
155.15416173707209
 20
475.72290399818922
 30
0.0
 11
155.43420603391519
 21
475.7415736179783
 31
0.0
  0
ARC
  5
5D45
  8
AM_0
 10
155.13420603391509
 20
476.02223954554631
 30
0.0
 40
0.3000000000000007
 50
273.81407483428148
 51
0.0
  0
LINE
  5
5D46
  8
AM_0
 10
156.50614470183609
 20
477.19157361797818
 30
0.0
 11
156.58287713026189
 21
477.19157361797818
 31
0.0
  0
LINE
  5
5D47
  8
AM_0
 10
156.58287713026189
 20
477.19157361797818
 30
0.0
 11
156.60273719637499
 21
477.2656913847145
 31
0.0
  0
LINE
  5
5D48
  8
AM_0
 10
156.01398169437289
 20
477.2656913847145
 30
0.0
 11
156.03384176048709
 21
477.19157361797818
 31
0.0
  0
LINE
  5
5D49
  8
AM_0
 10
156.03384176048709
 20
477.19157361797818
 30
0.0
 11
156.1105741889121
 21
477.19157361797818
 31
0.0
  0
LINE
  5
5D4A
  8
AM_0
 10
156.60273719637499
 20
477.2656913847145
 30
0.0
 11
156.76398169437289
 21
477.86745585124152
 31
0.0
  0
LINE
  5
5D4B
  8
AM_0
 10
156.1105741889121
 20
477.19157361797818
 30
0.0
 11
156.50614470183609
 21
477.19157361797818
 31
0.0
  0
LINE
  5
5D4C
  8
AM_0
 10
155.9342060339161
 20
477.5634141495392
 30
0.0
 11
156.01398169437289
 21
477.2656913847145
 31
0.0
  0
ARC
  5
5D4D
  8
AM_0
 10
156.50614470183609
 20
477.29157361797837
 30
0.0
 40
0.0999999999999866
 50
270.0
 51
344.99980499343371
  0
ARC
  5
5D4E
  8
AM_0
 10
156.1105741889121
 20
477.29157361797837
 30
0.0
 40
0.1000000000000014
 50
195.00019500656629
 51
270.0
  0
LINE
  5
5D4F
  8
AM_0
 10
155.43420603391519
 20
477.09782565381818
 30
0.0
 11
155.43420603391519
 21
477.75474063747021
 31
0.0
  0
ARC
  5
5D50
  8
AM_0
 10
155.13420603391509
 20
477.09782565381829
 30
0.0
 40
0.3000000000000007
 50
270.0
 51
0.0
  0
LINE
  5
5D51
  8
AM_0
 10
153.93420603391519
 20
480.59640286568617
 30
0.0
 11
155.13420603391501
 21
480.59640286568617
 31
0.0
  0
LINE
  5
5D52
  8
AM_0
 10
155.13420603391501
 20
478.05474063747027
 30
0.0
 11
153.93420603391519
 21
478.05474063747027
 31
0.0
  0
LINE
  5
5D53
  8
AM_0
 10
156.78384176048709
 20
477.94157361797818
 30
0.0
 11
156.8605741889121
 21
477.94157361797818
 31
0.0
  0
ARC
  5
5D54
  8
AM_0
 10
155.13420603391509
 20
480.89640286568641
 30
0.0
 40
0.3000000000000007
 50
270.0
 51
0.0
  0
LINE
  5
5D55
  8
AM_0
 10
155.13420603391501
 20
482.36864605211917
 30
0.0
 11
153.93420603391519
 21
482.36864605211917
 31
0.0
  0
ARC
  5
5D56
  8
AM_0
 10
155.13420603391509
 20
482.06864605211922
 30
0.0
 40
0.3000000000000043
 50
0.0
 51
90.0
  0
LINE
  5
5D57
  8
AM_0
 10
155.13420603391501
 20
486.04157361797718
 30
0.0
 11
153.93420603391519
 21
486.04157361797718
 31
0.0
  0
ARC
  5
5D58
  8
AM_0
 10
155.13420603391509
 20
486.34157361797719
 30
0.0
 40
0.3000000000000007
 50
270.0
 51
0.0
  0
LINE
  5
5D59
  8
AM_0
 10
144.93420603391519
 20
476.9082937893312
 30
0.0
 11
151.43420603391519
 21
476.9082937893312
 31
0.0
  0
LINE
  5
5D5A
  8
AM_0
 10
144.93420603391519
 20
476.4082937893312
 30
0.0
 11
151.43420603391519
 21
476.4082937893312
 31
0.0
  0
LINE
  5
5D5B
  8
AM_0
 10
151.43420603391519
 20
486.5415736179782
 30
0.0
 11
144.93420603391519
 21
486.5415736179782
 31
0.0
  0
LINE
  5
5D5C
  8
AM_0
 10
144.43420603391519
 20
486.0415736179782
 30
0.0
 11
151.43420603391519
 21
486.0415736179782
 31
0.0
  0
LINE
  5
5D5D
  8
AM_0
 10
151.13420603391501
 20
476.0415736179782
 30
0.0
 11
144.29625596909699
 21
476.0415736179782
 31
0.0
  0
LINE
  5
5D5E
  8
AM_0
 10
151.43420603391519
 20
485.69488554943717
 30
0.0
 11
144.93420603391519
 21
485.69488554943717
 31
0.0
  0
LINE
  5
5D5F
  8
AM_0
 10
151.43420603391519
 20
477.38826168651917
 30
0.0
 11
144.93420603391519
 21
477.38826168651917
 31
0.0
  0
ARC
  5
5D60
  8
AM_0
 10
151.73420603391509
 20
475.34157361797821
 30
0.0
 40
0.2999999999999971
 50
180.0
 51
270.0
  0
ARC
  5
5D61
  8
AM_0
 10
151.13420603391509
 20
475.7415736179783
 30
0.0
 40
0.2999999999999971
 50
0.0
 51
90.0
  0
ARC
  5
5D62
  8
AM_0
 10
153.05920603391519
 20
481.5415736179782
 30
0.0
 40
9.124999999999984
 50
152.92493329271929
 51
207.07506670728071
  0
LINE
  5
5D63
  8
AM_0
 10
143.65607156943261
 20
476.27335233838079
 30
0.0
 11
141.29402163425061
 21
478.24172728436571
 31
0.0
  0
LINE
  5
5D64
  8
AM_0
 10
144.43420603391519
 20
476.62000620148632
 30
0.0
 11
144.93420603391519
 21
476.0415736179782
 31
0.0
  0
ARC
  5
5D65
  8
AM_0
 10
144.29625596909699
 20
477.0415736179782
 30
0.0
 40
1.0
 50
230.19442890774391
 51
270.0
  0
LINE
  5
5D66
  8
AM_0
 10
144.93420603391519
 20
476.4082937893312
 30
0.0
 11
144.43420603391519
 21
476.62000620148632
 31
0.0
  0
LINE
  5
5D67
  8
AM_0
 10
144.43420603391519
 20
477.08228147445732
 30
0.0
 11
144.93420603391519
 21
476.4082937893312
 31
0.0
  0
LINE
  5
5D68
  8
AM_0
 10
144.93420603391519
 20
476.9082937893312
 30
0.0
 11
144.43420603391519
 21
477.08228147445732
 31
0.0
  0
LINE
  5
5D69
  8
AM_0
 10
144.43420603391519
 20
477.62000620148621
 30
0.0
 11
144.93420603391519
 21
476.9082937893312
 31
0.0
  0
LINE
  5
5D6A
  8
AM_0
 10
144.93420603391519
 20
477.38826168651917
 30
0.0
 11
144.43420603391519
 21
477.62000620148621
 31
0.0
  0
ARC
  5
5D6B
  8
AM_0
 10
141.93420603391519
 20
479.00994856396318
 30
0.0
 40
1.0000000000000291
 50
180.0
 51
230.19442890773479
  0
LINE
  5
5D6C
  8
AM_0
 10
144.93420603391519
 20
486.5415736179782
 30
0.0
 11
144.43420603391519
 21
487.04157361797837
 31
0.0
  0
LINE
  5
5D6D
  8
AM_0
 10
144.43420603391519
 20
486.0415736179782
 30
0.0
 11
144.93420603391519
 21
486.5415736179782
 31
0.0
  0
LINE
  5
5D6E
  8
AM_0
 10
144.93420603391519
 20
485.69488554943717
 30
0.0
 11
144.43420603391519
 21
486.0415736179782
 31
0.0
  0
LINE
  5
5D6F
  8
AM_0
 10
151.73420603391509
 20
499.0415736179782
 30
0.0
 11
153.93420603391519
 21
499.0415736179782
 31
0.0
  0
ARC
  5
5D70
  8
AM_0
 10
165.83287713026101
 20
499.54157361797837
 30
0.0
 40
0.5
 50
269.99999999998693
 51
0.0
  0
LINE
  5
5D71
  8
AM_0
 10
160.83287713026101
 20
496.14157361797822
 30
0.0
 11
157.6105741889121
 21
496.14157361797822
 31
0.0
  0
LINE
  5
5D72
  8
AM_0
 10
166.3328771302611
 20
488.18550229657131
 30
0.0
 11
166.3328771302611
 21
497.89764493938628
 31
0.0
  0
LINE
  5
5D73
  8
AM_0
 10
161.3328771302611
 20
487.68550229657131
 30
0.0
 11
165.83287713026101
 21
487.68550229657131
 31
0.0
  0
ARC
  5
5D74
  8
AM_0
 10
165.83287713026101
 20
488.18550229657131
 30
0.0
 40
0.5
 50
270.0
 51
0.0
  0
LINE
  5
5D75
  8
AM_0
 10
161.3328771302611
 20
498.39764493938628
 30
0.0
 11
165.83287713026101
 21
498.39764493938628
 31
0.0
  0
LINE
  5
5D76
  8
AM_0
 10
165.83287713026101
 20
499.0415736179782
 30
0.0
 11
161.83287713026101
 21
499.0415736179782
 31
0.0
  0
ARC
  5
5D77
  8
AM_0
 10
165.83287713026101
 20
497.89764493938628
 30
0.0
 40
0.5
 50
0.0
 51
90.0
  0
ARC
  5
5D78
  8
AM_0
 10
160.83287713026101
 20
496.64157361797822
 30
0.0
 40
0.5
 50
270.0
 51
0.0
  0
ARC
  5
5D79
  8
AM_0
 10
161.83287713026101
 20
498.5415736179782
 30
0.0
 40
0.5
 50
90.0
 51
180.0
  0
ARC
  5
5D7A
  8
AM_0
 10
155.13420603391509
 20
493.18674437027028
 30
0.0
 40
0.3000000000000114
 50
0.0
 51
90.0
  0
LINE
  5
5D7B
  8
AM_0
 10
153.93420603391519
 20
488.04157361797991
 30
0.0
 11
155.13420603391501
 21
488.04157361797991
 31
0.0
  0
ARC
  5
5D7C
  8
AM_0
 10
155.13420603391509
 20
487.74157361798052
 30
0.0
 40
0.2999999999999971
 50
0.0
 51
90.0
  0
LINE
  5
5D7D
  8
AM_0
 10
153.93420603391519
 20
491.714501183837
 30
0.0
 11
155.13420603391501
 21
491.714501183837
 31
0.0
  0
ARC
  5
5D7E
  8
AM_0
 10
155.13420603391509
 20
492.01450118383718
 30
0.0
 40
0.3000000000000007
 50
270.0
 51
0.0
  0
LINE
  5
5D7F
  8
AM_0
 10
155.43420603391519
 20
492.01450118383718
 30
0.0
 11
155.43420603391519
 21
493.18674437027028
 31
0.0
  0
LINE
  5
5D80
  8
AM_0
 10
156.8605741889121
 20
496.89157361797822
 30
0.0
 11
157.25614470183609
 21
496.89157361797822
 31
0.0
  0
LINE
  5
5D81
  8
AM_0
 10
156.8605741889121
 20
496.89157361797822
 30
0.0
 11
157.25614470183609
 21
496.89157361797822
 31
0.0
  0
LINE
  5
5D82
  8
AM_0
 10
157.35273719637499
 20
496.81745585124168
 30
0.0
 11
157.51398169437289
 21
496.21569138471472
 31
0.0
  0
LINE
  5
5D83
  8
AM_0
 10
157.35273719637499
 20
496.81745585124168
 30
0.0
 11
157.51398169437289
 21
496.21569138471472
 31
0.0
  0
ARC
  5
5D84
  8
AM_0
 10
157.6105741889121
 20
496.2415736179783
 30
0.0
 40
0.0999999999999943
 50
195.00019500651879
 51
270.0
  0
ARC
  5
5D85
  8
AM_0
 10
157.25614470183609
 20
496.7915736179782
 30
0.0
 40
0.0999999999999943
 50
15.000195006505431
 51
90.0
  0
LINE
  5
5D86
  8
AM_0
 10
155.93335944537401
 20
496.51657361797851
 30
0.0
 11
156.01398169437289
 21
496.21569138471472
 31
0.0
  0
LINE
  5
5D87
  8
AM_0
 10
156.585587782467
 20
496.18083815107622
 30
0.0
 11
156.76398169437289
 21
496.81745585124168
 31
0.0
  0
LINE
  5
5D88
  8
AM_0
 10
156.60273719637499
 20
496.21569138471472
 30
0.0
 11
156.76398169437289
 21
496.81745585124168
 31
0.0
  0
LINE
  5
5D89
  8
AM_0
 10
155.43420603391519
 20
496.32840659848722
 30
0.0
 11
155.43420603391519
 21
496.98532158213823
 31
0.0
  0
LINE
  5
5D8A
  8
AM_0
 10
155.93420603391519
 20
496.5134141495401
 30
0.0
 11
156.01398169437289
 21
496.21569138471472
 31
0.0
  0
LINE
  5
5D8B
  8
AM_0
 10
153.93420603391519
 20
496.02840659848738
 30
0.0
 11
155.13420603391501
 21
496.02840659848738
 31
0.0
  0
LINE
  5
5D8C
  8
AM_0
 10
155.13420603391501
 20
493.48674437027012
 30
0.0
 11
153.93420603391519
 21
493.4867443702712
 31
0.0
  0
LINE
  5
5D8D
  8
AM_0
 10
156.53877696735111
 20
496.14157361797822
 30
0.0
 11
156.585587782467
 21
496.18083815107622
 31
0.0
  0
LINE
  5
5D8E
  8
AM_0
 10
156.1105741889121
 20
496.14157361797822
 30
0.0
 11
156.53877696735111
 21
496.14157361797822
 31
0.0
  0
LINE
  5
5D8F
  8
AM_0
 10
156.1105741889121
 20
496.14157361797822
 30
0.0
 11
156.50614470183609
 21
496.14157361797822
 31
0.0
  0
ARC
  5
5D90
  8
AM_0
 10
156.1105741889121
 20
496.2415736179783
 30
0.0
 40
0.0999999999999943
 50
195.00019500651879
 51
270.0
  0
ARC
  5
5D91
  8
AM_0
 10
156.50614470183609
 20
496.2415736179783
 30
0.0
 40
0.0999999999999608
 50
270.0
 51
344.99980499348112
  0
ARC
  5
5D92
  8
AM_0
 10
155.13420603391509
 20
496.32840659848722
 30
0.0
 40
0.3000000000000007
 50
270.0
 51
0.0
  0
LINE
  5
5D93
  8
AM_0
 10
153.93420603391519
 20
498.0415736179782
 30
0.0
 11
155.43420603391519
 21
498.0415736179782
 31
0.0
  0
LINE
  5
5D94
  8
AM_0
 10
155.13420603391501
 20
497.28532158213818
 30
0.0
 11
153.93420603391519
 21
497.28532158213818
 31
0.0
  0
LINE
  5
5D95
  8
AM_0
 10
155.15416173707209
 20
498.36024323776832
 30
0.0
 11
153.93420603391519
 21
498.44157361797818
 31
0.0
  0
ARC
  5
5D96
  8
AM_0
 10
155.43420603391519
 20
497.5415736179782
 30
0.0
 40
0.5
 50
0.0
 51
90.0
  0
ARC
  5
5D97
  8
AM_0
 10
156.8605741889121
 20
496.7915736179782
 30
0.0
 40
0.0999999999999606
 50
90.0
 51
164.99980499349451
  0
ARC
  5
5D98
  8
AM_0
 10
155.13420603391509
 20
496.98532158213823
 30
0.0
 40
0.2999999999999971
 50
0.0
 51
90.0
  0
LINE
  5
5D99
  8
AM_0
 10
155.43420603391519
 20
498.0415736179782
 30
0.0
 11
155.43420603391519
 21
498.06090769041123
 31
0.0
  0
ARC
  5
5D9A
  8
AM_0
 10
155.13420603391509
 20
498.06090769041123
 30
0.0
 40
0.3000000000000043
 50
0.0
 51
86.18592516571853
  0
ARC
  5
5D9B
  8
AM_0
 10
166.83287713026101
 20
500.04157361797837
 30
0.0
 40
0.5
 50
90.0
 51
180.0
  0
LINE
  5
5D9C
  8
AM_0
 10
166.3328771302611
 20
500.04157361797837
 30
0.0
 11
166.3328771302611
 21
499.54157361797837
 31
0.0
  0
LINE
  5
5D9D
  8
AM_0
 10
144.93420603391519
 20
496.69488554943712
 30
0.0
 11
151.43420603391519
 21
496.69488554943712
 31
0.0
  0
LINE
  5
5D9E
  8
AM_0
 10
144.93420603391519
 20
488.38826168651917
 30
0.0
 11
151.43420603391519
 21
488.38826168651917
 31
0.0
  0
LINE
  5
5D9F
  8
AM_0
 10
144.29625596909699
 20
498.0415736179782
 30
0.0
 11
151.13420603391501
 21
498.0415736179782
 31
0.0
  0
LINE
  5
5DA0
  8
AM_0
 10
151.43420603391519
 20
488.04157361797832
 30
0.0
 11
144.43420603391519
 21
488.04157361797832
 31
0.0
  0
LINE
  5
5DA1
  8
AM_0
 10
144.93420603391519
 20
487.54157361797837
 30
0.0
 11
151.43420603391519
 21
487.54157361797837
 31
0.0
  0
LINE
  5
5DA2
  8
AM_0
 10
151.43420603391519
 20
497.67485344662617
 30
0.0
 11
144.93420603391519
 21
497.67485344662617
 31
0.0
  0
LINE
  5
5DA3
  8
AM_0
 10
151.43420603391519
 20
497.17485344662617
 30
0.0
 11
144.93420603391519
 21
497.17485344662617
 31
0.0
  0
ARC
  5
5DA4
  8
AM_0
 10
151.13420603391509
 20
498.34157361797821
 30
0.0
 40
0.3000000000000043
 50
270.0
 51
0.0
  0
ARC
  5
5DA5
  8
AM_0
 10
151.73420603391509
 20
498.7415736179783
 30
0.0
 40
0.2999999999999971
 50
90.0
 51
180.0
  0
ARC
  5
5DA6
  8
AM_0
 10
153.05920603391519
 20
492.54157361797832
 30
0.0
 40
9.124999999999984
 50
152.92493329271929
 51
207.07506670728071
  0
LINE
  5
5DA7
  8
AM_0
 10
144.43420603391519
 20
488.04157361797832
 30
0.0
 11
144.93420603391519
 21
488.38826168651917
 31
0.0
  0
LINE
  5
5DA8
  8
AM_0
 10
144.93420603391519
 20
487.54157361797837
 30
0.0
 11
144.43420603391519
 21
488.04157361797832
 31
0.0
  0
LINE
  5
5DA9
  8
AM_0
 10
141.29402163425061
 20
495.8414199515916
 30
0.0
 11
143.65607156943261
 21
497.80979489757561
 31
0.0
  0
LINE
  5
5DAA
  8
AM_0
 10
144.93420603391519
 20
498.0415736179782
 30
0.0
 11
144.43420603391519
 21
497.46314103447122
 31
0.0
  0
ARC
  5
5DAB
  8
AM_0
 10
144.29625596909699
 20
497.0415736179782
 30
0.0
 40
1.0000000000000411
 50
90.0
 51
129.805571092256
  0
LINE
  5
5DAC
  8
AM_0
 10
144.43420603391519
 20
496.46314103447122
 30
0.0
 11
144.93420603391519
 21
496.69488554943712
 31
0.0
  0
LINE
  5
5DAD
  8
AM_0
 10
144.93420603391519
 20
497.17485344662617
 30
0.0
 11
144.43420603391519
 21
496.46314103447122
 31
0.0
  0
LINE
  5
5DAE
  8
AM_0
 10
144.43420603391519
 20
497.0008657614992
 30
0.0
 11
144.93420603391519
 21
497.17485344662617
 31
0.0
  0
LINE
  5
5DAF
  8
AM_0
 10
144.93420603391519
 20
497.67485344662617
 30
0.0
 11
144.43420603391519
 21
497.0008657614992
 31
0.0
  0
LINE
  5
5DB0
  8
AM_0
 10
144.43420603391519
 20
497.46314103447122
 30
0.0
 11
144.93420603391519
 21
497.67485344662617
 31
0.0
  0
ARC
  5
5DB1
  8
AM_0
 10
141.93420603391519
 20
495.07319867199419
 30
0.0
 40
1.0
 50
129.80557109226521
 51
180.0
  0
LINE
  5
5DB2
  8
AM_0
 10
266.33287713026118
 20
464.0415736179786
 30
0.0
 11
245.5183722307288
 21
464.0415736179786
 31
0.0
  0
LINE
  5
5DB3
  8
AM_0
 10
191.1473820297935
 20
464.0415736179786
 30
0.0
 11
170.33287713026169
 21
464.0415736179786
 31
0.0
  0
LINE
  5
5DB4
  8
AM_0
 10
260.1970954611001
 20
460.0415736179786
 30
0.0
 11
176.46865879942189
 21
460.0415736179786
 31
0.0
  0
LINE
  5
5DB5
  8
AM_0
 10
179.24023210256809
 20
461.9826361058507
 30
0.0
 11
179.33287713026169
 21
463.04157361797849
 31
0.0
  0
LINE
  5
5DB6
  8
AM_0
 10
171.4255221579551
 20
461.9826361058507
 30
0.0
 11
171.33287713026169
 21
463.04157361797849
 31
0.0
  0
ARC
  5
5DB7
  8
AM_0
 10
175.33287713026169
 20
466.44157361797852
 30
0.0
 40
6.5
 50
241.82726586813479
 51
298.17273413186518
  0
ARC
  5
5DB8
  8
AM_0
 10
173.01943367490199
 20
462.12208529424692
 30
0.0
 40
1.6000000000000001
 50
184.99999999999969
 51
241.82726586813479
  0
LINE
  5
5DB9
  8
AM_0
 10
177.63287713026159
 20
460.36209995655008
 30
0.0
 11
175.33287713026169
 21
462.6516596353456
 31
0.0
  0
LINE
  5
5DBA
  8
AM_0
 10
175.6443771302618
 20
462.34157361797861
 30
0.0
 11
175.0213771302617
 21
462.34157361797861
 31
0.0
  0
LINE
  5
5DBB
  8
AM_0
 10
173.0328771302618
 20
460.36209995655008
 30
0.0
 11
175.33287713026169
 21
462.6516596353456
 31
0.0
  0
LINE
  5
5DBC
  8
AM_0
 10
175.6443771302618
 20
459.94904192764392
 30
0.0
 11
175.6443771302618
 21
462.34157361797861
 31
0.0
  0
LINE
  5
5DBD
  8
AM_0
 10
175.0213771302617
 20
459.94904192764392
 30
0.0
 11
175.0213771302617
 21
462.34157361797861
 31
0.0
  0
ARC
  5
5DBE
  8
AM_0
 10
177.6463205856214
 20
462.12208529424692
 30
0.0
 40
1.6000000000000001
 50
298.17273413186518
 51
355.00000000000023
  0
LINE
  5
5DBF
  8
AM_0
 10
266.33287713026129
 20
464.0415736179786
 30
0.0
 11
266.33287713026129
 21
468.0415736179786
 31
0.0
  0
LINE
  5
5DC0
  8
AM_0
 10
170.33287713026081
 20
468.04157361797832
 30
0.0
 11
170.33287713026189
 21
464.0415736179786
 31
0.0
  0
LINE
  5
5DC1
  8
AM_0N
 10
179.13287713026159
 20
464.0415736179786
 30
0.0
 11
179.13287713026159
 21
463.04157361797849
 31
0.0
  0
LINE
  5
5DC2
  8
AM_0N
 10
175.5328771302618
 20
463.04157361797849
 30
0.0
 11
175.8968473645279
 21
464.0415736179786
 31
0.0
  0
LINE
  5
5DC3
  8
AM_0N
 10
175.1328771302617
 20
463.04157361797849
 30
0.0
 11
175.49684736452781
 21
464.0415736179786
 31
0.0
  0
LINE
  5
5DC4
  8
AM_0N
 10
171.33287713026169
 20
463.04157361797849
 30
0.0
 11
179.33287713026169
 21
463.04157361797849
 31
0.0
  0
LINE
  5
5DC5
  8
AM_0N
 10
171.5328771302618
 20
463.04157361797849
 30
0.0
 11
171.5328771302618
 21
464.0415736179786
 31
0.0
  0
LINE
  5
5DC6
  8
AM_0
 10
191.14738202979331
 20
460.0415736179786
 30
0.0
 11
191.14738202979331
 21
464.0415736179786
 31
0.0
  0
LINE
  5
5DC7
  8
AM_0
 10
189.49052778030079
 20
464.0415736179786
 30
0.0
 11
191.14738202979331
 21
460.0415736179786
 31
0.0
  0
LINE
  5
5DC8
  8
AM_0
 10
245.5183722307288
 20
460.0415736179786
 30
0.0
 11
245.5183722307288
 21
464.0415736179786
 31
0.0
  0
LINE
  5
5DC9
  8
AM_0
 10
247.17522648022131
 20
464.0415736179786
 30
0.0
 11
245.5183722307288
 21
460.0415736179786
 31
0.0
  0
LINE
  5
5DCA
  8
AM_0
 10
184.83287713026101
 20
509.04157361797849
 30
0.0
 11
251.83287713026121
 21
509.04157361797849
 31
0.0
  0
LINE
  5
5DCB
  8
AM_0
 10
184.83287713026101
 20
509.04157361797849
 30
0.0
 11
184.83287713026101
 21
507.0415736179786
 31
0.0
  0
LINE
  5
5DCC
  8
AM_0
 10
251.83287713026121
 20
509.04157361797849
 30
0.0
 11
251.83287713026121
 21
507.0415736179786
 31
0.0
  0
LINE
  5
5DCD
  8
ﾁｭｳｼﾝｾﾝ1
 10
261.3328771302605
 20
457.7768661179785
 30
0.0
 11
261.3328771302605
 21
470.7768661179785
 31
0.0
  0
LINE
  5
5DCE
  8
AM_0
 10
257.42552215795411
 20
461.9826361058507
 30
0.0
 11
257.3328771302605
 21
463.04157361797849
 31
0.0
  0
LINE
  5
5DCF
  8
AM_0
 10
265.24023210256712
 20
461.9826361058507
 30
0.0
 11
265.3328771302605
 21
463.04157361797849
 31
0.0
  0
ARC
  5
5DD0
  8
AM_0
 10
261.33287713026073
 20
466.44157361797829
 30
0.0
 40
6.5
 50
241.82726586813479
 51
298.17273413186518
  0
ARC
  5
5DD1
  8
AM_0
 10
263.6463205856204
 20
462.12208529424692
 30
0.0
 40
1.6000000000000001
 50
298.17273413186518
 51
355.00000000000023
  0
LINE
  5
5DD2
  8
AM_0
 10
259.03287713026072
 20
460.36209995655008
 30
0.0
 11
261.3328771302605
 21
462.6516596353456
 31
0.0
  0
LINE
  5
5DD3
  8
AM_0
 10
261.02137713026048
 20
462.34157361797861
 30
0.0
 11
261.64437713026052
 21
462.34157361797861
 31
0.0
  0
LINE
  5
5DD4
  8
AM_0
 10
263.63287713026062
 20
460.36209995655008
 30
0.0
 11
261.3328771302605
 21
462.6516596353456
 31
0.0
  0
LINE
  5
5DD5
  8
AM_0
 10
261.02137713026048
 20
459.94904192764392
 30
0.0
 11
261.02137713026048
 21
462.34157361797861
 31
0.0
  0
LINE
  5
5DD6
  8
AM_0
 10
261.64437713026052
 20
459.94904192764392
 30
0.0
 11
261.64437713026052
 21
462.34157361797861
 31
0.0
  0
ARC
  5
5DD7
  8
AM_0
 10
259.01943367490111
 20
462.12208529424692
 30
0.0
 40
1.6000000000000001
 50
184.99999999999969
 51
241.82726586813479
  0
LINE
  5
5DD8
  8
AM_0N
 10
257.5328771302606
 20
464.0415736179786
 30
0.0
 11
257.5328771302606
 21
463.04157361797849
 31
0.0
  0
LINE
  5
5DD9
  8
AM_0N
 10
261.13287713026062
 20
463.04157361797849
 30
0.0
 11
260.76890689599441
 21
464.0415736179786
 31
0.0
  0
LINE
  5
5DDA
  8
AM_0N
 10
261.5328771302606
 20
463.04157361797849
 30
0.0
 11
261.1689068959945
 21
464.0415736179786
 31
0.0
  0
LINE
  5
5DDB
  8
AM_0N
 10
265.3328771302605
 20
463.04157361797849
 30
0.0
 11
257.3328771302605
 21
463.04157361797849
 31
0.0
  0
LINE
  5
5DDC
  8
AM_0N
 10
265.13287713026062
 20
463.04157361797849
 30
0.0
 11
265.13287713026062
 21
464.0415736179786
 31
0.0
  0
LINE
  5
5DDD
  8
AM_0
 10
169.33287713026101
 20
471.04157361797837
 30
0.0
 11
169.33287713026101
 21
503.0415736179782
 31
0.0
  0
LINE
  5
5DDE
  8
ﾁｭｳｼﾝｾﾝ1
 10
288.3328871302611
 20
648.04157361797832
 30
0.0
 11
308.33288713026087
 21
648.04157361797832
 31
0.0
  0
LINE
  5
5DDF
  8
ﾁｭｳｼﾝｾﾝ1
 10
298.33288713026087
 20
658.04157361797832
 30
0.0
 11
298.33288713026087
 21
638.04157361797832
 31
0.0
  0
LINE
  5
5DE0
  8
ﾁｭｳｼﾝｾﾝ1
 10
288.3328871302611
 20
518.0415736179782
 30
0.0
 11
308.33288713026087
 21
518.0415736179782
 31
0.0
  0
LINE
  5
5DE1
  8
ﾁｭｳｼﾝｾﾝ1
 10
298.33288713026087
 20
528.04157361797832
 30
0.0
 11
298.33288713026087
 21
508.04157361797837
 31
0.0
  0
LINE
  5
5DE2
  8
ﾁｭｳｼﾝｾﾝ1
 10
358.33288713026087
 20
518.0415736179782
 30
0.0
 11
378.33288713026087
 21
518.0415736179782
 31
0.0
  0
LINE
  5
5DE3
  8
ﾁｭｳｼﾝｾﾝ1
 10
368.33288713026087
 20
528.04157361797832
 30
0.0
 11
368.33288713026087
 21
508.04157361797837
 31
0.0
  0
ARC
  5
5DE4
  8
AM_0
 10
379.33286713026109
 20
612.42832861797831
 30
0.0
 40
2.00000007
 50
179.999989999999
 51
240.00001000000699
  0
ARC
  5
5DE5
  8
AM_0
 10
379.33286713026109
 20
553.65482161797831
 30
0.0
 40
2.00000007
 50
120.0000000000005
 51
180.00001000000091
  0
LINE
  5
5DE6
  8
AM_0
 10
383.33283713026083
 20
616.54157061797832
 30
0.0
 11
388.33283713026083
 21
611.54157061797855
 31
0.0
  0
LINE
  5
5DE7
  8
AM_0
 10
378.83283713026083
 20
616.54157061797832
 30
0.0
 11
383.33283713026083
 21
616.54157061797832
 31
0.0
  0
LINE
  5
5DE8
  8
AM_0
 10
378.33283713026083
 20
616.04157061797832
 30
0.0
 11
378.3328371302602
 21
550.04157061797866
 31
0.0
  0
LINE
  5
5DE9
  8
AM_0
 10
388.33283713026083
 20
611.54157061797855
 30
0.0
 11
388.33283713026083
 21
554.54157061797855
 31
0.0
  0
LINE
  5
5DEA
  8
AM_0
 10
378.83283713026083
 20
549.54157061797832
 30
0.0
 11
383.33283713026083
 21
549.54157061797832
 31
0.0
  0
LINE
  5
5DEB
  8
AM_0
 10
383.33283713026083
 20
549.54157061797832
 30
0.0
 11
388.33283713026083
 21
554.54157061797855
 31
0.0
  0
LINE
  5
5DEC
  8
AM_0
 10
378.83283713026083
 20
616.54157061797832
 30
0.0
 11
378.33283713026083
 21
616.04157061797832
 31
0.0
1001
GENIUS_GENFIL_13
1070
     0
1040
0.5
1040
0.5
1040
20.0
1040
0.0
1002
{
1002
}
1001
GENIUS_GENOBJ-N-CHA_13
1002
{
1000
OWNER
1000
GEN
1002
}
1001
GENIUS_GENODEF_13
1002
{
1000
HIER
1070
     0
1002
}
1002
{
1000
MANEDIT
1070
     0
1002
}
1002
{
1000
NOSEL
1070
     0
1002
}
1002
{
1000
BEHIND
1070
     0
1002
}
1002
{
1000
OTHER
1070
     0
1002
}
1002
{
1000
REACTOR
1002
}
  0
LINE
  5
5DED
  8
AM_0
 10
378.33283713026083
 20
550.04157061797832
 30
0.0
 11
378.83283713026083
 21
549.54157061797832
 31
0.0
1001
GENIUS_GENFIL_13
1070
     0
1040
0.5
1040
0.5
1040
20.0
1040
0.0
1002
{
1002
}
1001
GENIUS_GENOBJ-N-CHA_13
1002
{
1000
OWNER
1000
GEN
1002
}
1001
GENIUS_GENODEF_13
1002
{
1000
HIER
1070
     0
1002
}
1002
{
1000
MANEDIT
1070
     0
1002
}
1002
{
1000
NOSEL
1070
     0
1002
}
1002
{
1000
BEHIND
1070
     0
1002
}
1002
{
1000
OTHER
1070
     0
1002
}
1002
{
1000
REACTOR
1002
}
  0
LINE
  5
5DEE
  8
AM_0
 10
383.33283713026083
 20
616.54157061797832
 30
0.0
 11
383.33283713026083
 21
549.54157061797832
 31
0.0
  0
TEXT
  5
6011
  8
AM_0
 10
511.13121161233602
 20
583.86255484872186
 30
0.0
 40
10.0
  1
VX04-040MW~VX04-050MW
  0
ENDSEC
  0
EOF
