  0
SECTION
  2
HEADER
  9
$ACADVER
  1
AC1009
  9
$INSBASE
 10
0.0
 20
0.0
 30
0.0
  9
$EXTMIN
 10
92.765512654284748
 20
195.64468304086699
 30
-0.0015258207003583
  9
$EXTMAX
 10
726.8737124721215
 20
657.29464932608437
 30
0.0000000349246037
  9
$LIMMIN
 10
0.0
 20
0.0
  9
$LIMMAX
 10
853.5
 20
555.00000000000011
  9
$ORTHOMODE
 70
     0
  9
$REGENMODE
 70
     1
  9
$FILLMODE
 70
     1
  9
$QTEXTMODE
 70
     0
  9
$MIRRTEXT
 70
     1
  9
$DRAGMODE
 70
     2
  9
$LTSCALE
 40
3.0
  9
$OSMODE
 70
   551
  9
$ATTMODE
 70
     1
  9
$TEXTSIZE
 40
2.5
  9
$TRACEWID
 40
1.0
  9
$TEXTSTYLE
  7
STANDARD
  9
$CLAYER
  8
AM_0
  9
$CELTYPE
  6
BYLAYER
  9
$CECOLOR
 62
   256
  9
$DIMSCALE
 40
1.0
  9
$DIMASZ
 40
2.5
  9
$DIMEXO
 40
1.0
  9
$DIMDLI
 40
8.0
  9
$DIMRND
 40
0.0
  9
$DIMDLE
 40
0.0
  9
$DIMEXE
 40
0.6
  9
$DIMTP
 40
0.1
  9
$DIMTM
 40
0.1
  9
$DIMTXT
 40
2.5
  9
$DIMCEN
 40
0.0
  9
$DIMTSZ
 40
0.0
  9
$DIMTOL
 70
     0
  9
$DIMLIM
 70
     0
  9
$DIMTIH
 70
     0
  9
$DIMTOH
 70
     0
  9
$DIMSE1
 70
     0
  9
$DIMSE2
 70
     0
  9
$DIMTAD
 70
     1
  9
$DIMZIN
 70
     8
  9
$DIMBLK
  1

  9
$DIMASO
 70
     1
  9
$DIMSHO
 70
     1
  9
$DIMPOST
  1

  9
$DIMAPOST
  1
"
  9
$DIMALT
 70
     0
  9
$DIMALTD
 70
     2
  9
$DIMALTF
 40
0.0393701
  9
$DIMLFAC
 40
1.0
  9
$DIMTOFL
 70
     1
  9
$DIMTVP
 40
0.0
  9
$DIMTIX
 70
     0
  9
$DIMSOXD
 70
     0
  9
$DIMSAH
 70
     0
  9
$DIMBLK1
  1

  9
$DIMBLK2
  1

  9
$DIMSTYLE
  2
AM_ISO
  9
$DIMCLRD
 70
   256
  9
$DIMCLRE
 70
   256
  9
$DIMCLRT
 70
     4
  9
$DIMTFAC
 40
0.71
  9
$DIMGAP
 40
0.8
  9
$LUNITS
 70
     2
  9
$LUPREC
 70
     2
  9
$SKETCHINC
 40
1.0
  9
$FILLETRAD
 40
15.0
  9
$AUNITS
 70
     0
  9
$AUPREC
 70
     0
  9
$MENU
  1
.
  9
$ELEVATION
 40
0.0
  9
$PELEVATION
 40
0.0
  9
$THICKNESS
 40
0.0
  9
$LIMCHECK
 70
     0
  9
$BLIPMODE
 70
     0
  9
$CHAMFERA
 40
6.0
  9
$CHAMFERB
 40
3.0
  9
$SKPOLY
 70
     0
  9
$TDCREATE
 40
2452065.7887456599
  9
$TDUPDATE
 40
2458541.5998600228
  9
$TDINDWG
 40
0.1123059491
  9
$TDUSRTIMER
 40
0.1123059259
  9
$USRTIMER
 70
     1
  9
$ANGBASE
 50
0.0
  9
$ANGDIR
 70
     0
  9
$PDMODE
 70
     0
  9
$PDSIZE
 40
0.0
  9
$PLINEWID
 40
0.0
  9
$COORDS
 70
     1
  9
$SPLFRAME
 70
     0
  9
$SPLINETYPE
 70
     6
  9
$SPLINESEGS
 70
     8
  9
$ATTDIA
 70
     1
  9
$ATTREQ
 70
     1
  9
$HANDLING
 70
     1
  9
$HANDSEED
  5
743F
  9
$SURFTAB1
 70
     6
  9
$SURFTAB2
 70
     6
  9
$SURFTYPE
 70
     6
  9
$SURFU
 70
     6
  9
$SURFV
 70
     6
  9
$UCSNAME
  2

  9
$UCSORG
 10
0.0
 20
0.0
 30
0.0
  9
$UCSXDIR
 10
1.0
 20
0.0
 30
0.0
  9
$UCSYDIR
 10
0.0
 20
1.0
 30
0.0
  9
$PUCSNAME
  2

  9
$PUCSORG
 10
0.0
 20
0.0
 30
0.0
  9
$PUCSXDIR
 10
1.0
 20
0.0
 30
0.0
  9
$PUCSYDIR
 10
0.0
 20
1.0
 30
0.0
  9
$USERI1
 70
     0
  9
$USERI2
 70
     0
  9
$USERI3
 70
     0
  9
$USERI4
 70
     0
  9
$USERI5
 70
     0
  9
$USERR1
 40
0.0
  9
$USERR2
 40
0.0
  9
$USERR3
 40
0.0
  9
$USERR4
 40
0.0
  9
$USERR5
 40
0.0
  9
$WORLDVIEW
 70
     1
  9
$SHADEDGE
 70
     3
  9
$SHADEDIF
 70
    70
  9
$TILEMODE
 70
     1
  9
$MAXACTVP
 70
    64
  9
$PLIMCHECK
 70
     0
  9
$PEXTMIN
 10
1.0000000000000000E+020
 20
1.0000000000000000E+020
 30
1.0000000000000000E+020
  9
$PEXTMAX
 10
-1.0000000000000000E+020
 20
-1.0000000000000000E+020
 30
-1.0000000000000000E+020
  9
$PLIMMIN
 10
0.0
 20
0.0
  9
$PLIMMAX
 10
420.0
 20
297.0
  9
$UNITMODE
 70
     0
  9
$VISRETAIN
 70
     1
  9
$PLINEGEN
 70
     0
  9
$PSLTSCALE
 70
     1
  0
ENDSEC
  0
SECTION
  2
TABLES
  0
TABLE
  2
VPORT
 70
     1
  0
VPORT
  2
*ACTIVE
 70
     0
 10
0.0
 20
0.0
 11
1.0
 21
1.0
 12
409.81961256320318
 22
426.46966618347568
 13
0.0
 23
0.0
 14
7.5
 24
7.5
 15
30.0
 25
30.0
 16
0.0
 26
0.0
 36
1.0
 17
0.0
 27
0.0
 37
0.0
 40
464.8191880217293
 41
1.7571592210767459
 42
50.0
 43
0.0
 44
0.0
 50
0.0
 51
0.0
 71
     0
 72
   100
 73
     1
 74
     3
 75
     0
 76
     0
 77
     0
 78
     0
  0
ENDTAB
  0
TABLE
  2
LTYPE
 70
    27
  0
LTYPE
  2
CONTINUOUS
 70
     0
  3
Solid line
 72
    65
 73
     0
 40
0.0
  0
LTYPE
  2
AM_ISO02W050
 70
     0
  3
__ __ __ __ __ __ __ __ __ __ __ __ __ __ __
 72
    65
 73
     2
 40
7.5
 49
6.0
 49
-1.5
  0
LTYPE
  2
AM_ISO08W050
 70
     0
  3
____ . ____ . ____ . ____ . ____ . ____ . ____
 72
    65
 73
     4
 40
18.0
 49
12.0
 49
-1.5
 49
3.0
 49
-1.5
  0
LTYPE
  2
AM_ISO09W050
 70
     0
  3
_____ . . _____ . . _____ . . ____ .. ____
 72
    65
 73
     6
 40
22.5
 49
12.0
 49
-1.5
 49
3.0
 49
-1.5
 49
3.0
 49
-1.5
  0
LTYPE
  2
AMCONSTR
 70
     0
  3
_______________________
 72
    65
 73
     2
 40
9999.0
 49
9999.0
 49
0.0
  0
LTYPE
  2
AM_ISO08W050X2
 70
     0
  3
__ . __ . __ . __ . __ . __
 72
    65
 73
     4
 40
9.0
 49
6.0
 49
-0.75
 49
1.5
 49
-0.75
  0
LTYPE
  2
AM_ISO02W050X2
 70
     0
  3
 _ _ _ _ _ _ _ _ _ _ _ _
 72
    65
 73
     2
 40
3.75
 49
3.0
 49
-0.75
  0
LTYPE
  2
AMZIGZAG
 70
     0
  3
/\/-/\/-/\/-/\/-/\/-/\/
 72
    65
 73
     2
 40
11.0001
 49
0.0001
 49
-11.0
  0
LTYPE
  2
ACISOWELD
 70
     0
  3
_ _ _ _ _
 72
    65
 73
     2
 40
2.0
 49
2.0
 49
-1.0
  0
LTYPE
  2
ACISOTGB
 70
     0
  3
__ . . __ . .
 72
    65
 73
     6
 40
9.0
 49
4.0
 49
-1.0
 49
1.0
 49
-1.0
 49
1.0
 49
-1.0
  0
LTYPE
  2
ACISOTGL
 70
     0
  3
_ _ _ _ _
 72
    65
 73
     2
 40
3.0
 49
2.0
 49
-1.0
  0
LTYPE
  2
CENTER
 70
     0
  3
__ . __
 72
    65
 73
     4
 40
7.0
 49
4.0
 49
-1.0
 49
1.0
 49
-1.0
  0
LTYPE
  2
HIDDEN
 70
     0
  3
Hidden __ __ __ __ __ __ __ __ __ __ __ __ __ _
 72
    65
 73
     2
 40
9.5249999999999986
 49
6.3499999999999979
 49
-3.174999999999998
  0
LTYPE
  2
PHANTOM2
 70
     0
  3
Phantom (.5x) ___ _ _ ___ _ _ ___ _ _ ___ _ _
 72
    65
 73
     6
 40
31.75
 49
15.875
 49
-3.174999999999998
 49
3.174999999999998
 49
-3.174999999999998
 49
3.174999999999998
 49
-3.174999999999998
  0
LTYPE
  2
ACANSTGBM
 70
     0
  3
__ . . __ . .
 72
    65
 73
     6
 40
9.0
 49
4.0
 49
-1.0
 49
1.0
 49
-1.0
 49
1.0
 49
-1.0
  0
LTYPE
  2
ACANSTGLM
 70
     0
  3
_ _ _ _ _
 72
    65
 73
     2
 40
3.0
 49
2.0
 49
-1.0
  0
LTYPE
  2
GEN7
 70
     0
  3
____ . ____ . ____ . ____ . ____ . ____ . ____
 72
    65
 73
     4
 40
14.25
 49
9.75
 49
-1.5
 49
1.5
 49
-1.5
  0
LTYPE
  2
GEN3B
 70
     0
  3
 - - - - -
 72
    65
 73
     2
 40
1.0
 49
0.5
 49
-0.5
  0
LTYPE
  2
GEN7A
 70
     0
  3
__ . __ . __
 72
    65
 73
     4
 40
7.375
 49
4.75
 49
-0.875
 49
0.875
 49
-0.875
  0
LTYPE
  2
ACJISTGB
 70
     0
  3
__ . . __ . .
 72
    65
 73
     6
 40
9.0
 49
4.0
 49
-1.0
 49
1.0
 49
-1.0
 49
1.0
 49
-1.0
  0
LTYPE
  2
ACJISTGL
 70
     0
  3
_ _ _ _ _
 72
    65
 73
     2
 40
3.0
 49
2.0
 49
-1.0
  0
LTYPE
  2
CENTER2
 70
     0
  3
Center (.5x) ___ _ ___ _ ___ _ ___ _ ___ _ ___
 72
    65
 73
     4
 40
1.125
 49
0.75
 49
-0.125
 49
0.125
 49
-0.125
  0
LTYPE
  2
HIDDEN2
 70
     0
  3
Hidden (.5x) _ _ _ _ _ _ _ _ _ _ _ _ _ _ _ _ _
 72
    65
 73
     2
 40
0.1875
 49
0.125
 49
-0.0625
  0
LTYPE
  2
AMZIGZAG2
 70
     0
  3
/\/-/\/-/\/-/\/-/\/-/\/
 72
    65
 73
     2
 40
0.4401
 49
0.0001
 49
-0.4400000000000001
  0
LTYPE
  2
ACANSTGB
 70
     0
  3
__ . . __ . .
 72
    65
 73
     6
 40
0.35433070866
 49
0.15748031496
 49
-0.03937007874
 49
0.03937007874
 49
-0.03937007874
 49
0.03937007874
 49
-0.03937007874
  0
LTYPE
  2
ACANSTGL
 70
     0
  3
_ _ _ _ _
 72
    65
 73
     2
 40
0.11811023622
 49
0.07874015748
 49
-0.03937007874
  0
ENDTAB
  0
TABLE
  2
LAYER
 70
     8
  0
LAYER
  2
0
 70
     0
 62
     7
  6
CONTINUOUS
  0
LAYER
  2
AM_0
 70
     0
 62
     7
  6
CONTINUOUS
  0
LAYER
  2
AM_5
 70
     0
 62
     2
  6
CONTINUOUS
  0
LAYER
  2
DEFPOINTS
 70
     0
 62
     7
  6
CONTINUOUS
  0
LAYER
  2
ｶｸﾚｾﾝ2
 70
     0
 62
     3
  6
GEN3B
  0
LAYER
  2
ﾁｭｳｼﾝｾﾝ
 70
     0
 62
     1
  6
GEN7
  0
LAYER
  2
ﾁｭｳｼﾝｾﾝ1
 70
     0
 62
     1
  6
GEN7A
  0
LAYER
  2
AM_0N
 70
     0
 62
     7
  6
CONTINUOUS
  0
ENDTAB
  0
TABLE
  2
STYLE
 70
    10
  0
STYLE
  2
STANDARD
 70
     0
 40
0.0
 41
0.8299999999999999
 50
0.0
 71
     0
 42
2.5
  3
txt.shx
  4
bigfont.shx
  0
STYLE
  2
ANNOTATIVE
 70
     0
 40
0.0
 41
1.0
 50
0.0
 71
     0
 42
0.2
  3
txt
  4

  0
STYLE
  2

 70
     1
 40
0.0
 41
1.0
 50
0.0
 71
     0
 42
2.5
  3
ltypeshp.shx
  4

  0
STYLE
  2
ACISOTS
 70
     0
 40
1.0
 41
1.0
 50
0.0
 71
     0
 42
2.5
  3
isocp.shx
  4
extfont.shx
  0
STYLE
  2
ACISOGDT
 70
     0
 40
0.0
 41
1.0
 50
0.0
 71
     0
 42
2.5
  3
amgdt.shx
  4

  0
STYLE
  2
ACANSTS
 70
     0
 40
1.0
 41
1.0
 50
0.0
 71
     0
 42
2.5
  3
romans.shx
  4
bigfont.shx
  0
STYLE
  2
ACANSGDT
 70
     0
 40
0.0
 41
1.0
 50
0.0
 71
     0
 42
2.5
  3
amgdt.shx
  4

  0
STYLE
  2
ACJISTS
 70
     0
 40
1.0
 41
1.0
 50
0.0
 71
     0
 42
2.5
  3
isocp.shx
  4
bigfont.shx
  0
STYLE
  2
ACJISGDT
 70
     0
 40
0.0
 41
1.0
 50
0.0
 71
     0
 42
2.5
  3
amgdt.shx
  4

  0
STYLE
  2

 70
     1
 40
0.0
 41
1.0
 50
0.0
 71
     0
 42
2.5
  3
genltshp.shx
  4

  0
ENDTAB
  0
TABLE
  2
VIEW
 70
     6
  0
VIEW
  2
AM_VIEW1
 70
     0
 40
277.50000000000011
 10
249.64779005524869
 20
416.25
 41
499.29558011049721
 11
0.0
 21
0.0
 31
1.0
 12
0.0
 22
0.0
 32
0.0
 42
50.0
 43
0.0
 44
0.0
 50
0.0
 71
     0
  0
VIEW
  2
AM_VIEW2
 70
     0
 40
277.50000000000011
 10
603.85220994475117
 20
416.25
 41
499.29558011049721
 11
0.0
 21
0.0
 31
1.0
 12
0.0
 22
0.0
 32
0.0
 42
50.0
 43
0.0
 44
0.0
 50
0.0
 71
     0
  0
VIEW
  2
AM_VIEW3
 70
     0
 40
277.50000000000011
 10
249.64779005524869
 20
138.75
 41
499.29558011049721
 11
0.0
 21
0.0
 31
1.0
 12
0.0
 22
0.0
 32
0.0
 42
50.0
 43
0.0
 44
0.0
 50
0.0
 71
     0
  0
VIEW
  2
AM_VIEW4
 70
     0
 40
277.50000000000011
 10
603.85220994475117
 20
138.75
 41
499.29558011049721
 11
0.0
 21
0.0
 31
1.0
 12
0.0
 22
0.0
 32
0.0
 42
50.0
 43
0.0
 44
0.0
 50
0.0
 71
     0
  0
VIEW
  2
AM_VIEW5
 70
     0
 40
277.50000000000011
 10
426.75
 20
277.50000000000011
 41
499.2955801104971
 11
0.0
 21
0.0
 31
1.0
 12
0.0
 22
0.0
 32
0.0
 42
50.0
 43
0.0
 44
0.0
 50
0.0
 71
     0
  0
VIEW
  2
AM_VIEW6
 70
     0
 40
554.99445000000014
 10
426.75
 20
277.5
 41
998.5811743093924
 11
0.0
 21
0.0
 31
1.0
 12
0.0
 22
0.0
 32
0.0
 42
50.0
 43
0.0
 44
0.0
 50
0.0
 71
     0
  0
ENDTAB
  0
TABLE
  2
UCS
 70
     0
  0
ENDTAB
  0
TABLE
  2
APPID
 70
    98
  0
APPID
  2
ACAD
 70
     0
  0
APPID
  2
ACADANNOTATIVE
 70
     0
  0
APPID
  2
MCAD_NO_VIS
 70
     0
  0
APPID
  2
ACAD_TEMP_GRAPHIC
 70
     0
  0
APPID
  2
ACATTRIBSERVICES
 70
     0
  0
APPID
  2
GENIUS_GENREC_14
 70
     0
  0
APPID
  2
GENIUS_GENOBJ-N-REC_13
 70
     0
  0
APPID
  2
GENIUS_GENODEF_13
 70
     0
  0
APPID
  2
GENIUS_GENOLIS_13
 70
     0
  0
APPID
  2
GENIUS_GENOBJ-N-TIT_13
 70
     0
  0
APPID
  2
GENIUS_GENOENT_13
 70
     0
  0
APPID
  2
GENIUS_GENTITLE_13
 70
     0
  0
APPID
  2
GENIUS_GENOREF_13
 70
     0
  0
APPID
  2
GENIUS_GENSCREG_15
 70
     0
  0
APPID
  2
GENIUS_GENOBJ-N-SDF_13
 70
     0
  0
APPID
  2
GENIUS_GENFIL_13
 70
     0
  0
APPID
  2
GENIUS_GENOBJ-N-CHA_13
 70
     0
  0
APPID
  2
GENIUS_GENDTOL_13
 70
     0
  0
APPID
  2
GENIUS_GENOBJ-N-FIL_13
 70
     0
  0
APPID
  2
AD_DRAW
 70
     0
  0
APPID
  2
DESIGNERASSEMBLIES
 70
     0
  0
APPID
  2
ASURF_PCURVE_APPNAME
 70
     0
  0
APPID
  2
GENIUS_GE3SECT_13
 70
     0
  0
APPID
  2
GENIUS_GENCFG_13
 70
     0
  0
APPID
  2
GENIUS_GE3CFG0_13
 70
     0
  0
APPID
  2
GENIUS_GENCFG0_13
 70
     0
  0
APPID
  2
GENIUS_GENCFG1_13
 70
     0
  0
APPID
  2
GENIUS_GENCFG2_13
 70
     0
  0
APPID
  2
GENIUS_GENCFG3_13
 70
     0
  0
APPID
  2
GENIUS_GENCFG4_13
 70
     0
  0
APPID
  2
GENIUS_GEVCFG0_13
 70
     0
  0
APPID
  2
GENIUS_GENHINW_13
 70
     0
  0
APPID
  2
GENIUS_FIRSTVISTXT_14
 70
     0
  0
APPID
  2
GENIUS_GENOBJ-N-LEADER_13
 70
     0
  0
APPID
  2
GEV_VCCNULL_SWITCH_OFF
 70
     0
  0
APPID
  2
GENIUS_GEFCFG0_13
 70
     0
  0
APPID
  2
GENIUS_GENZVEED_13
 70
     0
  0
APPID
  2
GENIUS_GENSCREG_13
 70
     0
  0
APPID
  2
GENIUS_DUMCFG0_13
 70
     0
  0
APPID
  2
GEVID936201362
 70
     0
  0
APPID
  2
GEVDC
 70
     0
  0
APPID
  2
GEVCON
 70
     0
  0
APPID
  2
VCC
 70
     0
  0
APPID
  2
GEVPT
 70
     0
  0
APPID
  2
GEVIT
 70
     0
  0
APPID
  2
GENBH
 70
     0
  0
APPID
  2
GEVMK
 70
     0
  0
APPID
  2
GENIUS_GENBH_13
 70
     0
  0
APPID
  2
GENIUS_GENOBJ-NBEHI-BHF_13
 70
     0
  0
APPID
  2
GENIUS_GENOBJ-NBEHI-BHB_13
 70
     0
  0
APPID
  2
GENIUS_GENOBJ-F-DESC_13
 70
     0
  0
APPID
  2
GENIUS_GEFDESC_14
 70
     0
  0
APPID
  2
GENIUS_GENOBJ-F-PART_13
 70
     0
  0
APPID
  2
GENIUS_GEFSTDP_13
 70
     0
  0
APPID
  2
GENIUS_GEFPARTINS_13
 70
     0
  0
APPID
  2
GENIUS_GENTRA_14
 70
     0
  0
APPID
  2
GENIUS_GENINF13_13
 70
     0
  0
APPID
  2
GENIUS_GENOBJ-N-INFOPT_13
 70
     0
  0
APPID
  2
GENIUS_GENOBJ-N-RSSYM_13
 70
     0
  0
APPID
  2
GENIUS_GENSYMENT_13
 70
     0
  0
APPID
  2
GENIUS_GENSCSYM_13
 70
     0
  0
APPID
  2
GENIUS_GEFINFNAM_13
 70
     0
  0
APPID
  2
GENIUS_GENOBJ-N-CEN_13
 70
     0
  0
APPID
  2
GENIUS_GENOBJ-N-CRS_13
 70
     0
  0
APPID
  2
GENIUS_GENOBJ-N-CRC_13
 70
     0
  0
APPID
  2
GENIUS_GENCRC_14
 70
     0
  0
APPID
  2
GEVID942827039
 70
     0
  0
APPID
  2
GEVID942827040
 70
     0
  0
APPID
  2
GEVID942827041
 70
     0
  0
APPID
  2
GENIUS_GENOBJ-F-SCPASSM_13
 70
     0
  0
APPID
  2
GENIUS_GENDIMSH_14
 70
     0
  0
APPID
  2
GEVID942827042
 70
     0
  0
APPID
  2
GEVID946020473
 70
     0
  0
APPID
  2
GEVID946020474
 70
     0
  0
APPID
  2
GEVID946020475
 70
     0
  0
APPID
  2
GENIUS_GENOBJ-N-HTC_13
 70
     0
  0
APPID
  2
GENIUS_GENHATCH_13
 70
     0
  0
APPID
  2
GEVID948854295
 70
     0
  0
APPID
  2
GEVID939402019
 70
     0
  0
APPID
  2
GEVID952919491
 70
     0
  0
APPID
  2
GEVID952919492
 70
     0
  0
APPID
  2
GENIUS_GEFWELD_13
 70
     0
  0
APPID
  2
GENIUS_GENOBJ-F-WELS_13
 70
     0
  0
APPID
  2
GEVID952919493
 70
     0
  0
APPID
  2
GENIUS_GENOBJ-N-RSBK_13
 70
     0
  0
APPID
  2
GENIUS_GENOBJ-N-LIB_13
 70
     0
  0
APPID
  2
GENIUS_GENSCALE_13
 70
     0
  0
APPID
  2
GEVID986376691
 70
     0
  0
APPID
  2
DCO15
 70
     0
  0
APPID
  2
ACADM_DIM_EDIT
 70
     0
  0
APPID
  2
AMDT_DM_ADJ
 70
     0
  0
APPID
  2
ACAD_PSEXT
 70
     0
  0
APPID
  2
ACAD_DSTYLE_DIMJAG
 70
     0
  0
APPID
  2
ACAD_DSTYLE_DIMBREAK
 70
     0
  0
APPID
  2
ACAD_NAV_VCDISPLAY
 70
     0
  0
APPID
  2
ACADANNOPO
 70
     0
  0
APPID
  2
ACAD_EXEMPT_FROM_CAD_STANDARDS
 70
     0
  0
APPID
  2
ACAD_MLEADERVER
 70
     0
  0
ENDTAB
  0
TABLE
  2
DIMSTYLE
 70
    22
  0
DIMSTYLE
  2
STANDARD
 70
     0
  3

  4

  5

  6

  7

 40
1.0
 41
0.18
 42
0.0625
 43
0.38
 44
0.18
 45
0.0
 46
0.0
 47
0.0
 48
0.0
140
0.18
141
0.09
142
0.0
143
25.399999999999999
144
1.0
145
0.0
146
1.0
147
0.09
 71
     0
 72
     0
 73
     1
 74
     1
 75
     0
 76
     0
 77
     0
 78
     0
170
     0
171
     2
172
     0
173
     0
174
     0
175
     0
176
     0
177
     0
178
     0
  0
DIMSTYLE
  2
ANNOTATIVE
 70
     0
  3

  4

  5

  6

  7

 40
1.0
 41
0.18
 42
0.0625
 43
0.38
 44
0.18
 45
0.0
 46
0.0
 47
0.0
 48
0.0
140
0.18
141
0.09
142
0.0
143
25.399999999999999
144
1.0
145
0.0
146
1.0
147
0.09
 71
     0
 72
     0
 73
     1
 74
     1
 75
     0
 76
     0
 77
     0
 78
     0
170
     0
171
     2
172
     0
173
     0
174
     0
175
     0
176
     0
177
     0
178
     0
  0
DIMSTYLE
  2
AM_ISO
 70
     0
  3

  4
"
  5

  6

  7

 40
1.0
 41
2.5
 42
1.0
 43
8.0
 44
0.6
 45
0.0
 46
0.0
 47
0.1
 48
0.1
140
2.5
141
0.0
142
0.0
143
0.0393701
144
1.0
145
0.0
146
0.71
147
0.8
 71
     0
 72
     0
 73
     0
 74
     0
 75
     0
 76
     0
 77
     1
 78
     8
170
     0
171
     2
172
     1
173
     0
174
     0
175
     0
176
   256
177
   256
178
     4
  0
DIMSTYLE
  2
AM_ISO$3
 70
     0
  3

  4
"
  5

  6

  7

 40
1.0
 41
2.5
 42
1.0
 43
8.0
 44
0.6
 45
0.0
 46
0.0
 47
0.1
 48
0.1
140
2.5
141
0.0
142
0.0
143
0.0393701
144
1.0
145
0.0
146
0.71
147
0.8
 71
     0
 72
     0
 73
     0
 74
     1
 75
     0
 76
     0
 77
     1
 78
     8
170
     0
171
     2
172
     0
173
     0
174
     0
175
     0
176
   256
177
   256
178
     4
  0
DIMSTYLE
  2
AM_ISO$4
 70
     0
  3

  4
"
  5

  6

  7

 40
1.0
 41
2.5
 42
1.0
 43
8.0
 44
0.6
 45
0.0
 46
0.0
 47
0.1
 48
0.1
140
2.5
141
0.0
142
0.0
143
0.0393701
144
1.0
145
0.0
146
0.71
147
0.8
 71
     0
 72
     0
 73
     0
 74
     1
 75
     0
 76
     0
 77
     1
 78
     8
170
     0
171
     2
172
     0
173
     0
174
     0
175
     0
176
   256
177
   256
178
     4
  0
DIMSTYLE
  2
AM_ISO$6
 70
     0
  3

  4
"
  5

  6

  7

 40
1.0
 41
2.5
 42
1.0
 43
8.0
 44
0.6
 45
0.0
 46
0.0
 47
0.1
 48
0.1
140
2.5
141
0.0
142
0.0
143
0.0393701
144
1.0
145
0.0
146
0.71
147
0.8
 71
     0
 72
     0
 73
     0
 74
     0
 75
     0
 76
     0
 77
     0
 78
     8
170
     0
171
     2
172
     1
173
     0
174
     0
175
     0
176
   256
177
   256
178
     4
  0
DIMSTYLE
  2
AM_ISO$7
 70
     0
  3

  4
"
  5

  6

  7

 40
1.0
 41
2.5
 42
1.0
 43
8.0
 44
0.6
 45
0.0
 46
0.0
 47
0.1
 48
0.1
140
2.5
141
0.0
142
0.0
143
0.0393701
144
1.0
145
0.0
146
0.71
147
0.8
 71
     0
 72
     0
 73
     0
 74
     0
 75
     0
 76
     0
 77
     1
 78
     8
170
     0
171
     2
172
     1
173
     0
174
     0
175
     0
176
   256
177
   256
178
     4
  0
DIMSTYLE
  2
AM_ISO$SF
 70
     0
  3

  4
"
  5

  6

  7

 40
1.0
 41
2.5
 42
1.0
 43
10.0
 44
1.0
 45
0.0
 46
0.0
 47
0.1
 48
0.1
140
3.5
141
0.0
142
0.0
143
0.0393701
144
1.0
145
0.0
146
0.71
147
1.5
 71
     0
 72
     0
 73
     0
 74
     0
 75
     1
 76
     1
 77
     1
 78
     8
170
     0
171
     2
172
     1
173
     0
174
     0
175
     0
176
   256
177
   256
178
     2
  0
DIMSTYLE
  2
AM_ISO$SH
 70
     0
  3

  4
"
  5

  6

  7

 40
1.0
 41
2.5
 42
1.0
 43
10.0
 44
1.0
 45
0.0
 46
0.0
 47
0.1
 48
0.1
140
3.5
141
0.0
142
0.0
143
0.0393701
144
2.0
145
0.0
146
0.71
147
1.5
 71
     0
 72
     0
 73
     0
 74
     0
 75
     1
 76
     1
 77
     1
 78
     8
170
     0
171
     2
172
     1
173
     1
174
     0
175
     0
176
   256
177
   256
178
     2
  0
DIMSTYLE
  2
AM_JIS
 70
     0
  3

  4
"
  5

  6

  7

 40
1.0
 41
2.5
 42
1.0
 43
7.0
 44
1.0
 45
0.0
 46
0.0
 47
0.1
 48
0.1000000001
140
2.5
141
0.0
142
0.0
143
0.0393701
144
1.0
145
0.0
146
0.71
147
1.0
 71
     0
 72
     0
 73
     0
 74
     0
 75
     0
 76
     0
 77
     3
 78
     8
170
     0
171
     2
172
     1
173
     0
174
     0
175
     0
176
   256
177
   256
178
     4
  0
DIMSTYLE
  2
AM_JIS$3
 70
     0
  3

  4
"
  5

  6

  7

 40
1.0
 41
2.5
 42
1.0
 43
7.0
 44
1.0
 45
0.0
 46
0.0
 47
0.1
 48
0.1000000001
140
2.5
141
0.0
142
0.0
143
0.0393701
144
1.0
145
0.0
146
0.71
147
1.0
 71
     0
 72
     0
 73
     0
 74
     1
 75
     0
 76
     0
 77
     3
 78
     8
170
     0
171
     2
172
     0
173
     0
174
     0
175
     0
176
   256
177
   256
178
     4
  0
DIMSTYLE
  2
AM_JIS$4
 70
     0
  3

  4
"
  5

  6

  7

 40
1.0
 41
2.5
 42
1.0
 43
7.0
 44
1.0
 45
0.0
 46
0.0
 47
0.1
 48
0.1000000001
140
2.5
141
0.0
142
0.0
143
0.0393701
144
1.0
145
0.0
146
0.71
147
1.0
 71
     0
 72
     0
 73
     0
 74
     0
 75
     0
 76
     0
 77
     3
 78
     8
170
     0
171
     2
172
     0
173
     0
174
     0
175
     0
176
   256
177
   256
178
     4
  0
DIMSTYLE
  2
AM_JIS$6
 70
     0
  3

  4
"
  5

  6

  7

 40
1.0
 41
2.5
 42
1.0
 43
7.0
 44
1.0
 45
0.0
 46
0.0
 47
0.1
 48
0.1000000001
140
2.5
141
0.0
142
0.0
143
0.0393701
144
1.0
145
0.0
146
0.71
147
1.0
 71
     0
 72
     0
 73
     0
 74
     0
 75
     0
 76
     0
 77
     0
 78
     8
170
     0
171
     2
172
     1
173
     0
174
     0
175
     0
176
   256
177
   256
178
     4
  0
DIMSTYLE
  2
AM_JIS$7
 70
     0
  3

  4
"
  5

  6

  7

 40
1.0
 41
2.5
 42
1.0
 43
7.0
 44
1.0
 45
0.0
 46
0.0
 47
0.1
 48
0.1000000001
140
2.5
141
0.0
142
0.0
143
0.0393701
144
1.0
145
0.0
146
0.71
147
1.0
 71
     0
 72
     0
 73
     0
 74
     0
 75
     0
 76
     0
 77
     3
 78
     8
170
     0
171
     2
172
     1
173
     0
174
     0
175
     0
176
   256
177
   256
178
     4
  0
DIMSTYLE
  2
AM_JIS$SF
 70
     0
  3

  4
"
  5

  6

  7

 40
1.0
 41
2.5
 42
1.0
 43
10.0
 44
1.0
 45
0.0
 46
0.0
 47
0.1
 48
0.1
140
3.5
141
0.0
142
0.0
143
0.0393701
144
1.0
145
0.0
146
0.71
147
1.5
 71
     0
 72
     0
 73
     0
 74
     0
 75
     1
 76
     1
 77
     3
 78
     8
170
     0
171
     2
172
     1
173
     0
174
     0
175
     0
176
   256
177
   256
178
     4
  0
DIMSTYLE
  2
AM_JIS$SH
 70
     0
  3

  4
"
  5

  6

  7

 40
1.0
 41
2.5
 42
1.0
 43
10.0
 44
1.0
 45
0.0
 46
0.0
 47
0.1
 48
0.1
140
3.5
141
0.0
142
0.0
143
0.0393701
144
1.0
145
0.0
146
0.71
147
1.5
 71
     0
 72
     0
 73
     0
 74
     0
 75
     1
 76
     0
 77
     3
 78
     8
170
     0
171
     2
172
     1
173
     1
174
     0
175
     0
176
   256
177
   256
178
     4
  0
DIMSTYLE
  2
AM_ANSI
 70
     0
  3

  4
mm
  5

  6

  7

 40
1.0
 41
0.12
 42
0.05
 43
0.5
 44
0.1
 45
0.0
 46
0.0
 47
0.1
 48
0.1
140
0.12
141
0.0
142
0.0
143
25.399999999999999
144
1.0
145
0.0
146
0.71
147
0.06
 71
     0
 72
     0
 73
     1
 74
     1
 75
     0
 76
     0
 77
     0
 78
     7
170
     0
171
     2
172
     0
173
     0
174
     0
175
     0
176
   256
177
   256
178
     2
  0
DIMSTYLE
  2
AM_ANSI$3
 70
     0
  3

  4
mm
  5

  6

  7

 40
1.0
 41
0.12
 42
0.05
 43
0.5
 44
0.1
 45
0.0
 46
0.0
 47
0.1
 48
0.1
140
0.12
141
0.0
142
0.0
143
25.399999999999999
144
1.0
145
0.0
146
0.71
147
0.06
 71
     0
 72
     0
 73
     1
 74
     1
 75
     0
 76
     0
 77
     0
 78
     7
170
     0
171
     2
172
     0
173
     0
174
     0
175
     0
176
   256
177
   256
178
     2
  0
DIMSTYLE
  2
AM_ANSI$4
 70
     0
  3

  4
mm
  5

  6

  7

 40
1.0
 41
0.12
 42
0.05
 43
0.5
 44
0.1
 45
0.0
 46
0.0
 47
0.1
 48
0.1
140
0.12
141
0.0
142
0.0
143
25.399999999999999
144
1.0
145
0.0
146
0.71
147
0.06
 71
     0
 72
     0
 73
     1
 74
     1
 75
     0
 76
     0
 77
     0
 78
     7
170
     0
171
     2
172
     0
173
     0
174
     0
175
     0
176
   256
177
   256
178
     2
  0
DIMSTYLE
  2
AM_ANSI$7
 70
     0
  3

  4
mm
  5

  6

  7

 40
1.0
 41
0.12
 42
0.05
 43
0.5
 44
0.1
 45
0.0
 46
0.0
 47
0.1
 48
0.1
140
0.12
141
0.0
142
0.0
143
25.399999999999999
144
1.0
145
0.0
146
0.71
147
0.06
 71
     0
 72
     0
 73
     1
 74
     1
 75
     0
 76
     0
 77
     0
 78
     7
170
     0
171
     2
172
     0
173
     0
174
     0
175
     0
176
   256
177
   256
178
     2
  0
DIMSTYLE
  2
AM_ANSI$SF
 70
     0
  3

  4
mm
  5

  6

  7

 40
1.0
 41
0.12
 42
0.05
 43
0.5
 44
0.1
 45
0.0
 46
0.0
 47
0.1
 48
0.1
140
0.12
141
0.0
142
0.0
143
25.399999999999999
144
1.0
145
0.0
146
0.71
147
0.06
 71
     0
 72
     0
 73
     1
 74
     1
 75
     1
 76
     1
 77
     0
 78
     7
170
     0
171
     2
172
     0
173
     0
174
     0
175
     0
176
   256
177
   256
178
     2
  0
DIMSTYLE
  2
AM_ANSI$SH
 70
     0
  3

  4
mm
  5

  6
GENAXEH
  7

 40
1.0
 41
0.12
 42
0.05
 43
0.5
 44
0.1
 45
0.0
 46
0.0
 47
0.1
 48
0.1
140
0.12
141
0.0
142
0.0
143
25.399999999999999
144
1.0
145
0.0
146
0.71
147
0.06
 71
     0
 72
     0
 73
     1
 74
     1
 75
     1
 76
     1
 77
     0
 78
     7
170
     0
171
     2
172
     0
173
     1
174
     0
175
     0
176
   256
177
   256
178
     2
  0
ENDTAB
  0
ENDSEC
  0
SECTION
  2
BLOCKS
  0
BLOCK
  8
0
  2
$MODEL_SPACE
 70
     0
 10
0.0
 20
0.0
 30
0.0
  3
$MODEL_SPACE
  1

  0
ENDBLK
  5
72B9
  8
0
  0
BLOCK
 67
     1
  8
0
  2
$PAPER_SPACE
 70
     0
 10
0.0
 20
0.0
 30
0.0
  3
$PAPER_SPACE
  1

  0
ENDBLK
  5
72B5
 67
     1
  8
0
  0
BLOCK
  8
0
  2
GENAXEH
 70
     0
 10
0.0
 20
0.0
 30
0.0
  3
GENAXEH
  1

  0
LINE
  5
73
  8
0
 10
-1.0
 20
0.0
 30
0.0
 11
1.0
 21
0.0
 31
0.0
  0
ENDBLK
  5
75
  8
0
  0
BLOCK
  8
0
  2
_OPEN30
 70
     0
 10
0.0
 20
0.0
 30
0.0
  3
_OPEN30
  1

  0
LINE
  5
31A
  8
0
 62
     0
 10
-1.0
 20
0.26794919
 30
0.0
 11
0.0
 21
0.0
 31
0.0
  0
LINE
  5
31B
  8
0
 62
     0
 10
0.0
 20
0.0
 30
0.0
 11
-1.0
 21
-0.26794919
 31
0.0
  0
LINE
  5
31C
  8
0
 62
     0
 10
0.0
 20
0.0
 30
0.0
 11
-1.0
 21
0.0
 31
0.0
  0
ENDBLK
  5
31E
  8
0
  0
BLOCK
  8
0
  2
_NONE
 70
     0
 10
0.0
 20
0.0
 30
0.0
  3
_NONE
  1

  0
ENDBLK
  5
579
  8
0
  0
BLOCK
  8
0
  2
*U5
 70
     1
 10
0.0
 20
0.0
 30
0.0
  3
*U5
  1

  0
TEXT
  5
7246
  8
AM_0
 10
557.00410534897969
 20
560.83902679418122
 30
0.0
 40
10.0
  1
ＶＸ０４－０６０～１００ＭＷ
 41
0.8299999999999999
  0
ENDBLK
  5
7248
  8
0
  0
BLOCK
  8
0
  2
_ACMFILLEDHALF
 70
     0
 10
0.0
 20
0.0
 30
0.0
  3
_ACMFILLEDHALF
  1

  0
TRACE
  5
73B9
  8
AM_0
 62
     0
 10
-0.8
 20
0.0
 30
0.0
 11
-1.0
 21
0.166666666
 31
0.0
 12
0.0
 22
0.0
 32
0.0
 13
0.0
 23
0.0
 33
0.0
  0
LINE
  5
73BA
  8
AM_0
 62
     0
 10
-1.0
 20
0.0
 30
0.0
 11
-0.8
 21
0.0
 31
0.0
  0
ENDBLK
  5
73B8
  8
0
  0
ENDSEC
  0
SECTION
  2
ENTITIES
  0
LINE
  5
19B2
  8
AM_0
 10
149.58012885008509
 20
236.65253559778321
 30
0.0
 11
114.580118850085
 21
238.68253659778321
 31
0.0
  0
LINE
  5
19B3
  8
AM_0
 10
149.58012885008509
 20
329.35254459778332
 30
0.0
 11
114.580118850085
 21
327.32253459778332
 31
0.0
  0
LINE
  5
19B4
  8
AM_0
 10
101.860148850085
 20
235.3625445977832
 30
0.0
 11
104.5801288500852
 21
235.3625445977832
 31
0.0
  0
LINE
  5
19B5
  8
AM_0
 10
101.35014885008511
 20
233.39255859778319
 30
0.0
 11
100.0801288500852
 21
234.1225515977832
 31
0.0
  0
LINE
  5
19B6
  8
AM_0
 10
104.5801288500852
 20
225.57253359778321
 30
0.0
 11
107.400128850085
 21
225.5025255977832
 31
0.0
  0
LINE
  5
19B7
  8
AM_0
 10
101.33013885008489
 20
240.04255059778319
 30
0.0
 11
100.0301488500852
 21
240.89252559778319
 31
0.0
  0
LINE
  5
19B8
  8
AM_0
 10
101.34012885008519
 20
235.50255759778321
 30
0.0
 11
100.060118850085
 21
236.27256159778321
 31
0.0
  0
LINE
  5
19B9
  8
AM_0
 10
101.85015885008509
 20
233.2525275977832
 30
0.0
 11
104.08017885008501
 21
233.2525275977832
 31
0.0
  0
LINE
  5
19BA
  8
AM_0
 10
101.8201288500852
 20
234.40253559778321
 30
0.0
 11
104.08017885008501
 21
234.40253559778321
 31
0.0
  0
LINE
  5
19BB
  8
AM_0
 10
101.3701588500851
 20
234.5125365977832
 30
0.0
 11
100.13010885008489
 21
235.1425425977832
 31
0.0
  0
LINE
  5
19BC
  8
AM_0
 10
101.85015885008509
 20
241.0225305977832
 30
0.0
 11
103.58013885008489
 21
241.0225305977832
 31
0.0
  0
LINE
  5
19BD
  8
AM_0
 10
101.88018885008501
 20
239.8825155977832
 30
0.0
 11
104.5801288500852
 21
239.8825155977832
 31
0.0
  0
LINE
  5
19BE
  8
AM_0
 10
101.83017885008501
 20
236.5025265977832
 30
0.0
 11
103.58013885008489
 21
236.5025265977832
 31
0.0
  0
LINE
  5
19BF
  8
AM_0
 10
101.350088850085
 20
241.1525505977832
 30
0.0
 11
100.07010885008501
 21
241.90253559778321
 31
0.0
  0
LINE
  5
19C0
  8
AM_0
 10
252.5801788500851
 20
219.5025405977832
 30
0.0
 11
260.58013885008501
 21
219.50254059778331
 31
0.0
  0
LINE
  5
19C1
  8
AM_0
 10
252.5801788500851
 20
231.5025165977832
 30
0.0
 11
260.58013885008501
 21
231.5025165977832
 31
0.0
  0
LINE
  5
19C2
  8
AM_0
 10
149.58012885008509
 20
236.65253559778321
 30
0.0
 11
251.5801288500852
 21
236.65253559778321
 31
0.0
  0
LINE
  5
19C3
  8
AM_0
 10
251.29014885008519
 20
231.97252959778331
 30
0.0
 11
248.88018885008501
 21
231.97252959778331
 31
0.0
  0
LINE
  5
19C4
  8
AM_0
 10
248.38011885008501
 20
224.08252959778321
 30
0.0
 11
249.82011885008501
 21
230.78252559778321
 31
0.0
  0
LINE
  5
19C5
  8
AM_0
 10
246.29013885008499
 20
222.50254359778319
 30
0.0
 11
251.5801288500852
 21
222.50254359778319
 31
0.0
  0
LINE
  5
19C7
  8
AM_0
 10
109.260128850085
 20
249.6325185977833
 30
0.0
 11
152.5801288500852
 21
249.6325185977833
 31
0.0
  0
LINE
  5
19C8
  8
AM_0
 10
152.5801288500852
 20
247.00252659778329
 30
0.0
 11
110.13018885008501
 21
247.0025265977832
 31
0.0
  0
LINE
  5
19CA
  8
AM_0
 10
109.260128850085
 20
246.28254159778319
 30
0.0
 11
152.5801288500852
 21
246.28254159778319
 31
0.0
  0
LINE
  5
19CB
  8
AM_0
 10
104.5801288500852
 20
248.7025245977832
 30
0.0
 11
107.7501688500851
 21
248.7025245977832
 31
0.0
  0
LINE
  5
19CC
  8
AM_0
 10
110.7501688500851
 20
224.74253259778331
 30
0.0
 11
124.0801288500852
 21
224.74253259778331
 31
0.0
  0
LINE
  5
19CD
  8
AM_0
 10
127.58013885008489
 20
221.1425265977833
 30
0.0
 11
244.3901188500852
 21
221.1425265977833
 31
0.0
  0
LINE
  5
19CE
  8
AM_0
 10
110.6901088500851
 20
219.70253859778319
 30
0.0
 11
124.1901088500851
 21
219.70253859778319
 31
0.0
  0
LINE
  5
19CF
  8
AM_0
 10
110.81016885008511
 20
230.02251759778321
 30
0.0
 11
124.0801288500852
 21
230.02251759778321
 31
0.0
  0
LINE
  5
19D0
  8
AM_0
 10
108.30009885008511
 20
234.65253759778329
 30
0.0
 11
108.84012885008519
 21
231.6625305977833
 31
0.0
  0
LINE
  5
19D1
  8
AM_0
 10
101.5801288500852
 20
240.17254059778321
 30
0.0
 11
101.5801288500852
 21
240.64252659778339
 31
0.0
  0
LINE
  5
19D2
  8
AM_0
 10
104.5801288500852
 20
234.6525225977833
 30
0.0
 11
114.58017885008501
 21
234.6525225977833
 31
0.0
  0
LINE
  5
19D3
  8
AM_0
 10
101.5801288500852
 20
235.60251759778319
 30
0.0
 11
101.5801288500852
 21
236.1525225977833
 31
0.0
  0
LINE
  5
19D4
  8
AM_0
 10
101.360078850085
 20
236.62252359778321
 30
0.0
 11
100.1101588500851
 21
237.28252659778329
 31
0.0
  0
LINE
  5
19D5
  8
AM_0
 10
114.58017885008501
 20
234.6525225977833
 30
0.0
 11
114.58017885008501
 21
248.7025245977832
 31
0.0
  0
LINE
  5
19D6
  8
AM_0
 10
101.5801288500852
 20
233.5025265977832
 30
0.0
 11
101.5801288500852
 21
234.03252459778329
 31
0.0
  0
LINE
  5
19D7
  8
AM_0
 10
246.32010885008501
 20
222.62253759778329
 30
0.0
 11
249.78012885008499
 21
235.5425355977832
 31
0.0
  0
LINE
  5
19D8
  8
AM_0
 10
108.7500988500851
 20
221.21253459778319
 30
0.0
 11
107.86008885008501
 21
224.7525255977832
 31
0.0
  0
LINE
  5
19D9
  8
AM_0
 10
108.770138850085
 20
222.8725365977833
 30
0.0
 11
107.850098850085
 21
226.75254159778331
 31
0.0
  0
LINE
  5
19DA
  8
AM_0
 10
182.5801288500852
 20
219.09252459778321
 30
0.0
 11
182.5801288500852
 21
221.1425265977833
 31
0.0
  0
LINE
  5
19DB
  8
AM_0
 10
125.5801288500852
 20
221.11254159778321
 30
0.0
 11
125.5801288500852
 21
228.52251459778321
 31
0.0
  0
LINE
  5
19DC
  8
AM_0
 10
106.4101288500851
 20
225.8825325977833
 30
0.0
 11
108.0601588500849
 21
225.8825325977833
 31
0.0
  0
LINE
  5
19DF
  8
AM_0
 10
149.58012885008509
 20
329.35251459778311
 30
0.0
 11
251.5801288500852
 21
329.35251459778311
 31
0.0
  0
LINE
  5
19E0
  8
AM_0
 10
251.5801288500852
 20
345.50253459778321
 30
0.0
 11
251.5801288500852
 21
220.5025275977832
 31
0.0
  0
LINE
  5
19E2
  8
AM_0
 10
252.5801788500851
 20
346.50252459778318
 30
0.0
 11
260.58013885008501
 21
346.50252459778318
 31
0.0
  0
LINE
  5
19E4
  8
AM_0
 10
251.5801288500852
 20
320.15252259778322
 30
0.0
 11
260.58013885008501
 21
320.15252259778322
 31
0.0
  0
LINE
  5
19E5
  8
AM_0
 10
252.5801788500851
 20
334.50251859778319
 30
0.0
 11
260.58013885008501
 21
334.50251859778319
 31
0.0
  0
LINE
  5
19E6
  8
AM_0
 10
251.5801288500852
 20
245.85253359778321
 30
0.0
 11
260.58013885008501
 21
245.85253359778321
 31
0.0
  0
LINE
  5
19E8
  8
AM_0
 10
104.5800688500851
 20
340.43256459778303
 30
0.0
 11
107.40006885008501
 21
340.5025545977831
 31
0.0
  0
LINE
  5
19E9
  8
AM_0
 10
104.5801288500852
 20
340.43253459778322
 30
0.0
 11
104.5801288500852
 21
283.00252959778328
 31
0.0
  0
LINE
  5
19EA
  8
AM_0
 10
99.58017885008509
 20
331.02252459778322
 30
0.0
 11
99.58017885008509
 21
288.00252759778323
 31
0.0
  0
LINE
  5
19EB
  8
AM_0
 10
101.85015885008509
 20
332.75253459778321
 30
0.0
 11
104.08017885008501
 21
332.75253459778321
 31
0.0
  0
LINE
  5
19ED
  8
AM_0
 10
101.780138850085
 20
318.69253359778332
 30
0.0
 11
103.88010885008499
 21
318.69253359778332
 31
0.0
  0
LINE
  5
19EE
  8
AM_0
 10
101.35014885008511
 20
332.62251459778332
 30
0.0
 11
100.0801288500852
 21
331.88253459778321
 31
0.0
  0
LINE
  5
19EF
  8
AM_0
 10
101.3400688500851
 20
330.50253459778321
 30
0.0
 11
100.060118850085
 21
329.73255459778329
 31
0.0
  0
LINE
  5
19F0
  8
AM_0
 10
101.33013885008489
 20
325.96248459778332
 30
0.0
 11
100.0301488500852
 21
325.11252459778319
 31
0.0
  0
LINE
  5
19F1
  8
AM_0
 10
101.3901088500849
 20
318.6125445977832
 30
0.0
 11
100.1901088500851
 21
318.10253559778317
 31
0.0
  0
LINE
  5
19F2
  8
AM_0
 10
101.860148850085
 20
330.6425145977833
 30
0.0
 11
104.5801288500852
 21
330.6425145977833
 31
0.0
  0
LINE
  5
19F3
  8
AM_0
 10
101.88018885008501
 20
326.13252459778329
 30
0.0
 11
104.5801288500852
 21
326.13252459778329
 31
0.0
  0
LINE
  5
19F4
  8
AM_0
 10
101.730158850085
 20
316.7425185977832
 30
0.0
 11
103.58013885008489
 21
316.7425185977832
 31
0.0
  0
LINE
  5
19F5
  8
AM_0
 10
101.85015885008509
 20
324.99252459778319
 30
0.0
 11
103.58013885008489
 21
324.99252459778319
 31
0.0
  0
LINE
  5
19F6
  8
AM_0
 10
101.83017885008501
 20
329.50254459778319
 30
0.0
 11
103.58013885008489
 21
329.50254459778319
 31
0.0
  0
LINE
  5
19F7
  8
AM_0
 10
101.8201288500852
 20
331.60251459778311
 30
0.0
 11
104.08017885008501
 21
331.60251459778311
 31
0.0
  0
LINE
  5
19F8
  8
AM_0
 10
101.35014885008511
 20
324.85251459778311
 30
0.0
 11
100.07010885008501
 21
324.10250559778331
 31
0.0
  0
LINE
  5
19F9
  8
AM_0
 10
101.4401788500852
 20
316.7025105977832
 30
0.0
 11
100.29015885008479
 21
316.35253659778323
 31
0.0
  0
LINE
  5
19FA
  8
AM_0
 10
101.3701588500851
 20
331.50252459778318
 30
0.0
 11
100.13010885008489
 21
330.8725245977833
 31
0.0
  0
LINE
  5
19FB
  8
AM_0
 10
101.360078850085
 20
329.39253459778331
 30
0.0
 11
100.11009885008519
 21
328.72254459778321
 31
0.0
  0
LINE
  5
19FC
  8
AM_0
 10
103.58013885008489
 20
309.00253059778322
 30
0.0
 11
100.58013885008479
 21
309.00253059778322
 31
0.0
  0
LINE
  5
19FD
  8
AM_0
 10
103.58013885008489
 20
307.00252959778322
 30
0.0
 11
100.58013885008479
 21
307.00252959778322
 31
0.0
  0
LINE
  5
19FE
  8
AM_0
 10
103.58013885008489
 20
299.00252859778323
 30
0.0
 11
100.58013885008479
 21
299.00252859778323
 31
0.0
  0
LINE
  5
19FF
  8
AM_0
 10
103.58013885008489
 20
297.00253059778322
 30
0.0
 11
100.58013885008479
 21
297.00253059778322
 31
0.0
  0
LINE
  5
1A00
  8
AM_0
 10
103.58013885008489
 20
289.00252959778322
 30
0.0
 11
100.58013885008479
 21
289.00252959778322
 31
0.0
  0
LINE
  5
1A01
  8
AM_0
 10
103.58013885008489
 20
287.00252859778323
 30
0.0
 11
100.58013885008479
 21
287.00252859778323
 31
0.0
  0
LINE
  5
1A02
  8
AM_0
 10
101.5801288500852
 20
298.61251359778322
 30
0.0
 11
101.5801288500852
 21
297.40252359778322
 31
0.0
  0
LINE
  5
1A03
  8
AM_0
 10
101.5801288500852
 20
288.61254459778331
 30
0.0
 11
101.5801288500852
 21
287.4525105977832
 31
0.0
  0
LINE
  5
1A04
  8
AM_0
 10
101.5801288500852
 20
308.63253459778332
 30
0.0
 11
101.5801288500852
 21
307.2625395977833
 31
0.0
  0
LINE
  5
1A05
  8
AM_0
 10
101.5801288500852
 20
318.39254559778311
 30
0.0
 11
101.5801288500852
 21
317.33254659778322
 31
0.0
  0
LINE
  5
1A06
  8
AM_0
 10
101.5801288500852
 20
325.83252459778311
 30
0.0
 11
101.5801288500852
 21
325.3625445977832
 31
0.0
  0
LINE
  5
1A07
  8
AM_0
 10
101.5801288500852
 20
330.40251459778318
 30
0.0
 11
101.5801288500852
 21
329.8525245977832
 31
0.0
  0
LINE
  5
1A08
  8
AM_0
 10
101.5801288500852
 20
332.50254459778319
 30
0.0
 11
101.5801288500852
 21
331.97253459778318
 31
0.0
  0
LINE
  5
1A09
  8
AM_0
 10
98.080178850085105
 20
303.00253059778322
 30
0.0
 11
98.080178850085105
 21
283.00252959778328
 31
0.0
  0
LINE
  5
1A0A
  8
AM_0
 10
98.080118850084986
 20
303.00256059778297
 30
0.0
 11
99.580118850084986
 21
303.13253559778309
 31
0.0
  0
LINE
  5
1A0B
  8
AM_0
 10
98.080178850085105
 20
300.28252659778298
 30
0.0
 11
99.58017885008509
 21
300.28252659778298
 31
0.0
  0
LINE
  5
1A12
  8
AM_0
 10
114.58017885008501
 20
331.35252459778332
 30
0.0
 11
114.58017885008501
 21
317.31252759778317
 31
0.0
  0
LINE
  5
1A13
  8
AM_0
 10
104.5801288500852
 20
317.31252759778317
 30
0.0
 11
114.58017885008501
 21
317.31252759778317
 31
0.0
  0
LINE
  5
1A14
  8
AM_0
 10
104.5801288500852
 20
325.69254459778318
 30
0.0
 11
114.58017885008501
 21
325.69254459778318
 31
0.0
  0
LINE
  5
1A15
  8
AM_0
 10
104.5801288500852
 20
331.35252459778332
 30
0.0
 11
114.58017885008501
 21
331.35252459778332
 31
0.0
  0
LINE
  5
1A22
  8
AM_0
 10
151.5801288500852
 20
269.00254359778319
 30
0.0
 11
110.13018885008501
 21
269.00254359778319
 31
0.0
  0
LINE
  5
1A28
  8
AM_0
 10
127.58013885008489
 20
344.86254459778331
 30
0.0
 11
244.3901188500852
 21
344.86254459778331
 31
0.0
  0
LINE
  5
1A29
  8
AM_0
 10
110.81016885008511
 20
335.98254459778298
 30
0.0
 11
124.0801288500852
 21
335.98254459778298
 31
0.0
  0
LINE
  5
1A2A
  8
AM_0
 10
108.3001588500851
 20
331.35255459778318
 30
0.0
 11
108.84012885008519
 21
334.34256459778322
 31
0.0
  0
LINE
  5
1A2B
  8
AM_0
 10
110.7501688500851
 20
341.27250459778321
 30
0.0
 11
124.0801288500852
 21
341.27250459778321
 31
0.0
  0
LINE
  5
1A2D
  8
AM_0
 10
110.72013885008499
 20
344.67252459778331
 30
0.0
 11
124.0801288500852
 21
344.67252459778331
 31
0.0
  0
LINE
  5
1A2E
  8
AM_0
 10
110.6901088500851
 20
346.30251459778322
 30
0.0
 11
124.1901088500851
 21
346.30251459778322
 31
0.0
  0
LINE
  5
1A2F
  8
AM_0
 10
127.58013885008489
 20
348.92253459778328
 30
0.0
 11
180.5801788500851
 21
348.92253459778328
 31
0.0
  0
LINE
  5
1A30
  8
AM_0
 10
127.58013885008489
 20
348.24252459778319
 30
0.0
 11
180.5801788500851
 21
348.24252459778319
 31
0.0
  0
LINE
  5
1A31
  8
AM_0
 10
127.58013885008489
 20
346.8925545977832
 30
0.0
 11
180.5801788500851
 21
346.8925545977832
 31
0.0
  0
LINE
  5
1A32
  8
AM_0
 10
106.370108850085
 20
334.04253459778312
 30
0.0
 11
108.78012885008501
 21
334.04253459778312
 31
0.0
  0
LINE
  5
1A33
  8
AM_0
 10
108.790088850085
 20
339.69255459778321
 30
0.0
 11
107.830058850085
 21
335.22255459778307
 31
0.0
  0
LINE
  5
1A34
  8
AM_0
 10
106.3901188500852
 20
338.1025245977832
 30
0.0
 11
108.4501888500849
 21
338.1025245977832
 31
0.0
  0
LINE
  5
1A35
  8
AM_0
 10
152.5801288500852
 20
319.00252959778322
 30
0.0
 11
119.13018885008501
 21
319.00252959778322
 31
0.0
  0
LINE
  5
1A36
  8
AM_0
 10
152.5801288500852
 20
317.00252859778323
 30
0.0
 11
119.13018885008501
 21
317.00252859778323
 31
0.0
  0
LINE
  5
1A37
  8
AM_0
 10
151.5801288500852
 20
309.00253059778322
 30
0.0
 11
119.13018885008501
 21
309.00253059778322
 31
0.0
  0
LINE
  5
1A38
  8
AM_0
 10
108.770138850085
 20
343.13253459778332
 30
0.0
 11
107.85015885008509
 21
339.25254459778341
 31
0.0
  0
LINE
  5
1A39
  8
AM_0
 10
151.5801288500852
 20
307.00252959778322
 30
0.0
 11
119.13018885008501
 21
307.00252959778322
 31
0.0
  0
LINE
  5
1A3A
  8
AM_0
 10
106.4101288500851
 20
340.12251459778332
 30
0.0
 11
108.0601588500849
 21
340.12251459778332
 31
0.0
  0
LINE
  5
1A3B
  8
AM_0
 10
108.7500988500851
 20
344.7925245977832
 30
0.0
 11
107.86008885008501
 21
341.26254459778312
 31
0.0
  0
LINE
  5
1A3C
  8
AM_0
 10
151.5801288500852
 20
299.00252859778323
 30
0.0
 11
110.13018885008501
 21
299.00252859778323
 31
0.0
  0
LINE
  5
1A3D
  8
AM_0
 10
125.5801288500852
 20
344.8925145977833
 30
0.0
 11
125.5801288500852
 21
337.48254459778298
 31
0.0
  0
LINE
  5
1A3E
  8
AM_0
 10
151.5801288500852
 20
297.00253059778322
 30
0.0
 11
110.13018885008501
 21
297.00253059778322
 31
0.0
  0
LINE
  5
1A3F
  8
AM_0
 10
123.1814577537391
 20
289.00252959778322
 30
0.0
 11
110.13018885008501
 21
289.00252959778322
 31
0.0
  0
LINE
  5
1A40
  8
AM_0
 10
182.5801288500852
 20
346.92252459778319
 30
0.0
 11
182.5801288500852
 21
344.86254459778331
 31
0.0
  0
LINE
  5
1A41
  8
AM_0
 10
123.1814577537391
 20
287.00252859778323
 30
0.0
 11
110.13018885008501
 21
287.00252859778323
 31
0.0
  0
LINE
  5
1A42
  8
AM_0
 10
246.32010885008501
 20
343.38252459778317
 30
0.0
 11
249.78012885008499
 21
330.46254459778322
 31
0.0
  0
LINE
  5
1A43
  8
AM_0
 10
246.29013885008499
 20
343.50252459778318
 30
0.0
 11
251.5801288500852
 21
343.50252459778318
 31
0.0
  0
LINE
  5
1A44
  8
AM_0
 10
251.29014885008519
 20
334.04253459778312
 30
0.0
 11
248.88018885008501
 21
334.04253459778312
 31
0.0
  0
LINE
  5
1A45
  8
AM_0
 10
248.380178850085
 20
341.9225445977832
 30
0.0
 11
249.8201788500852
 21
335.22255459778307
 31
0.0
  0
LINE
  5
1A46
  8
AM_0
 10
104.5801288500852
 20
225.57253359778321
 30
0.0
 11
104.5801288500852
 21
283.00252959778328
 31
0.0
  0
LINE
  5
1A47
  8
AM_0
 10
99.58017885008509
 20
234.4125165977832
 30
0.0
 11
99.58017885008509
 21
278.0025435977833
 31
0.0
  0
LINE
  5
1A48
  8
AM_0
 10
101.780138850085
 20
247.31252559778321
 30
0.0
 11
103.88010885008499
 21
247.31252559778321
 31
0.0
  0
LINE
  5
1A49
  8
AM_0
 10
101.3901088500849
 20
247.39254159778321
 30
0.0
 11
100.190168850085
 21
247.9125165977832
 31
0.0
  0
LINE
  5
1A4A
  8
AM_0
 10
101.730158850085
 20
249.26253759778331
 30
0.0
 11
103.58013885008489
 21
249.26253759778331
 31
0.0
  0
LINE
  5
1A4B
  8
AM_0
 10
101.4401188500851
 20
249.30254559778319
 30
0.0
 11
100.29015885008479
 21
249.66254559778321
 31
0.0
  0
LINE
  5
1A4C
  8
AM_0
 10
103.58013885008489
 20
257.00254359778319
 30
0.0
 11
100.58013885008479
 21
257.00254359778319
 31
0.0
  0
LINE
  5
1A4D
  8
AM_0
 10
103.58013885008489
 20
259.00252659778317
 30
0.0
 11
100.58013885008479
 21
259.00252659778317
 31
0.0
  0
LINE
  5
1A4E
  8
AM_0
 10
103.58013885008489
 20
267.00252759778323
 30
0.0
 11
100.58013885008479
 21
267.00252759778323
 31
0.0
  0
LINE
  5
1A4F
  8
AM_0
 10
103.58013885008489
 20
269.00254359778319
 30
0.0
 11
100.58013885008479
 21
269.00254359778319
 31
0.0
  0
LINE
  5
1A50
  8
AM_0
 10
103.58013885008489
 20
277.00252959778328
 30
0.0
 11
100.58013885008479
 21
277.00252959778328
 31
0.0
  0
LINE
  5
1A51
  8
AM_0
 10
103.58013885008489
 20
279.00252759778323
 30
0.0
 11
100.58013885008479
 21
279.00252759778323
 31
0.0
  0
LINE
  5
1A52
  8
AM_0
 10
101.5801288500852
 20
267.39254259778318
 30
0.0
 11
101.5801288500852
 21
268.61252859778318
 31
0.0
  0
LINE
  5
1A53
  8
AM_0
 10
101.5801288500852
 20
277.39252659778327
 30
0.0
 11
101.5801288500852
 21
278.55254559778319
 31
0.0
  0
LINE
  5
1A54
  8
AM_0
 10
101.5801288500852
 20
257.37252159778319
 30
0.0
 11
101.5801288500852
 21
258.7425195977832
 31
0.0
  0
LINE
  5
1A55
  8
AM_0
 10
101.5801288500852
 20
247.61252859778321
 30
0.0
 11
101.5801288500852
 21
248.67252459778331
 31
0.0
  0
LINE
  5
1A56
  8
AM_0
 10
98.080178850085105
 20
263.00254359778319
 30
0.0
 11
98.080178850085105
 21
283.00252959778328
 31
0.0
  0
LINE
  5
1A57
  8
AM_0
 10
98.080118850084986
 20
263.00252859778323
 30
0.0
 11
99.580118850084986
 21
262.87252359778319
 31
0.0
  0
LINE
  5
1A58
  8
AM_0
 10
98.080178850085105
 20
265.72252959778331
 30
0.0
 11
99.58017885008509
 21
265.72252959778331
 31
0.0
  0
LINE
  5
1A59
  8
AM_0
 10
127.58013885008489
 20
217.08252759778321
 30
0.0
 11
180.5801788500851
 21
217.08252759778321
 31
0.0
  0
LINE
  5
1A5A
  8
AM_0
 10
110.72013885008499
 20
221.33254359778331
 30
0.0
 11
124.0801288500852
 21
221.33254359778331
 31
0.0
  0
LINE
  5
1A5B
  8
AM_0
 10
104.5801288500852
 20
240.3125235977833
 30
0.0
 11
114.58017885008501
 21
240.3125235977833
 31
0.0
  0
LINE
  5
1A5C
  8
AM_0
 10
127.58013885008489
 20
217.76253759778319
 30
0.0
 11
180.5801788500851
 21
217.76253759778319
 31
0.0
  0
LINE
  5
1A5D
  8
AM_0
 10
106.3901188500852
 20
227.9025195977832
 30
0.0
 11
108.4501888500849
 21
227.9025195977832
 31
0.0
  0
LINE
  5
1A5E
  8
AM_0
 10
106.370108850085
 20
231.97252959778331
 30
0.0
 11
108.78012885008501
 21
231.97252959778331
 31
0.0
  0
LINE
  5
1A5F
  8
AM_0
 10
108.7901488500852
 20
226.32253359778321
 30
0.0
 11
107.830118850085
 21
230.78252559778321
 31
0.0
  0
LINE
  5
1A60
  8
AM_0
 10
127.58013885008489
 20
219.11252859778321
 30
0.0
 11
180.5801788500851
 21
219.11252859778321
 31
0.0
  0
LINE
  5
1A61
  8
AM_0
 10
109.040138850085
 20
256.51252359778329
 30
0.0
 11
151.5801288500852
 21
256.51252359778329
 31
0.0
  0
LINE
  5
1A62
  8
AM_0
 10
152.5801288500852
 20
249.00252759778331
 30
0.0
 11
110.5701688500851
 21
249.0025275977832
 31
0.0
  0
LINE
  5
1A63
  8
AM_0
 10
118.260128850085
 20
319.72252959778319
 30
0.0
 11
152.5801288500852
 21
319.72252959778319
 31
0.0
  0
LINE
  5
1A64
  8
AM_0
 10
118.260128850085
 20
316.37252559778318
 30
0.0
 11
152.5801288500852
 21
316.37252559778318
 31
0.0
  0
LINE
  5
1A65
  8
AM_0
 10
118.040138850085
 20
309.4925205977832
 30
0.0
 11
151.5801288500852
 21
309.4925205977832
 31
0.0
  0
LINE
  5
1A66
  8
AM_0
 10
118.040138850085
 20
306.56252559778318
 30
0.0
 11
151.5801288500852
 21
306.56252559778318
 31
0.0
  0
LINE
  5
1A67
  8
AM_0
 10
108.91014885008499
 20
299.34252459778321
 30
0.0
 11
151.5801288500852
 21
299.34252459778321
 31
0.0
  0
LINE
  5
1A68
  8
AM_0
 10
108.91014885008499
 20
296.68252059778331
 30
0.0
 11
151.5801288500852
 21
296.68252059778331
 31
0.0
  0
LINE
  5
1A69
  8
AM_0
 10
108.85014885008511
 20
289.27251759778318
 30
0.0
 11
123.1814577537391
 21
289.27251759778318
 31
0.0
  0
LINE
  5
1A6A
  8
AM_0
 10
108.85014885008511
 20
286.74251859778332
 30
0.0
 11
123.1814577537391
 21
286.74251859778332
 31
0.0
  0
LINE
  5
1A6B
  8
AM_0
 10
125.5801288500852
 20
320.2425195977832
 30
0.0
 11
125.5801288500852
 21
320.17251159778323
 31
0.0
  0
LINE
  5
1A6F
  8
AM_0
 10
108.85014885008511
 20
279.27253359778331
 30
0.0
 11
123.1814577537391
 21
279.27253359778331
 31
0.0
  0
LINE
  5
1A70
  8
AM_0
 10
123.1814577537391
 20
277.00252959778328
 30
0.0
 11
110.13018885008501
 21
277.00252959778328
 31
0.0
  0
LINE
  5
1A71
  8
AM_0
 10
123.1814577537391
 20
279.00252759778323
 30
0.0
 11
110.13018885008501
 21
279.00252759778323
 31
0.0
  0
LINE
  5
1A74
  8
AM_0
 10
108.91014885008499
 20
269.3225355977832
 30
0.0
 11
151.5801288500852
 21
269.3225355977832
 31
0.0
  0
LINE
  5
1A75
  8
AM_0
 10
98.080178850085105
 20
298.15252359778322
 30
0.0
 11
102.3601588500851
 21
298.15252359778322
 31
0.0
  0
LINE
  5
1A78
  8
AM_0
 10
151.5801288500852
 20
267.00252759778323
 30
0.0
 11
110.13018885008501
 21
267.00252759778323
 31
0.0
  0
LINE
  5
1A79
  8
AM_0
 10
108.91014885008499
 20
266.66251659778322
 30
0.0
 11
151.5801288500852
 21
266.66251659778328
 31
0.0
  0
LINE
  5
1A7A
  8
AM_0
 10
151.5801288500852
 20
259.00252659778317
 30
0.0
 11
110.13018885008501
 21
259.00252659778317
 31
0.0
  0
LINE
  5
1A7B
  8
AM_0
 10
109.040138850085
 20
259.44253059778322
 30
0.0
 11
151.5801288500852
 21
259.44253059778322
 31
0.0
  0
LINE
  5
1A7C
  8
AM_0
 10
151.5801288500852
 20
257.00254359778319
 30
0.0
 11
110.13018885008501
 21
257.00254359778319
 31
0.0
  0
LINE
  5
1A7E
  8
AM_0
 10
108.85014885008511
 20
276.7325385977831
 30
0.0
 11
123.1814577537391
 21
276.7325385977831
 31
0.0
  0
LINE
  5
1A7F
  8
AM_0
 10
98.080178850085105
 20
267.85251759778322
 30
0.0
 11
102.6601288500851
 21
267.85251759778322
 31
0.0
  0
ARC
  5
1AF8
  8
AM_0
 10
100.573358850085
 20
331.0204545977831
 30
0.0
 40
0.9931920599999999
 50
119.7734
 51
179.87956
  0
ARC
  5
1AF9
  8
AM_0
 10
100.575728850085
 20
329.9822145977833
 30
0.0
 40
0.9955880999999999
 50
116.58749
 51
179.98224999999999
  0
ARC
  5
1AFA
  8
AM_0
 10
101.8421488500851
 20
331.75665459778321
 30
0.0
 40
0.9959119799999999
 50
89.541443999999998
 51
119.60699
  0
ARC
  5
1AFB
  8
AM_0
 10
101.8049188500852
 20
330.60852459778317
 30
0.0
 40
0.99412809
 50
89.122808000000006
 51
115.93481
  0
ARC
  5
1AFC
  8
AM_0
 10
101.84898885008511
 20
329.64831459778321
 30
0.0
 40
0.9942600299999999
 50
89.355881999999966
 51
120.78109000000001
  0
ARC
  5
1AFD
  8
AM_0
 10
101.815238850085
 20
328.50717459778332
 30
0.0
 40
0.99546798
 50
89.141447999999983
 51
117.20366
  0
ARC
  5
1AFE
  8
AM_0
 10
101.886758850085
 20
325.13631459778333
 30
0.0
 40
0.9962120399999999
 50
90.381906000000001
 51
123.9699
  0
ARC
  5
1AFF
  8
AM_0
 10
101.85954885008501
 20
323.99602959778332
 30
0.0
 40
0.9965200799999999
 50
90.541213000000027
 51
120.74328
  0
ARC
  5
1B00
  8
AM_0
 10
100.5741988500851
 20
323.24572359778318
 30
0.0
 40
0.9940760400000001
 50
120.4692
 51
180.18464
  0
ARC
  5
1B01
  8
AM_0
 10
100.57494885008509
 20
324.2801175977832
 30
0.0
 40
0.9948280200000002
 50
123.20469
 51
180.43813
  0
ARC
  5
1B02
  8
AM_0
 10
100.573358850085
 20
327.84396459778333
 30
0.0
 40
0.99321207
 50
117.79934
 51
180.08183
  0
ARC
  5
1B04
  8
AM_0
 10
100.5745588500849
 20
328.88148459778319
 30
0.0
 40
0.99443607
 50
121.15217
 51
179.94049000000001
  0
ARC
  5
1B05
  8
AM_0
 10
101.7811288500852
 20
317.69704959778318
 30
0.0
 40
0.9954800999999999
 50
90.057320999999988
 51
113.12703
  0
ARC
  5
1B06
  8
AM_0
 10
117.720818850085
 20
241.78341159778321
 30
0.0
 40
1.00423602
 50
314.93782999999991
 51
5.6649238999999989
  0
ARC
  5
1B0A
  8
AM_0
 10
101.7192988500851
 20
315.7498125977832
 30
0.0
 40
0.992772
 50
89.374808000000016
 51
106.33181999999999
  0
ARC
  5
1B0B
  8
AM_0
 10
100.5763888500851
 20
315.39828159778318
 30
0.0
 40
0.9962600700000001
 50
106.69749
 51
180.33049
  0
ARC
  5
1B0C
  8
AM_0
 10
100.5765388500849
 20
317.18410959778322
 30
0.0
 40
0.99640008
 50
112.81739
 51
180.09039999999999
  0
ARC
  5
1B0D
  8
AM_0
 10
100.5751888500849
 20
308.00744259778332
 30
0.0
 40
0.9950800799999999
 50
89.71592099999998
 51
180.2840699999999
  0
ARC
  5
1B0E
  8
AM_0
 10
100.58031885008521
 20
308.0027415977832
 30
0.0
 40
1.000203989999999
 50
180.01167000000001
 51
269.9883200000001
  0
ARC
  5
1B0F
  8
AM_0
 10
100.5751888500849
 20
298.00744359778321
 30
0.0
 40
0.99508401
 50
89.716132999999985
 51
180.28387000000001
  0
ARC
  5
1B10
  8
AM_0
 10
100.58031885008521
 20
298.00274259778331
 30
0.0
 40
1.0002000600000001
 50
180.01146999999989
 51
269.98853000000003
  0
ARC
  5
1B11
  8
AM_0
 10
100.5751888500849
 20
288.00747159778319
 30
0.0
 40
0.9950879999999999
 50
89.716344999999961
 51
180.28364999999999
  0
ARC
  5
1B12
  8
AM_0
 10
100.58031885008521
 20
288.00271059778311
 30
0.0
 40
1.00019601
 50
180.01124999999999
 51
269.98874000000001
  0
ARC
  5
1B13
  8
AM_0
 10
103.58031885008521
 20
286.00268259778318
 30
0.0
 40
0.9998480400000001
 50
359.99122
 51
90.008778999999976
  0
ARC
  5
1B14
  8
AM_0
 10
103.575248850085
 20
290.00744259778321
 30
0.0
 40
1.00492398
 50
270.28001
 51
359.71999000000011
  0
ARC
  5
1B15
  8
AM_0
 10
103.58031885008521
 20
296.00268159778312
 30
0.0
 40
0.9998440499999999
 50
359.99101000000002
 51
90.008991000000023
  0
ARC
  5
1B16
  8
AM_0
 10
103.575248850085
 20
300.0074415977831
 30
0.0
 40
1.0049280299999981
 50
270.28021999999999
 51
359.71978000000001
  0
ARC
  5
1B17
  8
AM_0
 10
103.58031885008521
 20
306.0026805977833
 30
0.0
 40
0.9998520899999999
 50
359.99144999999999
 51
90.008546999999993
  0
ARC
  5
1B18
  8
AM_0
 10
103.575248850085
 20
310.00744359778298
 30
0.0
 40
1.0049319599999991
 50
270.28041999999999
 51
359.71958000000001
  0
ARC
  5
1B19
  8
AM_0
 10
103.58184885008519
 20
315.7442295977832
 30
0.0
 40
0.99829605
 50
359.90204000000011
 51
90.097960999999998
  0
ARC
  5
1B1A
  8
AM_0
 10
103.577738850085
 20
323.99017059778322
 30
0.0
 40
1.0023759899999991
 50
0.13559199
 51
89.864409999999964
  0
ARC
  5
1B1B
  8
AM_0
 10
103.8756088500849
 20
319.39705959778331
 30
0.0
 40
0.70455201
 50
270.36910999999998
 51
359.63089000000002
  0
ARC
  5
1B1C
  8
AM_0
 10
103.5811588500851
 20
328.50354459778322
 30
0.0
 40
0.9990081
 50
359.94315
 51
90.056843000000015
  0
ARC
  5
1B1D
  8
AM_0
 10
104.0817688500851
 20
331.10418459778322
 30
0.0
 40
0.49836402
 50
359.81141000000002
 51
90.188598000000013
  0
ARC
  5
1B1E
  8
AM_0
 10
104.0755588500849
 20
333.25713459778308
 30
0.0
 40
0.504636
 50
270.52375999999998
 51
359.47624000000002
  0
ARC
  5
1B1F
  8
AM_0
 10
252.5803588500851
 20
220.50271059778319
 30
0.0
 40
1.0001800499999991
 50
180.01031
 51
269.98968000000002
  0
ARC
  5
1B20
  8
AM_0
 10
244.38480885008519
 20
223.1479125977832
 30
0.0
 40
2.0053919100000002
 50
270.15275000000003
 51
344.81207000000001
  0
ARC
  5
1B21
  8
AM_0
 10
252.5796388500851
 20
232.5019815977833
 30
0.0
 40
0.99947604
 50
179.97009
 51
270.02992
  0
ARC
  5
1B23
  8
AM_0
 10
110.801198850085
 20
333.99009459778318
 30
0.0
 40
1.9924480200000001
 50
89.742107999999988
 51
169.81179
  0
ARC
  5
1B24
  8
AM_0
 10
110.7449788500851
 20
339.27324459778322
 30
0.0
 40
1.9992880199999981
 50
89.851815000000016
 51
167.89433
  0
ARC
  5
1B25
  8
AM_0
 10
106.36443885008489
 20
335.54274459778333
 30
0.0
 40
1.5002480099999991
 50
270.21661999999998
 51
347.67500000000001
  0
ARC
  5
1B26
  8
AM_0
 10
110.71221885008499
 20
342.67800459778317
 30
0.0
 40
1.9945160699999991
 50
89.771334999999979
 51
166.82803999999999
  0
ARC
  5
1B27
  8
AM_0
 10
106.3885888500849
 20
339.60633459778319
 30
0.0
 40
1.5037760099999991
 50
270.05984000000001
 51
346.39312999999999
  0
ARC
  5
1B28
  8
AM_0
 10
106.401428850085
 20
341.62572459778318
 30
0.0
 40
1.503232049999998
 50
270.33132000000001
 51
346.01803000000001
  0
ARC
  5
1B29
  8
AM_0
 10
110.6866888500851
 20
344.30571459778321
 30
0.0
 40
1.996816109999999
 50
89.901436000000004
 51
165.88941
  0
ARC
  5
1B2A
  8
AM_0
 10
127.5755488500851
 20
342.86715459778321
 30
0.0
 40
1.9953641399999991
 50
89.866758999999988
 51
180.13323
  0
ARC
  5
1B2B
  8
AM_0
 10
127.57632885008501
 20
344.89632459778318
 30
0.0
 40
1.99618809
 50
89.890486999999965
 51
180.10951
  0
ARC
  5
1B2C
  8
AM_0
 10
127.573718850085
 20
346.24899459778322
 30
0.0
 40
1.993556189999999
 50
89.814515
 51
180.18548999999999
  0
ARC
  5
1B2D
  8
AM_0
 10
127.57566885008509
 20
346.92378459778331
 30
0.0
 40
1.998724049999999
 50
89.871137000000004
 51
165.55096
  0
ARC
  5
1B2E
  8
AM_0
 10
124.07346885008521
 20
337.48923459778331
 30
0.0
 40
1.5066999599999991
 50
270.25416000000001
 51
359.74583999999999
  0
ARC
  5
1B2F
  8
AM_0
 10
124.077308850085
 20
342.77535459778318
 30
0.0
 40
1.5028360199999991
 50
270.10793999999999
 51
359.89206000000001
  0
ARC
  5
1B30
  8
AM_0
 10
124.0752988500851
 20
346.17738459778332
 30
0.0
 40
1.5048719999999991
 50
270.18518
 51
359.81482
  0
ARC
  5
1B31
  8
AM_0
 10
124.186748850085
 20
347.80554459778318
 30
0.0
 40
1.50301605
 50
270.12945000000002
 51
345.23653999999999
  0
ARC
  5
1B32
  8
AM_0
 10
180.579218850085
 20
344.89158459778321
 30
0.0
 40
2.0009239199999991
 50
0.026462999
 51
89.973535999999982
  0
ARC
  5
1B33
  8
AM_0
 10
180.581828850085
 20
346.24422459778322
 30
0.0
 40
1.9982920200000001
 50
359.95103
 51
90.048975000000013
  0
ARC
  5
1B34
  8
AM_0
 10
180.57834885008509
 20
346.92072459778331
 30
0.0
 40
2.0018279999999979
 50
0.052301
 51
89.947696999999977
  0
ARC
  5
1B35
  8
AM_0
 10
251.23038885008509
 20
330.85491459778319
 30
0.0
 40
1.50239199
 50
195.1400099999999
 51
269.99063999999998
  0
ARC
  5
1B36
  8
AM_0
 10
244.3896988500851
 20
342.86355459778321
 30
0.0
 40
1.99898796
 50
15.047801
 51
89.987373000000005
  0
ARC
  5
1B37
  8
AM_0
 10
252.57519885008509
 20
345.5074845977831
 30
0.0
 40
0.9950640599999999
 50
89.714938000000004
 51
180.28505999999999
  0
ARC
  5
1B38
  8
AM_0
 10
252.5745088500851
 20
333.5081685977832
 30
0.0
 40
0.99440004
 50
89.676490999999999
 51
180.32351
  0
ARC
  5
1B39
  8
AM_0
 10
251.28600885008521
 20
335.54298459778312
 30
0.0
 40
1.5004760399999979
 50
192.33223000000001
 51
270.15827999999999
  0
ARC
  5
1B3A
  8
AM_0
 10
246.4275988500851
 20
341.50605459778308
 30
0.0
 40
1.9964880300000001
 50
12.040875
 51
89.926440999999969
  0
ARC
  5
1B3B
  8
AM_0
 10
103.5768388500851
 20
250.2658785977832
 30
0.0
 40
1.0033640100000001
 50
270.19171
 51
359.80828000000002
  0
ARC
  5
1B3C
  8
AM_0
 10
103.575248850085
 20
260.00744259778332
 30
0.0
 40
1.00492398
 50
270.28003999999999
 51
359.71996999999999
  0
ARC
  5
1B3D
  8
AM_0
 10
103.58031885008521
 20
256.0026945977832
 30
0.0
 40
0.9998480400000001
 50
359.99119000000002
 51
90.008807000000004
  0
ARC
  5
1B3E
  8
AM_0
 10
103.880708850085
 20
246.61309359778321
 30
0.0
 40
0.69944001
 50
359.95416
 51
90.045839999999984
  0
ARC
  5
1B3F
  8
AM_0
 10
101.783138850085
 20
248.31775959778321
 30
0.0
 40
1.0052240100000001
 50
246.98629
 51
269.82936000000001
  0
ARC
  5
1B40
  8
AM_0
 10
101.72067885008499
 20
250.26522159778321
 30
0.0
 40
1.00272801
 50
253.75297
 51
270.54039999999998
  0
ARC
  5
1B41
  8
AM_0
 10
100.5765388500849
 20
250.61687559778321
 30
0.0
 40
0.99638007
 50
180.24949000000001
 51
253.29706999999999
  0
ARC
  5
1B42
  8
AM_0
 10
100.5766588500851
 20
248.8310025977832
 30
0.0
 40
0.9964760700000001
 50
179.91257999999999
 51
247.17966000000001
  0
ARC
  5
1B43
  8
AM_0
 10
100.58031885008521
 20
258.0027255977833
 30
0.0
 40
1.00019601
 50
180.01127999999991
 51
269.98872
  0
ARC
  5
1B44
  8
AM_0
 10
100.5751888500849
 20
258.00747159778319
 30
0.0
 40
0.99508401
 50
89.716324
 51
180.28368
  0
ARC
  5
1B45
  8
AM_0
 10
100.58031885008521
 20
268.0027425977832
 30
0.0
 40
1.0002000600000001
 50
180.01150000000001
 51
269.98851000000002
  0
ARC
  5
1B46
  8
AM_0
 10
100.5751888500849
 20
268.00745559778318
 30
0.0
 40
0.99508401
 50
89.716106000000025
 51
180.28389000000001
  0
ARC
  5
1B47
  8
AM_0
 10
100.58031885008521
 20
278.0027415977832
 30
0.0
 40
1.000203989999999
 50
180.01169999999999
 51
269.98829999999998
  0
ARC
  5
1B48
  8
AM_0
 10
100.5751888500849
 20
278.00745759778317
 30
0.0
 40
0.9950800799999999
 50
89.715893999999963
 51
180.2841
  0
ARC
  5
1B49
  8
AM_0
 10
103.5751888500849
 20
280.00745859778323
 30
0.0
 40
1.0049319599999991
 50
270.28044999999997
 51
359.71955000000008
  0
ARC
  5
1B4A
  8
AM_0
 10
103.58031885008521
 20
276.00268059778318
 30
0.0
 40
0.9998520899999999
 50
359.99142999999998
 51
90.008574000000024
  0
ARC
  5
1B4B
  8
AM_0
 10
103.575248850085
 20
270.00744159778321
 30
0.0
 40
1.0049280299999981
 50
270.28023999999999
 51
359.71976000000001
  0
ARC
  5
1B4C
  8
AM_0
 10
103.58031885008521
 20
266.00268159778329
 30
0.0
 40
0.9998440499999999
 50
359.99097999999998
 51
90.00901800000004
  0
ARC
  5
1B4D
  8
AM_0
 10
113.738438850085
 20
324.59533359778322
 30
0.0
 40
5.004112499999998
 50
279.68356999999997
 51
354.57834000000008
  0
ARC
  5
1B4E
  8
AM_0
 10
114.2009188500851
 20
320.66961459778332
 30
0.0
 40
6.0049157999999991
 50
45.22730700000001
 51
86.379093999999981
  0
ARC
  5
1B4F
  8
AM_0
 10
117.72411885008501
 20
324.22280559778318
 30
0.0
 40
1.001108069999999
 50
354.25024999999999
 51
45.146993999999992
  0
ARC
  5
1B50
  8
AM_0
 10
246.42258885008511
 20
224.50513659778321
 30
0.0
 40
2.0026238699999981
 50
270.21534000000003
 51
347.81734
  0
ARC
  5
1B51
  8
AM_0
 10
251.28720885008511
 20
230.4732135977832
 30
0.0
 40
1.499328059999999
 50
89.888150999999993
 51
168.09384
  0
ARC
  5
1B52
  8
AM_0
 10
114.2101288500851
 20
245.34970959778329
 30
0.0
 40
6.0085923000000001
 50
273.53095000000002
 51
314.61478
  0
ARC
  5
1B53
  8
AM_0
 10
113.74350885008489
 20
241.41445359778331
 30
0.0
 40
4.9985837999999987
 50
5.3731198999999981
 51
80.364975999999999
  0
ARC
  5
1B54
  8
AM_0
 10
100.577738850085
 20
234.9871935977832
 30
0.0
 40
0.9976240799999999
 50
180.26750999999999
 51
240.07954000000001
  0
ARC
  5
1B55
  8
AM_0
 10
100.575788850085
 20
236.0328915977833
 30
0.0
 40
0.9956680199999999
 50
180.02043
 51
243.40983
  0
ARC
  5
1B56
  8
AM_0
 10
101.8608388500849
 20
234.25360959778331
 30
0.0
 40
1.0011359699999991
 50
239.328
 51
269.38751000000002
  0
ARC
  5
1B57
  8
AM_0
 10
101.82597885008521
 20
235.4017875977832
 30
0.0
 40
0.999288
 50
242.86126999999999
 51
269.66618999999997
  0
ARC
  5
1B58
  8
AM_0
 10
101.8514788500852
 20
236.36618859778321
 30
0.0
 40
1.0036880100000001
 50
239.37027
 51
270.49275
  0
ARC
  5
1B59
  8
AM_0
 10
101.8353088500851
 20
237.50315259778321
 30
0.0
 40
1.00062801
 50
241.6498600000001
 51
269.70470999999998
  0
ARC
  5
1B5A
  8
AM_0
 10
101.87289885008499
 20
240.88303659778319
 30
0.0
 40
1.0005359999999981
 50
237.1464
 51
270.41322000000002
  0
ARC
  5
1B5B
  8
AM_0
 10
101.8434988500851
 20
242.02352259778311
 30
0.0
 40
1.0010120099999991
 50
240.47136
 51
270.3802
  0
ARC
  5
1B5C
  8
AM_0
 10
100.579208850085
 20
241.72721259778319
 30
0.0
 40
0.99910005
 50
179.69542000000001
 51
236.66176999999999
  0
ARC
  5
1B5D
  8
AM_0
 10
100.57785885008499
 20
238.1638275977833
 30
0.0
 40
0.9977079899999999
 50
180.07405
 51
242.04476
  0
ARC
  5
1B5E
  8
AM_0
 10
100.5789088500851
 20
237.1260315977832
 30
0.0
 40
0.9987801
 50
179.62666999999999
 51
238.70855
  0
ARC
  5
1B5F
  8
AM_0
 10
103.57767885008499
 20
242.02498959778319
 30
0.0
 40
1.00246002
 50
270.14037999999999
 51
359.85962000000001
  0
ARC
  5
1B60
  8
AM_0
 10
100.5786088500849
 20
242.76183459778321
 30
0.0
 40
0.9984600300000001
 50
179.95962
 51
239.38655
  0
ARC
  5
1B61
  8
AM_0
 10
103.5760888500849
 20
237.50661759778319
 30
0.0
 40
1.004084009999999
 50
270.23262999999997
 51
359.76737000000008
  0
ARC
  5
1B62
  8
AM_0
 10
104.07669885008499
 20
234.90592359778319
 30
0.0
 40
0.50340399
 50
270.38612999999998
 51
359.61387000000002
  0
ARC
  5
1B63
  8
AM_0
 10
104.08053885008511
 20
232.75297059778319
 30
0.0
 40
0.4995560100000002
 50
359.94911000000002
 51
90.050894000000014
  0
ARC
  5
1B64
  8
AM_0
 10
110.8062088500849
 20
232.02095859778331
 30
0.0
 40
1.998444029999999
 50
190.33240000000001
 51
270.11369000000002
  0
ARC
  5
1B65
  8
AM_0
 10
110.74503885008509
 20
226.7419065977833
 30
0.0
 40
1.9993920899999991
 50
192.1080399999999
 51
270.14582000000001
  0
ARC
  5
1B66
  8
AM_0
 10
106.36326885008521
 20
230.47344459778321
 30
0.0
 40
1.499099999999999
 50
11.89856
 51
89.736657999999963
  0
ARC
  5
1B67
  8
AM_0
 10
110.71713885008511
 20
223.33329159778319
 30
0.0
 40
2.0007560699999991
 50
193.3141599999999
 51
270.08645000000001
  0
ARC
  5
1B68
  8
AM_0
 10
106.39353885008521
 20
226.40502459778321
 30
0.0
 40
1.497512039999999
 50
13.418233000000001
 51
90.128792999999988
  0
ARC
  5
1B69
  8
AM_0
 10
106.4079388500849
 20
224.38440759778319
 30
0.0
 40
1.498128089999998
 50
14.224575
 51
89.916113999999993
  0
ARC
  5
1B6A
  8
AM_0
 10
110.6916388500849
 20
221.70566859778339
 30
0.0
 40
2.0031319199999991
 50
194.25158999999999
 51
269.95755000000003
  0
ARC
  5
1B6B
  8
AM_0
 10
127.5806188500851
 20
223.14296859778321
 30
0.0
 40
2.000452109999999
 50
180.0129
 51
269.9871
  0
ARC
  5
1B6C
  8
AM_0
 10
127.581458850085
 20
221.11384059778331
 30
0.0
 40
2.0013120899999981
 50
180.03756000000001
 51
269.96244000000002
  0
ARC
  5
1B6D
  8
AM_0
 10
127.5787888500849
 20
219.76114659778321
 30
0.0
 40
1.9986199799999991
 50
179.96046999999999
 51
270.03953000000001
  0
ARC
  5
1B6E
  8
AM_0
 10
127.5740788500852
 20
219.0925845977832
 30
0.0
 40
2.0000761200000001
 50
194.77498
 51
270.17353000000003
  0
ARC
  5
1B6F
  8
AM_0
 10
124.0785988500852
 20
228.52096059778319
 30
0.0
 40
1.5015680099999991
 50
0.059805003
 51
89.940196999999998
  0
ARC
  5
1B70
  8
AM_0
 10
124.0774288500852
 20
223.2398175977832
 30
0.0
 40
1.50271599
 50
0.103436
 51
89.896566000000007
  0
ARC
  5
1B71
  8
AM_0
 10
124.0804288500851
 20
219.83277159778319
 30
0.0
 40
1.49975601
 50
359.99059
 51
90.009407999999965
  0
ARC
  5
1B72
  8
AM_0
 10
124.1916988500852
 20
218.20588059778319
 30
0.0
 40
1.49664405
 50
14.57574
 51
90.058278000000001
  0
ARC
  5
1B73
  8
AM_0
 10
180.5741488500849
 20
221.1185535977832
 30
0.0
 40
2.0060480100000002
 50
270.17248999999998
 51
359.82751000000002
  0
ARC
  5
1B74
  8
AM_0
 10
180.5767588500851
 20
219.76589259778319
 30
0.0
 40
2.0033560499999989
 50
270.09593999999998
 51
359.90406000000002
  0
ARC
  5
1B75
  8
AM_0
 10
180.578228850085
 20
219.09441459778321
 30
0.0
 40
2.0019000299999989
 50
270.05437999999998
 51
359.94562000000002
  0
ARC
  5
1B76
  8
AM_0
 10
251.22552885008511
 20
235.1565495977832
 30
0.0
 40
1.49599605
 50
89.821707000000004
 51
165.04766000000001
  0
ARC
  5
1B77
  8
AM_0
 10
126.5753788500851
 20
298.00252959778322
 30
0.0
 40
1.000011959999999
 50
89.726507999999981
 51
270.27348000000001
  0
ARC
  5
1B78
  8
AM_0
 10
126.5753788500851
 20
308.00252859778323
 30
0.0
 40
1.000011959999999
 50
89.726507999999981
 51
270.27348000000001
  0
ARC
  5
1B79
  8
AM_0
 10
126.5753788500851
 20
318.00253059778322
 30
0.0
 40
1.000011959999999
 50
89.726507999999981
 51
270.27348000000001
  0
ARC
  5
1B7A
  8
AM_0
 10
108.8443588500849
 20
288.00753459778332
 30
0.0
 40
1.26501207
 50
89.737716000000006
 51
270.26227999999998
  0
ARC
  5
1B7B
  8
AM_0
 10
108.91014885008499
 20
298.01253759778331
 30
0.0
 40
1.330008059999999
 50
90.000003000000007
 51
270.0
  0
ARC
  5
1B7C
  8
AM_0
 10
118.040138850085
 20
308.02752459778333
 30
0.0
 40
1.465004009999999
 50
90.000003000000007
 51
270.0
  0
ARC
  5
1B7D
  8
AM_0
 10
118.253288850085
 20
318.04751259778322
 30
0.0
 40
1.6750160999999979
 50
89.766540000000006
 51
270.23345999999998
  0
ARC
  5
1B7E
  8
AM_0
 10
110.13018885008501
 20
288.00252759778323
 30
0.0
 40
1.0000000199999981
 50
90.000003000000007
 51
270.0
  0
ARC
  5
1B7F
  8
AM_0
 10
110.13018885008501
 20
298.00252959778322
 30
0.0
 40
1.0000000199999981
 50
90.000003000000007
 51
270.0
  0
ARC
  5
1B80
  8
AM_0
 10
119.125418850085
 20
318.00253059778322
 30
0.0
 40
1.000011959999999
 50
89.728448
 51
270.27154000000002
  0
ARC
  5
1B81
  8
AM_0
 10
119.125418850085
 20
308.00252859778323
 30
0.0
 40
1.000011959999999
 50
89.728448
 51
270.27154000000002
  0
ARC
  5
1B86
  8
AM_0
 10
248.40012885008511
 20
318.04751259778322
 30
0.0
 40
1.675004159999999
 50
276.16905573844588
 51
83.830944261554208
  0
ARC
  5
1B89
  8
AM_0
 10
248.40012885008511
 20
247.95754359778331
 30
0.0
 40
1.675004159999999
 50
276.16905573844969
 51
83.830944261550343
  0
ARC
  5
1B8A
  8
AM_0
 10
110.13018885008501
 20
278.0025435977833
 30
0.0
 40
1.0000000199999981
 50
90.000003000000007
 51
270.0
  0
ARC
  5
1B8B
  8
AM_0
 10
126.5753788500851
 20
268.00252959778328
 30
0.0
 40
1.000011959999999
 50
89.726507999999981
 51
270.27348000000001
  0
ARC
  5
1B8C
  8
AM_0
 10
126.5753788500851
 20
258.00252759778323
 30
0.0
 40
1.000011959999999
 50
89.726507999999981
 51
270.27348000000001
  0
ARC
  5
1B8D
  8
AM_0
 10
108.91014885008499
 20
267.99253359778328
 30
0.0
 40
1.330008059999999
 50
90.000003000000007
 51
270.0
  0
ARC
  5
1B8E
  8
AM_0
 10
109.040138850085
 20
257.97753459778329
 30
0.0
 40
1.465004009999999
 50
90.000003000000007
 51
270.0
  0
ARC
  5
1B8F
  8
AM_0
 10
110.125418850085
 20
248.00254359778319
 30
0.0
 40
1.000011959999999
 50
89.728461999999965
 51
270.27154000000002
  0
ARC
  5
1B91
  8
AM_0
 10
126.5753788500851
 20
248.00254359778319
 30
0.0
 40
1.000011959999999
 50
89.726507999999981
 51
270.27348000000001
  0
ARC
  5
1B92
  8
AM_0
 10
108.8443588500849
 20
278.0025435977833
 30
0.0
 40
1.2700120500000001
 50
89.738748000000001
 51
270.26123999999999
  0
ARC
  5
1B93
  8
AM_0
 10
109.253288850085
 20
247.95754359778331
 30
0.0
 40
1.6750160999999979
 50
89.764983000000015
 51
270.23500999999999
  0
ARC
  5
1B94
  8
AM_0
 10
110.13018885008501
 20
268.00252959778328
 30
0.0
 40
1.0000000199999981
 50
90.000003000000007
 51
270.0
  0
ARC
  5
1B95
  8
AM_0
 10
110.125418850085
 20
258.00252759778323
 30
0.0
 40
1.000011959999999
 50
89.728461999999965
 51
270.27154000000002
  0
LINE
  5
25BA
  8
ﾁｭｳｼﾝｾﾝ
 10
200.5801288500852
 20
334.00252959778339
 30
0.0
 11
200.5801288500852
 21
232.00252959778331
 31
0.0
  0
LINE
  5
26B6
  8
AM_0
 10
244.5801288500852
 20
237.00252959778331
 30
0.0
 11
156.5801288500852
 21
237.00252959778331
 31
0.0
  0
ARC
  5
26B7
  8
AM_0
 10
174.65119666195051
 20
242.00252959778331
 30
0.0
 40
5.0
 50
225.0
 51
270.0
1001
GENIUS_GENOBJ-N-FIL_13
1002
{
1000
OWNER
1000
GEN
1002
}
1001
GENIUS_GENODEF_13
1002
{
1000
HIER
1070
     0
1002
}
1002
{
1000
MANEDIT
1070
     0
1002
}
1002
{
1000
NOSEL
1070
     0
1002
}
1002
{
1000
BEHIND
1070
     0
1002
}
1002
{
1000
OTHER
1070
     0
1002
}
1002
{
1000
REACTOR
1002
}
  0
LINE
  5
26B8
  8
AM_0
 10
225.8522067887275
 20
242.00252959778331
 30
0.0
 11
175.3080509114429
 21
242.00252959778331
 31
0.0
  0
ARC
  5
26B9
  8
AM_0
 10
225.8522067887275
 20
247.00252959778331
 30
0.0
 40
5.0
 50
270.0
 51
315.0
1001
GENIUS_GENOBJ-N-FIL_13
1002
{
1000
OWNER
1000
GEN
1002
}
1001
GENIUS_GENODEF_13
1002
{
1000
HIER
1070
     0
1002
}
1002
{
1000
MANEDIT
1070
     0
1002
}
1002
{
1000
NOSEL
1070
     0
1002
}
1002
{
1000
BEHIND
1070
     0
1002
}
1002
{
1000
OTHER
1070
     0
1002
}
1002
{
1000
REACTOR
1002
}
  0
ARC
  5
26BA
  8
AM_0
 10
244.5801288500852
 20
241.00252959778331
 30
0.0
 40
4.0
 50
270.0
 51
0.0
1001
GENIUS_GENOBJ-N-FIL_13
1002
{
1000
OWNER
1000
GEN
1002
}
1001
GENIUS_GENODEF_13
1002
{
1000
HIER
1070
     0
1002
}
1002
{
1000
MANEDIT
1070
     0
1002
}
1002
{
1000
NOSEL
1070
     0
1002
}
1002
{
1000
BEHIND
1070
     0
1002
}
1002
{
1000
OTHER
1070
     0
1002
}
1002
{
1000
REACTOR
1002
}
  0
LINE
  5
26BB
  8
AM_0
 10
244.580128850085
 20
329.00252959778351
 30
0.0
 11
156.5801288500852
 21
329.00252959778351
 31
0.0
  0
ARC
  5
26BC
  8
AM_0
 10
226.5090610382197
 20
324.00252959778351
 30
0.0
 40
5.0
 50
45.0
 51
90.0
1001
GENIUS_GENOBJ-N-FIL_13
1002
{
1000
OWNER
1000
GEN
1002
}
1001
GENIUS_GENODEF_13
1002
{
1000
HIER
1070
     0
1002
}
1002
{
1000
MANEDIT
1070
     0
1002
}
1002
{
1000
NOSEL
1070
     0
1002
}
1002
{
1000
BEHIND
1070
     0
1002
}
1002
{
1000
OTHER
1070
     0
1002
}
1002
{
1000
REACTOR
1002
}
  0
ARC
  5
26BD
  8
AM_0
 10
174.65119666195071
 20
324.00252959778351
 30
0.0
 40
5.0
 50
90.0
 51
135.0
1001
GENIUS_GENODEF_13
1002
{
1000
HIER
1070
     0
1002
}
1002
{
1000
MANEDIT
1070
     0
1002
}
1002
{
1000
NOSEL
1070
     0
1002
}
1002
{
1000
BEHIND
1070
     0
1002
}
1002
{
1000
OTHER
1070
     0
1002
}
1002
{
1000
REACTOR
1002
}
1001
GENIUS_GENOBJ-N-FIL_13
1002
{
1000
OWNER
1000
GEN
1002
}
  0
LINE
  5
26BE
  8
AM_0
 10
225.85220678872719
 20
324.00252959778351
 30
0.0
 11
175.3080509114429
 21
324.00252959778351
 31
0.0
  0
ARC
  5
26BF
  8
AM_0
 10
175.3080509114429
 20
319.00252959778351
 30
0.0
 40
5.0
 50
90.0
 51
135.0
1001
GENIUS_GENODEF_13
1002
{
1000
HIER
1070
     0
1002
}
1002
{
1000
MANEDIT
1070
     0
1002
}
1002
{
1000
NOSEL
1070
     0
1002
}
1002
{
1000
BEHIND
1070
     0
1002
}
1002
{
1000
OTHER
1070
     0
1002
}
1002
{
1000
REACTOR
1002
}
1001
GENIUS_GENOBJ-N-FIL_13
1002
{
1000
OWNER
1000
GEN
1002
}
  0
ARC
  5
26C0
  8
AM_0
 10
156.5801288500852
 20
325.00252959778351
 30
0.0
 40
4.0
 50
90.0
 51
180.0
1001
GENIUS_GENODEF_13
1002
{
1000
HIER
1070
     0
1002
}
1002
{
1000
MANEDIT
1070
     0
1002
}
1002
{
1000
NOSEL
1070
     0
1002
}
1002
{
1000
BEHIND
1070
     0
1002
}
1002
{
1000
OTHER
1070
     0
1002
}
1002
{
1000
REACTOR
1002
}
1001
GENIUS_GENOBJ-N-FIL_13
1002
{
1000
OWNER
1000
GEN
1002
}
  0
LINE
  5
26C1
  8
AM_0
 10
152.5801288500852
 20
325.00252959778351
 30
0.0
 11
152.5801288500852
 21
241.00252959778331
 31
0.0
  0
ARC
  5
26C2
  8
AM_0
 10
157.5801288500852
 20
259.07359740964853
 30
0.0
 40
5.0
 50
180.0
 51
225.0
1001
GENIUS_GENOBJ-N-FIL_13
1002
{
1000
OWNER
1000
GEN
1002
}
1001
GENIUS_GENODEF_13
1002
{
1000
HIER
1070
     0
1002
}
1002
{
1000
MANEDIT
1070
     0
1002
}
1002
{
1000
NOSEL
1070
     0
1002
}
1002
{
1000
BEHIND
1070
     0
1002
}
1002
{
1000
OTHER
1070
     0
1002
}
1002
{
1000
REACTOR
1002
}
  0
ARC
  5
26C3
  8
AM_0
 10
157.5801288500852
 20
306.9314617859182
 30
0.0
 40
5.0
 50
135.0
 51
180.0
1001
GENIUS_GENOBJ-N-FIL_13
1002
{
1000
OWNER
1000
GEN
1002
}
1001
GENIUS_GENODEF_13
1002
{
1000
HIER
1070
     0
1002
}
1002
{
1000
MANEDIT
1070
     0
1002
}
1002
{
1000
NOSEL
1070
     0
1002
}
1002
{
1000
BEHIND
1070
     0
1002
}
1002
{
1000
OTHER
1070
     0
1002
}
1002
{
1000
REACTOR
1002
}
  0
LINE
  5
26C4
  8
AM_0
 10
157.5801288500852
 20
306.27460753642549
 30
0.0
 11
157.580128850085
 21
259.73045165914101
 31
0.0
  0
ARC
  5
26C5
  8
AM_0
 10
162.58012885008489
 20
259.73045165914101
 30
0.0
 40
5.0
 50
180.0
 51
225.0
1001
GENIUS_GENOBJ-N-FIL_13
1002
{
1000
OWNER
1000
GEN
1002
}
1001
GENIUS_GENODEF_13
1002
{
1000
HIER
1070
     0
1002
}
1002
{
1000
MANEDIT
1070
     0
1002
}
1002
{
1000
NOSEL
1070
     0
1002
}
1002
{
1000
BEHIND
1070
     0
1002
}
1002
{
1000
OTHER
1070
     0
1002
}
1002
{
1000
REACTOR
1002
}
  0
ARC
  5
26C6
  8
AM_0
 10
156.5801288500852
 20
241.00252959778331
 30
0.0
 40
4.0
 50
180.0
 51
270.0
1001
GENIUS_GENODEF_13
1002
{
1000
HIER
1070
     0
1002
}
1002
{
1000
MANEDIT
1070
     0
1002
}
1002
{
1000
NOSEL
1070
     0
1002
}
1002
{
1000
BEHIND
1070
     0
1002
}
1002
{
1000
OTHER
1070
     0
1002
}
1002
{
1000
REACTOR
1002
}
1001
GENIUS_GENOBJ-N-FIL_13
1002
{
1000
OWNER
1000
GEN
1002
}
  0
LINE
  5
26C7
  8
AM_0
 10
248.5801288500852
 20
325.00252959778351
 30
0.0
 11
248.5801288500852
 21
241.00252959778331
 31
0.0
  0
ARC
  5
26C8
  8
AM_0
 10
243.5801288500852
 20
306.93146178591809
 30
0.0
 40
5.0
 50
0.0
 51
45.0
1001
GENIUS_GENOBJ-N-FIL_13
1002
{
1000
OWNER
1000
GEN
1002
}
1001
GENIUS_GENODEF_13
1002
{
1000
HIER
1070
     0
1002
}
1002
{
1000
MANEDIT
1070
     0
1002
}
1002
{
1000
NOSEL
1070
     0
1002
}
1002
{
1000
BEHIND
1070
     0
1002
}
1002
{
1000
OTHER
1070
     0
1002
}
1002
{
1000
REACTOR
1002
}
  0
ARC
  5
26C9
  8
AM_0
 10
243.5801288500852
 20
259.07359740964881
 30
0.0
 40
5.0
 50
315.0
 51
0.0
1001
GENIUS_GENOBJ-N-FIL_13
1002
{
1000
OWNER
1000
GEN
1002
}
1001
GENIUS_GENODEF_13
1002
{
1000
HIER
1070
     0
1002
}
1002
{
1000
MANEDIT
1070
     0
1002
}
1002
{
1000
NOSEL
1070
     0
1002
}
1002
{
1000
BEHIND
1070
     0
1002
}
1002
{
1000
OTHER
1070
     0
1002
}
1002
{
1000
REACTOR
1002
}
  0
LINE
  5
26CA
  8
AM_0
 10
230.04459494415229
 20
327.53806350371622
 30
0.0
 11
247.11566275601791
 21
310.46699569185068
 31
0.0
  0
LINE
  5
26CB
  8
AM_0
 10
229.3877406946599
 20
322.53806350371622
 30
0.0
 11
242.1156627560176
 21
309.81014144235849
 31
0.0
  0
ARC
  5
26CC
  8
AM_0
 10
225.85220678872719
 20
319.00252959778351
 30
0.0
 40
5.0
 50
45.0
 51
90.0
1001
GENIUS_GENOBJ-N-FIL_13
1002
{
1000
OWNER
1000
GEN
1002
}
1001
GENIUS_GENODEF_13
1002
{
1000
HIER
1070
     0
1002
}
1002
{
1000
MANEDIT
1070
     0
1002
}
1002
{
1000
NOSEL
1070
     0
1002
}
1002
{
1000
BEHIND
1070
     0
1002
}
1002
{
1000
OTHER
1070
     0
1002
}
1002
{
1000
REACTOR
1002
}
  0
LINE
  5
26CD
  8
AM_0
 10
243.580128850085
 20
306.27460753642572
 30
0.0
 11
243.5801288500852
 21
259.73045165914101
 31
0.0
  0
ARC
  5
26CE
  8
AM_0
 10
238.580128850085
 20
306.27460753642572
 30
0.0
 40
5.0
 50
0.0
 51
45.0
1001
GENIUS_GENODEF_13
1002
{
1000
HIER
1070
     0
1002
}
1002
{
1000
MANEDIT
1070
     0
1002
}
1002
{
1000
NOSEL
1070
     0
1002
}
1002
{
1000
BEHIND
1070
     0
1002
}
1002
{
1000
OTHER
1070
     0
1002
}
1002
{
1000
REACTOR
1002
}
1001
GENIUS_GENOBJ-N-FIL_13
1002
{
1000
OWNER
1000
GEN
1002
}
  0
ARC
  5
26CF
  8
AM_0
 10
244.580128850085
 20
325.00252959778351
 30
0.0
 40
4.0
 50
0.0
 51
90.0
1001
GENIUS_GENODEF_13
1002
{
1000
HIER
1070
     0
1002
}
1002
{
1000
MANEDIT
1070
     0
1002
}
1002
{
1000
NOSEL
1070
     0
1002
}
1002
{
1000
BEHIND
1070
     0
1002
}
1002
{
1000
OTHER
1070
     0
1002
}
1002
{
1000
REACTOR
1002
}
1001
GENIUS_GENOBJ-N-FIL_13
1002
{
1000
OWNER
1000
GEN
1002
}
  0
LINE
  5
26D0
  8
ﾁｭｳｼﾝｾﾝ1
 10
243.58012885008651
 20
318.00252959778311
 30
0.0
 11
243.58012885008731
 21
330.002529597783
 31
0.0
  0
LINE
  5
26D1
  8
ﾁｭｳｼﾝｾﾝ1
 10
249.58012885008699
 20
324.00252959778283
 30
0.0
 11
237.58012885008699
 21
324.00252959778351
 31
0.0
  0
LINE
  5
26D2
  8
AM_0
 10
149.08012885008509
 20
296.50252959778351
 30
0.0
 11
151.580128850085
 21
296.50252959778362
 31
0.0
  0
LINE
  5
26D3
  8
AM_0
 10
151.5801288500852
 20
269.50252959778362
 30
0.0
 11
149.08012885008509
 21
269.50252959778362
 31
0.0
  0
LINE
  5
26D4
  8
AM_0
 10
138.1814577537391
 20
272.50252959778362
 30
0.0
 11
138.1814577537391
 21
293.50252959778351
 31
0.0
  0
LINE
  5
26D5
  8
AM_0
 10
123.1814577537391
 20
291.03415465179847
 30
0.0
 11
123.1814577537391
 21
274.97090454376757
 31
0.0
  0
LINE
  5
26D6
  8
AM_0
 10
136.1814577537391
 20
271.00252959778351
 30
0.0
 11
136.1814577537391
 21
295.00252959778351
 31
0.0
  0
LINE
  5
26D7
  8
AM_0
 10
126.6814577537391
 20
283.00252959778351
 30
0.0
 11
127.1814577537391
 21
282.50252959778351
 31
0.0
  0
LINE
  5
26D8
  8
AM_0
 10
133.6814577537391
 20
294.70252959778338
 30
0.0
 11
133.6814577537391
 21
271.30252959778352
 31
0.0
  0
LINE
  5
26D9
  8
AM_0
 10
143.5801288500852
 20
294.50252959778351
 30
0.0
 11
143.5801288500852
 21
271.50252959778362
 31
0.0
  0
LINE
  5
26DA
  8
AM_0
 10
137.6814577537391
 20
282.30252959778147
 30
0.0
 11
137.6814577537391
 21
283.70252959778452
 31
0.0
  0
LINE
  5
26DB
  8
AM_0
 10
139.78109348031009
 20
273.90252959778348
 30
0.0
 11
139.031093480311
 21
292.10252959778347
 31
0.0
  0
LINE
  5
26DC
  8
AM_0
 10
138.8301288500852
 20
273.90252959778348
 30
0.0
 11
138.1814577537391
 21
289.64361486909951
 31
0.0
  0
LINE
  5
26DD
  8
AM_0
 10
139.57882144065701
 20
273.18687088541952
 30
0.0
 11
138.831561397249
 21
292.81490135895052
 31
0.0
  0
LINE
  5
26DE
  8
AM_0
 10
139.02966093314711
 20
273.19015783661558
 30
0.0
 11
138.281093480311
 21
292.85252959778342
 31
0.0
  0
LINE
  5
26DF
  8
AM_0
 10
136.1814577537391
 20
295.00252959778351
 30
0.0
 11
133.98145775373899
 21
295.00252959778351
 31
0.0
  0
ARC
  5
26E0
  8
AM_0
 10
148.08012885008509
 20
295.50252959778351
 30
0.0
 40
0.5
 50
269.99999999998693
 51
0.0
  0
ARC
  5
26E1
  8
AM_0
 10
149.08012885008509
 20
296.00252959778351
 30
0.0
 40
0.5
 50
90.0
 51
180.0
  0
LINE
  5
26E2
  8
AM_0
 10
148.5801288500852
 20
295.50252959778351
 30
0.0
 11
148.5801288500852
 21
296.00252959778351
 31
0.0
  0
LINE
  5
26E3
  8
AM_0
 10
139.5801288500852
 20
292.10252959778347
 30
0.0
 11
143.0801288500852
 21
292.10252959778342
 31
0.0
  0
LINE
  5
26E4
  8
AM_0
 10
148.5801288500852
 20
293.85860091919039
 30
0.0
 11
148.5801288500852
 21
284.14645827637543
 31
0.0
  0
LINE
  5
26E5
  8
AM_0
 10
144.0801288500852
 20
295.00252959778351
 30
0.0
 11
148.08012885008489
 21
295.00252959778351
 31
0.0
  0
LINE
  5
26E6
  8
AM_0
 10
148.08012885008509
 20
294.35860091919039
 30
0.0
 11
143.5801288500852
 21
294.35860091919039
 31
0.0
  0
ARC
  5
26E7
  8
AM_0
 10
148.08012885008509
 20
293.85860091919039
 30
0.0
 40
0.5
 50
0.0
 51
90.0
  0
ARC
  5
26E8
  8
AM_0
 10
143.0801288500852
 20
292.60252959778342
 30
0.0
 40
0.5
 50
270.0
 51
0.0
  0
ARC
  5
26E9
  8
AM_0
 10
144.0801288500852
 20
294.50252959778351
 30
0.0
 40
0.5
 50
90.0
 51
180.0
  0
LINE
  5
26EA
  8
AM_0
 10
148.08012885008509
 20
283.64645827637543
 30
0.0
 11
143.5801288500852
 21
283.64645827637543
 31
0.0
  0
ARC
  5
26EB
  8
AM_0
 10
148.08012885008509
 20
284.14645827637543
 30
0.0
 40
0.5
 50
270.0
 51
0.0
  0
LINE
  5
26EC
  8
AM_0
 10
137.6814577537391
 20
289.14770035007552
 30
0.0
 11
137.6814577537391
 21
287.97545716364249
 31
0.0
  0
LINE
  5
26ED
  8
AM_0
 10
139.107825908736
 20
292.10252959778347
 30
0.0
 11
139.5801288500852
 21
292.10252959778347
 31
0.0
  0
LINE
  5
26EE
  8
AM_0
 10
139.01123341419679
 20
292.17664736452008
 30
0.0
 11
139.031093480311
 21
292.10252959778347
 31
0.0
  0
ARC
  5
26EF
  8
AM_0
 10
139.1078259087362
 20
292.20252959778338
 30
0.0
 40
0.1000000000000346
 50
195.00019500644541
 51
270.0
  0
ARC
  5
26F0
  8
AM_0
 10
137.38145775373911
 20
292.2893625782915
 30
0.0
 40
0.3000000000000043
 50
270.0
 51
0.0
  0
LINE
  5
26F1
  8
AM_0
 10
136.1814577537391
 20
294.40252959778348
 30
0.0
 11
137.40141345689631
 21
294.32119921757248
 31
0.0
  0
LINE
  5
26F2
  8
AM_0
 10
136.1814577537391
 20
293.24627756194349
 30
0.0
 11
137.38145775373911
 21
293.24627756194349
 31
0.0
  0
LINE
  5
26F3
  8
AM_0
 10
137.6814577537391
 20
294.00252959778351
 30
0.0
 11
136.1814577537391
 21
294.00252959778351
 31
0.0
  0
ARC
  5
26F4
  8
AM_0
 10
137.6814577537391
 20
293.50252959778351
 30
0.0
 40
0.5
 50
0.0
 51
90.0
  0
LINE
  5
26F5
  8
AM_0
 10
137.6814577537391
 20
294.02186367021551
 30
0.0
 11
137.6814577537391
 21
294.00252959778351
 31
0.0
  0
LINE
  5
26F6
  8
AM_0
 10
137.6814577537391
 20
294.30252959778352
 30
0.0
 11
137.6814577537391
 21
294.02186367021551
 31
0.0
  0
LINE
  5
26F7
  8
AM_0
 10
137.40141345689631
 20
294.32119921757248
 30
0.0
 11
137.6814577537391
 21
294.30252959778352
 31
0.0
  0
ARC
  5
26F8
  8
AM_0
 10
137.38145775373911
 20
294.02186367021551
 30
0.0
 40
0.3000000000000007
 50
0.0
 51
86.185925165718274
  0
LINE
  5
26F9
  8
AM_0
 10
138.75339642166
 20
292.85252959778342
 30
0.0
 11
138.83012885008611
 21
292.85252959778342
 31
0.0
  0
LINE
  5
26FA
  8
AM_0
 10
138.83012885008611
 20
292.85252959778342
 30
0.0
 11
138.84998891619921
 21
292.77841183104692
 31
0.0
  0
LINE
  5
26FB
  8
AM_0
 10
138.26123341419699
 20
292.77841183104692
 30
0.0
 11
138.281093480311
 21
292.85252959778342
 31
0.0
  0
LINE
  5
26FC
  8
AM_0
 10
138.281093480311
 20
292.85252959778342
 30
0.0
 11
138.357825908736
 21
292.85252959778342
 31
0.0
  0
LINE
  5
26FD
  8
AM_0
 10
138.84998891619921
 20
292.77841183104692
 30
0.0
 11
139.01123341419679
 21
292.17664736452008
 31
0.0
  0
LINE
  5
26FE
  8
AM_0
 10
138.357825908736
 20
292.85252959778342
 30
0.0
 11
138.75339642166
 21
292.85252959778342
 31
0.0
  0
LINE
  5
26FF
  8
AM_0
 10
138.18145775374001
 20
292.48068906622251
 30
0.0
 11
138.26123341419699
 21
292.77841183104692
 31
0.0
  0
ARC
  5
2700
  8
AM_0
 10
138.7533964216602
 20
292.75252959778351
 30
0.0
 40
0.0999999999999866
 50
15.00019500657341
 51
90.0
  0
ARC
  5
2701
  8
AM_0
 10
138.3578259087362
 20
292.75252959778351
 30
0.0
 40
0.1000000000000014
 50
90.0
 51
164.99980499342661
  0
LINE
  5
2702
  8
AM_0
 10
137.6814577537391
 20
292.94627756194342
 30
0.0
 11
137.6814577537391
 21
292.2893625782915
 31
0.0
  0
ARC
  5
2703
  8
AM_0
 10
137.38145775373911
 20
292.94627756194342
 30
0.0
 40
0.3000000000000007
 50
0.0
 51
90.0
  0
LINE
  5
2704
  8
AM_0
 10
136.1814577537391
 20
289.44770035007548
 30
0.0
 11
137.38145775373911
 21
289.44770035007548
 31
0.0
  0
LINE
  5
2705
  8
AM_0
 10
137.38145775373911
 20
291.98936257829149
 30
0.0
 11
136.1814577537391
 21
291.98936257829149
 31
0.0
  0
LINE
  5
2706
  8
AM_0
 10
139.031093480311
 20
292.10252959778347
 30
0.0
 11
139.107825908736
 21
292.10252959778347
 31
0.0
  0
ARC
  5
2707
  8
AM_0
 10
137.38145775373911
 20
289.14770035007552
 30
0.0
 40
0.3000000000000007
 50
0.0
 51
90.0
  0
LINE
  5
2708
  8
AM_0
 10
137.38145775373911
 20
287.67545716364248
 30
0.0
 11
136.1814577537391
 21
287.67545716364248
 31
0.0
  0
ARC
  5
2709
  8
AM_0
 10
137.38145775373911
 20
287.97545716364249
 30
0.0
 40
0.3000000000000043
 50
270.0
 51
0.0
  0
LINE
  5
270A
  8
AM_0
 10
137.38145775373911
 20
284.00252959778447
 30
0.0
 11
136.1814577537391
 21
284.00252959778447
 31
0.0
  0
ARC
  5
270B
  8
AM_0
 10
137.38145775373911
 20
283.70252959778452
 30
0.0
 40
0.3000000000000007
 50
0.0
 51
90.0
  0
LINE
  5
270C
  8
AM_0
 10
127.1814577537391
 20
293.13580942643028
 30
0.0
 11
133.6814577537391
 21
293.13580942643028
 31
0.0
  0
LINE
  5
270D
  8
AM_0
 10
127.1814577537391
 20
293.63580942643028
 30
0.0
 11
133.6814577537391
 21
293.63580942643028
 31
0.0
  0
LINE
  5
270E
  8
AM_0
 10
133.6814577537391
 20
283.50252959778351
 30
0.0
 11
127.1814577537391
 21
283.50252959778351
 31
0.0
  0
LINE
  5
270F
  8
AM_0
 10
126.6814577537391
 20
284.00252959778351
 30
0.0
 11
133.6814577537391
 21
284.00252959778351
 31
0.0
  0
LINE
  5
2710
  8
AM_0
 10
133.38145775373911
 20
294.00252959778351
 30
0.0
 11
126.5435076889211
 21
294.00252959778351
 31
0.0
  0
LINE
  5
2711
  8
AM_0
 10
133.6814577537391
 20
284.34921766632448
 30
0.0
 11
127.1814577537391
 21
284.34921766632448
 31
0.0
  0
LINE
  5
2712
  8
AM_0
 10
133.6814577537391
 20
292.65584152924248
 30
0.0
 11
127.1814577537391
 21
292.65584152924248
 31
0.0
  0
ARC
  5
2713
  8
AM_0
 10
133.98145775373899
 20
294.70252959778338
 30
0.0
 40
0.2999999999999971
 50
90.0
 51
180.0
  0
ARC
  5
2714
  8
AM_0
 10
133.38145775373911
 20
294.30252959778352
 30
0.0
 40
0.2999999999999971
 50
270.0
 51
0.0
  0
ARC
  5
2715
  8
AM_0
 10
135.3064577537391
 20
288.50252959778351
 30
0.0
 40
9.124999999999984
 50
152.92493329271929
 51
207.07506670728071
  0
LINE
  5
2716
  8
AM_0
 10
125.9033232892566
 20
293.77075087738092
 30
0.0
 11
123.54127335407451
 21
291.80237593139589
 31
0.0
  0
LINE
  5
2717
  8
AM_0
 10
126.6814577537391
 20
293.42409701427528
 30
0.0
 11
127.1814577537391
 21
294.00252959778351
 31
0.0
  0
ARC
  5
2718
  8
AM_0
 10
126.5435076889211
 20
293.00252959778351
 30
0.0
 40
1.0
 50
90.0
 51
129.805571092256
  0
LINE
  5
2719
  8
AM_0
 10
127.1814577537391
 20
293.63580942643028
 30
0.0
 11
126.6814577537391
 21
293.42409701427528
 31
0.0
  0
LINE
  5
271A
  8
AM_0
 10
126.6814577537391
 20
292.9618217413045
 30
0.0
 11
127.1814577537391
 21
293.63580942643028
 31
0.0
  0
LINE
  5
271B
  8
AM_0
 10
127.1814577537391
 20
293.13580942643028
 30
0.0
 11
126.6814577537391
 21
292.9618217413045
 31
0.0
  0
LINE
  5
271C
  8
AM_0
 10
126.6814577537391
 20
292.42409701427528
 30
0.0
 11
127.1814577537391
 21
293.13580942643028
 31
0.0
  0
LINE
  5
271D
  8
AM_0
 10
127.1814577537391
 20
292.65584152924248
 30
0.0
 11
126.6814577537391
 21
292.42409701427528
 31
0.0
  0
ARC
  5
271E
  8
AM_0
 10
124.1814577537391
 20
291.03415465179847
 30
0.0
 40
1.0000000000000291
 50
129.80557109226521
 51
180.0
  0
LINE
  5
271F
  8
AM_0
 10
127.1814577537391
 20
283.50252959778351
 30
0.0
 11
126.6814577537391
 21
283.00252959778351
 31
0.0
  0
LINE
  5
2720
  8
AM_0
 10
126.6814577537391
 20
284.00252959778351
 30
0.0
 11
127.1814577537391
 21
283.50252959778351
 31
0.0
  0
LINE
  5
2721
  8
AM_0
 10
127.1814577537391
 20
284.34921766632448
 30
0.0
 11
126.6814577537391
 21
284.00252959778351
 31
0.0
  0
LINE
  5
2722
  8
AM_0
 10
133.98145775373899
 20
271.00252959778351
 30
0.0
 11
136.1814577537391
 21
271.00252959778351
 31
0.0
  0
ARC
  5
2723
  8
AM_0
 10
148.08012885008509
 20
270.50252959778362
 30
0.0
 40
0.5
 50
0.0
 51
90.000000000006537
  0
LINE
  5
2724
  8
AM_0
 10
143.0801288500852
 20
273.90252959778348
 30
0.0
 11
139.857825908736
 21
273.90252959778348
 31
0.0
  0
LINE
  5
2725
  8
AM_0
 10
148.5801288500852
 20
281.85860091919039
 30
0.0
 11
148.5801288500852
 21
272.14645827637543
 31
0.0
  0
LINE
  5
2726
  8
AM_0
 10
143.5801288500852
 20
282.35860091919051
 30
0.0
 11
148.08012885008509
 21
282.35860091919051
 31
0.0
  0
ARC
  5
2727
  8
AM_0
 10
148.08012885008509
 20
281.85860091919039
 30
0.0
 40
0.5
 50
0.0
 51
90.0
  0
LINE
  5
2728
  8
AM_0
 10
143.5801288500852
 20
271.64645827637543
 30
0.0
 11
148.08012885008509
 21
271.64645827637543
 31
0.0
  0
LINE
  5
2729
  8
AM_0
 10
148.08012885008489
 20
271.00252959778351
 30
0.0
 11
144.0801288500852
 21
271.00252959778351
 31
0.0
  0
ARC
  5
272A
  8
AM_0
 10
148.08012885008509
 20
272.14645827637543
 30
0.0
 40
0.5
 50
270.0
 51
0.0
  0
ARC
  5
272B
  8
AM_0
 10
143.0801288500852
 20
273.40252959778348
 30
0.0
 40
0.5
 50
0.0
 51
90.0
  0
ARC
  5
272C
  8
AM_0
 10
144.0801288500852
 20
271.50252959778362
 30
0.0
 40
0.5
 50
180.0
 51
270.0
  0
ARC
  5
272D
  8
AM_0
 10
137.38145775373911
 20
276.85735884549138
 30
0.0
 40
0.3000000000000114
 50
270.0
 51
0.0
  0
LINE
  5
272E
  8
AM_0
 10
136.1814577537391
 20
282.0025295977814
 30
0.0
 11
137.38145775373911
 21
282.0025295977814
 31
0.0
  0
ARC
  5
272F
  8
AM_0
 10
137.38145775373911
 20
282.30252959778147
 30
0.0
 40
0.2999999999999971
 50
270.0
 51
0.0
  0
LINE
  5
2730
  8
AM_0
 10
136.1814577537391
 20
278.32960203192448
 30
0.0
 11
137.38145775373911
 21
278.32960203192448
 31
0.0
  0
ARC
  5
2731
  8
AM_0
 10
137.38145775373911
 20
278.02960203192441
 30
0.0
 40
0.3000000000000007
 50
0.0
 51
90.0
  0
LINE
  5
2732
  8
AM_0
 10
137.6814577537391
 20
278.02960203192453
 30
0.0
 11
137.6814577537391
 21
276.85735884549149
 31
0.0
  0
LINE
  5
2733
  8
AM_0
 10
139.107825908736
 20
273.15252959778348
 30
0.0
 11
139.50339642166
 21
273.15252959778348
 31
0.0
  0
LINE
  5
2734
  8
AM_0
 10
139.107825908736
 20
273.15252959778348
 30
0.0
 11
139.50339642166
 21
273.15252959778348
 31
0.0
  0
LINE
  5
2735
  8
AM_0
 10
139.59998891619921
 20
273.22664736451998
 30
0.0
 11
139.76123341419699
 21
273.82841183104699
 31
0.0
  0
LINE
  5
2736
  8
AM_0
 10
139.59998891619921
 20
273.22664736451998
 30
0.0
 11
139.76123341419699
 21
273.82841183104699
 31
0.0
  0
ARC
  5
2737
  8
AM_0
 10
139.857825908736
 20
273.80252959778352
 30
0.0
 40
0.0999999999999943
 50
90.0
 51
164.99980499348811
  0
ARC
  5
2738
  8
AM_0
 10
139.50339642166
 20
273.25252959778362
 30
0.0
 40
0.0999999999999943
 50
270.0
 51
344.99980499349448
  0
LINE
  5
2739
  8
AM_0
 10
138.18061116519809
 20
273.52752959778331
 30
0.0
 11
138.26123341419699
 21
273.82841183104699
 31
0.0
  0
LINE
  5
273A
  8
AM_0
 10
138.83283950229111
 20
273.86326506468549
 30
0.0
 11
139.01123341419699
 21
273.22664736451998
 31
0.0
  0
LINE
  5
273B
  8
AM_0
 10
138.84998891619921
 20
273.82841183104699
 30
0.0
 11
139.01123341419699
 21
273.22664736451998
 31
0.0
  0
LINE
  5
273C
  8
AM_0
 10
137.6814577537391
 20
273.71569661727449
 30
0.0
 11
137.6814577537391
 21
273.05878163362348
 31
0.0
  0
LINE
  5
273D
  8
AM_0
 10
138.1814577537391
 20
273.5306890662215
 30
0.0
 11
138.26123341419699
 21
273.82841183104699
 31
0.0
  0
LINE
  5
273E
  8
AM_0
 10
136.1814577537391
 20
274.0156966172745
 30
0.0
 11
137.38145775373911
 21
274.0156966172745
 31
0.0
  0
LINE
  5
273F
  8
AM_0
 10
137.38145775373911
 20
276.55735884549148
 30
0.0
 11
136.1814577537391
 21
276.55735884549051
 31
0.0
  0
LINE
  5
2740
  8
AM_0
 10
138.7860286871751
 20
273.90252959778348
 30
0.0
 11
138.83283950229111
 21
273.86326506468549
 31
0.0
  0
LINE
  5
2741
  8
AM_0
 10
138.357825908736
 20
273.90252959778348
 30
0.0
 11
138.7860286871751
 21
273.90252959778348
 31
0.0
  0
LINE
  5
2742
  8
AM_0
 10
138.357825908736
 20
273.90252959778348
 30
0.0
 11
138.75339642166
 21
273.90252959778348
 31
0.0
  0
ARC
  5
2743
  8
AM_0
 10
138.357825908736
 20
273.80252959778352
 30
0.0
 40
0.0999999999999943
 50
90.0
 51
164.99980499348811
  0
ARC
  5
2744
  8
AM_0
 10
138.75339642166
 20
273.80252959778352
 30
0.0
 40
0.0999999999999608
 50
15.00019500651173
 51
90.0
  0
ARC
  5
2745
  8
AM_0
 10
137.38145775373911
 20
273.71569661727438
 30
0.0
 40
0.3000000000000007
 50
0.0
 51
90.0
  0
LINE
  5
2746
  8
AM_0
 10
136.1814577537391
 20
272.00252959778362
 30
0.0
 11
137.6814577537391
 21
272.00252959778362
 31
0.0
  0
LINE
  5
2747
  8
AM_0
 10
137.38145775373911
 20
272.75878163362358
 30
0.0
 11
136.1814577537391
 21
272.75878163362358
 31
0.0
  0
LINE
  5
2748
  8
AM_0
 10
137.40141345689631
 20
271.68385997799362
 30
0.0
 11
136.1814577537391
 21
271.60252959778347
 31
0.0
  0
ARC
  5
2749
  8
AM_0
 10
137.6814577537391
 20
272.50252959778362
 30
0.0
 40
0.5
 50
270.0
 51
0.0
  0
ARC
  5
274A
  8
AM_0
 10
139.107825908736
 20
273.25252959778362
 30
0.0
 40
0.0999999999999606
 50
195.00019500650541
 51
270.0
  0
ARC
  5
274B
  8
AM_0
 10
137.38145775373911
 20
273.05878163362348
 30
0.0
 40
0.2999999999999971
 50
270.0
 51
0.0
  0
LINE
  5
274C
  8
AM_0
 10
137.6814577537391
 20
272.00252959778362
 30
0.0
 11
137.6814577537391
 21
271.98319552535048
 31
0.0
  0
ARC
  5
274D
  8
AM_0
 10
137.38145775373911
 20
271.98319552535048
 30
0.0
 40
0.3000000000000043
 50
273.81407483428171
 51
0.0
  0
ARC
  5
274E
  8
AM_0
 10
149.08012885008509
 20
270.00252959778362
 30
0.0
 40
0.5
 50
180.0
 51
270.0
  0
LINE
  5
274F
  8
AM_0
 10
148.5801288500852
 20
270.00252959778362
 30
0.0
 11
148.5801288500852
 21
270.50252959778362
 31
0.0
  0
LINE
  5
2750
  8
AM_0
 10
127.1814577537391
 20
273.34921766632448
 30
0.0
 11
133.6814577537391
 21
273.34921766632448
 31
0.0
  0
LINE
  5
2751
  8
AM_0
 10
127.1814577537391
 20
281.65584152924248
 30
0.0
 11
133.6814577537391
 21
281.65584152924248
 31
0.0
  0
LINE
  5
2752
  8
AM_0
 10
126.5435076889211
 20
272.00252959778362
 30
0.0
 11
133.38145775373911
 21
272.00252959778362
 31
0.0
  0
LINE
  5
2753
  8
AM_0
 10
133.6814577537391
 20
282.00252959778351
 30
0.0
 11
126.6814577537391
 21
282.00252959778351
 31
0.0
  0
LINE
  5
2754
  8
AM_0
 10
127.1814577537391
 20
282.50252959778351
 30
0.0
 11
133.6814577537391
 21
282.50252959778351
 31
0.0
  0
LINE
  5
2755
  8
AM_0
 10
133.6814577537391
 20
272.36924976913548
 30
0.0
 11
127.1814577537391
 21
272.36924976913548
 31
0.0
  0
LINE
  5
2756
  8
AM_0
 10
133.6814577537391
 20
272.86924976913548
 30
0.0
 11
127.1814577537391
 21
272.86924976913548
 31
0.0
  0
ARC
  5
2757
  8
AM_0
 10
133.38145775373911
 20
271.70252959778338
 30
0.0
 40
0.3000000000000043
 50
0.0
 51
90.0
  0
ARC
  5
2758
  8
AM_0
 10
133.98145775373899
 20
271.30252959778352
 30
0.0
 40
0.2999999999999971
 50
180.0
 51
270.0
  0
ARC
  5
2759
  8
AM_0
 10
135.3064577537391
 20
277.50252959778362
 30
0.0
 40
9.124999999999984
 50
152.92493329271929
 51
207.07506670728071
  0
LINE
  5
275A
  8
AM_0
 10
126.6814577537391
 20
282.00252959778351
 30
0.0
 11
127.1814577537391
 21
281.65584152924248
 31
0.0
  0
LINE
  5
275B
  8
AM_0
 10
127.1814577537391
 20
282.50252959778351
 30
0.0
 11
126.6814577537391
 21
282.00252959778351
 31
0.0
  0
LINE
  5
275C
  8
AM_0
 10
123.54127335407451
 20
274.20268326416999
 30
0.0
 11
125.9033232892566
 21
272.23430831818598
 31
0.0
  0
LINE
  5
275D
  8
AM_0
 10
127.1814577537391
 20
272.00252959778362
 30
0.0
 11
126.6814577537391
 21
272.58096218129049
 31
0.0
  0
ARC
  5
275E
  8
AM_0
 10
126.5435076889211
 20
273.00252959778351
 30
0.0
 40
1.0000000000000411
 50
230.19442890774391
 51
270.0
  0
LINE
  5
275F
  8
AM_0
 10
126.6814577537391
 20
273.58096218129049
 30
0.0
 11
127.1814577537391
 21
273.34921766632448
 31
0.0
  0
LINE
  5
2760
  8
AM_0
 10
127.1814577537391
 20
272.86924976913548
 30
0.0
 11
126.6814577537391
 21
273.58096218129049
 31
0.0
  0
LINE
  5
2761
  8
AM_0
 10
126.6814577537391
 20
273.0432374542624
 30
0.0
 11
127.1814577537391
 21
272.86924976913548
 31
0.0
  0
LINE
  5
2762
  8
AM_0
 10
127.1814577537391
 20
272.36924976913548
 30
0.0
 11
126.6814577537391
 21
273.0432374542624
 31
0.0
  0
LINE
  5
2763
  8
AM_0
 10
126.6814577537391
 20
272.58096218129049
 30
0.0
 11
127.1814577537391
 21
272.36924976913548
 31
0.0
  0
ARC
  5
2764
  8
AM_0
 10
124.1814577537391
 20
274.9709045437674
 30
0.0
 40
1.0
 50
180.0
 51
230.19442890773479
  0
CIRCLE
  5
2765
  8
AM_0
 10
157.58012885008341
 20
324.002529597783
 30
0.0
 40
4.0
  0
LINE
  5
2766
  8
AM_0
 10
157.2686288500833
 20
321.7237211920588
 30
0.0
 11
157.89162885008341
 21
321.7237211920588
 31
0.0
  0
LINE
  5
2767
  8
AM_0
 10
157.2686288500833
 20
326.28133800350759
 30
0.0
 11
157.89162885008341
 21
326.28133800350759
 31
0.0
  0
LINE
  5
2768
  8
AM_0
 10
157.2686288500833
 20
321.7237211920588
 30
0.0
 11
157.2686288500833
 21
323.69102959778297
 31
0.0
  0
LINE
  5
2769
  8
AM_0
 10
157.2686288500833
 20
324.31402959778308
 30
0.0
 11
157.2686288500833
 21
326.28133800350759
 31
0.0
  0
LINE
  5
276A
  8
AM_0
 10
157.2686288500833
 20
324.31402959778308
 30
0.0
 11
155.30132044435911
 21
324.31402959778308
 31
0.0
  0
LINE
  5
276B
  8
AM_0
 10
157.2686288500833
 20
323.69102959778297
 30
0.0
 11
155.30132044435911
 21
323.69102959778297
 31
0.0
  0
LINE
  5
276C
  8
AM_0
 10
155.30132044435911
 20
324.31402959778308
 30
0.0
 11
155.30132044435911
 21
323.69102959778297
 31
0.0
  0
LINE
  5
276D
  8
AM_0
 10
157.89162885008341
 20
321.7237211920588
 30
0.0
 11
157.89162885008341
 21
323.69102959778297
 31
0.0
  0
LINE
  5
276E
  8
AM_0
 10
157.89162885008341
 20
324.31402959778308
 30
0.0
 11
157.89162885008341
 21
326.28133800350759
 31
0.0
  0
LINE
  5
276F
  8
AM_0
 10
159.8589372558078
 20
323.69102959778297
 30
0.0
 11
157.89162885008341
 21
323.69102959778297
 31
0.0
  0
LINE
  5
2770
  8
AM_0
 10
159.8589372558078
 20
324.31402959778308
 30
0.0
 11
157.89162885008341
 21
324.31402959778308
 31
0.0
  0
LINE
  5
2771
  8
AM_0
 10
159.8589372558078
 20
324.31402959778308
 30
0.0
 11
159.8589372558078
 21
323.69102959778297
 31
0.0
  0
CIRCLE
  5
2772
  8
AM_0
 10
243.58012885008691
 20
324.002529597783
 30
0.0
 40
4.0
  0
LINE
  5
2773
  8
AM_0
 10
243.268628850087
 20
321.72372119205869
 30
0.0
 11
243.8916288500871
 21
321.72372119205869
 31
0.0
  0
LINE
  5
2774
  8
AM_0
 10
243.268628850087
 20
326.28133800350741
 30
0.0
 11
243.8916288500871
 21
326.28133800350741
 31
0.0
  0
LINE
  5
2775
  8
AM_0
 10
243.268628850087
 20
321.72372119205869
 30
0.0
 11
243.268628850087
 21
323.69102959778292
 31
0.0
  0
LINE
  5
2776
  8
AM_0
 10
243.268628850087
 20
324.31402959778308
 30
0.0
 11
243.268628850087
 21
326.28133800350741
 31
0.0
  0
LINE
  5
2777
  8
AM_0
 10
243.268628850087
 20
324.31402959778308
 30
0.0
 11
241.30132044436249
 21
324.31402959778308
 31
0.0
  0
LINE
  5
2778
  8
AM_0
 10
243.268628850087
 20
323.69102959778292
 30
0.0
 11
241.30132044436249
 21
323.69102959778292
 31
0.0
  0
LINE
  5
2779
  8
AM_0
 10
241.30132044436249
 20
324.31402959778308
 30
0.0
 11
241.30132044436249
 21
323.69102959778292
 31
0.0
  0
LINE
  5
277A
  8
AM_0
 10
243.8916288500871
 20
321.72372119205869
 30
0.0
 11
243.8916288500871
 21
323.69102959778292
 31
0.0
  0
LINE
  5
277B
  8
AM_0
 10
243.8916288500871
 20
324.31402959778308
 30
0.0
 11
243.8916288500871
 21
326.28133800350741
 31
0.0
  0
LINE
  5
277C
  8
AM_0
 10
245.8589372558113
 20
323.69102959778292
 30
0.0
 11
243.8916288500871
 21
323.69102959778292
 31
0.0
  0
LINE
  5
277D
  8
AM_0
 10
245.8589372558113
 20
324.31402959778308
 30
0.0
 11
243.8916288500871
 21
324.31402959778308
 31
0.0
  0
LINE
  5
277E
  8
AM_0
 10
245.8589372558113
 20
324.31402959778308
 30
0.0
 11
245.8589372558113
 21
323.69102959778292
 31
0.0
  0
LINE
  5
277F
  8
AM_0
 10
171.11566275601811
 20
327.53806350371622
 30
0.0
 11
154.04459494415221
 21
310.46699569185103
 31
0.0
  0
LINE
  5
2780
  8
AM_0
 10
171.77251700551031
 20
322.53806350371622
 30
0.0
 11
159.04459494415221
 21
309.81014144235837
 31
0.0
  0
ARC
  5
2781
  8
AM_0
 10
162.58012885008509
 20
306.27460753642549
 30
0.0
 40
5.0
 50
135.0
 51
180.0
1001
GENIUS_GENOBJ-N-FIL_13
1002
{
1000
OWNER
1000
GEN
1002
}
1001
GENIUS_GENODEF_13
1002
{
1000
HIER
1070
     0
1002
}
1002
{
1000
MANEDIT
1070
     0
1002
}
1002
{
1000
NOSEL
1070
     0
1002
}
1002
{
1000
BEHIND
1070
     0
1002
}
1002
{
1000
OTHER
1070
     0
1002
}
1002
{
1000
REACTOR
1002
}
  0
LINE
  5
2782
  8
AM_0
 10
230.04459494415229
 20
238.4669956918506
 30
0.0
 11
247.11566275601791
 21
255.5380635037159
 31
0.0
  0
ARC
  5
2783
  8
AM_0
 10
226.5090610382197
 20
242.00252959778331
 30
0.0
 40
5.0
 50
270.0
 51
315.0
1001
GENIUS_GENODEF_13
1002
{
1000
HIER
1070
     0
1002
}
1002
{
1000
MANEDIT
1070
     0
1002
}
1002
{
1000
NOSEL
1070
     0
1002
}
1002
{
1000
BEHIND
1070
     0
1002
}
1002
{
1000
OTHER
1070
     0
1002
}
1002
{
1000
REACTOR
1002
}
1001
GENIUS_GENOBJ-N-FIL_13
1002
{
1000
OWNER
1000
GEN
1002
}
  0
LINE
  5
2784
  8
AM_0
 10
229.3877406946601
 20
243.4669956918506
 30
0.0
 11
242.11566275601791
 21
256.1949177532083
 31
0.0
  0
ARC
  5
2785
  8
AM_0
 10
238.5801288500852
 20
259.73045165914101
 30
0.0
 40
5.0
 50
315.0
 51
0.0
1001
GENIUS_GENOBJ-N-FIL_13
1002
{
1000
OWNER
1000
GEN
1002
}
1001
GENIUS_GENODEF_13
1002
{
1000
HIER
1070
     0
1002
}
1002
{
1000
MANEDIT
1070
     0
1002
}
1002
{
1000
NOSEL
1070
     0
1002
}
1002
{
1000
BEHIND
1070
     0
1002
}
1002
{
1000
OTHER
1070
     0
1002
}
1002
{
1000
REACTOR
1002
}
  0
LINE
  5
2786
  8
AM_0
 10
171.1156627560178
 20
238.4669956918506
 30
0.0
 11
154.04459494415221
 21
255.5380635037157
 31
0.0
  0
LINE
  5
2787
  8
AM_0
 10
171.77251700551
 20
243.4669956918506
 30
0.0
 11
159.04459494415221
 21
256.1949177532083
 31
0.0
  0
ARC
  5
2788
  8
AM_0
 10
175.3080509114429
 20
247.00252959778331
 30
0.0
 40
5.0
 50
225.0
 51
270.0
1001
GENIUS_GENOBJ-N-FIL_13
1002
{
1000
OWNER
1000
GEN
1002
}
1001
GENIUS_GENODEF_13
1002
{
1000
HIER
1070
     0
1002
}
1002
{
1000
MANEDIT
1070
     0
1002
}
1002
{
1000
NOSEL
1070
     0
1002
}
1002
{
1000
BEHIND
1070
     0
1002
}
1002
{
1000
OTHER
1070
     0
1002
}
1002
{
1000
REACTOR
1002
}
  0
CIRCLE
  5
2789
  8
AM_0
 10
157.58012885008341
 20
242.00252959778371
 30
0.0
 40
4.0
  0
LINE
  5
278A
  8
AM_0
 10
157.2686288500833
 20
244.2813380035081
 30
0.0
 11
157.89162885008341
 21
244.2813380035081
 31
0.0
  0
LINE
  5
278B
  8
AM_0
 10
157.2686288500833
 20
239.7237211920594
 30
0.0
 11
157.89162885008341
 21
239.7237211920594
 31
0.0
  0
LINE
  5
278C
  8
AM_0
 10
157.2686288500833
 20
244.2813380035081
 30
0.0
 11
157.2686288500833
 21
242.3140295977837
 31
0.0
  0
LINE
  5
278D
  8
AM_0
 10
157.2686288500833
 20
241.69102959778371
 30
0.0
 11
157.2686288500833
 21
239.7237211920594
 31
0.0
  0
LINE
  5
278E
  8
AM_0
 10
157.2686288500833
 20
241.69102959778371
 30
0.0
 11
155.30132044435891
 21
241.69102959778371
 31
0.0
  0
LINE
  5
278F
  8
AM_0
 10
157.2686288500833
 20
242.3140295977837
 30
0.0
 11
155.30132044435891
 21
242.3140295977837
 31
0.0
  0
LINE
  5
2790
  8
AM_0
 10
155.30132044435891
 20
241.69102959778371
 30
0.0
 11
155.30132044435891
 21
242.3140295977837
 31
0.0
  0
LINE
  5
2791
  8
AM_0
 10
157.89162885008341
 20
244.2813380035081
 30
0.0
 11
157.89162885008341
 21
242.3140295977837
 31
0.0
  0
LINE
  5
2792
  8
AM_0
 10
157.89162885008341
 20
241.69102959778371
 30
0.0
 11
157.89162885008341
 21
239.7237211920594
 31
0.0
  0
LINE
  5
2793
  8
AM_0
 10
159.8589372558076
 20
242.3140295977837
 30
0.0
 11
157.89162885008341
 21
242.3140295977837
 31
0.0
  0
LINE
  5
2794
  8
AM_0
 10
159.8589372558076
 20
241.69102959778371
 30
0.0
 11
157.89162885008341
 21
241.69102959778371
 31
0.0
  0
LINE
  5
2795
  8
AM_0
 10
159.8589372558076
 20
241.69102959778371
 30
0.0
 11
159.8589372558076
 21
242.3140295977837
 31
0.0
  0
CIRCLE
  5
2796
  8
AM_0
 10
243.58012885008679
 20
242.00252959778351
 30
0.0
 40
4.0
  0
LINE
  5
2797
  8
AM_0
 10
243.26862885008671
 20
244.28133800350801
 30
0.0
 11
243.89162885008679
 21
244.28133800350801
 31
0.0
  0
LINE
  5
2798
  8
AM_0
 10
243.26862885008671
 20
239.72372119205929
 30
0.0
 11
243.89162885008679
 21
239.72372119205929
 31
0.0
  0
LINE
  5
2799
  8
AM_0
 10
243.26862885008671
 20
244.28133800350801
 30
0.0
 11
243.26862885008671
 21
242.3140295977835
 31
0.0
  0
LINE
  5
279A
  8
AM_0
 10
243.26862885008671
 20
241.69102959778351
 30
0.0
 11
243.26862885008671
 21
239.72372119205929
 31
0.0
  0
LINE
  5
279B
  8
AM_0
 10
243.26862885008671
 20
241.69102959778351
 30
0.0
 11
241.30132044436249
 21
241.69102959778351
 31
0.0
  0
LINE
  5
279C
  8
AM_0
 10
243.26862885008671
 20
242.3140295977835
 30
0.0
 11
241.30132044436249
 21
242.3140295977835
 31
0.0
  0
LINE
  5
279D
  8
AM_0
 10
241.30132044436249
 20
241.69102959778351
 30
0.0
 11
241.30132044436249
 21
242.3140295977835
 31
0.0
  0
LINE
  5
279E
  8
AM_0
 10
243.89162885008679
 20
244.28133800350801
 30
0.0
 11
243.89162885008679
 21
242.3140295977835
 31
0.0
  0
LINE
  5
279F
  8
AM_0
 10
243.89162885008679
 20
241.69102959778351
 30
0.0
 11
243.89162885008679
 21
239.72372119205929
 31
0.0
  0
LINE
  5
27A0
  8
AM_0
 10
245.8589372558113
 20
242.3140295977835
 30
0.0
 11
243.89162885008679
 21
242.3140295977835
 31
0.0
  0
LINE
  5
27A1
  8
AM_0
 10
245.8589372558113
 20
241.69102959778351
 30
0.0
 11
243.89162885008679
 21
241.69102959778351
 31
0.0
  0
LINE
  5
27A2
  8
AM_0
 10
245.8589372558113
 20
241.69102959778351
 30
0.0
 11
245.8589372558113
 21
242.3140295977835
 31
0.0
  0
LINE
  5
27A3
  8
AM_0
 10
152.5801288500852
 20
252.00252959778339
 30
0.0
 11
151.5801288500852
 21
252.00252959778339
 31
0.0
  0
LINE
  5
27A4
  8
AM_0
 10
152.5801288500852
 20
314.00252959778351
 30
0.0
 11
151.5801288500852
 21
314.00252959778339
 31
0.0
  0
LINE
  5
27A5
  8
AM_0
 10
151.5801288500852
 20
252.00252959778339
 30
0.0
 11
151.5801288500852
 21
314.00252959778339
 31
0.0
  0
LINE
  5
27EA
  8
ﾁｭｳｼﾝｾﾝ1
 10
157.5801288500831
 20
318.00252959778311
 30
0.0
 11
157.58012885008361
 21
330.002529597783
 31
0.0
  0
LINE
  5
27EB
  8
ﾁｭｳｼﾝｾﾝ1
 10
163.58012885008341
 20
324.00252959778283
 30
0.0
 11
151.58012885008341
 21
324.00252959778351
 31
0.0
  0
LINE
  5
27EC
  8
ﾁｭｳｼﾝｾﾝ1
 10
157.5801288500829
 20
236.00252959778379
 30
0.0
 11
157.58012885008361
 21
248.00252959778371
 31
0.0
  0
LINE
  5
27ED
  8
ﾁｭｳｼﾝｾﾝ1
 10
163.58012885008341
 20
242.00252959778351
 30
0.0
 11
151.58012885008341
 21
242.0025295977841
 31
0.0
  0
LINE
  5
27EE
  8
ﾁｭｳｼﾝｾﾝ1
 10
243.58012885008651
 20
236.00252959778351
 30
0.0
 11
243.58012885008691
 21
248.00252959778351
 31
0.0
  0
LINE
  5
27EF
  8
ﾁｭｳｼﾝｾﾝ1
 10
249.58012885008679
 20
242.00252959778331
 30
0.0
 11
237.58012885008679
 21
242.00252959778399
 31
0.0
  0
CIRCLE
  5
4054
  8
AM_0
 10
636.83872332276485
 20
306.20251959778318
 30
0.0
 40
33.499999999999893
  0
CIRCLE
  5
4055
  8
AM_0
 10
636.83872332276485
 20
306.20251959778318
 30
0.0
 40
28.49999999999994
  0
LINE
  5
5215
  8
AM_0
 10
425.08012885008492
 20
323.20255059778322
 30
0.0
 11
425.08012885008492
 21
292.20251859778318
 31
0.0
  0
LINE
  5
5216
  8
AM_0
 10
388.08009885008482
 20
320.2025505977831
 30
0.0
 11
425.08012885008492
 21
320.20255059778322
 31
0.0
  0
LINE
  5
5218
  8
AM_0
 10
388.08009885008482
 20
292.20251859778318
 30
0.0
 11
425.08012885008492
 21
292.20251859778318
 31
0.0
  0
LINE
  5
5219
  8
ﾁｭｳｼﾝｾﾝ
 10
278.43907885008491
 20
306.20251959778318
 30
0.0
 11
430.02790885008483
 21
306.20251959778318
 31
0.0
  0
LINE
  5
521A
  8
AM_0
 10
393.08008885008491
 20
323.20255059778322
 30
0.0
 11
425.08012885008492
 21
323.20255059778322
 31
0.0
  0
LINE
  5
521B
  8
AM_0
 10
393.08008885008491
 20
323.20255059778322
 30
0.0
 11
393.08008885008491
 21
320.20255059778322
 31
0.0
  0
LINE
  5
521D
  8
AM_0
 10
632.83872132276485
 20
323.20255059778322
 30
0.0
 11
640.83870732276523
 21
323.20255059778322
 31
0.0
  0
LINE
  5
521E
  8
AM_0
 10
640.83870732276523
 20
316.20251859778318
 30
0.0
 11
640.83870732276523
 21
323.20255059778322
 31
0.0
  0
LINE
  5
521F
  8
AM_0
 10
632.83872132276485
 20
316.20251859778318
 30
0.0
 11
632.83872132276485
 21
323.20255059778322
 31
0.0
  0
LINE
  5
5220
  8
AM_0
 10
632.83872132276485
 20
316.20251859778318
 30
0.0
 11
640.83870732276523
 21
316.20251859778318
 31
0.0
  0
LINE
  5
5221
  8
AM_0
 10
377.08009885008482
 20
217.07550159778319
 30
0.0
 11
377.08009885008482
 21
342.45353559778317
 31
0.0
  0
LINE
  5
5222
  8
AM_0
 10
693.83872332276508
 20
215.20251759778321
 30
0.0
 11
724.83872532276519
 21
215.20251759778321
 31
0.0
  0
LINE
  5
5223
  8
AM_0
 10
546.8387203227652
 20
200.2025325977832
 30
0.0
 11
546.8387203227652
 21
215.20251759778321
 31
0.0
  0
LINE
  5
5224
  8
AM_0
 10
689.83872432276507
 20
202.2025155977833
 30
0.0
 11
583.83875232276523
 21
202.2025155977833
 31
0.0
  0
LINE
  5
5227
  8
AM_0
 10
353.08009885008482
 20
200.20251759778321
 30
0.0
 11
353.08009885008482
 21
200.20251759778321
 31
0.0
  0
LINE
  5
5228
  8
AM_0
 10
298.08013885008501
 20
201.20251659778319
 30
0.0
 11
352.08013885008501
 21
201.20251659778319
 31
0.0
  0
LINE
  5
5229
  8
AM_0
 10
272.08012885008492
 20
215.20251759778321
 30
0.0
 11
297.594438850085
 21
215.20251759778321
 31
0.0
  0
LINE
  5
522A
  8
AM_0
 10
380.08009885008482
 20
213.20253159778321
 30
0.0
 11
380.08009885008482
 21
200.20251759778321
 31
0.0
  0
LINE
  5
522B
  8
AM_0
 10
270.08011885008489
 20
200.20251759778321
 30
0.0
 11
297.08008885008508
 21
200.20251759778321
 31
0.0
  0
LINE
  5
522C
  8
AM_0
 10
352.08013885008501
 20
215.20251759778321
 30
0.0
 11
378.08008885008491
 21
215.20251759778321
 31
0.0
  0
LINE
  5
5231
  8
AM_0
 10
726.83871732276521
 20
215.20251759778321
 30
0.0
 11
717.22655832276519
 21
292.94214159778318
 31
0.0
  0
LINE
  5
5232
  8
AM_0
 10
546.83869032276505
 20
215.20251759778321
 30
0.0
 11
556.45087332276523
 21
292.94214159778318
 31
0.0
  0
LINE
  5
5233
  8
AM_0
 10
357.08008885008491
 20
337.43579559778323
 30
0.0
 11
365.08009885008482
 21
337.43579559778323
 31
0.0
  0
LINE
  5
5234
  8
AM_0
 10
347.08009885008482
 20
227.8158135977832
 30
0.0
 11
360.08008885008508
 21
227.8158135977832
 31
0.0
  0
LINE
  5
5235
  8
AM_0
 10
678.8387233227653
 20
207.20253159778321
 30
0.0
 11
678.8387233227653
 21
208.20253059778321
 31
0.0
  0
LINE
  5
5236
  8
AM_0
 10
690.83872332276496
 20
220.20253059778321
 30
0.0
 11
690.83872332276496
 21
291.20251959778318
 31
0.0
  0
LINE
  5
5237
  8
AM_0
 10
594.83872032276497
 20
207.20253159778321
 30
0.0
 11
594.83872032276497
 21
208.20253059778321
 31
0.0
  0
LINE
  5
5238
  8
AM_0
 10
347.08009885008482
 20
220.20251559778319
 30
0.0
 11
347.08009885008482
 21
327.4358265977832
 31
0.0
  0
LINE
  5
5239
  8
AM_0
 10
353.08009885008482
 20
200.20251759778321
 30
0.0
 11
380.08009885008482
 21
200.20251759778321
 31
0.0
  0
LINE
  5
523E
  8
AM_0
 10
307.08013885008501
 20
252.67134459778319
 30
0.0
 11
307.08013885008501
 21
287.99118459778322
 31
0.0
  0
LINE
  5
523F
  8
AM_0
 10
369.64432885008478
 20
345.85307559778317
 30
0.0
 11
374.34160885008481
 21
345.44210559778321
 31
0.0
  0
LINE
  5
5240
  8
AM_0
 10
576.83872032276531
 20
254.00251959778331
 30
0.0
 11
576.83872032276531
 21
335.45249559778318
 31
0.0
  0
LINE
  5
5241
  8
AM_0
 10
696.83872332276519
 20
254.00251959778331
 30
0.0
 11
696.83872332276519
 21
335.45249559778318
 31
0.0
  0
LINE
  5
5242
  8
AM_0
 10
582.83872032276497
 20
220.20253059778321
 30
0.0
 11
582.83872032276497
 21
291.20251959778318
 31
0.0
  0
LINE
  5
5243
  8
AM_0
 10
599.83872132276485
 20
213.20253159778321
 30
0.0
 11
673.8387253227653
 21
213.20253159778321
 31
0.0
  0
LINE
  5
5244
  8
AM_0
 10
581.83872132276497
 20
200.2025325977832
 30
0.0
 11
581.83872132276497
 21
213.20253159778321
 31
0.0
  0
LINE
  5
5245
  8
AM_0
 10
581.83872132276497
 20
200.2025325977832
 30
0.0
 11
546.8387203227652
 21
200.2025325977832
 31
0.0
  0
LINE
  5
5246
  8
AM_0
 10
691.83871032276522
 20
200.2025325977832
 30
0.0
 11
726.83871732276521
 21
200.2025325977832
 31
0.0
  0
LINE
  5
5247
  8
AM_0
 10
691.83871032276522
 20
200.2025325977832
 30
0.0
 11
691.83871032276522
 21
213.20253159778321
 31
0.0
  0
LINE
  5
5248
  8
AM_0
 10
726.83871732276521
 20
200.2025325977832
 30
0.0
 11
726.83871732276521
 21
215.20251759778321
 31
0.0
  0
LINE
  5
5249
  8
AM_0
 10
365.08009885008482
 20
232.81582959778319
 30
0.0
 11
365.08009885008482
 21
357.53438559778328
 31
0.0
  0
LINE
  5
524A
  8
AM_0
 10
270.08011885008489
 20
213.20253159778321
 30
0.0
 11
270.08011885008489
 21
200.20251759778321
 31
0.0
  0
LINE
  5
524B
  8
ﾁｭｳｼﾝｾﾝ
 10
580.67282292341963
 20
306.20251959778318
 30
0.0
 11
693.00462372211041
 21
306.20251959778318
 31
0.0
  0
LINE
  5
524C
  8
ﾁｭｳｼﾝｾﾝ
 10
636.83872332276485
 20
196.66778859778319
 30
0.0
 11
636.83872332276485
 21
369.49304647876397
 31
0.0
  0
LINE
  5
524D
  8
ﾁｭｳｼﾝｾﾝ
 10
509.61772806761201
 20
283.00253559778321
 30
0.0
 11
724.34876532276519
 21
283.00253559778321
 31
0.0
  0
LINE
  5
5250
  8
AM_0
 10
579.83872032276531
 20
215.20251759778321
 30
0.0
 11
548.83873032276529
 21
215.20251759778321
 31
0.0
  0
LINE
  5
5251
  8
AM_0
 10
304.08013885008489
 20
364.00253559778321
 30
0.0
 11
360.21100885008491
 21
362.53271559778318
 31
0.0
  0
LINE
  5
5255
  8
AM_0
 10
306.99298885008488
 20
251.74186959778319
 30
0.0
 11
300.54217885008478
 21
217.64483859778321
 31
0.0
  0
LINE
  5
5256
  8
AM_0
 10
297.08008885008508
 20
200.20251759778321
 30
0.0
 11
297.08008885008508
 21
200.20251759778321
 31
0.0
  0
LINE
  5
5257
  8
AM_0
 10
304.08013885008489
 20
364.00253559778321
 30
0.0
 11
304.08013885008489
 21
236.3453865977832
 31
0.0
  0
LINE
  5
5258
  8
AM_0
 10
260.58013885008501
 20
346.50254559778318
 30
0.0
 11
282.66721885008491
 21
347.27384559778318
 31
0.0
  0
LINE
  5
5259
  8
AM_0
 10
260.58013885008501
 20
219.50253459778321
 30
0.0
 11
282.80692885008489
 21
218.72635059778321
 31
0.0
  0
LINE
  5
525A
  8
ﾁｭｳｼﾝｾﾝ
 10
93.270914227760258
 20
283.00253559778321
 30
0.0
 11
281.94331017045027
 21
283.00253559778321
 31
0.0
  0
LINE
  5
525B
  8
AM_0
 10
304.08016885008487
 20
364.00253559778321
 30
0.0
 11
299.01031885008479
 21
363.82550559778321
 31
0.0
  0
LINE
  5
525C
  8
AM_0
 10
283.22317885008488
 20
218.6826045977833
 30
0.0
 11
284.60104885008479
 21
218.43965259778321
 31
0.0
  0
LINE
  5
525D
  8
AM_0
 10
283.36099885008491
 20
347.3467155977832
 30
0.0
 11
284.60104885008479
 21
347.56538559778318
 31
0.0
  0
LINE
  5
525E
  8
AM_0
 10
291.9056288500849
 20
358.82183559778321
 30
0.0
 11
292.55077885008478
 21
358.84436559778322
 31
0.0
  0
LINE
  5
525F
  8
AM_0
 10
287.08012885008492
 20
353.8248555977832
 30
0.0
 11
287.08012885008492
 21
215.20251759778321
 31
0.0
  0
LINE
  5
5260
  8
AM_0
 10
260.58013885008501
 20
334.50254559778318
 30
0.0
 11
287.08012885008492
 21
334.50254559778318
 31
0.0
  0
LINE
  5
5261
  8
AM_0
 10
260.58013885008501
 20
320.15045559778321
 30
0.0
 11
287.08012885008492
 21
320.15045559778321
 31
0.0
  0
LINE
  5
5262
  8
AM_0
 10
260.58013885008501
 20
245.85460059778319
 30
0.0
 11
287.08012885008492
 21
245.85460059778319
 31
0.0
  0
LINE
  5
5263
  8
AM_0
 10
260.58013885008501
 20
231.50251959778319
 30
0.0
 11
287.08012885008492
 21
231.50251959778319
 31
0.0
  0
LINE
  5
5264
  8
AM_0
 10
297.08008885008508
 20
361.8267255977832
 30
0.0
 11
297.08008885008508
 21
339.33662559778321
 31
0.0
  0
LINE
  5
5265
  8
AM_0
 10
289.08013885008489
 20
316.15173759778321
 30
0.0
 11
295.08013885008489
 21
316.15173759778321
 31
0.0
  0
LINE
  5
5266
  8
AM_0
 10
289.08013885008489
 20
337.33661559778318
 30
0.0
 11
295.08013885008489
 21
337.33661559778318
 31
0.0
  0
LINE
  5
5267
  8
AM_0
 10
287.99551885008492
 20
309.67462659778317
 30
0.0
 11
295.08013885008489
 21
309.67462659778317
 31
0.0
  0
LINE
  5
5268
  8
AM_0
 10
289.08013885008489
 20
221.4585435977832
 30
0.0
 11
295.08013885008489
 21
221.4585435977832
 31
0.0
  0
LINE
  5
5269
  8
AM_0
 10
297.08008885008508
 20
314.15173959778321
 30
0.0
 11
297.08008885008508
 21
223.4585445977832
 31
0.0
  0
LINE
  5
526A
  8
AM_0
 10
260.58013885008501
 20
346.5025155977832
 30
0.0
 11
260.58013885008501
 21
219.50247459778319
 31
0.0
  0
LINE
  5
526B
  8
AM_0
 10
339.08008885008508
 20
323.5025385977832
 30
0.0
 11
339.08008885008508
 21
306.20251959778318
 31
0.0
  0
LINE
  5
526C
  8
AM_0
 10
546.8387203227652
 20
215.20251759778321
 30
0.0
 11
554.62985832276524
 21
322.41220659778321
 31
0.0
  0
LINE
  5
526D
  8
AM_0
 10
710.64461832276515
 20
335.35652559778322
 30
0.0
 11
675.08559732276524
 21
354.40403559778321
 31
0.0
  0
LINE
  5
526E
  8
AM_0
 10
726.83871732276521
 20
215.20251759778321
 30
0.0
 11
719.04757332276517
 21
322.41220659778321
 31
0.0
  0
LINE
  5
526F
  8
AM_0
 10
563.0328433227653
 20
335.3565555977832
 30
0.0
 11
598.59183432276529
 21
354.40406559778319
 31
0.0
  0
ARC
  5
5353
  8
AM_0
 10
636.83872332276485
 20
306.20251959778318
 30
0.0
 40
14.000001299999999
 50
106.6015400000021
 51
73.398451999998059
  0
CIRCLE
  5
5354
  8
AM_5
 10
636.83872332276485
 20
306.20251959778318
 30
0.0
 40
4.0000001999999979
  0
CIRCLE
  5
5355
  8
AM_0
 10
636.83872332276485
 20
306.20251959778318
 30
0.0
 40
3.0
  0
ARC
  5
5356
  8
AM_0
 10
360.08008885008508
 20
357.53438559778328
 30
0.0
 40
5.0000001000000003
 50
0.0
 51
88.499997000000747
  0
ARC
  5
5357
  8
AM_0
 10
691.83871032276522
 20
335.45249559778318
 30
0.0
 40
5.0000001000000003
 50
0.0
 51
43.640500000001239
  0
ARC
  5
5358
  8
AM_0
 10
636.83872332276485
 20
283.00253559778321
 30
0.0
 40
81.000003000000007
 50
7.0485985999995844
 51
172.95139999999981
  0
ARC
  5
5359
  8
AM_0
 10
724.83872532276519
 20
213.20253159778321
 30
0.0
 40
2.00000007
 50
0.0
 51
90.00000299999769
  0
ARC
  5
535A
  8
AM_0
 10
370.08013885008489
 20
350.83406559778319
 30
0.0
 40
5.0000001000000003
 50
179.9999899999998
 51
265.00000000000028
  0
ARC
  5
535B
  8
AM_0
 10
589.83875232276523
 20
207.20253159778321
 30
0.0
 40
5.0000001000000003
 50
270.0
 51
0.0
  0
ARC
  5
535C
  8
AM_0
 10
583.83875232276523
 20
200.2025325977832
 30
0.0
 40
2.00000007
 50
90.00000299999769
 51
180.0000100000002
  0
ARC
  5
535D
  8
AM_0
 10
579.83872032276531
 20
213.20253159778321
 30
0.0
 40
2.00000007
 50
0.0
 51
90.00000299999769
  0
ARC
  5
535E
  8
AM_0
 10
683.8387243227653
 20
207.20253159778321
 30
0.0
 40
5.0000001000000003
 50
179.9999899999998
 51
270.0
  0
ARC
  5
535F
  8
AM_0
 10
548.83873032276529
 20
213.20253159778321
 30
0.0
 40
2.00000007
 50
90.00000299999769
 51
180.0000100000002
  0
ARC
  5
5360
  8
AM_0
 10
360.08008885008508
 20
232.81582959778319
 30
0.0
 40
5.0000001000000003
 50
270.0
 51
0.0
  0
ARC
  5
5361
  8
AM_0
 10
352.08013885008501
 20
220.20251559778319
 30
0.0
 40
5.0000001000000003
 50
179.9999899999998
 51
270.0
  0
ARC
  5
5362
  8
AM_0
 10
581.83872132276497
 20
335.45249559778318
 30
0.0
 40
5.0000001000000003
 50
136.35948999999869
 51
180.0000100000002
  0
ARC
  5
5363
  8
AM_0
 10
636.83872332276485
 20
291.20251959778318
 30
0.0
 40
54.000003000000007
 50
0.0
 51
180.0000100000002
  0
ARC
  5
5364
  8
AM_0
 10
374.08009885008482
 20
342.45353559778317
 30
0.0
 40
3.0
 50
0.0
 51
84.999996999998729
  0
ARC
  5
5365
  8
AM_0
 10
298.08013885008501
 20
200.20251759778321
 30
0.0
 40
1.0000000199999981
 50
90.00000299999769
 51
180.0000100000002
  0
ARC
  5
5366
  8
AM_0
 10
297.594438850085
 20
218.20251759778321
 30
0.0
 40
3.0
 50
270.0
 51
349.28687999999983
  0
ARC
  5
5367
  8
AM_0
 10
378.08008885008491
 20
213.20253159778321
 30
0.0
 40
2.00000007
 50
0.0
 51
90.00000299999769
  0
ARC
  5
5368
  8
AM_0
 10
272.08012885008492
 20
213.20253159778321
 30
0.0
 40
2.00000007
 50
90.00000299999769
 51
180.0000100000002
  0
ARC
  5
5369
  8
AM_0
 10
636.83872332276485
 20
254.00251959778331
 30
0.0
 40
60.000002999999992
 50
334.15806999999887
 51
0.0
  0
ARC
  5
536A
  8
AM_0
 10
636.83872332276485
 20
254.00251959778331
 30
0.0
 40
60.000002999999992
 50
180.0000100000002
 51
205.8419300000011
  0
ARC
  5
536B
  8
AM_0
 10
357.08008885008491
 20
327.4358265977832
 30
0.0
 40
10.000000200000001
 50
90.00000299999769
 51
180.0000100000002
  0
ARC
  5
536C
  8
AM_0
 10
693.83872332276508
 20
213.20253159778321
 30
0.0
 40
2.00000007
 50
90.00000299999769
 51
180.0000100000002
  0
ARC
  5
536D
  8
AM_0
 10
689.83872432276507
 20
200.2025325977832
 30
0.0
 40
2.00000007
 50
0.0
 51
90.00000299999769
  0
ARC
  5
536E
  8
AM_0
 10
673.8387253227653
 20
208.20253059778321
 30
0.0
 40
5.0000001000000003
 50
0.0
 51
90.00000299999769
  0
ARC
  5
5370
  8
AM_0
 10
599.83872132276485
 20
208.20253059778321
 30
0.0
 40
5.0000001000000003
 50
90.00000299999769
 51
180.0000100000002
  0
ARC
  5
5371
  8
AM_0
 10
379.08013885008478
 20
217.07550159778319
 30
0.0
 40
2.00000007
 50
179.9999899999998
 51
255.52248999999699
  0
ARC
  5
5372
  8
AM_0
 10
636.83872332276485
 20
283.0025205977833
 30
0.0
 40
81.000003000000007
 50
265.9727499999974
 51
274.02725000000248
  0
ARC
  5
5373
  8
AM_0
 10
577.83875232276523
 20
220.20253059778321
 30
0.0
 40
5.0000001000000003
 50
270.0
 51
0.0
  0
ARC
  5
5374
  8
AM_0
 10
695.83872432276519
 20
220.20253059778321
 30
0.0
 40
5.0000001000000003
 50
179.9999899999998
 51
270.0
  0
ARC
  5
5376
  8
AM_0
 10
378.08008885008491
 20
336.25523559778321
 30
0.0
 40
1.0000000199999981
 50
179.9999899999998
 51
270.00057295777901
  0
ARC
  5
5378
  8
AM_0
 10
378.08008885008491
 20
276.14980059778321
 30
0.0
 40
1.0000000199999981
 50
89.999427042250289
 51
180.0000100000002
  0
ARC
  5
5379
  8
AM_0
 10
302.08009885008488
 20
252.67134459778319
 30
0.0
 40
5.0000001000000003
 50
349.28687999999983
 51
0.0
  0
ARC
  5
537A
  8
AM_0
 10
352.08013885008501
 20
200.20251759778321
 30
0.0
 40
1.0000000199999981
 50
0.0
 51
90.00000299999769
  0
ARC
  5
537B
  8
AM_0
 10
282.49273885008489
 20
352.27079559778321
 30
0.0
 40
5.0000001000000003
 50
271.9999999999971
 51
279.99999999999852
  0
ARC
  5
537C
  8
AM_0
 10
282.70225885008477
 20
215.72819859778321
 30
0.0
 40
3.0
 50
79.999998000000929
 51
88.000000000002842
  0
ARC
  5
537D
  8
AM_0
 10
284.0801288500848
 20
215.48523159778321
 30
0.0
 40
3.0
 50
0.0
 51
79.999998000000929
  0
ARC
  5
537E
  8
AM_0
 10
292.37632885008492
 20
363.84131559778319
 30
0.0
 40
5.0000001000000003
 50
271.9999999999971
 51
343.27365999999847
  0
ARC
  5
537F
  8
AM_0
 10
299.08009885008488
 20
361.8267255977832
 30
0.0
 40
2.00000007
 50
91.999998000000545
 51
163.27364999999961
  0
ARC
  5
5380
  8
AM_0
 10
284.0801288500848
 20
350.51984559778322
 30
0.0
 40
3.0
 50
279.99999999999852
 51
0.0
  0
ARC
  5
5381
  8
AM_0
 10
292.08013885008501
 20
353.8248555977832
 30
0.0
 40
5.0000001000000003
 50
91.999998000000545
 51
180.0000100000002
  0
ARC
  5
5382
  8
AM_0
 10
295.08013885008489
 20
223.4585445977832
 30
0.0
 40
2.00000007
 50
270.0
 51
0.0
  0
ARC
  5
5383
  8
AM_0
 10
289.08013885008489
 20
219.45856059778319
 30
0.0
 40
2.00000007
 50
90.00000299999769
 51
180.0000100000002
  0
ARC
  5
5384
  8
AM_0
 10
289.08013885008489
 20
318.15173859778321
 30
0.0
 40
2.00000007
 50
179.9999899999998
 51
270.0
  0
ARC
  5
5385
  8
AM_0
 10
289.08013885008489
 20
335.3366055977832
 30
0.0
 40
2.00000007
 50
90.00000299999769
 51
180.0000100000002
  0
ARC
  5
5386
  8
AM_0
 10
295.08013885008489
 20
339.33662559778321
 30
0.0
 40
2.00000007
 50
270.0
 51
0.0
  0
ARC
  5
5387
  8
AM_0
 10
295.08013885008489
 20
314.15173959778321
 30
0.0
 40
2.00000007
 50
0.0
 51
90.00000299999769
  0
ARC
  5
5388
  8
AM_0
 10
295.08013885008489
 20
307.67462559778318
 30
0.0
 40
2.00000007
 50
0.0
 51
90.00000299999769
  0
ARC
  5
5389
  8
AM_0
 10
570.58777632276497
 20
321.2525385977832
 30
0.0
 40
16.000000499999999
 50
118.1761400000033
 51
175.8435099999997
  0
ARC
  5
538A
  8
AM_0
 10
703.08967032276519
 20
321.2525385977832
 30
0.0
 40
16.000000499999999
 50
4.1564915999999901
 51
61.82385999999665
  0
POLYLINE
  5
542A
  8
AM_0
 66
     1
 10
0.0
 20
0.0
 30
0.0
  0
VERTEX
  5
542B
  8
AM_0
  6
CONTINUOUS
 10
307.08007885008487
 20
215.20251759778321
 30
0.0
 42
0.12791153
  0
VERTEX
  5
542C
  8
AM_0
  6
CONTINUOUS
 10
313.17418885008487
 20
216.8679345977832
 30
0.0
 42
0.075873116
  0
VERTEX
  5
542D
  8
AM_0
  6
CONTINUOUS
 10
318.15556885008482
 20
220.82683359778321
 30
0.0
 42
0.04391337
  0
VERTEX
  5
542E
  8
AM_0
  6
CONTINUOUS
 10
322.09633885008492
 20
225.84394959778319
 30
0.0
 42
0.028464649
  0
VERTEX
  5
542F
  8
AM_0
  6
CONTINUOUS
 10
325.288488850085
 20
231.37057359778319
 30
0.0
 42
0.020370658
  0
VERTEX
  5
5430
  8
AM_0
  6
CONTINUOUS
 10
327.9352088500849
 20
237.18292059778321
 30
0.0
 42
0.01565625
  0
VERTEX
  5
5431
  8
AM_0
  6
CONTINUOUS
 10
330.1602188500849
 20
243.1695405977832
 30
0.0
 42
0.012688908
  0
VERTEX
  5
5432
  8
AM_0
  6
CONTINUOUS
 10
332.04460885008478
 20
249.27264159778321
 30
0.0
 42
0.010707695
  0
VERTEX
  5
5433
  8
AM_0
  6
CONTINUOUS
 10
333.64291885008492
 20
255.4580655977833
 30
0.0
 42
0.009324549
  0
VERTEX
  5
5434
  8
AM_0
  6
CONTINUOUS
 10
334.99285885008487
 20
261.70198359778323
 30
0.0
 42
0.0083349477
  0
VERTEX
  5
5435
  8
AM_0
  6
CONTINUOUS
 10
336.1222388500849
 20
267.99098559778321
 30
0.0
 42
0.0076122067
  0
VERTEX
  5
5436
  8
AM_0
  6
CONTINUOUS
 10
337.05091885008483
 20
274.31315859778317
 30
0.0
 42
0.0070829649
  0
VERTEX
  5
5437
  8
AM_0
  6
CONTINUOUS
 10
337.7936588500848
 20
280.6599195977833
 30
0.0
 42
0.0067007814
  0
VERTEX
  5
5438
  8
AM_0
  6
CONTINUOUS
 10
338.36143885008488
 20
287.0249685977833
 30
0.0
 42
0.0064353086
  0
VERTEX
  5
5439
  8
AM_0
  6
CONTINUOUS
 10
338.76196885008483
 20
293.4029565977832
 30
0.0
 42
0.0062673647
  0
VERTEX
  5
543A
  8
AM_0
  6
CONTINUOUS
 10
339.00052885008478
 20
299.78910759778319
 30
0.0
 42
0.0061857305
  0
VERTEX
  5
543B
  8
AM_0
  6
CONTINUOUS
 10
339.08008885008508
 20
306.17910159778319
 30
0.0
  0
SEQEND
  5
543C
  8
AM_0
  0
POLYLINE
  5
543D
  8
AM_0
 66
     1
 10
0.0
 20
0.0
 30
0.0
  0
VERTEX
  5
543E
  8
AM_0
  6
CONTINUOUS
 10
339.08008885008508
 20
323.50253559778321
 30
0.0
 42
0.029628731
  0
VERTEX
  5
543F
  8
AM_0
  6
CONTINUOUS
 10
338.88844885008501
 20
326.73182859778319
 30
0.0
 42
0.029327543
  0
VERTEX
  5
5440
  8
AM_0
  6
CONTINUOUS
 10
338.31874885008489
 20
329.91276759778322
 30
0.0
 42
0.028837186
  0
VERTEX
  5
5441
  8
AM_0
  6
CONTINUOUS
 10
337.38289885008493
 20
333.00848559778319
 30
0.0
 42
0.028139479
  0
VERTEX
  5
5442
  8
AM_0
  6
CONTINUOUS
 10
336.10051885008488
 20
335.97902559778322
 30
0.0
 42
0.027280614
  0
VERTEX
  5
5443
  8
AM_0
  6
CONTINUOUS
 10
334.49803885008492
 20
338.78843559778318
 30
0.0
 42
0.026363464
  0
VERTEX
  5
5444
  8
AM_0
  6
CONTINUOUS
 10
332.60341885008489
 20
341.41085559778321
 30
0.0
 42
0.025439158
  0
VERTEX
  5
5445
  8
AM_0
  6
CONTINUOUS
 10
330.44584885008487
 20
343.82546559778331
 30
0.0
 42
0.024503424
  0
VERTEX
  5
5446
  8
AM_0
  6
CONTINUOUS
 10
328.05943885008492
 20
346.01198559778322
 30
0.0
 42
0.023638789
  0
VERTEX
  5
5447
  8
AM_0
  6
CONTINUOUS
 10
325.4738888500849
 20
347.95910559778332
 30
0.0
 42
0.022857682
  0
VERTEX
  5
5448
  8
AM_0
  6
CONTINUOUS
 10
322.71862885008488
 20
349.65791559778319
 30
0.0
 42
0.022175457
  0
VERTEX
  5
5449
  8
AM_0
  6
CONTINUOUS
 10
319.8215588500849
 20
351.10223559778319
 30
0.0
 42
0.021601125
  0
VERTEX
  5
544A
  8
AM_0
  6
CONTINUOUS
 10
316.80913885008488
 20
352.28792559778321
 30
0.0
 42
0.021139333
  0
VERTEX
  5
544B
  8
AM_0
  6
CONTINUOUS
 10
313.70629885008498
 20
353.21228559778319
 30
0.0
 42
0.020791974
  0
VERTEX
  5
544C
  8
AM_0
  6
CONTINUOUS
 10
310.53688885008489
 20
353.87363559778322
 30
0.0
 42
0.020559394
  0
VERTEX
  5
544D
  8
AM_0
  6
CONTINUOUS
 10
307.32376885008489
 20
354.2710455977832
 30
0.0
 42
0.020441745
  0
VERTEX
  5
544E
  8
AM_0
  6
CONTINUOUS
 10
304.08910885008493
 20
354.40403559778321
 30
0.0
  0
SEQEND
  5
544F
  8
AM_0
  0
POLYLINE
  5
5450
  8
AM_0
 66
     1
 10
0.0
 20
0.0
 30
0.0
  0
VERTEX
  5
5451
  8
AM_0
  6
CONTINUOUS
 10
337.15912885008493
 20
325.38127059778321
 30
0.0
 42
0.032705737
  0
VERTEX
  5
5452
  8
AM_0
  6
CONTINUOUS
 10
335.21299885008489
 20
326.12978559778321
 30
0.0
 42
0.016814103
  0
VERTEX
  5
5453
  8
AM_0
  6
CONTINUOUS
 10
333.20215885008508
 20
326.69198259778318
 30
0.0
 42
0.010836057
  0
VERTEX
  5
5454
  8
AM_0
  6
CONTINUOUS
 10
331.16275885008491
 20
327.14482059778322
 30
0.0
 42
0.007863161
  0
VERTEX
  5
5455
  8
AM_0
  6
CONTINUOUS
 10
329.10838885008479
 20
327.5219445977832
 30
0.0
 42
0.0061455438
  0
VERTEX
  5
5456
  8
AM_0
  6
CONTINUOUS
 10
327.04411885008489
 20
327.84183159778331
 30
0.0
 42
0.0050541015
  0
VERTEX
  5
5457
  8
AM_0
  6
CONTINUOUS
 10
324.97246885008479
 20
328.11573759778332
 30
0.0
 42
0.0043145835
  0
VERTEX
  5
5458
  8
AM_0
  6
CONTINUOUS
 10
322.8947288500849
 20
328.35107259778317
 30
0.0
 42
0.0037842963
  0
VERTEX
  5
5459
  8
AM_0
  6
CONTINUOUS
 10
320.81557885008488
 20
328.55260959778332
 30
0.0
 42
0.003403486
  0
VERTEX
  5
545A
  8
AM_0
  6
CONTINUOUS
 10
318.73153885008492
 20
328.72447659778322
 30
0.0
 42
0.0031173927
  0
VERTEX
  5
545B
  8
AM_0
  6
CONTINUOUS
 10
316.64503885008492
 20
328.86922359778322
 30
0.0
 42
0.0029018743
  0
VERTEX
  5
545C
  8
AM_0
  6
CONTINUOUS
 10
314.55694885008501
 20
328.9888725977832
 30
0.0
 42
0.0027404553
  0
VERTEX
  5
545D
  8
AM_0
  6
CONTINUOUS
 10
312.46762885008479
 20
329.08498059778321
 30
0.0
 42
0.0026217012
  0
VERTEX
  5
545E
  8
AM_0
  6
CONTINUOUS
 10
310.37731885008492
 20
329.15869659778321
 30
0.0
 42
0.0025380412
  0
VERTEX
  5
545F
  8
AM_0
  6
CONTINUOUS
 10
308.2863188500848
 20
329.21085459778323
 30
0.0
 42
0.0024845601
  0
VERTEX
  5
5460
  8
AM_0
  6
CONTINUOUS
 10
306.19492885008481
 20
329.2420245977832
 30
0.0
 42
0.002458447
  0
VERTEX
  5
5461
  8
AM_0
  6
CONTINUOUS
 10
304.10323885008501
 20
329.25252759778323
 30
0.0
  0
SEQEND
  5
5462
  8
AM_0
  0
LINE
  5
587A
  8
AM_0
 10
383.08009885008482
 20
339.70251959778318
 30
0.0
 11
388.08009885008482
 21
334.70251959778318
 31
0.0
  0
LINE
  5
587B
  8
AM_0
 10
378.58009885008482
 20
339.70251959778318
 30
0.0
 11
383.08009885008499
 21
339.70251959778318
 31
0.0
  0
LINE
  5
587C
  8
AM_0
 10
378.08009885008482
 20
339.20251959778318
 30
0.0
 11
378.08009885008443
 21
273.20251959778369
 31
0.0
  0
LINE
  5
587D
  8
AM_0
 10
388.08009885008482
 20
334.70251959778318
 30
0.0
 11
388.08009885008482
 21
277.70251959778329
 31
0.0
  0
LINE
  5
587E
  8
AM_0
 10
378.58009885008482
 20
272.70251959778318
 30
0.0
 11
383.08009885008482
 21
272.70251959778318
 31
0.0
  0
LINE
  5
587F
  8
AM_0
 10
383.08009885008482
 20
272.70251959778318
 30
0.0
 11
388.08009885008482
 21
277.70251959778329
 31
0.0
  0
LINE
  5
5880
  8
AM_0
 10
378.58009885008482
 20
339.70251959778318
 30
0.0
 11
378.08009885008482
 21
339.20251959778318
 31
0.0
1001
GENIUS_GENFIL_13
1070
     0
1040
0.5
1040
0.5
1040
20.0
1040
0.0
1002
{
1002
}
1001
GENIUS_GENOBJ-N-CHA_13
1002
{
1000
OWNER
1000
GEN
1002
}
1001
GENIUS_GENODEF_13
1002
{
1000
HIER
1070
     0
1002
}
1002
{
1000
MANEDIT
1070
     0
1002
}
1002
{
1000
NOSEL
1070
     0
1002
}
1002
{
1000
BEHIND
1070
     0
1002
}
1002
{
1000
OTHER
1070
     0
1002
}
1002
{
1000
REACTOR
1002
}
  0
LINE
  5
5881
  8
AM_0
 10
378.08009885008482
 20
273.20251959778318
 30
0.0
 11
378.58009885008482
 21
272.70251959778318
 31
0.0
1001
GENIUS_GENFIL_13
1070
     0
1040
0.5
1040
0.5
1040
20.0
1040
0.0
1002
{
1002
}
1001
GENIUS_GENOBJ-N-CHA_13
1002
{
1000
OWNER
1000
GEN
1002
}
1001
GENIUS_GENODEF_13
1002
{
1000
HIER
1070
     0
1002
}
1002
{
1000
MANEDIT
1070
     0
1002
}
1002
{
1000
NOSEL
1070
     0
1002
}
1002
{
1000
BEHIND
1070
     0
1002
}
1002
{
1000
OTHER
1070
     0
1002
}
1002
{
1000
REACTOR
1002
}
  0
LINE
  5
588B
  8
AM_0
 10
383.08009885008499
 20
339.70251959778318
 30
0.0
 11
383.08009885008482
 21
272.70251959778318
 31
0.0
  0
LINE
  5
588D
  8
ﾁｭｳｼﾝｾﾝ1
 10
711.83871132276522
 20
219.7479735977831
 30
0.0
 11
711.83871132276522
 21
195.65706159778321
 31
0.0
  0
LINE
  5
588E
  8
ｶｸﾚｾﾝ2
 10
705.83869632276514
 20
215.20251759778321
 30
0.0
 11
705.83869632276514
 21
200.2025325977832
 31
0.0
  0
LINE
  5
588F
  8
ｶｸﾚｾﾝ2
 10
717.83871132276511
 20
215.20251759778321
 30
0.0
 11
717.83871132276511
 21
200.2025325977832
 31
0.0
  0
LINE
  5
5890
  8
ﾁｭｳｼﾝｾﾝ1
 10
561.83872032276497
 20
219.7479735977831
 30
0.0
 11
561.83872032276497
 21
195.65706159778321
 31
0.0
  0
LINE
  5
5891
  8
ｶｸﾚｾﾝ2
 10
555.83870532276535
 20
215.20251759778321
 30
0.0
 11
555.83870532276535
 21
200.2025325977832
 31
0.0
  0
LINE
  5
5892
  8
ｶｸﾚｾﾝ2
 10
567.83872032276531
 20
215.20251759778321
 30
0.0
 11
567.83872032276486
 21
200.2025325977832
 31
0.0
  0
LINE
  5
5893
  8
ﾁｭｳｼﾝｾﾝ1
 10
285.08011885008489
 20
219.7479735977831
 30
0.0
 11
285.08011885008489
 21
195.65706159778321
 31
0.0
  0
LINE
  5
5894
  8
ｶｸﾚｾﾝ2
 10
279.0801038500851
 20
215.20251759778321
 30
0.0
 11
279.0801038500851
 21
200.20251759778321
 31
0.0
  0
LINE
  5
5895
  8
ｶｸﾚｾﾝ2
 10
291.08011885008489
 20
215.20251759778321
 30
0.0
 11
291.08011885008489
 21
200.20251759778321
 31
0.0
  0
LINE
  5
5896
  8
ﾁｭｳｼﾝｾﾝ1
 10
365.0800688500849
 20
219.7479735977831
 30
0.0
 11
365.0800688500849
 21
195.65706159778321
 31
0.0
  0
LINE
  5
5897
  8
ｶｸﾚｾﾝ2
 10
359.08005385008522
 20
215.20251759778321
 30
0.0
 11
359.08005385008488
 21
200.20251759778321
 31
0.0
  0
LINE
  5
5898
  8
ｶｸﾚｾﾝ2
 10
371.0800688500849
 20
215.20251759778321
 30
0.0
 11
371.0800688500849
 21
200.20251759778321
 31
0.0
  0
LINE
  5
5950
  8
AM_0
 10
521.83872332276508
 20
237.0006661701957
 30
0.0
 11
548.49047021254125
 21
237.93136567988589
 31
0.0
  0
LINE
  5
5953
  8
AM_0
 10
555.99236569735615
 20
327.80799469752918
 30
0.0
 11
521.83872332276519
 21
329.00066617019581
 31
0.0
  0
LINE
  5
5955
  8
AM_0
 10
521.83872332276519
 20
329.00066617019581
 30
0.0
 11
521.83872332276508
 21
237.0006661701955
 31
0.0
  0
LINE
  5
5956
  8
ﾁｭｳｼﾝｾﾝ1
 10
510.83872332276502
 20
242.00066617019641
 30
0.0
 11
526.66624633530171
 21
242.0006661701963
 31
0.0
  0
LINE
  5
5957
  8
AM_0
 10
517.83872332276519
 20
329.00066617019581
 30
0.0
 11
517.83872332276519
 21
308.18616127066321
 31
0.0
  0
LINE
  5
5958
  8
AM_0
 10
517.83872332276508
 20
257.81517106972808
 30
0.0
 11
517.83872332276508
 21
237.0006661701965
 31
0.0
  0
LINE
  5
5959
  8
AM_0
 10
513.83872332276519
 20
322.86488450103508
 30
0.0
 11
513.83872332276508
 21
243.13644783935629
 31
0.0
  0
LINE
  5
595A
  8
AM_0
 10
515.77978581063724
 20
245.9080211425028
 30
0.0
 11
516.83872332276485
 21
246.0006661701963
 31
0.0
  0
LINE
  5
595B
  8
AM_0
 10
515.77978581063724
 20
238.0933111978899
 30
0.0
 11
516.83872332276485
 21
238.0006661701963
 31
0.0
  0
ARC
  5
595C
  8
AM_0
 10
520.23872332276528
 20
242.0006661701963
 30
0.0
 40
6.5
 50
151.82726586813479
 51
208.1727341318651
  0
ARC
  5
595D
  8
AM_0
 10
515.91923499903362
 20
239.68722271483659
 30
0.0
 40
1.6000000000000001
 50
208.1727341318651
 51
265.00000000000028
  0
LINE
  5
595E
  8
AM_0
 10
514.15924966133684
 20
244.30066617019611
 30
0.0
 11
516.44880934013236
 21
242.0006661701963
 31
0.0
  0
LINE
  5
595F
  8
AM_0
 10
516.13872332276492
 20
242.31216617019629
 30
0.0
 11
516.13872332276492
 21
241.6891661701963
 31
0.0
  0
LINE
  5
5960
  8
AM_0
 10
514.15924966133684
 20
239.70066617019631
 30
0.0
 11
516.44880934013236
 21
242.0006661701963
 31
0.0
  0
LINE
  5
5961
  8
AM_0
 10
513.7461916324304
 20
242.31216617019629
 30
0.0
 11
516.13872332276492
 21
242.31216617019629
 31
0.0
  0
LINE
  5
5962
  8
AM_0
 10
513.7461916324304
 20
241.6891661701963
 30
0.0
 11
516.13872332276492
 21
241.6891661701963
 31
0.0
  0
ARC
  5
5963
  8
AM_0
 10
515.91923499903362
 20
244.31410962555589
 30
0.0
 40
1.6000000000000001
 50
94.99999999999973
 51
151.82726586813479
  0
LINE
  5
5964
  8
AM_0
 10
517.83872332276519
 20
329.00066617019581
 30
0.0
 11
521.83872332276519
 21
329.00066617019581
 31
0.0
  0
LINE
  5
5965
  8
AM_0
 10
516.83872332276485
 20
328.00066617019559
 30
0.0
 11
517.8387233227653
 21
329.00066617019581
 31
0.0
  0
LINE
  5
5966
  8
AM_0
 10
521.83872332276508
 20
237.0006661701955
 30
0.0
 11
517.83872332276508
 21
237.0006661701965
 31
0.0
  0
LINE
  5
5967
  8
AM_0N
 10
517.83872332276508
 20
245.80066617019639
 30
0.0
 11
516.83872332276485
 21
245.80066617019639
 31
0.0
  0
LINE
  5
5968
  8
AM_0N
 10
516.83872332276485
 20
242.20066617019631
 30
0.0
 11
517.83872332276508
 21
242.5646364044625
 31
0.0
  0
LINE
  5
5969
  8
AM_0N
 10
516.83872332276485
 20
241.80066617019631
 30
0.0
 11
517.83872332276508
 21
242.1646364044625
 31
0.0
  0
LINE
  5
596A
  8
AM_0N
 10
516.83872332276485
 20
238.0006661701963
 30
0.0
 11
516.83872332276485
 21
246.0006661701963
 31
0.0
  0
LINE
  5
596B
  8
AM_0N
 10
516.83872332276485
 20
238.20066617019631
 30
0.0
 11
517.83872332276508
 21
238.20066617019631
 31
0.0
  0
LINE
  5
596C
  8
AM_0
 10
513.83872332276508
 20
257.81517106972802
 30
0.0
 11
517.83872332276508
 21
257.81517106972808
 31
0.0
  0
LINE
  5
596D
  8
AM_0
 10
517.83872332276508
 20
256.15831682023548
 30
0.0
 11
513.83872332276508
 21
257.81517106972802
 31
0.0
  0
LINE
  5
596E
  8
AM_0
 10
513.83872332276519
 20
308.18616127066321
 30
0.0
 11
517.83872332276519
 21
308.18616127066321
 31
0.0
  0
LINE
  5
596F
  8
AM_0
 10
517.83872332276519
 20
309.84301552015597
 30
0.0
 11
513.83872332276519
 21
308.18616127066321
 31
0.0
  0
LINE
  5
5970
  8
ﾁｭｳｼﾝｾﾝ1
 10
510.83872332276502
 20
324.00066617019502
 30
0.0
 11
526.66624633530171
 21
324.00066617019502
 31
0.0
  0
LINE
  5
5971
  8
AM_0
 10
515.77978581063724
 20
320.09331119788862
 30
0.0
 11
516.83872332276485
 21
320.00066617019519
 31
0.0
  0
LINE
  5
5972
  8
AM_0
 10
515.77978581063724
 20
327.90802114250152
 30
0.0
 11
516.83872332276485
 21
328.00066617019502
 31
0.0
  0
ARC
  5
5973
  8
AM_0
 10
520.23872332276528
 20
324.00066617019502
 30
0.0
 40
6.5
 50
151.82726586813479
 51
208.1727341318651
  0
ARC
  5
5974
  8
AM_0
 10
515.91923499903362
 20
326.31410962555481
 30
0.0
 40
1.6000000000000001
 50
94.99999999999973
 51
151.82726586813479
  0
LINE
  5
5975
  8
AM_0
 10
514.15924966133684
 20
321.70066617019518
 30
0.0
 11
516.44880934013236
 21
324.00066617019502
 31
0.0
  0
LINE
  5
5976
  8
AM_0
 10
516.13872332276492
 20
323.68916617019511
 30
0.0
 11
516.13872332276492
 21
324.31216617019521
 31
0.0
  0
LINE
  5
5977
  8
AM_0
 10
514.15924966133684
 20
326.30066617019497
 30
0.0
 11
516.44880934013236
 21
324.00066617019502
 31
0.0
  0
LINE
  5
5978
  8
AM_0
 10
513.7461916324304
 20
323.68916617019511
 30
0.0
 11
516.13872332276492
 21
323.68916617019511
 31
0.0
  0
LINE
  5
5979
  8
AM_0
 10
513.7461916324304
 20
324.31216617019521
 30
0.0
 11
516.13872332276492
 21
324.31216617019521
 31
0.0
  0
ARC
  5
597A
  8
AM_0
 10
515.91923499903362
 20
321.68722271483551
 30
0.0
 40
1.6000000000000001
 50
208.1727341318651
 51
265.00000000000028
  0
LINE
  5
597B
  8
AM_0N
 10
517.83872332276508
 20
320.20066617019512
 30
0.0
 11
516.83872332276485
 21
320.20066617019512
 31
0.0
  0
LINE
  5
597C
  8
AM_0N
 10
516.83872332276485
 20
323.80066617019497
 30
0.0
 11
517.83872332276508
 21
323.43669593592881
 31
0.0
  0
LINE
  5
597D
  8
AM_0N
 10
516.83872332276485
 20
324.20066617019501
 30
0.0
 11
517.83872332276508
 21
323.8366959359289
 31
0.0
  0
LINE
  5
597E
  8
AM_0N
 10
516.83872332276485
 20
328.00066617019502
 30
0.0
 11
516.83872332276485
 21
320.00066617019519
 31
0.0
  0
LINE
  5
597F
  8
AM_0N
 10
516.83872332276485
 20
327.80066617019497
 30
0.0
 11
517.83872332276508
 21
327.80066617019497
 31
0.0
  0
LINE
  5
663E
  8
ﾁｭｳｼﾝｾﾝ
 10
92.82435885008492
 20
567.26798680295246
 30
0.0
 11
429.78715885008478
 21
567.26798680295246
 31
0.0
  0
LINE
  5
6640
  8
AM_0
 10
425.08012885008492
 20
581.26801680295273
 30
0.0
 11
425.08012885008492
 21
553.26801680295284
 31
0.0
  0
LINE
  5
6641
  8
AM_0
 10
388.08009885008482
 20
581.26801680295307
 30
0.0
 11
425.08012885008492
 21
581.26801680295273
 31
0.0
  0
LINE
  5
6643
  8
AM_0
 10
388.08009885008482
 20
553.26801680295284
 30
0.0
 11
425.08012885008492
 21
553.26801680295284
 31
0.0
  0
LINE
  5
6644
  8
AM_0
 10
393.08012885008492
 20
571.26795680295265
 30
0.0
 11
393.08012885008492
 21
563.26798680295246
 31
0.0
  0
LINE
  5
6647
  8
AM_0
 10
272.30372885008478
 20
631.58631680295275
 30
0.0
 11
273.6538588500847
 21
631.22452680295271
 31
0.0
  0
LINE
  5
6648
  8
AM_0
 10
270.08015885008479
 20
653.37662680295273
 30
0.0
 11
270.08015885008479
 21
634.4840768029527
 31
0.0
  0
LINE
  5
6649
  8
AM_0
 10
380.0801588500849
 20
652.43393680295276
 30
0.0
 11
380.0801588500849
 21
625.26798680295269
 31
0.0
  0
LINE
  5
664B
  8
AM_0
 10
307.08015885008479
 20
657.26798680295269
 30
0.0
 11
377.15867885008481
 21
655.43290680295274
 31
0.0
  0
LINE
  5
664C
  8
AM_0
 10
273.0016388500847
 20
656.37558680295274
 30
0.0
 11
307.08015885008479
 21
657.26795680295277
 31
0.0
  0
LINE
  5
6650
  8
AM_0
 10
307.08015885008479
 20
652.13532680295259
 30
0.0
 11
307.08015885008479
 21
649.51893680295257
 31
0.0
  0
LINE
  5
6652
  8
AM_0
 10
270.08015885008479
 20
481.1593168029529
 30
0.0
 11
270.08015885008479
 21
500.05188680295282
 31
0.0
  0
LINE
  5
6653
  8
AM_0
 10
272.30369885008491
 20
502.9496568029528
 30
0.0
 11
273.65382885008478
 21
503.31144680295267
 31
0.0
  0
LINE
  5
6654
  8
AM_0
 10
380.0801588500849
 20
482.10202680295282
 30
0.0
 11
380.0801588500849
 21
509.26798680295269
 31
0.0
  0
LINE
  5
6656
  8
AM_0
 10
307.08015885008479
 20
477.26798680295281
 30
0.0
 11
377.15867885008481
 21
479.10306680295258
 31
0.0
  0
LINE
  5
6657
  8
AM_0
 10
273.0016388500847
 20
478.16034680295252
 30
0.0
 11
307.08015885008479
 21
477.26798680295281
 31
0.0
  0
LINE
  5
665A
  8
AM_0
 10
304.0801588500849
 20
485.01703680295242
 30
0.0
 11
304.0801588500849
 21
649.51893680295257
 31
0.0
  0
LINE
  5
665B
  8
AM_0
 10
377.0801588500849
 20
513.14096680295279
 30
0.0
 11
377.0801588500849
 21
621.39499680295273
 31
0.0
  0
LINE
  5
665D
  8
AM_0
 10
303.08015885008479
 20
656.1353268029527
 30
0.0
 11
303.08015885008479
 21
652.79218680295276
 31
0.0
  0
LINE
  5
665E
  8
AM_0
 10
393.08012885008492
 20
563.26798680295246
 30
0.0
 11
425.08012885008492
 21
563.26798680295246
 31
0.0
  0
LINE
  5
665F
  8
AM_0
 10
393.08012885008492
 20
571.26795680295265
 30
0.0
 11
425.08012885008492
 21
571.26795680295265
 31
0.0
  0
LINE
  5
6660
  8
AM_0
 10
365.08015885008479
 20
512.09644680295276
 30
0.0
 11
365.08015885008479
 21
622.43952680295274
 31
0.0
  0
LINE
  5
6661
  8
AM_0
 10
374.34162885008487
 20
621.50757680295271
 30
0.0
 11
368.54618885008477
 21
622.01462680295276
 31
0.0
  0
LINE
  5
6662
  8
AM_0
 10
374.34159885008478
 20
513.02839680295278
 30
0.0
 11
368.54618885008477
 21
512.52137680295266
 31
0.0
  0
LINE
  5
6663
  8
AM_0
 10
360.254628850085
 20
627.43650680295286
 30
0.0
 11
354.80094885008492
 21
627.62693680295274
 31
0.0
  0
LINE
  5
6664
  8
AM_0
 10
360.25465885008492
 20
507.0994668029528
 30
0.0
 11
354.80094885008492
 21
506.90903680295258
 31
0.0
  0
LINE
  5
6665
  8
AM_0
 10
347.08015885008479
 20
483.44806680295272
 30
0.0
 11
347.08015885008479
 21
498.91388680295262
 31
0.0
  0
LINE
  5
6666
  8
AM_0
 10
347.08015885008479
 20
635.62207680295273
 30
0.0
 11
347.08015885008479
 21
651.08789680295286
 31
0.0
  0
LINE
  5
6667
  8
AM_0
 10
304.0801588500849
 20
485.01703680295242
 30
0.0
 11
307.08015885008479
 21
485.01703680295242
 31
0.0
  0
LINE
  5
6668
  8
AM_0
 10
304.0801588500849
 20
649.51893680295257
 30
0.0
 11
307.08015885008479
 21
649.51893680295257
 31
0.0
  0
LINE
  5
666A
  8
AM_0
 10
307.08015885008479
 20
482.40064680295268
 30
0.0
 11
307.08015885008479
 21
485.01703680295242
 31
0.0
  0
LINE
  5
666B
  8
AM_0
 10
303.08015885008479
 20
478.40064680295268
 30
0.0
 11
303.08015885008479
 21
481.7437868029528
 31
0.0
  0
LINE
  5
666C
  8
AM_0
 10
304.0801588500849
 20
485.01703680295242
 30
0.0
 11
291.90565885008471
 21
485.44217680295282
 31
0.0
  0
LINE
  5
666D
  8
AM_0
 10
304.08012885008492
 20
649.51893680295257
 30
0.0
 11
291.90562885008478
 21
649.09378680295265
 31
0.0
  0
LINE
  5
666E
  8
AM_0
 10
287.08015885008479
 20
490.43912680295273
 30
0.0
 11
287.08015885008479
 21
644.09684680295265
 31
0.0
  0
LINE
  5
666F
  8
AM_0
 10
297.08012885008492
 20
496.17780680295277
 30
0.0
 11
304.0801588500849
 21
496.17780680295277
 31
0.0
  0
LINE
  5
6670
  8
AM_0
 10
297.08012885008492
 20
638.35816680295272
 30
0.0
 11
304.0801588500849
 21
638.35816680295272
 31
0.0
  0
LINE
  5
6671
  8
AM_0
 10
287.08015885008479
 20
626.57648680295267
 30
0.0
 11
297.08012885008492
 21
626.57648680295267
 31
0.0
  0
LINE
  5
6672
  8
AM_0
 10
287.08015885008479
 20
507.95948680295282
 30
0.0
 11
297.08012885008492
 21
507.95948680295282
 31
0.0
  0
LINE
  5
6673
  8
AM_0
 10
297.08012885008492
 20
496.17780680295277
 30
0.0
 11
297.08012885008492
 21
638.35816680295272
 31
0.0
  0
LINE
  5
6674
  8
AM_0
 10
260.58015885008479
 20
503.76798680295269
 30
0.0
 11
260.58015885008479
 21
630.76798680295258
 31
0.0
  0
LINE
  5
6675
  8
AM_0
 10
260.58015885008479
 20
619.30799680295274
 30
0.0
 11
287.08012885008492
 21
619.30799680295274
 31
0.0
  0
LINE
  5
6676
  8
AM_0
 10
260.58015885008479
 20
604.41590680295269
 30
0.0
 11
287.08012885008492
 21
604.41590680295269
 31
0.0
  0
LINE
  5
6677
  8
AM_0
 10
260.58015885008479
 20
630.76798680295258
 30
0.0
 11
284.1848688500848
 21
631.59229680295255
 31
0.0
  0
LINE
  5
6678
  8
AM_0
 10
260.58018885008482
 20
503.76795680295282
 30
0.0
 11
284.18483885008482
 21
502.94367680295272
 31
0.0
  0
LINE
  5
6679
  8
AM_0
 10
260.58015885008479
 20
530.12006680295281
 30
0.0
 11
287.08012885008492
 21
530.12006680295281
 31
0.0
  0
LINE
  5
667A
  8
AM_0
 10
260.58015885008479
 20
515.22797680295275
 30
0.0
 11
287.08012885008492
 21
515.22797680295275
 31
0.0
  0
LINE
  5
674A
  8
AM_0
 10
304.0801588500849
 20
487.16062680295278
 30
0.0
 11
288.48347885008479
 21
486.96582680295268
 31
0.0
  0
LINE
  5
674B
  8
AM_0
 10
304.0801588500849
 20
528.99289680295283
 30
0.0
 11
297.08012885008492
 21
528.99289680295283
 31
0.0
  0
LINE
  5
674C
  8
AM_0
 10
304.0801588500849
 20
647.37534680295289
 30
0.0
 11
288.48344885008493
 21
647.57013680295245
 31
0.0
  0
LINE
  5
674D
  8
AM_0
 10
304.0801588500849
 20
605.54306680295269
 30
0.0
 11
297.08012885008492
 21
605.54306680295269
 31
0.0
  0
CIRCLE
  5
6750
  8
AM_0
 10
365.08015885008479
 20
642.26798680295246
 30
0.0
 40
6.0
  0
ARC
  5
6751
  8
AM_0
 10
273.08015885008479
 20
653.37662680295273
 30
0.0
 40
3.0
 50
91.500001000001546
 51
180.00001000000091
  0
ARC
  5
6752
  8
AM_0
 10
377.0801588500849
 20
652.43393680295276
 30
0.0
 40
3.0
 50
0.0
 51
88.499997000000647
  0
ARC
  5
6753
  8
AM_0
 10
285.08015885008479
 20
642.26798680295246
 30
0.0
 40
6.0
 50
57.78807200000049
 51
289.47123000000067
  0
ARC
  5
6754
  8
AM_0
 10
377.0801588500849
 20
625.26798680295269
 30
0.0
 40
3.0
 50
284.47750999999982
 51
0.0
  0
ARC
  5
6755
  8
AM_0
 10
273.08015885008479
 20
634.4840768029527
 30
0.0
 40
3.0
 50
180.00001000000091
 51
254.9999900000019
  0
CIRCLE
  5
6758
  8
AM_0
 10
365.08015885008479
 20
492.26798680295269
 30
0.0
 40
6.0
  0
ARC
  5
6759
  8
AM_0
 10
273.08015885008479
 20
481.1593168029529
 30
0.0
 40
3.0
 50
180.00001000000091
 51
268.50000000000063
  0
ARC
  5
675A
  8
AM_0
 10
377.0801588500849
 20
482.10202680295282
 30
0.0
 40
3.0
 50
271.49999999999937
 51
0.0
  0
ARC
  5
675B
  8
AM_0
 10
285.08015885008479
 20
492.26798680295269
 30
0.0
 40
6.0
 50
70.528778999998195
 51
302.21188000000109
  0
ARC
  5
675C
  8
AM_0
 10
377.0801588500849
 20
509.26798680295269
 30
0.0
 40
3.0
 50
0.0
 51
75.522487999999072
  0
ARC
  5
675D
  8
AM_0
 10
273.08015885008479
 20
500.05188680295282
 30
0.0
 40
3.0
 50
105.0000000000007
 51
180.00001000000091
  0
ARC
  5
675E
  8
AM_0
 10
302.08015885008479
 20
652.13532680295259
 30
0.0
 40
5.0
 50
0.0
 51
91.500001000001546
  0
ARC
  5
675F
  8
AM_0
 10
302.08015885008479
 20
647.1353268029527
 30
0.0
 40
5.0
 50
28.471238999999589
 51
70.528778999998195
  0
ARC
  5
6760
  8
AM_0
 10
304.0801588500849
 20
652.79218680295276
 30
0.0
 40
1.0
 50
180.00001000000091
 51
250.52876999999941
  0
ARC
  5
6761
  8
AM_0
 10
302.08015885008479
 20
656.1353268029527
 30
0.0
 40
1.0
 50
0.0
 51
90.000003000000945
  0
ARC
  5
6762
  8
AM_0
 10
393.08012885008492
 20
567.26795680295265
 30
0.0
 40
3.9999962
 50
90.000003000000945
 51
270.0
  0
ARC
  5
6763
  8
AM_0
 10
378.08015885008479
 20
513.14096680295279
 30
0.0
 40
1.0
 50
180.00001000000091
 51
255.5224900000002
  0
ARC
  5
6764
  8
AM_0
 10
378.08015885008479
 20
621.39499680295273
 30
0.0
 40
1.0
 50
104.4775099999998
 51
180.00001000000091
  0
ARC
  5
6765
  8
AM_0
 10
374.08015885008479
 20
516.01697680295285
 30
0.0
 40
3.0
 50
275.0
 51
0.0
  0
ARC
  5
6766
  8
AM_0
 10
374.08015885008479
 20
618.51899680295276
 30
0.0
 40
3.0
 50
0.0
 51
85.000004000000885
  0
ARC
  5
6767
  8
AM_0
 10
360.0801588500849
 20
622.43952680295274
 30
0.0
 40
5.0
 50
0.0
 51
87.999999999999503
  0
ARC
  5
6768
  8
AM_0
 10
360.0801588500849
 20
512.09644680295276
 30
0.0
 40
5.0
 50
272.00000000000051
 51
0.0
  0
ARC
  5
6769
  8
AM_0
 10
368.98197885008489
 20
626.99558680295274
 30
0.0
 40
5.0
 50
207.10380999999799
 51
265.00001000000037
  0
ARC
  5
676A
  8
AM_0
 10
368.98197885008489
 20
507.54038680295258
 30
0.0
 40
5.0
 50
95.00000199999856
 51
152.89619000000189
  0
ARC
  5
676B
  8
AM_0
 10
352.0801588500849
 20
483.44806680295272
 30
0.0
 40
5.0
 50
180.00001000000091
 51
271.49999999999937
  0
ARC
  5
676C
  8
AM_0
 10
352.0801588500849
 20
651.08789680295286
 30
0.0
 40
5.0
 50
88.499997000000647
 51
180.00001000000091
  0
ARC
  5
676D
  8
AM_0
 10
355.08015885008479
 20
635.62207680295273
 30
0.0
 40
8.0
 50
180.00001000000091
 51
267.99999999999949
  0
ARC
  5
676E
  8
AM_0
 10
355.08015885008479
 20
498.91388680295262
 30
0.0
 40
8.0
 50
91.999998000000545
 51
180.00001000000091
  0
ARC
  5
676F
  8
AM_0
 10
302.08015885008479
 20
482.40064680295268
 30
0.0
 40
5.0
 50
268.50000000000063
 51
0.0000006832495047
  0
ARC
  5
6770
  8
AM_0
 10
302.08015885008479
 20
487.40064680295268
 30
0.0
 40
5.0
 50
289.47123000000067
 51
331.5287600000031
  0
ARC
  5
6771
  8
AM_0
 10
304.0801588500849
 20
481.7437868029528
 30
0.0
 40
1.0
 50
109.4712199999996
 51
180.00001000000091
  0
ARC
  5
6772
  8
AM_0
 10
302.08015885008479
 20
478.40064680295268
 30
0.0
 40
1.0
 50
270.0
 51
0.0
  0
ARC
  5
6773
  8
AM_0
 10
292.08015885008479
 20
490.43912680295273
 30
0.0
 40
5.0
 50
180.00001000000091
 51
267.99999999999949
  0
ARC
  5
6774
  8
AM_0
 10
292.08015885008479
 20
644.09684680295265
 30
0.0
 40
5.0
 50
91.999998000000545
 51
180.00001000000091
  0
ARC
  5
6775
  8
AM_0
 10
284.08015885008479
 20
499.94550680295271
 30
0.0
 40
3.0
 50
0.0
 51
87.999999999999503
  0
ARC
  5
6776
  8
AM_0
 10
284.08015885008479
 20
634.59046680295273
 30
0.0
 40
3.0
 50
272.00000000000051
 51
0.0
  0
POLYLINE
  5
6831
  8
AM_0
 66
     1
 10
0.0
 20
0.0
 30
0.0
  0
VERTEX
  5
6832
  8
AM_0
 10
304.0801588500849
 20
528.99289680295283
 30
0.0
 42
-0.059991193
  0
VERTEX
  5
6833
  8
AM_0
 10
329.66896885008481
 20
513.06068680295255
 30
0.0
 42
-0.30883796
  0
VERTEX
  5
6834
  8
AM_0
 10
339.08012885008492
 20
497.11994680295282
 30
0.0
 42
-0.25905842
  0
VERTEX
  5
6835
  8
AM_0
 10
304.63045885008478
 20
477.33188680295268
 30
0.0
  0
SEQEND
  5
6836
  8
AM_0
  0
POLYLINE
  5
6837
  8
AM_0
 66
     1
 10
0.0
 20
0.0
 30
0.0
  0
VERTEX
  5
6838
  8
AM_0
 10
305.34369885008488
 20
487.33900680295278
 30
0.0
 42
0.021277534
  0
VERTEX
  5
6839
  8
AM_0
 10
316.17383885008479
 20
489.39552680295282
 30
0.0
 42
0.020622971
  0
VERTEX
  5
683A
  8
AM_0
 10
326.29859885008477
 20
492.21256680295278
 30
0.0
 42
0.022709
  0
VERTEX
  5
683B
  8
AM_0
 10
337.10551885008488
 20
496.25812680295252
 30
0.0
  0
SEQEND
  5
683C
  8
AM_0
  0
POLYLINE
  5
683D
  8
AM_0
 66
     1
 10
0.0
 20
0.0
 30
0.0
  0
VERTEX
  5
683E
  8
AM_0
 10
304.0801588500849
 20
605.54306680295269
 30
0.0
 42
0.059991175
  0
VERTEX
  5
683F
  8
AM_0
 10
329.66896885008481
 20
621.47527680295275
 30
0.0
 42
0.30883786
  0
VERTEX
  5
6840
  8
AM_0
 10
339.08012885008492
 20
637.41602680295273
 30
0.0
 42
0.25905849
  0
VERTEX
  5
6841
  8
AM_0
 10
304.63047885008478
 20
657.20407680295273
 30
0.0
  0
SEQEND
  5
6842
  8
AM_0
  0
POLYLINE
  5
6843
  8
AM_0
 66
     1
 10
0.0
 20
0.0
 30
0.0
  0
VERTEX
  5
6844
  8
AM_0
 10
305.34369885008488
 20
647.19696680295272
 30
0.0
 42
-0.021277534
  0
VERTEX
  5
6845
  8
AM_0
 10
316.17383885008479
 20
645.14044680295274
 30
0.0
 42
-0.020622971
  0
VERTEX
  5
6846
  8
AM_0
 10
326.29859885008477
 20
642.32340680295272
 30
0.0
 42
-0.022709
  0
VERTEX
  5
6847
  8
AM_0
 10
337.10551885008488
 20
638.27784680295269
 30
0.0
  0
SEQEND
  5
6848
  8
AM_0
  0
ARC
  5
6849
  8
AM_0
 10
378.08008885008491
 20
597.32073280295288
 30
0.0
 40
1.0000000199999981
 50
179.9999899999998
 51
270.00057295777901
  0
ARC
  5
684A
  8
AM_0
 10
378.08008885008491
 20
537.21529780295282
 30
0.0
 40
1.0000000199999981
 50
89.999427042250289
 51
180.0000100000002
  0
LINE
  5
684B
  8
AM_0
 10
383.08009885008482
 20
600.76801680295273
 30
0.0
 11
388.08009885008482
 21
595.76801680295296
 31
0.0
  0
LINE
  5
684C
  8
AM_0
 10
378.58009885008482
 20
600.76801680295273
 30
0.0
 11
383.08009885008499
 21
600.76801680295273
 31
0.0
  0
LINE
  5
684D
  8
AM_0
 10
378.08009885008482
 20
600.26801680295273
 30
0.0
 11
378.08009885008443
 21
534.2680168029533
 31
0.0
  0
LINE
  5
684E
  8
AM_0
 10
388.08009885008482
 20
595.76801680295296
 30
0.0
 11
388.08009885008482
 21
538.76801680295296
 31
0.0
  0
LINE
  5
684F
  8
AM_0
 10
378.58009885008482
 20
533.76801680295284
 30
0.0
 11
383.08009885008482
 21
533.76801680295284
 31
0.0
  0
LINE
  5
6850
  8
AM_0
 10
383.08009885008482
 20
533.76801680295284
 30
0.0
 11
388.08009885008482
 21
538.76801680295296
 31
0.0
  0
LINE
  5
6851
  8
AM_0
 10
378.58009885008482
 20
600.76801680295273
 30
0.0
 11
378.08009885008482
 21
600.26801680295273
 31
0.0
1001
GENIUS_GENFIL_13
1070
     0
1040
0.5
1040
0.5
1040
20.0
1040
0.0
1002
{
1002
}
1001
GENIUS_GENOBJ-N-CHA_13
1002
{
1000
OWNER
1000
GEN
1002
}
1001
GENIUS_GENODEF_13
1002
{
1000
HIER
1070
     0
1002
}
1002
{
1000
MANEDIT
1070
     0
1002
}
1002
{
1000
NOSEL
1070
     0
1002
}
1002
{
1000
BEHIND
1070
     0
1002
}
1002
{
1000
OTHER
1070
     0
1002
}
1002
{
1000
REACTOR
1002
}
  0
LINE
  5
6852
  8
AM_0
 10
378.08009885008482
 20
534.26801680295284
 30
0.0
 11
378.58009885008482
 21
533.76801680295284
 31
0.0
1001
GENIUS_GENFIL_13
1070
     0
1040
0.5
1040
0.5
1040
20.0
1040
0.0
1002
{
1002
}
1001
GENIUS_GENOBJ-N-CHA_13
1002
{
1000
OWNER
1000
GEN
1002
}
1001
GENIUS_GENODEF_13
1002
{
1000
HIER
1070
     0
1002
}
1002
{
1000
MANEDIT
1070
     0
1002
}
1002
{
1000
NOSEL
1070
     0
1002
}
1002
{
1000
BEHIND
1070
     0
1002
}
1002
{
1000
OTHER
1070
     0
1002
}
1002
{
1000
REACTOR
1002
}
  0
LINE
  5
6853
  8
AM_0
 10
383.08009885008499
 20
600.76801680295273
 30
0.0
 11
383.08009885008482
 21
533.76801680295284
 31
0.0
  0
LINE
  5
6F17
  8
AM_0
 10
101.5801588500848
 20
517.76798680295246
 30
0.0
 11
101.5801588500848
 21
518.29801680295282
 31
0.0
  0
LINE
  5
6F18
  8
AM_0
 10
101.5801588500848
 20
519.86795680295245
 30
0.0
 11
101.5801588500848
 21
520.41800680295273
 31
0.0
  0
LINE
  5
6F19
  8
AM_0
 10
101.5801588500848
 20
524.43802680295266
 30
0.0
 11
101.5801588500848
 21
524.90799680295265
 31
0.0
  0
LINE
  5
6F1A
  8
AM_0
 10
101.36012885008461
 20
520.88797680295283
 30
0.0
 11
100.11012885008491
 21
521.54794680295265
 31
0.0
  0
LINE
  5
6F1B
  8
AM_0
 10
101.3701388500848
 20
518.77796680295273
 30
0.0
 11
100.13014885008479
 21
519.40796680295273
 31
0.0
  0
LINE
  5
6F1C
  8
AM_0
 10
101.3501188500848
 20
525.41794680295266
 30
0.0
 11
100.070148850085
 21
526.16794680295277
 31
0.0
  0
LINE
  5
6F1D
  8
AM_0
 10
101.820148850085
 20
518.66800680295273
 30
0.0
 11
104.0801588500851
 21
518.66800680295273
 31
0.0
  0
LINE
  5
6F1E
  8
AM_0
 10
101.830158850085
 20
520.76798680295269
 30
0.0
 11
103.5801588500848
 21
520.76798680295269
 31
0.0
  0
LINE
  5
6F1F
  8
AM_0
 10
101.8501788500849
 20
525.28800680295285
 30
0.0
 11
103.5801588500848
 21
525.28800680295285
 31
0.0
  0
LINE
  5
6F20
  8
AM_0
 10
101.88014885008479
 20
524.1479868029528
 30
0.0
 11
104.580158850085
 21
524.1479868029528
 31
0.0
  0
LINE
  5
6F21
  8
AM_0
 10
101.860188850085
 20
519.62796680295264
 30
0.0
 11
104.580158850085
 21
519.62796680295264
 31
0.0
  0
LINE
  5
6F22
  8
AM_0
 10
101.3301588500848
 20
524.30795680295273
 30
0.0
 11
100.03016885008481
 21
525.15796680295273
 31
0.0
  0
LINE
  5
6F23
  8
AM_0
 10
101.34016885008479
 20
519.76795680295265
 30
0.0
 11
100.060138850085
 21
520.53796680295284
 31
0.0
  0
LINE
  5
6F24
  8
AM_0
 10
101.3501788500849
 20
517.65796680295273
 30
0.0
 11
100.0802188500848
 21
518.38794680295268
 31
0.0
  0
LINE
  5
6F25
  8
AM_0
 10
101.8501788500849
 20
517.51798680295269
 30
0.0
 11
104.0801588500851
 21
517.51798680295269
 31
0.0
  0
LINE
  5
6F26
  8
AM_0
 10
99.580158850085056
 20
519.24796680295265
 30
0.0
 11
99.580158850085056
 21
562.26798680295281
 31
0.0
  0
LINE
  5
6F27
  8
AM_0
 10
100.070148850085
 20
526.16797680295258
 30
0.0
 11
100.0501288500849
 21
526.17795680295285
 31
0.0
  0
LINE
  5
6F28
  8
AM_0
 10
98.080158850084857
 20
549.98795680295245
 30
0.0
 11
99.580158850085056
 21
549.98795680295245
 31
0.0
  0
LINE
  5
6F29
  8
AM_0
 10
98.080158850084857
 20
552.11795680295279
 30
0.0
 11
99.580158850085056
 21
552.11795680295279
 31
0.0
  0
LINE
  5
6F2A
  8
AM_0
 10
98.080158850084857
 20
547.26801680295273
 30
0.0
 11
99.580158850085056
 21
547.13800680295265
 31
0.0
  0
LINE
  5
6F2B
  8
AM_0
 10
98.080158850084857
 20
547.26798680295281
 30
0.0
 11
98.080158850084857
 21
567.26798680295258
 31
0.0
  0
LINE
  5
6F2C
  8
AM_0
 10
101.5801588500848
 20
531.87796680295264
 30
0.0
 11
101.5801588500848
 21
532.93802680295266
 31
0.0
  0
LINE
  5
6F2D
  8
AM_0
 10
101.5801588500848
 20
541.63797680295283
 30
0.0
 11
101.5801588500848
 21
543.00797680295284
 31
0.0
  0
LINE
  5
6F2E
  8
AM_0
 10
101.5801588500848
 20
561.65799680295288
 30
0.0
 11
101.5801588500848
 21
562.81802680295266
 31
0.0
  0
LINE
  5
6F2F
  8
AM_0
 10
101.5801588500848
 20
551.65799680295265
 30
0.0
 11
101.5801588500848
 21
552.87796680295276
 31
0.0
  0
LINE
  5
6F30
  8
AM_0
 10
103.5801588500848
 20
563.26798680295258
 30
0.0
 11
100.5801588500849
 21
563.26798680295258
 31
0.0
  0
LINE
  5
6F31
  8
AM_0
 10
103.5801588500848
 20
561.26798680295281
 30
0.0
 11
100.5801588500849
 21
561.26798680295281
 31
0.0
  0
LINE
  5
6F32
  8
AM_0
 10
103.5801588500848
 20
553.26798680295281
 30
0.0
 11
100.5801588500849
 21
553.26798680295281
 31
0.0
  0
LINE
  5
6F33
  8
AM_0
 10
103.5801588500848
 20
551.26798680295281
 30
0.0
 11
100.5801588500849
 21
551.26798680295281
 31
0.0
  0
LINE
  5
6F34
  8
AM_0
 10
103.5801588500848
 20
543.26798680295281
 30
0.0
 11
100.5801588500849
 21
543.26798680295281
 31
0.0
  0
LINE
  5
6F35
  8
AM_0
 10
103.5801588500848
 20
541.26798680295281
 30
0.0
 11
100.5801588500849
 21
541.26798680295281
 31
0.0
  0
LINE
  5
6F36
  8
AM_0
 10
101.440148850085
 20
533.56799680295296
 30
0.0
 11
100.2901788500848
 21
533.92798680295266
 31
0.0
  0
LINE
  5
6F37
  8
AM_0
 10
101.7301888500848
 20
533.52799680295254
 30
0.0
 11
103.5801588500848
 21
533.52799680295254
 31
0.0
  0
LINE
  5
6F38
  8
AM_0
 10
101.3900988500848
 20
531.65796680295273
 30
0.0
 11
100.190148850085
 21
532.17795680295285
 31
0.0
  0
LINE
  5
6F39
  8
AM_0
 10
101.78016885008481
 20
531.57803680295285
 30
0.0
 11
103.88014885008479
 21
531.57803680295285
 31
0.0
  0
LINE
  5
6F3A
  8
AM_0
 10
98.080158850084857
 20
584.5480168029527
 30
0.0
 11
99.580158850085056
 21
584.5480168029527
 31
0.0
  0
LINE
  5
6F3B
  8
AM_0
 10
98.080158850084857
 20
582.41800680295273
 30
0.0
 11
99.580158850085056
 21
582.41800680295273
 31
0.0
  0
LINE
  5
6F3C
  8
AM_0
 10
98.080218850084805
 20
587.26801680295273
 30
0.0
 11
99.580158850085056
 21
587.39801680295272
 31
0.0
  0
LINE
  5
6F3D
  8
AM_0
 10
98.080158850084857
 20
587.26798680295269
 30
0.0
 11
98.080158850084857
 21
567.26798680295258
 31
0.0
  0
LINE
  5
6F3E
  8
AM_0
 10
101.5801588500848
 20
616.76798680295269
 30
0.0
 11
101.5801588500848
 21
616.23795680295268
 31
0.0
  0
LINE
  5
6F3F
  8
AM_0
 10
101.5801588500848
 20
614.66800680295285
 30
0.0
 11
101.5801588500848
 21
614.11795680295256
 31
0.0
  0
LINE
  5
6F40
  8
AM_0
 10
101.5801588500848
 20
610.09793680295274
 30
0.0
 11
101.5801588500848
 21
609.62796680295276
 31
0.0
  0
LINE
  5
6F41
  8
AM_0
 10
101.5801588500848
 20
602.65799680295265
 30
0.0
 11
101.5801588500848
 21
601.59793680295274
 31
0.0
  0
LINE
  5
6F42
  8
AM_0
 10
101.5801588500848
 20
592.89798680295269
 30
0.0
 11
101.5801588500848
 21
591.52799680295266
 31
0.0
  0
LINE
  5
6F43
  8
AM_0
 10
101.5801588500848
 20
572.87796680295276
 30
0.0
 11
101.5801588500848
 21
571.71793680295275
 31
0.0
  0
LINE
  5
6F44
  8
AM_0
 10
101.5801588500848
 20
582.87796680295276
 30
0.0
 11
101.5801588500848
 21
581.66800680295273
 31
0.0
  0
LINE
  5
6F45
  8
AM_0
 10
103.5801588500848
 20
571.26798680295258
 30
0.0
 11
100.5801588500849
 21
571.26798680295258
 31
0.0
  0
LINE
  5
6F46
  8
AM_0
 10
103.5801588500848
 20
573.26798680295269
 30
0.0
 11
100.5801588500849
 21
573.26798680295269
 31
0.0
  0
LINE
  5
6F47
  8
AM_0
 10
103.5801588500848
 20
581.26798680295258
 30
0.0
 11
100.5801588500849
 21
581.26798680295258
 31
0.0
  0
LINE
  5
6F48
  8
AM_0
 10
103.5801588500848
 20
583.26798680295269
 30
0.0
 11
100.5801588500849
 21
583.26798680295269
 31
0.0
  0
LINE
  5
6F49
  8
AM_0
 10
103.5801588500848
 20
591.26798680295269
 30
0.0
 11
100.5801588500849
 21
591.26798680295269
 31
0.0
  0
LINE
  5
6F4A
  8
AM_0
 10
103.5801588500848
 20
593.26798680295258
 30
0.0
 11
100.5801588500849
 21
593.26798680295258
 31
0.0
  0
LINE
  5
6F4B
  8
AM_0
 10
101.36012885008461
 20
613.65799680295265
 30
0.0
 11
100.11018885008509
 21
612.98801680295276
 31
0.0
  0
LINE
  5
6F4C
  8
AM_0
 10
101.3701988500848
 20
615.76795680295277
 30
0.0
 11
100.13014885008479
 21
615.13794680295257
 31
0.0
  0
LINE
  5
6F4D
  8
AM_0
 10
101.440148850085
 20
600.96796680295267
 30
0.0
 11
100.29011885008509
 21
600.61795680295256
 31
0.0
  0
LINE
  5
6F4E
  8
AM_0
 10
101.3501788500849
 20
609.11792680295275
 30
0.0
 11
100.070148850085
 21
608.36792680295275
 31
0.0
  0
LINE
  5
6F4F
  8
AM_0
 10
101.820148850085
 20
615.86795680295256
 30
0.0
 11
104.0801588500851
 21
615.86795680295256
 31
0.0
  0
LINE
  5
6F50
  8
AM_0
 10
101.830158850085
 20
613.76798680295258
 30
0.0
 11
103.5801588500848
 21
613.76798680295258
 31
0.0
  0
LINE
  5
6F51
  8
AM_0
 10
101.8501788500849
 20
609.25797680295273
 30
0.0
 11
103.5801588500848
 21
609.25797680295273
 31
0.0
  0
LINE
  5
6F52
  8
AM_0
 10
101.7301888500848
 20
601.00797680295273
 30
0.0
 11
103.5801588500848
 21
601.00797680295273
 31
0.0
  0
LINE
  5
6F53
  8
AM_0
 10
101.88014885008479
 20
610.39798680295269
 30
0.0
 11
104.580158850085
 21
610.39798680295269
 31
0.0
  0
LINE
  5
6F54
  8
AM_0
 10
101.860188850085
 20
614.90799680295277
 30
0.0
 11
104.580158850085
 21
614.90799680295277
 31
0.0
  0
LINE
  5
6F55
  8
AM_0
 10
101.39021885008481
 20
602.87799680295257
 30
0.0
 11
100.1902088500848
 21
602.3679868029526
 31
0.0
  0
LINE
  5
6F56
  8
AM_0
 10
101.3301588500848
 20
610.2279468029526
 30
0.0
 11
100.03016885008481
 21
609.37796680295276
 31
0.0
  0
LINE
  5
6F57
  8
AM_0
 10
101.3401088500848
 20
614.76795680295265
 30
0.0
 11
100.060138850085
 21
613.99799680295268
 31
0.0
  0
LINE
  5
6F58
  8
AM_0
 10
101.3501188500848
 20
616.88797680295261
 30
0.0
 11
100.08009885008499
 21
616.14798680295269
 31
0.0
  0
LINE
  5
6F59
  8
AM_0
 10
101.78016885008481
 20
602.95792680295278
 30
0.0
 11
103.88014885008479
 21
602.95792680295278
 31
0.0
  0
LINE
  5
6F5A
  8
AM_0
 10
101.8501788500849
 20
617.01798680295269
 30
0.0
 11
104.0801588500851
 21
617.01798680295269
 31
0.0
  0
LINE
  5
6F5B
  8
AM_0
 10
99.580158850085056
 20
615.28800680295274
 30
0.0
 11
99.580158850085056
 21
572.26798680295258
 31
0.0
  0
LINE
  5
6F5C
  8
AM_0
 10
251.58015885008481
 20
604.41800680295285
 30
0.0
 11
260.58015885008479
 21
604.41800680295285
 31
0.0
  0
LINE
  5
6F5D
  8
AM_0
 10
252.58015885008481
 20
515.22794680295283
 30
0.0
 11
260.58015885008479
 21
515.22794680295283
 31
0.0
  0
LINE
  5
6F5E
  8
AM_0
 10
251.58015885008481
 20
530.11795680295256
 30
0.0
 11
260.58015885008479
 21
530.11795680295256
 31
0.0
  0
LINE
  5
6F5F
  8
AM_0
 10
252.58015885008481
 20
503.76798680295281
 30
0.0
 11
260.58015885008479
 21
503.76798680295281
 31
0.0
  0
LINE
  5
6F60
  8
AM_0
 10
252.58015885008481
 20
619.30801680295269
 30
0.0
 11
260.58015885008479
 21
619.30801680295269
 31
0.0
  0
LINE
  5
6F61
  8
AM_0
 10
252.58015885008481
 20
630.76798680295258
 30
0.0
 11
260.58015885008479
 21
630.76798680295258
 31
0.0
  0
LINE
  5
6F62
  8
AM_0
 10
104.580158850085
 20
509.83792680295272
 30
0.0
 11
107.40010885008471
 21
509.77792680295272
 31
0.0
  0
LINE
  5
6F63
  8
AM_0
 10
145.58015885008501
 20
520.91800680295273
 30
0.0
 11
251.58015885008481
 21
520.91800680295273
 31
0.0
  0
LINE
  5
6F64
  8
AM_0
 10
246.29011885008489
 20
506.76798680295269
 30
0.0
 11
251.58015885008481
 21
506.76798680295269
 31
0.0
  0
LINE
  5
6F65
  8
AM_0
 10
118.2501488500849
 20
533.90799680295265
 30
0.0
 11
212.6001188500849
 21
533.90799680295265
 31
0.0
  0
LINE
  5
6F66
  8
AM_0
 10
200.58015885008501
 20
531.26798680295246
 30
0.0
 11
119.11586885008499
 21
531.26798680295246
 31
0.0
  0
LINE
  5
6F67
  8
AM_0
 10
200.58015885008501
 20
530.5480168029527
 30
0.0
 11
248.4001688500849
 21
530.5480168029527
 31
0.0
  0
LINE
  5
6F68
  8
AM_0
 10
118.2501488500849
 20
530.5480168029527
 30
0.0
 11
200.58015885008501
 21
530.5480168029527
 31
0.0
  0
LINE
  5
6F69
  8
AM_0
 10
118.2777888500848
 20
509.00797680295278
 30
0.0
 11
124.0801588500848
 21
509.00797680295278
 31
0.0
  0
LINE
  5
6F6A
  8
AM_0
 10
127.5801588500848
 20
505.40799680295271
 30
0.0
 11
244.39015885008479
 21
505.40799680295271
 31
0.0
  0
LINE
  5
6F6B
  8
AM_0
 10
118.340048850085
 20
514.28800680295285
 30
0.0
 11
124.0801588500848
 21
514.28800680295285
 31
0.0
  0
LINE
  5
6F6C
  8
AM_0
 10
114.5801588500848
 20
518.91800680295273
 30
0.0
 11
114.5801588500848
 21
532.96793680295275
 31
0.0
  0
LINE
  5
6F6D
  8
AM_0
 10
104.580158850085
 20
518.91800680295273
 30
0.0
 11
114.5801588500848
 21
518.91800680295273
 31
0.0
  0
LINE
  5
6F6E
  8
AM_0
 10
246.32014885008479
 20
506.8978968029528
 30
0.0
 11
249.78016885008489
 21
519.80801680295281
 31
0.0
  0
LINE
  5
6F6F
  8
AM_0
 10
108.341448850085
 20
507.10898680295259
 30
0.0
 11
107.8601888500849
 21
509.01798680295269
 31
0.0
  0
LINE
  5
6F70
  8
AM_0
 10
108.770168850085
 20
507.13791680295259
 30
0.0
 11
107.8501188500848
 21
511.01801680295267
 31
0.0
  0
LINE
  5
6F71
  8
AM_0
 10
125.5801588500849
 20
505.37894680295278
 30
0.0
 11
125.5801588500849
 21
512.78800680295285
 31
0.0
  0
LINE
  5
6F72
  8
AM_0
 10
106.4101788500848
 20
510.14798680295269
 30
0.0
 11
108.060138850085
 21
510.14798680295269
 31
0.0
  0
LINE
  5
6F73
  8
AM_0
 10
145.58015885008501
 20
613.61795680295256
 30
0.0
 11
251.58015885008481
 21
613.61795680295256
 31
0.0
  0
LINE
  5
6F74
  8
AM_0
 10
251.58015885008481
 20
504.76798680295258
 30
0.0
 11
251.58015885008481
 21
629.76798680295258
 31
0.0
  0
LINE
  5
6F75
  8
AM_0
 10
104.580158850085
 20
624.69797680295289
 30
0.0
 11
107.400168850085
 21
624.76798680295269
 31
0.0
  0
LINE
  5
6F76
  8
AM_0
 10
104.580158850085
 20
509.83792680295272
 30
0.0
 11
104.580158850085
 21
567.26798680295258
 31
0.0
  0
LINE
  5
6F77
  8
AM_0
 10
244.92012885008481
 20
531.26798680295246
 30
0.0
 11
200.58015885008501
 21
531.26798680295246
 31
0.0
  0
LINE
  5
6F78
  8
AM_0
 10
114.5801588500848
 20
615.61795680295268
 30
0.0
 11
114.5801588500848
 21
601.57803680295274
 31
0.0
  0
LINE
  5
6F79
  8
AM_0
 10
104.580158850085
 20
601.57803680295274
 30
0.0
 11
114.5801588500848
 21
601.57803680295274
 31
0.0
  0
LINE
  5
6F7A
  8
AM_0
 10
104.580158850085
 20
609.95792680295267
 30
0.0
 11
114.5801588500848
 21
609.95792680295267
 31
0.0
  0
LINE
  5
6F7B
  8
AM_0
 10
104.580158850085
 20
615.61795680295268
 30
0.0
 11
114.5801588500848
 21
615.61795680295268
 31
0.0
  0
LINE
  5
6F7C
  8
AM_0
 10
180.0222388500849
 20
553.26798680295281
 30
0.0
 11
110.13014885008479
 21
553.26798680295281
 31
0.0
  0
LINE
  5
6F7D
  8
AM_0
 10
127.5801588500848
 20
629.12796680295276
 30
0.0
 11
244.39015885008479
 21
629.12796680295276
 31
0.0
  0
LINE
  5
6F7E
  8
AM_0
 10
118.5344488500848
 20
620.25797680295273
 30
0.0
 11
124.0801588500848
 21
620.25797680295273
 31
0.0
  0
LINE
  5
6F7F
  8
AM_0
 10
115.7894488500848
 20
614.26129680295276
 30
0.0
 11
116.5744288500849
 21
618.60797680295275
 31
0.0
  0
LINE
  5
6F80
  8
AM_0
 10
118.4705988500848
 20
625.53800680295274
 30
0.0
 11
124.0801588500848
 21
625.53800680295274
 31
0.0
  0
LINE
  5
6F81
  8
AM_0
 10
110.7101688500848
 20
628.93802680295266
 30
0.0
 11
124.0801588500848
 21
628.93802680295266
 31
0.0
  0
LINE
  5
6F82
  8
AM_0
 10
110.690148850085
 20
630.56802680295277
 30
0.0
 11
124.190148850085
 21
630.56802680295277
 31
0.0
  0
LINE
  5
6F83
  8
AM_0
 10
127.5801588500848
 20
633.18802680295255
 30
0.0
 11
245.66377885008481
 21
633.18802680295255
 31
0.0
  0
LINE
  5
6F84
  8
AM_0
 10
127.5801588500848
 20
632.51798680295258
 30
0.0
 11
245.80781885008491
 21
632.51798680295258
 31
0.0
  0
LINE
  5
6F85
  8
AM_0
 10
127.5801588500848
 20
631.15799680295265
 30
0.0
 11
246.1001188500849
 21
631.15799680295265
 31
0.0
  0
LINE
  5
6F86
  8
AM_0
 10
114.0944388500848
 20
618.30801680295235
 30
0.0
 11
116.5144288500848
 21
618.30801680295235
 31
0.0
  0
LINE
  5
6F87
  8
AM_0
 10
116.5243788500848
 20
623.95801680295278
 30
0.0
 11
115.5643488500851
 21
619.48792680295276
 31
0.0
  0
LINE
  5
6F88
  8
AM_0
 10
106.3901588500846
 20
622.36795680295268
 30
0.0
 11
116.1829488500848
 21
622.36795680295268
 31
0.0
  0
LINE
  5
6F89
  8
AM_0
 10
244.92012885008481
 20
603.26798680295269
 30
0.0
 11
119.13014885008501
 21
603.26798680295269
 31
0.0
  0
LINE
  5
6F8A
  8
AM_0
 10
244.92012885008481
 20
601.26798680295258
 30
0.0
 11
230.58015885008481
 21
601.26798680295258
 31
0.0
  0
LINE
  5
6F8B
  8
AM_0
 10
244.9272688500852
 20
593.26798680295258
 30
0.0
 11
230.58015885008481
 21
593.26798680295258
 31
0.0
  0
LINE
  5
6F8C
  8
AM_0
 10
108.770168850085
 20
627.39801680295272
 30
0.0
 11
107.8501188500848
 21
623.52796680295285
 31
0.0
  0
LINE
  5
6F8D
  8
AM_0
 10
244.9129888500849
 20
591.26798680295269
 30
0.0
 11
119.13014885008501
 21
591.26798680295269
 31
0.0
  0
LINE
  5
6F8E
  8
AM_0
 10
106.4101788500848
 20
624.38797680295272
 30
0.0
 11
108.060138850085
 21
624.38797680295272
 31
0.0
  0
LINE
  5
6F8F
  8
AM_0
 10
108.7501488500848
 20
629.05792680295258
 30
0.0
 11
107.8601888500849
 21
625.5280268029527
 31
0.0
  0
LINE
  5
6F90
  8
AM_0
 10
180.018878850085
 20
583.26798680295269
 30
0.0
 11
110.13014885008479
 21
583.26798680295269
 31
0.0
  0
LINE
  5
6F91
  8
AM_0
 10
125.5801588500849
 20
629.15799680295288
 30
0.0
 11
125.5801588500849
 21
621.75797680295273
 31
0.0
  0
LINE
  5
6F92
  8
AM_0
 10
180.018878850085
 20
581.26798680295258
 30
0.0
 11
110.13014885008479
 21
581.26798680295258
 31
0.0
  0
LINE
  5
6F93
  8
AM_0
 10
180.0222388500849
 20
573.26798680295269
 30
0.0
 11
110.13014885008479
 21
573.26798680295269
 31
0.0
  0
LINE
  5
6F94
  8
AM_0
 10
180.0222388500849
 20
571.26798680295258
 30
0.0
 11
110.13014885008479
 21
571.26798680295258
 31
0.0
  0
LINE
  5
6F95
  8
AM_0
 10
246.32014885008479
 20
627.64801680295272
 30
0.0
 11
249.78016885008489
 21
614.72794680295272
 31
0.0
  0
LINE
  5
6F96
  8
AM_0
 10
248.04054885008489
 20
627.76798680295269
 30
0.0
 11
251.58015885008481
 21
627.76798680295269
 31
0.0
  0
LINE
  5
6F97
  8
AM_0
 10
251.29011885008501
 20
618.30801680295235
 30
0.0
 11
248.87013885008491
 21
618.30801680295235
 31
0.0
  0
LINE
  5
6F98
  8
AM_0
 10
247.13035885008489
 20
632.00314680295276
 30
0.0
 11
249.8201788500848
 21
619.48792680295276
 31
0.0
  0
LINE
  5
6F99
  8
AM_0
 10
104.580158850085
 20
624.69803680295274
 30
0.0
 11
104.580158850085
 21
567.26798680295258
 31
0.0
  0
LINE
  5
6F9A
  8
AM_0
 10
104.580158850085
 20
532.96793680295275
 30
0.0
 11
114.5801588500848
 21
532.96793680295275
 31
0.0
  0
LINE
  5
6F9B
  8
AM_0
 10
110.2807888500849
 20
505.59793680295269
 30
0.0
 11
124.3228988500852
 21
505.59793680295269
 31
0.0
  0
LINE
  5
6F9C
  8
AM_0
 10
104.580158850085
 20
524.57803680295285
 30
0.0
 11
114.5801588500848
 21
524.57803680295285
 31
0.0
  0
LINE
  5
6F9D
  8
AM_0
 10
106.3901588500846
 20
512.16800680295273
 30
0.0
 11
116.1829488500848
 21
512.16800680295273
 31
0.0
  0
LINE
  5
6F9E
  8
AM_0
 10
127.5801588500848
 20
503.37796680295281
 30
0.0
 11
168.90651885008481
 21
503.37796680295281
 31
0.0
  0
LINE
  5
6F9F
  8
AM_0
 10
118.0401788500848
 20
540.78800680295285
 30
0.0
 11
212.58015885008481
 21
540.78800680295285
 31
0.0
  0
LINE
  5
6FA0
  8
AM_0
 10
212.58015885008481
 20
533.26798680295269
 30
0.0
 11
119.11586885008499
 21
533.26798680295269
 31
0.0
  0
LINE
  5
6FA1
  8
AM_0
 10
118.2501488500849
 20
603.99796680295265
 30
0.0
 11
248.4001688500849
 21
603.99796680295265
 31
0.0
  0
LINE
  5
6FA2
  8
AM_0
 10
118.2501488500849
 20
600.63797680295261
 30
0.0
 11
212.6001188500849
 21
600.63797680295261
 31
0.0
  0
LINE
  5
6FA3
  8
AM_0
 10
118.0401788500848
 20
593.75797680295273
 30
0.0
 11
212.58015885008481
 21
593.75797680295273
 31
0.0
  0
LINE
  5
6FA4
  8
AM_0
 10
118.0401788500848
 20
590.83792680295255
 30
0.0
 11
248.6143988500848
 21
590.83792680295255
 31
0.0
  0
LINE
  5
6FA5
  8
AM_0
 10
108.910178850085
 20
583.61795680295256
 30
0.0
 11
181.25142885008481
 21
583.61795680295256
 31
0.0
  0
LINE
  5
6FA6
  8
AM_0
 10
108.910178850085
 20
580.94803680295274
 30
0.0
 11
181.23884885008479
 21
580.94803680295274
 31
0.0
  0
LINE
  5
6FA7
  8
AM_0
 10
108.8501788500846
 20
573.5480168029527
 30
0.0
 11
181.31526885008481
 21
573.5480168029527
 31
0.0
  0
LINE
  5
6FA8
  8
AM_0
 10
108.8501788500846
 20
571.00797680295273
 30
0.0
 11
181.31526885008481
 21
571.00797680295273
 31
0.0
  0
LINE
  5
6FA9
  8
AM_0
 10
108.8501788500846
 20
563.53800680295274
 30
0.0
 11
181.31526885008481
 21
563.53800680295274
 31
0.0
  0
LINE
  5
6FAA
  8
AM_0
 10
180.0222388500849
 20
561.26798680295281
 30
0.0
 11
110.13014885008479
 21
561.26798680295281
 31
0.0
  0
LINE
  5
6FAB
  8
AM_0
 10
180.0222388500849
 20
563.26798680295258
 30
0.0
 11
110.13014885008479
 21
563.26798680295258
 31
0.0
  0
LINE
  5
6FAC
  8
AM_0
 10
108.910178850085
 20
553.58792680295267
 30
0.0
 11
181.25142885008481
 21
553.58792680295267
 31
0.0
  0
LINE
  5
6FAD
  8
AM_0
 10
180.0222388500849
 20
551.26798680295281
 30
0.0
 11
110.13014885008479
 21
551.26798680295281
 31
0.0
  0
LINE
  5
6FAE
  8
AM_0
 10
108.910178850085
 20
550.92801680295281
 30
0.0
 11
181.25142885008481
 21
550.92801680295281
 31
0.0
  0
LINE
  5
6FAF
  8
AM_0
 10
244.9129888500849
 20
543.26798680295281
 30
0.0
 11
119.11586885008499
 21
543.26798680295281
 31
0.0
  0
LINE
  5
6FB0
  8
AM_0
 10
118.0401788500848
 20
543.70792680295278
 30
0.0
 11
248.6143988500848
 21
543.70792680295278
 31
0.0
  0
LINE
  5
6FB1
  8
AM_0
 10
244.9129888500849
 20
541.26798680295281
 30
0.0
 11
230.58015885008481
 21
541.26798680295281
 31
0.0
  0
LINE
  5
6FB2
  8
AM_0
 10
244.92012885008481
 20
533.26798680295269
 30
0.0
 11
230.58015885008481
 21
533.26798680295269
 31
0.0
  0
LINE
  5
6FB3
  8
AM_0
 10
108.8501788500846
 20
560.99796680295265
 30
0.0
 11
181.31526885008481
 21
560.99796680295265
 31
0.0
  0
LINE
  5
6FB4
  8
AM_0
 10
115.7893888500849
 20
520.2746068029528
 30
0.0
 11
116.5744288500849
 21
515.92792680295281
 31
0.0
  0
LINE
  5
6FB5
  8
AM_0
 10
114.0944388500848
 20
516.22794680295283
 30
0.0
 11
116.5144288500848
 21
516.22794680295283
 31
0.0
  0
LINE
  5
6FB6
  8
AM_0
 10
116.52443885008491
 20
510.57797680295278
 30
0.0
 11
115.56441885008471
 21
515.04794680295265
 31
0.0
  0
LINE
  5
6FB7
  8
AM_0
 10
232.09376885008501
 20
497.26798680295281
 30
0.0
 11
243.59633885008481
 21
497.26798680295281
 31
0.0
  0
LINE
  5
6FB8
  8
AM_0
 10
250.58018885008511
 20
506.76795680295271
 30
0.0
 11
244.85438885008509
 21
497.95099680295277
 31
0.0
  0
LINE
  5
6FB9
  8
AM_0
 10
214.08015885008481
 20
539.76798680295246
 30
0.0
 11
214.08015885008481
 21
534.76798680295281
 31
0.0
  0
LINE
  5
6FBA
  8
AM_0
 10
229.08015885008481
 20
539.76798680295246
 30
0.0
 11
229.08015885008481
 21
534.76798680295281
 31
0.0
  0
LINE
  5
6FBB
  8
AM_0
 10
212.58015885008481
 20
541.26798680295281
 30
0.0
 11
119.11586885008499
 21
541.26798680295281
 31
0.0
  0
LINE
  5
6FBC
  8
AM_0
 10
213.60011885008501
 20
539.76798680295246
 30
0.0
 11
213.60011885008501
 21
534.90799680295288
 31
0.0
  0
LINE
  5
6FBD
  8
AM_0
 10
229.56013885008491
 20
539.76798680295246
 30
0.0
 11
229.56013885008491
 21
534.90799680295288
 31
0.0
  0
LINE
  5
6FBE
  8
AM_0
 10
230.58015885008481
 20
540.78800680295285
 30
0.0
 11
248.6143988500848
 21
540.78800680295285
 31
0.0
  0
LINE
  5
6FBF
  8
AM_0
 10
230.56013885008491
 20
533.90799680295265
 30
0.0
 11
248.4001688500849
 21
533.90799680295265
 31
0.0
  0
LINE
  5
6FC0
  8
AM_0
 10
229.56013885008491
 20
594.76798680295269
 30
0.0
 11
229.56013885008491
 21
599.62796680295276
 31
0.0
  0
LINE
  5
6FC1
  8
AM_0
 10
213.60011885008501
 20
594.76798680295269
 30
0.0
 11
213.60011885008501
 21
599.62796680295276
 31
0.0
  0
LINE
  5
6FC2
  8
AM_0
 10
229.08015885008481
 20
594.76798680295269
 30
0.0
 11
229.08015885008481
 21
599.76798680295269
 31
0.0
  0
LINE
  5
6FC3
  8
AM_0
 10
214.08015885008481
 20
594.76798680295269
 30
0.0
 11
214.08015885008481
 21
599.76798680295269
 31
0.0
  0
LINE
  5
6FC4
  8
AM_0
 10
212.58015885008481
 20
601.26798680295258
 30
0.0
 11
119.13014885008501
 21
601.26798680295258
 31
0.0
  0
LINE
  5
6FC5
  8
AM_0
 10
230.56013885008491
 20
600.63797680295261
 30
0.0
 11
248.4001688500849
 21
600.63797680295261
 31
0.0
  0
LINE
  5
6FC6
  8
AM_0
 10
230.58015885008481
 20
593.75797680295273
 30
0.0
 11
248.62587885008489
 21
593.75797680295273
 31
0.0
  0
LINE
  5
6FC7
  8
AM_0
 10
212.58015885008481
 20
593.26798680295258
 30
0.0
 11
119.13014885008501
 21
593.26798680295258
 31
0.0
  0
LINE
  5
6FC8
  8
AM_0
 10
185.58015885008481
 20
587.76798680295269
 30
0.0
 11
185.58015885008481
 21
546.76798680295258
 31
0.0
  0
LINE
  5
6FC9
  8
AM_0
 10
248.58015885008481
 20
587.76798680295269
 30
0.0
 11
248.58015885008481
 21
546.76798680295258
 31
0.0
  0
LINE
  5
6FCA
  8
AM_0
 10
185.58015885008481
 20
587.76798680295269
 30
0.0
 11
248.58015885008481
 21
587.76798680295269
 31
0.0
  0
LINE
  5
6FCB
  8
AM_0
 10
185.58015885008481
 20
546.76798680295258
 30
0.0
 11
248.58015885008481
 21
546.76798680295258
 31
0.0
  0
LINE
  5
6FCC
  8
AM_0
 10
185.58015885008481
 20
580.26798680295258
 30
0.0
 11
248.58015885008481
 21
580.26798680295258
 31
0.0
  0
LINE
  5
6FCD
  8
AM_0
 10
145.58015885008501
 20
613.6178968029526
 30
0.0
 11
114.5801588500848
 21
611.58789680295274
 31
0.0
  0
LINE
  5
6FCE
  8
AM_0
 10
145.58015885008501
 20
520.91794680295266
 30
0.0
 11
114.5801588500848
 21
522.94794680295286
 31
0.0
  0
ARC
  5
6FCF
  8
AM_0
 10
104.0806488500848
 20
517.01846680295273
 30
0.0
 40
0.49952301
 50
359.9452300000014
 51
90.054773999999597
  0
ARC
  5
6FD0
  8
AM_0
 10
104.0768088500849
 20
519.17142680295285
 30
0.0
 40
0.5033929900000002
 50
270.38491000000062
 51
359.61509999999811
  0
ARC
  5
6FD1
  8
AM_0
 10
103.57606885008479
 20
521.77213680295267
 30
0.0
 40
1.004119999999999
 50
270.23460999999998
 51
359.76539000000002
  0
ARC
  5
6FD2
  8
AM_0
 10
103.57771885008511
 20
526.29044680295283
 30
0.0
 40
1.002470999999999
 50
270.14107000000013
 51
359.85892999999987
  0
ARC
  5
6FD3
  8
AM_0
 10
100.5789388500848
 20
521.39151680295276
 30
0.0
 40
0.9987969999999998
 50
179.62728000000101
 51
238.70795000000021
  0
ARC
  5
6FD4
  8
AM_0
 10
100.57789885008479
 20
522.42923680295269
 30
0.0
 40
0.9977070099999998
 50
180.074020000004
 51
242.04481000000081
  0
ARC
  5
6FD5
  8
AM_0
 10
100.57924885008509
 20
525.99271680295283
 30
0.0
 40
0.9990889999999998
 50
179.6950899999965
 51
236.66209000000279
  0
ARC
  5
6FD6
  8
AM_0
 10
100.578638850085
 20
527.02725680295282
 30
0.0
 40
0.9984580299999999
 50
179.95957999999851
 51
239.38657000000219
  0
ARC
  5
6FD7
  8
AM_0
 10
101.84352885008499
 20
526.2889768029529
 30
0.0
 40
1.0010449999999991
 50
240.4718700000011
 51
270.37970999999948
  0
ARC
  5
6FD8
  8
AM_0
 10
101.8729488500848
 20
525.14847680295281
 30
0.0
 40
1.000521999999999
 50
237.1461799999995
 51
270.41344000000032
  0
ARC
  5
6FD9
  8
AM_0
 10
101.8353488500848
 20
521.76859680295286
 30
0.0
 40
1.0006820000000001
 50
241.65062000000191
 51
269.70392999999888
  0
ARC
  5
6FDA
  8
AM_0
 10
101.851518850085
 20
520.63162680295284
 30
0.0
 40
1.0037439999999991
 50
239.37113000000019
 51
270.49190000000061
  0
ARC
  5
6FDB
  8
AM_0
 10
101.8260088500849
 20
519.66727680295276
 30
0.0
 40
0.9993420200000001
 50
242.86200000000241
 51
269.6654599999984
  0
ARC
  5
6FDC
  8
AM_0
 10
101.8608588500846
 20
518.51907680295255
 30
0.0
 40
1.001123999999999
 50
239.3278200000014
 51
269.38767999999868
  0
ARC
  5
6FDD
  8
AM_0
 10
100.5758288500851
 20
520.29837680295282
 30
0.0
 40
0.9956849800000001
 50
180.02113
 51
243.4091400000006
  0
ARC
  5
6FDE
  8
AM_0
 10
100.5777788500848
 20
519.25259680295289
 30
0.0
 40
0.9976310099999999
 50
180.2678099999986
 51
240.07924000000099
  0
ARC
  5
6FDF
  8
AM_0
 10
100.578638850085
 20
527.02725680295282
 30
0.0
 40
0.9984580299999999
 50
179.95957999999851
 51
239.38657000000219
  0
ARC
  5
6FE0
  8
AM_0
 10
103.5769288500848
 20
526.29471680295273
 30
0.0
 40
1.0032760000000001
 50
334.19810000000479
 51
359.6181099999983
  0
ARC
  5
6FE1
  8
AM_0
 10
103.5803488500848
 20
550.26810680295273
 30
0.0
 40
0.9998210099999999
 50
359.98971999999799
 51
90.010282000001538
  0
ARC
  5
6FE2
  8
AM_0
 10
103.5752188500848
 20
554.27286680295276
 30
0.0
 40
1.004939
 50
270.2809399999997
 51
359.71907000000078
  0
ARC
  5
6FE3
  8
AM_0
 10
103.5803488500848
 20
560.26810680295273
 30
0.0
 40
0.9998279799999998
 50
359.99015999999688
 51
90.009838000000187
  0
ARC
  5
6FE4
  8
AM_0
 10
103.5752188500848
 20
564.27286680295265
 30
0.0
 40
1.004942999999999
 50
270.28113999999943
 51
359.71886999999822
  0
ARC
  5
6FE5
  8
AM_0
 10
100.5752188500848
 20
562.27286680295276
 30
0.0
 40
0.9950770099999999
 50
89.715859999999481
 51
180.28414000000049
  0
ARC
  5
6FE6
  8
AM_0
 10
100.5803488500848
 20
562.26822680295265
 30
0.0
 40
1.0002040000000001
 50
180.01165999999679
 51
269.98832000000078
  0
ARC
  5
6FE7
  8
AM_0
 10
100.5752188500848
 20
552.27286680295265
 30
0.0
 40
0.9950810099999999
 50
89.716072000000096
 51
180.2839200000044
  0
ARC
  5
6FE8
  8
AM_0
 10
100.5803488500848
 20
552.26822680295265
 30
0.0
 40
1.0001999999999991
 50
180.01145999999861
 51
269.98854000000142
  0
ARC
  5
6FE9
  8
AM_0
 10
100.5752188500848
 20
542.27286680295254
 30
0.0
 40
0.9950849999999999
 50
89.716282999999393
 51
180.28371999999919
  0
ARC
  5
6FEA
  8
AM_0
 10
100.5803488500848
 20
542.26822680295265
 30
0.0
 40
1.0001959999999981
 50
180.01124999999951
 51
269.98875000000061
  0
ARC
  5
6FEB
  8
AM_0
 10
100.576678850085
 20
533.09647680295257
 30
0.0
 40
0.9965090199999998
 50
179.9137499999965
 51
247.1784500000004
  0
ARC
  5
6FEC
  8
AM_0
 10
100.57655885008479
 20
534.88236680295279
 30
0.0
 40
0.99638802
 50
180.24990999999889
 51
253.29664000000031
  0
ARC
  5
6FED
  8
AM_0
 10
101.720728850085
 20
534.53067680295283
 30
0.0
 40
1.002699
 50
253.7527199999989
 51
270.54064000000108
  0
ARC
  5
6FEE
  8
AM_0
 10
101.78316885008461
 20
532.58316680295275
 30
0.0
 40
1.005233
 50
246.98639000000031
 51
269.82924999999938
  0
ARC
  5
6FEF
  8
AM_0
 10
103.8806988500848
 20
530.87857680295269
 30
0.0
 40
0.6994530000000001
 50
359.95517000000092
 51
90.044829000000746
  0
ARC
  5
6FF0
  8
AM_0
 10
103.5803488500848
 20
540.26810680295273
 30
0.0
 40
0.9998239899999999
 50
359.98991999999532
 51
90.01007700000045
  0
ARC
  5
6FF1
  8
AM_0
 10
103.5752188500848
 20
544.27286680295254
 30
0.0
 40
1.0049469
 50
270.2813699999993
 51
359.71863000000081
  0
ARC
  5
6FF2
  8
AM_0
 10
103.5768088500846
 20
534.53128680295276
 30
0.0
 40
1.003352
 50
270.19111000000021
 51
359.80890000000107
  0
ARC
  5
6FF3
  8
AM_0
 10
104.0755788500848
 20
617.52261680295271
 30
0.0
 40
0.50463498
 50
270.52383000000037
 51
359.47616999999963
  0
ARC
  5
6FF4
  8
AM_0
 10
104.0818688500851
 20
615.36966680295257
 30
0.0
 40
0.4983060100000002
 50
359.80488999999778
 51
90.195107000000036
  0
ARC
  5
6FF5
  8
AM_0
 10
103.5811388500852
 20
612.76895680295274
 30
0.0
 40
0.9990100299999999
 50
359.94319000000121
 51
90.056809000000058
  0
ARC
  5
6FF6
  8
AM_0
 10
103.87562885008511
 20
603.66251680295272
 30
0.0
 40
0.704566
 50
270.37010000000009
 51
359.62990999999778
  0
ARC
  5
6FF7
  8
AM_0
 10
103.5778388500846
 20
608.25565680295256
 30
0.0
 40
1.002353
 50
0.1343268199984526
 51
89.865672999999347
  0
ARC
  5
6FF8
  8
AM_0
 10
103.581868850085
 20
600.00967680295275
 30
0.0
 40
0.9982839799999999
 50
359.90142000000009
 51
90.098576000001358
  0
ARC
  5
6FF9
  8
AM_0
 10
103.5752188500848
 20
594.27286680295265
 30
0.0
 40
1.004942999999999
 50
270.28111000000013
 51
359.71888999999987
  0
ARC
  5
6FFA
  8
AM_0
 10
103.5803488500848
 20
590.26810680295273
 30
0.0
 40
0.9998289899999999
 50
359.99019000000038
 51
90.009811000000937
  0
ARC
  5
6FFB
  8
AM_0
 10
103.5752188500848
 20
584.27286680295265
 30
0.0
 40
1.004939
 50
270.2809100000008
 51
359.71909999999991
  0
ARC
  5
6FFC
  8
AM_0
 10
103.5803488500848
 20
580.26810680295273
 30
0.0
 40
0.9998210099999999
 50
359.98975000000149
 51
90.010254999998992
  0
ARC
  5
6FFD
  8
AM_0
 10
103.5752188500848
 20
574.27286680295265
 30
0.0
 40
1.0049469
 50
270.28135000000037
 51
359.71866000000068
  0
ARC
  5
6FFE
  8
AM_0
 10
103.5803488500848
 20
570.26810680295273
 30
0.0
 40
0.9998249999999999
 50
359.98994999999883
 51
90.010050000001243
  0
ARC
  5
6FFF
  8
AM_0
 10
100.5803488500848
 20
572.26822680295288
 30
0.0
 40
1.0001959999999981
 50
180.0112199999958
 51
269.98878000000087
  0
ARC
  5
7000
  8
AM_0
 10
100.5752188500848
 20
572.27286680295265
 30
0.0
 40
0.9950849999999999
 50
89.716311000000914
 51
180.28368999999961
  0
ARC
  5
7001
  8
AM_0
 10
100.5803488500848
 20
582.26822680295265
 30
0.0
 40
1.0001999999999991
 50
180.01143000000161
 51
269.98856999999839
  0
ARC
  5
7002
  8
AM_0
 10
100.5752188500848
 20
582.27286680295265
 30
0.0
 40
0.99508202
 50
89.716099000001435
 51
180.2839099999978
  0
ARC
  5
7003
  8
AM_0
 10
100.5803488500848
 20
592.26822680295265
 30
0.0
 40
1.000203
 50
180.01164999999551
 51
269.98835000000122
  0
ARC
  5
7004
  8
AM_0
 10
100.5752188500848
 20
592.27286680295265
 30
0.0
 40
0.99507803
 50
89.715887000001331
 51
180.28410999999991
  0
ARC
  5
7005
  8
AM_0
 10
100.57655885008479
 20
601.44949680295258
 30
0.0
 40
0.9963999999999998
 50
112.8173600000008
 51
180.0904199999996
  0
ARC
  5
7006
  8
AM_0
 10
100.576438850085
 20
599.66373680295271
 30
0.0
 40
0.9962710099999999
 50
106.6979199999999
 51
180.33004999999989
  0
ARC
  5
7007
  8
AM_0
 10
101.7193188500846
 20
600.01529680295266
 30
0.0
 40
0.9927430199999999
 50
89.374554999998736
 51
106.33207000000171
  0
ARC
  5
7008
  8
AM_0
 10
101.7811488500849
 20
601.96256680295289
 30
0.0
 40
0.9954450099999999
 50
90.056904999999645
 51
113.12745
  0
ARC
  5
7009
  8
AM_0
 10
100.5746088500846
 20
613.14700680295266
 30
0.0
 40
0.9944329899999999
 50
121.1521299999998
 51
179.94050999999911
  0
ARC
  5
700A
  8
AM_0
 10
100.573388850085
 20
612.10941680295275
 30
0.0
 40
0.9932109699999999
 50
117.7993199999991
 51
180.08187000000001
  0
ARC
  5
700B
  8
AM_0
 10
100.574968850085
 20
608.54556680295275
 30
0.0
 40
0.9948369899999999
 50
123.2049600000028
 51
180.43785999999801
  0
ARC
  5
700C
  8
AM_0
 10
100.57417885008481
 20
607.51114680295257
 30
0.0
 40
0.99404597
 50
120.46820000000049
 51
180.18564000000021
  0
ARC
  5
700D
  8
AM_0
 10
101.8595788500848
 20
608.26151680295266
 30
0.0
 40
0.99648702
 50
90.540720999998626
 51
120.74377000000059
  0
ARC
  5
700E
  8
AM_0
 10
101.8867988500848
 20
609.40176680295258
 30
0.0
 40
0.99617702
 50
90.381317999999226
 51
123.9704899999999
  0
ARC
  5
700F
  8
AM_0
 10
101.81526885008481
 20
612.77261680295271
 30
0.0
 40
0.99545902
 50
89.141290999999924
 51
117.2038199999995
  0
ARC
  5
7010
  8
AM_0
 10
101.8490188500848
 20
613.91373680295271
 30
0.0
 40
0.99427301
 50
89.356066000000013
 51
120.7809100000017
  0
ARC
  5
7011
  8
AM_0
 10
101.8049588500848
 20
614.87393680295247
 30
0.0
 40
0.99411702
 50
89.122643999998516
 51
115.93498000000019
  0
ARC
  5
7012
  8
AM_0
 10
101.84218885008499
 20
616.02213680295256
 30
0.0
 40
0.9959030199999999
 50
89.541266999999124
 51
119.6071699999994
  0
ARC
  5
7013
  8
AM_0
 10
100.5757688500847
 20
614.24771680295271
 30
0.0
 40
0.995579
 50
116.5870900000007
 51
179.98263999999989
  0
ARC
  5
7014
  8
AM_0
 10
100.573388850085
 20
615.28592680295264
 30
0.0
 40
0.99319202
 50
119.77338
 51
179.87958999999799
  0
ARC
  5
7015
  8
AM_0
 10
117.7209688500848
 20
526.05765680295258
 30
0.0
 40
1.0032491999999991
 50
314.98118999999758
 51
5.167643400001003
  0
ARC
  5
7016
  8
AM_0
 10
252.57997885008481
 20
629.76822680295265
 30
0.0
 40
0.99980682
 50
89.98893100000069
 51
180.0110699999974
  0
ARC
  5
7017
  8
AM_0
 10
244.3814288500848
 20
507.41422680295273
 30
0.0
 40
2.0062942999999991
 50
270.24932999999891
 51
345.08844000000403
  0
ARC
  5
7018
  8
AM_0
 10
252.57924885008489
 20
618.30887680295257
 30
0.0
 40
0.9990923399999999
 50
89.947921999999295
 51
180.05208000000431
  0
ARC
  5
7019
  8
AM_0
 10
126.5729588500848
 20
572.26798680295258
 30
0.0
 40
1.0000259
 50
89.587534000000232
 51
270.4124599999987
  0
ARC
  5
701A
  8
AM_0
 10
118.5396388500848
 20
618.26273680295265
 30
0.0
 40
1.9952742999999991
 50
90.148580000000095
 51
170.03521999999899
  0
ARC
  5
701B
  8
AM_0
 10
118.4774988500848
 20
623.54092680295275
 30
0.0
 40
1.997119399999999
 50
89.801366999998493
 51
167.94475999999821
  0
ARC
  5
701C
  8
AM_0
 10
114.0970088500848
 20
619.81033680295275
 30
0.0
 40
1.502416299999999
 50
269.90137999999882
 51
347.60813000000093
  0
ARC
  5
701D
  8
AM_0
 10
110.7104088500849
 20
626.94571680295269
 30
0.0
 40
1.9922863
 50
90.007721000000544
 51
166.8783899999971
  0
ARC
  5
701E
  8
AM_0
 10
106.3853988500852
 20
623.87283680295275
 30
0.0
 40
1.5048382
 50
270.18264000000067
 51
346.75308000000138
  0
ARC
  5
701F
  8
AM_0
 10
106.399738850085
 20
625.89334680295258
 30
0.0
 40
1.505448699999999
 50
270.39686999999992
 51
345.95247000000012
  0
ARC
  5
7020
  8
AM_0
 10
110.685018850085
 20
628.5734068029526
 30
0.0
 40
1.994612099999999
 50
89.851991999999015
 51
165.93885999999711
  0
ARC
  5
7021
  8
AM_0
 10
127.5734488500848
 20
627.13467680295275
 30
0.0
 40
1.9933081999999991
 50
89.807323000000935
 51
180.19266999999849
  0
ARC
  5
7022
  8
AM_0
 10
127.5742988500848
 20
629.16385680295275
 30
0.0
 40
1.994130499999996
 50
89.831105999999224
 51
180.16889000000049
  0
ARC
  5
7023
  8
AM_0
 10
127.576678850085
 20
630.52152680295274
 30
0.0
 40
1.996488899999999
 50
89.899147999998391
 51
180.10084999999879
  0
ARC
  5
7024
  8
AM_0
 10
127.5739388500851
 20
631.19144680295267
 30
0.0
 40
1.9964978999999961
 50
89.821482000000245
 51
165.6006099999997
  0
ARC
  5
7025
  8
AM_0
 10
124.076438850085
 20
621.76175680295273
 30
0.0
 40
1.5037541000000001
 50
270.14287000000093
 51
359.85713999999848
  0
ARC
  5
7026
  8
AM_0
 10
124.0752788500849
 20
627.04288680295269
 30
0.0
 40
1.504891299999997
 50
270.1859300000005
 51
359.81406999999621
  0
ARC
  5
7027
  8
AM_0
 10
124.0732688500848
 20
630.44486680295256
 30
0.0
 40
1.506942899999999
 50
270.2633699999991
 51
359.73663000000079
  0
ARC
  5
7028
  8
AM_0
 10
124.18507885008501
 20
632.07315680295255
 30
0.0
 40
1.505230099999999
 50
270.19421
 51
345.17177999999871
  0
ARC
  5
7029
  8
AM_0
 10
251.23030885008481
 20
615.12027680295273
 30
0.0
 40
1.5022733999999991
 50
195.1365099999966
 51
269.99412000000041
  0
ARC
  5
702A
  8
AM_0
 10
244.3896088500849
 20
627.12882680295274
 30
0.0
 40
1.9991226
 50
15.05079100000003
 51
89.984388999999666
  0
ARC
  5
702B
  8
AM_0
 10
252.5731388500848
 20
504.76102680295281
 30
0.0
 40
0.99304521
 50
179.5973099999994
 51
270.40268000000009
  0
ARC
  5
702C
  8
AM_0
 10
252.57246885008479
 20
516.22037680295284
 30
0.0
 40
0.99237448
 50
179.55801999999801
 51
270.4419699999998
  0
ARC
  5
702D
  8
AM_0
 10
251.2858488500849
 20
619.80826680295274
 30
0.0
 40
1.500286
 50
192.32631000000171
 51
270.16416999999848
  0
ARC
  5
702E
  8
AM_0
 10
113.7357388500848
 20
608.86221680295273
 30
0.0
 40
5.0059714
 50
279.71098000000171
 51
354.67888000000482
  0
ARC
  5
702F
  8
AM_0
 10
114.2011288500846
 20
604.93546680295265
 30
0.0
 40
6.0044340999999992
 50
45.225578000001079
 51
86.380821999999384
  0
ARC
  5
7030
  8
AM_0
 10
117.7221288500848
 20
608.48868680295277
 30
0.0
 40
1.002184699999999
 50
354.8038600000034
 51
45.047306999998277
  0
ARC
  5
7031
  8
AM_0
 10
114.19984885008481
 20
529.61331680295245
 30
0.0
 40
6.0073843
 50
273.6297400000006
 51
314.76385000000192
  0
ARC
  5
7032
  8
AM_0
 10
113.7429988500848
 20
525.67947680295288
 30
0.0
 40
4.9991421999999961
 50
5.3780268999992682
 51
80.360064999999054
  0
ARC
  5
7033
  8
AM_0
 10
110.7169988500851
 20
507.5985468029528
 30
0.0
 40
2.0005671999999981
 50
193.30959000000229
 51
269.80430999999942
  0
ARC
  5
7034
  8
AM_0
 10
106.39339885008459
 20
510.67032680295267
 30
0.0
 40
1.497715799999999
 50
13.424378999996071
 51
90.122645000001114
  0
ARC
  5
7035
  8
AM_0
 10
106.40785885008491
 20
508.64969680295269
 30
0.0
 40
1.4982997
 50
14.229739999998021
 51
89.910950000001222
  0
ARC
  5
7036
  8
AM_0
 10
127.5802188500848
 20
507.4079968029526
 30
0.0
 40
2.0000371999999991
 50
180.0010599999959
 51
269.99892999999969
  0
ARC
  5
7037
  8
AM_0
 10
127.58107885008459
 20
505.37894680295278
 30
0.0
 40
2.0009109999999981
 50
180.00001000000091
 51
269.97390999999988
  0
ARC
  5
7038
  8
AM_0
 10
124.07820885008481
 20
512.7860468029528
 30
0.0
 40
1.501982699999999
 50
0.0755872020005832
 51
89.924413000001564
  0
ARC
  5
7039
  8
AM_0
 10
124.07704885008511
 20
507.5047968029528
 30
0.0
 40
1.503128599999999
 50
0.1191296500022061
 51
89.880869999998822
  0
ARC
  5
703A
  8
AM_0
 10
251.22377885008481
 20
519.42423680295246
 30
0.0
 40
1.4937901
 50
89.756423999998432
 51
165.1129200000008
  0
ARC
  5
703B
  8
AM_0
 10
126.5729588500848
 20
582.26798680295269
 30
0.0
 40
1.0000259
 50
89.587534000000232
 51
270.4124599999987
  0
ARC
  5
703C
  8
AM_0
 10
126.5729588500848
 20
592.26798680295258
 30
0.0
 40
1.0000259
 50
89.587534000000232
 51
270.4124599999987
  0
ARC
  5
703D
  8
AM_0
 10
126.5729588500848
 20
602.26798680295269
 30
0.0
 40
1.0000259
 50
89.587534000000232
 51
270.4124599999987
  0
ARC
  5
703E
  8
AM_0
 10
108.8419388500849
 20
572.27799680295266
 30
0.0
 40
1.2700266
 50
89.629327999999504
 51
270.37065999999959
  0
ARC
  5
703F
  8
AM_0
 10
108.903888850085
 20
582.28299680295288
 30
0.0
 40
1.3350147999999991
 50
89.730435000000341
 51
270.2695700000001
  0
ARC
  5
7040
  8
AM_0
 10
118.0344488500848
 20
592.2980168029527
 30
0.0
 40
1.460011199999999
 50
89.775248000001227
 51
270.22474000000028
  0
ARC
  5
7041
  8
AM_0
 10
118.2501488500849
 20
602.31802680295255
 30
0.0
 40
1.6800002000000001
 50
90.000003000000945
 51
270.0
  0
ARC
  5
7042
  8
AM_0
 10
110.13014885008479
 20
572.26798680295258
 30
0.0
 40
1.0000056999999991
 50
90.000003000000945
 51
270.0
  0
ARC
  5
7043
  8
AM_0
 10
110.13014885008479
 20
582.26798680295269
 30
0.0
 40
1.0000056999999991
 50
90.000003000000945
 51
270.0
  0
ARC
  5
7044
  8
AM_0
 10
119.1230088500846
 20
602.26798680295269
 30
0.0
 40
1.0000255999999981
 50
89.589474000000749
 51
270.41051999999962
  0
ARC
  5
7045
  8
AM_0
 10
119.1230088500846
 20
592.26798680295258
 30
0.0
 40
1.0000255999999981
 50
89.589474000000749
 51
270.41051999999962
  0
ARC
  5
7046
  8
AM_0
 10
248.4001688500849
 20
602.31802680295255
 30
0.0
 40
1.6800077
 50
269.999989999999
 51
90.000003000000945
  0
ARC
  5
7047
  8
AM_0
 10
244.92012885008481
 20
602.26798680295269
 30
0.0
 40
1.0000040999999991
 50
269.999989999999
 51
90.000003000000945
  0
ARC
  5
7048
  8
AM_0
 10
244.92012885008481
 20
532.26798680295269
 30
0.0
 40
1.0000040999999991
 50
269.999989999999
 51
90.000003000000945
  0
ARC
  5
7049
  8
AM_0
 10
248.4001688500849
 20
532.22794680295283
 30
0.0
 40
1.6800077
 50
269.999989999999
 51
90.000003000000945
  0
ARC
  5
704A
  8
AM_0
 10
110.13014885008479
 20
562.26798680295281
 30
0.0
 40
1.0000056999999991
 50
90.000003000000945
 51
270.0
  0
ARC
  5
704B
  8
AM_0
 10
126.5729588500848
 20
552.26798680295281
 30
0.0
 40
1.0000259
 50
89.587534000000232
 51
270.4124599999987
  0
ARC
  5
704C
  8
AM_0
 10
126.5729588500848
 20
542.26798680295258
 30
0.0
 40
1.0000259
 50
89.587534000000232
 51
270.4124599999987
  0
ARC
  5
704D
  8
AM_0
 10
108.903888850085
 20
552.25797680295284
 30
0.0
 40
1.3300148000000001
 50
89.729417999999583
 51
270.27058999999991
  0
ARC
  5
704E
  8
AM_0
 10
126.5729588500848
 20
562.26798680295281
 30
0.0
 40
1.0000259
 50
89.587534000000232
 51
270.4124599999987
  0
ARC
  5
704F
  8
AM_0
 10
126.5729588500848
 20
532.26798680295269
 30
0.0
 40
1.0000259
 50
89.587534000000232
 51
270.4124599999987
  0
ARC
  5
7050
  8
AM_0
 10
108.8419388500849
 20
562.26798680295281
 30
0.0
 40
1.2700266
 50
89.629320999999507
 51
270.3706899999986
  0
ARC
  5
7051
  8
AM_0
 10
110.13014885008479
 20
552.26798680295281
 30
0.0
 40
1.0000056999999991
 50
90.000003000000945
 51
270.0
  0
ARC
  5
7052
  8
AM_0
 10
114.3133188500848
 20
614.52799680295277
 30
0.0
 40
1.5
 50
280.24789000000129
 51
349.76261999999917
  0
ARC
  5
7053
  8
AM_0
 10
114.3133188500848
 20
520.00797680295284
 30
0.0
 40
1.5
 50
10.237378999998541
 51
79.752109999998723
  0
ARC
  5
7054
  8
AM_0
 10
118.5396388500848
 20
516.27322680295265
 30
0.0
 40
1.9952742999999991
 50
189.9647800000009
 51
269.85141999999991
  0
ARC
  5
7055
  8
AM_0
 10
114.0970088500848
 20
514.72562680295266
 30
0.0
 40
1.502416299999999
 50
12.391887000000411
 51
90.098616999999123
  0
ARC
  5
7056
  8
AM_0
 10
118.4774988500848
 20
510.99503680295288
 30
0.0
 40
1.997119399999999
 50
192.0552400000017
 51
270.1986299999989
  0
ARC
  5
7057
  8
AM_0
 10
118.2501488500849
 20
532.21793680295275
 30
0.0
 40
1.6800002000000001
 50
90.000003000000945
 51
270.0
  0
ARC
  5
7058
  8
AM_0
 10
119.1230088500846
 20
532.26798680295269
 30
0.0
 40
1.0000255999999981
 50
89.589474000000749
 51
270.41051999999962
  0
ARC
  5
7059
  8
AM_0
 10
119.1230088500846
 20
542.26798680295258
 30
0.0
 40
1.0000255999999981
 50
89.589474000000749
 51
270.41051999999962
  0
ARC
  5
705A
  8
AM_0
 10
118.0344488500848
 20
542.23795680295245
 30
0.0
 40
1.460011199999999
 50
89.775248000001227
 51
270.22474000000028
  0
ARC
  5
705B
  8
AM_0
 10
168.90651885008481
 20
501.87796680295281
 30
0.0
 40
1.5
 50
1.5000027000022329
 51
90.000003000000945
  0
ARC
  5
705C
  8
AM_0
 10
243.59633885008481
 20
498.76798680295269
 30
0.0
 40
1.5
 50
269.999989999999
 51
326.99999999999892
  0
ARC
  5
705D
  8
AM_0
 10
232.09376885008501
 20
495.76798680295258
 30
0.0
 40
1.5
 50
90.000003000000945
 51
178.4999999999973
  0
ARC
  5
705E
  8
AM_0
 10
246.1001188500849
 20
629.65799680295277
 30
0.0
 40
1.5
 50
12.12979199999535
 51
90.000003000000945
  0
ARC
  5
705F
  8
AM_0
 10
245.80781885008491
 20
631.01798680295269
 30
0.0
 40
1.5
 50
12.12979199999535
 51
90.000003000000945
  0
ARC
  5
7060
  8
AM_0
 10
245.66377885008481
 20
631.68802680295266
 30
0.0
 40
1.5
 50
12.12979199999535
 51
90.000003000000945
  0
ARC
  5
7061
  8
AM_0
 10
248.62013885008491
 20
542.23795680295245
 30
0.0
 40
1.460011199999999
 50
269.77524999999991
 51
90.224750000000085
  0
ARC
  5
7062
  8
AM_0
 10
244.92012885008481
 20
542.26798680295258
 30
0.0
 40
1.0000255999999981
 50
269.58947000000001
 51
90.410531000001029
  0
ARC
  5
7063
  8
AM_0
 10
248.62013885008491
 20
592.2980168029527
 30
0.0
 40
1.460011199999999
 50
269.77524999999991
 51
90.224750000000085
  0
ARC
  5
7064
  8
AM_0
 10
244.92012885008481
 20
592.26798680295258
 30
0.0
 40
1.0000255999999981
 50
269.58947000000001
 51
90.410531000001029
  0
ARC
  5
7065
  8
AM_0
 10
181.2451388500848
 20
582.28299680295288
 30
0.0
 40
1.3350147999999991
 50
269.7304299999999
 51
90.269556000001344
  0
ARC
  5
7066
  8
AM_0
 10
180.018878850085
 20
582.26798680295269
 30
0.0
 40
1.0000056999999991
 50
269.999989999999
 51
90.000003000000945
  0
ARC
  5
7067
  8
AM_0
 10
180.018878850085
 20
572.26798680295258
 30
0.0
 40
1.0000056999999991
 50
269.999989999999
 51
90.000003000000945
  0
ARC
  5
7068
  8
AM_0
 10
181.30708885008491
 20
572.27799680295266
 30
0.0
 40
1.2700266
 50
269.62931999999989
 51
90.370670000001468
  0
ARC
  5
7069
  8
AM_0
 10
180.018878850085
 20
562.26798680295281
 30
0.0
 40
1.0000056999999991
 50
269.999989999999
 51
90.000003000000945
  0
ARC
  5
706A
  8
AM_0
 10
181.30708885008491
 20
562.26798680295281
 30
0.0
 40
1.2700266
 50
269.62931999999989
 51
90.370670000001468
  0
ARC
  5
706B
  8
AM_0
 10
180.018878850085
 20
552.26798680295281
 30
0.0
 40
1.0000056999999991
 50
269.999989999999
 51
90.000003000000945
  0
ARC
  5
706C
  8
AM_0
 10
181.2451388500848
 20
552.25797680295284
 30
0.0
 40
1.3300148000000001
 50
269.7294199999987
 51
90.270567000000995
  0
ARC
  5
706D
  8
AM_0
 10
230.58015885008481
 20
539.76798680295246
 30
0.0
 40
1.5
 50
90.000003000000945
 51
180.00001000000091
  0
ARC
  5
706E
  8
AM_0
 10
230.58015885008481
 20
534.76798680295281
 30
0.0
 40
1.5
 50
179.999989999999
 51
270.0
  0
ARC
  5
706F
  8
AM_0
 10
212.58015885008481
 20
539.76798680295246
 30
0.0
 40
1.5
 50
0.0
 51
90.000003000000945
  0
ARC
  5
7070
  8
AM_0
 10
212.58015885008481
 20
534.76798680295281
 30
0.0
 40
1.5
 50
269.999989999999
 51
0.0000006832495047
  0
ARC
  5
7071
  8
AM_0
 10
230.58015885008481
 20
539.76798680295246
 30
0.0
 40
1.02
 50
90.000003000000945
 51
180.00001000000091
  0
ARC
  5
7072
  8
AM_0
 10
212.58015885008481
 20
539.76798680295246
 30
0.0
 40
1.02
 50
0.0
 51
90.000003000000945
  0
ARC
  5
7073
  8
AM_0
 10
212.6001188500849
 20
534.90799680295288
 30
0.0
 40
1.0
 50
269.999989999999
 51
0.0000006832495047
  0
ARC
  5
7074
  8
AM_0
 10
230.56013885008491
 20
534.90799680295288
 30
0.0
 40
1.0
 50
179.999989999999
 51
270.0
  0
CIRCLE
  5
7075
  8
AM_0
 10
219.08015885008481
 20
538.76798680295281
 30
0.0
 40
1.1000000000000001
  0
CIRCLE
  5
7076
  8
AM_0
 10
219.08015885008481
 20
538.76798680295281
 30
0.0
 40
1.149999999999999
  0
CIRCLE
  5
7077
  8
AM_0
 10
224.08015885008481
 20
538.76798680295281
 30
0.0
 40
1.0
  0
ARC
  5
7078
  8
AM_0
 10
230.58015885008481
 20
594.76798680295269
 30
0.0
 40
1.5
 50
179.999989999999
 51
270.0
  0
ARC
  5
7079
  8
AM_0
 10
230.58015885008481
 20
599.76798680295269
 30
0.0
 40
1.5
 50
90.000003000000945
 51
180.00001000000091
  0
ARC
  5
707A
  8
AM_0
 10
212.58015885008481
 20
594.76798680295269
 30
0.0
 40
1.5
 50
269.999989999999
 51
0.0000006832495047
  0
ARC
  5
707B
  8
AM_0
 10
212.58015885008481
 20
599.76798680295269
 30
0.0
 40
1.5
 50
0.0
 51
90.000003000000945
  0
ARC
  5
707C
  8
AM_0
 10
230.58015885008481
 20
594.76798680295269
 30
0.0
 40
1.02
 50
179.999989999999
 51
270.0
  0
ARC
  5
707D
  8
AM_0
 10
212.58015885008481
 20
594.76798680295269
 30
0.0
 40
1.02
 50
269.999989999999
 51
0.0000006832429909
  0
ARC
  5
707E
  8
AM_0
 10
212.6001188500849
 20
599.62796680295276
 30
0.0
 40
1.0
 50
0.0
 51
90.000003000000945
  0
ARC
  5
707F
  8
AM_0
 10
230.56013885008491
 20
599.62796680295276
 30
0.0
 40
1.0
 50
90.000003000000945
 51
180.00001000000091
  0
CIRCLE
  5
7080
  8
AM_0
 10
224.08015885008481
 20
595.76798680295269
 30
0.0
 40
1.0
  0
CIRCLE
  5
7081
  8
AM_0
 10
219.08015885008481
 20
595.76798680295269
 30
0.0
 40
1.149999999999999
  0
CIRCLE
  5
7082
  8
AM_0
 10
219.08015885008481
 20
595.76798680295269
 30
0.0
 40
1.1000000000000001
  0
ARC
  5
7083
  8
AM_0
 10
110.2807888500849
 20
507.59793680295269
 30
0.0
 40
2.0
 50
194.15074999999919
 51
269.999989999999
  0
ARC
  5
7084
  8
AM_0
 10
124.3228988500852
 20
504.09793680295269
 30
0.0
 40
1.5
 50
21.46170899999715
 51
90.000003000000945
  0
LINE
  5
7086
  8
AM_0
 10
230.60630869912569
 20
493.26798680295281
 30
0.0
 11
230.92423465281991
 21
505.40799680295271
 31
0.0
  0
LINE
  5
7087
  8
AM_0
 10
170.55387670388501
 20
493.26798680295281
 30
0.0
 11
170.23603472245441
 21
505.40799680295271
 31
0.0
  0
LINE
  5
7088
  8
AM_0
 10
167.080118850085
 20
491.26798680295281
 30
0.0
 11
234.0801188500852
 21
491.26798680295281
 31
0.0
  0
LINE
  5
7089
  8
AM_0
 10
167.080118850085
 20
490.26798680295292
 30
0.0
 11
167.080118850085
 21
491.26798680295281
 31
0.0
  0
LINE
  5
708A
  8
AM_0
 10
234.0801188500852
 20
490.26798680295292
 30
0.0
 11
234.0801188500852
 21
491.26798680295281
 31
0.0
  0
LINE
  5
708B
  8
AM_0
 10
152.580118850085
 20
452.26798680295269
 30
0.0
 11
153.83970398634739
 21
488.33778579635759
 31
0.0
  0
LINE
  5
708C
  8
AM_0
 10
155.8384856403857
 20
490.26798680295292
 30
0.0
 11
245.3217520597847
 21
490.26798680295292
 31
0.0
  0
ARC
  5
708D
  8
AM_0
 10
155.8384856403857
 20
488.26798680295269
 30
0.0
 40
2.0
 50
90.0
 51
178.0000000000029
1001
GENIUS_GENODEF_13
1002
{
1000
HIER
1070
     0
1002
}
1002
{
1000
MANEDIT
1070
     0
1002
}
1002
{
1000
NOSEL
1070
     0
1002
}
1002
{
1000
BEHIND
1070
     0
1002
}
1002
{
1000
OTHER
1070
     0
1002
}
1002
{
1000
REACTOR
1002
}
1001
GENIUS_GENOBJ-N-FIL_13
1002
{
1000
OWNER
1000
GEN
1002
}
  0
LINE
  5
708E
  8
AM_0
 10
247.3205337138229
 20
488.33778579635759
 30
0.0
 11
248.58011885008531
 21
452.26798680295281
 31
0.0
  0
ARC
  5
708F
  8
AM_0
 10
245.3217520597847
 20
488.26798680295269
 30
0.0
 40
2.0
 50
1.9999999999971021
 51
90.0
1001
GENIUS_GENOBJ-N-FIL_13
1002
{
1000
OWNER
1000
GEN
1002
}
1001
GENIUS_GENODEF_13
1002
{
1000
HIER
1070
     0
1002
}
1002
{
1000
MANEDIT
1070
     0
1002
}
1002
{
1000
NOSEL
1070
     0
1002
}
1002
{
1000
BEHIND
1070
     0
1002
}
1002
{
1000
OTHER
1070
     0
1002
}
1002
{
1000
REACTOR
1002
}
  0
LINE
  5
7090
  8
AM_0
 10
248.58011885008531
 20
452.26798680295281
 30
0.0
 11
152.5801188500848
 21
452.26798680295269
 31
0.0
  0
LINE
  5
7091
  8
AM_0
 10
152.6848811585603
 20
455.26798680295252
 30
0.0
 11
151.580118850085
 21
455.26798680295252
 31
0.0
  0
LINE
  5
7092
  8
AM_0
 10
153.8023457822963
 20
487.26798680295258
 30
0.0
 11
151.580118850085
 21
487.26798680295258
 31
0.0
  0
LINE
  5
7093
  8
ﾁｭｳｼﾝｾﾝ1
 10
157.58011885008571
 20
442.00327930295271
 30
0.0
 11
157.5801188500858
 21
455.00327930295282
 31
0.0
  0
LINE
  5
7094
  8
ﾁｭｳｼﾝｾﾝ
 10
200.58011885008511
 20
497.56001747618171
 30
0.0
 11
200.58011885008511
 21
439.81746416214338
 31
0.0
  0
LINE
  5
7095
  8
AM_0
 10
149.080118850085
 20
457.76798680295258
 30
0.0
 11
151.580118850085
 21
457.76798680295229
 31
0.0
  0
LINE
  5
7096
  8
AM_0
 10
151.580118850085
 20
484.76798680295229
 30
0.0
 11
149.080118850085
 21
484.76798680295252
 31
0.0
  0
LINE
  5
7097
  8
AM_0
 10
138.18144775373901
 20
481.76798680295252
 30
0.0
 11
138.18144775373901
 21
460.76798680295252
 31
0.0
  0
LINE
  5
7098
  8
AM_0
 10
123.18144775373921
 20
463.23636174893738
 30
0.0
 11
123.18144775373921
 21
479.29961185696851
 31
0.0
  0
LINE
  5
7099
  8
AM_0
 10
136.18144775373901
 20
483.26798680295258
 30
0.0
 11
136.18144775373901
 21
459.26798680295252
 31
0.0
  0
LINE
  5
709A
  8
AM_0
 10
126.68144775373911
 20
471.26798680295258
 30
0.0
 11
127.18144775373921
 21
471.76798680295252
 31
0.0
  0
LINE
  5
709B
  8
AM_0
 10
133.68144775373921
 20
459.56798680295259
 30
0.0
 11
133.68144775373921
 21
482.96798680295228
 31
0.0
  0
LINE
  5
709C
  8
AM_0
 10
143.580118850085
 20
459.76798680295252
 30
0.0
 11
143.580118850085
 21
482.76798680295258
 31
0.0
  0
LINE
  5
709D
  8
AM_0
 10
137.68144775373921
 20
471.9679868029545
 30
0.0
 11
137.68144775373921
 21
470.56798680295128
 31
0.0
  0
LINE
  5
709E
  8
AM_0
 10
139.7810834803098
 20
480.36798680295249
 30
0.0
 11
139.03108348031111
 21
462.1679868029525
 31
0.0
  0
LINE
  5
709F
  8
AM_0
 10
138.830118850085
 20
480.36798680295249
 30
0.0
 11
138.18144775373901
 21
464.62690153163652
 31
0.0
  0
LINE
  5
70A0
  8
AM_0
 10
139.57881144065709
 20
481.08364551531639
 30
0.0
 11
138.831551397249
 21
461.45561504178568
 31
0.0
  0
LINE
  5
70A1
  8
AM_0
 10
139.029650933147
 20
481.08035856412039
 30
0.0
 11
138.28108348031111
 21
461.41798680295221
 31
0.0
  0
LINE
  5
70A2
  8
AM_0
 10
136.18144775373901
 20
459.26798680295252
 30
0.0
 11
133.9814477537391
 21
459.26798680295252
 31
0.0
  0
ARC
  5
70A3
  8
AM_0
 10
148.08011885008511
 20
458.76798680295258
 30
0.0
 40
0.5
 50
0.0
 51
90.000000000013017
  0
ARC
  5
70A4
  8
AM_0
 10
149.08011885008511
 20
458.26798680295258
 30
0.0
 40
0.5
 50
180.0
 51
270.0
  0
LINE
  5
70A5
  8
AM_0
 10
148.580118850085
 20
458.76798680295258
 30
0.0
 11
148.580118850085
 21
458.26798680295258
 31
0.0
  0
LINE
  5
70A6
  8
AM_0
 10
139.580118850085
 20
462.1679868029525
 30
0.0
 11
143.080118850085
 21
462.1679868029525
 31
0.0
  0
LINE
  5
70A7
  8
AM_0
 10
148.580118850085
 20
460.41191548154569
 30
0.0
 11
148.580118850085
 21
470.12405812436032
 31
0.0
  0
LINE
  5
70A8
  8
AM_0
 10
144.080118850085
 20
459.26798680295252
 30
0.0
 11
148.080118850085
 21
459.26798680295252
 31
0.0
  0
LINE
  5
70A9
  8
AM_0
 10
148.080118850085
 20
459.91191548154569
 30
0.0
 11
143.580118850085
 21
459.91191548154569
 31
0.0
  0
ARC
  5
70AA
  8
AM_0
 10
148.08011885008511
 20
460.41191548154569
 30
0.0
 40
0.5
 50
270.0
 51
0.0
  0
ARC
  5
70AB
  8
AM_0
 10
143.080118850085
 20
461.66798680295273
 30
0.0
 40
0.5
 50
0.0
 51
90.0
  0
ARC
  5
70AC
  8
AM_0
 10
144.080118850085
 20
459.76798680295252
 30
0.0
 40
0.5
 50
180.0
 51
270.0
  0
LINE
  5
70AD
  8
AM_0
 10
148.080118850085
 20
470.62405812436032
 30
0.0
 11
143.580118850085
 21
470.62405812436032
 31
0.0
  0
ARC
  5
70AE
  8
AM_0
 10
148.080118850085
 20
470.12405812436072
 30
0.0
 40
0.5
 50
0.0
 51
90.0
  0
LINE
  5
70AF
  8
AM_0
 10
137.68144775373921
 20
465.12281605066039
 30
0.0
 11
137.68144775373921
 21
466.29505923709343
 31
0.0
  0
LINE
  5
70B0
  8
AM_0
 10
139.10781590873609
 20
462.1679868029525
 30
0.0
 11
139.580118850085
 21
462.1679868029525
 31
0.0
  0
LINE
  5
70B1
  8
AM_0
 10
139.01122341419679
 20
462.09386903621572
 30
0.0
 11
139.03108348031111
 21
462.1679868029525
 31
0.0
  0
ARC
  5
70B2
  8
AM_0
 10
139.10781590873609
 20
462.06798680295242
 30
0.0
 40
0.1000000000000346
 50
90.0
 51
164.99980499355539
  0
ARC
  5
70B3
  8
AM_0
 10
137.38144775373911
 20
461.98115382244453
 30
0.0
 40
0.3000000000000043
 50
0.0
 51
90.0
  0
LINE
  5
70B4
  8
AM_0
 10
136.18144775373901
 20
459.86798680295249
 30
0.0
 11
137.40140345689611
 21
459.94931718316337
 31
0.0
  0
LINE
  5
70B5
  8
AM_0
 10
136.18144775373901
 20
461.02423883879243
 30
0.0
 11
137.381447753739
 21
461.02423883879243
 31
0.0
  0
LINE
  5
70B6
  8
AM_0
 10
137.68144775373921
 20
460.26798680295252
 30
0.0
 11
136.18144775373901
 21
460.26798680295252
 31
0.0
  0
ARC
  5
70B7
  8
AM_0
 10
137.68144775373921
 20
460.76798680295252
 30
0.0
 40
0.5
 50
270.0
 51
0.0
  0
LINE
  5
70B8
  8
AM_0
 10
137.68144775373921
 20
460.24865273052052
 30
0.0
 11
137.68144775373921
 21
460.26798680295252
 31
0.0
  0
LINE
  5
70B9
  8
AM_0
 10
137.68144775373921
 20
459.96798680295262
 30
0.0
 11
137.68144775373921
 21
460.24865273052052
 31
0.0
  0
LINE
  5
70BA
  8
AM_0
 10
137.40140345689611
 20
459.94931718316337
 30
0.0
 11
137.68144775373921
 21
459.96798680295262
 31
0.0
  0
ARC
  5
70BB
  8
AM_0
 10
137.38144775373911
 20
460.24865273052052
 30
0.0
 40
0.3000000000000007
 50
273.81407483428171
 51
0.0
  0
LINE
  5
70BC
  8
AM_0
 10
138.75338642166011
 20
461.41798680295221
 30
0.0
 11
138.83011885008591
 21
461.41798680295221
 31
0.0
  0
LINE
  5
70BD
  8
AM_0
 10
138.83011885008591
 20
461.41798680295221
 30
0.0
 11
138.84997891619901
 21
461.49210456968882
 31
0.0
  0
LINE
  5
70BE
  8
AM_0
 10
138.26122341419691
 20
461.49210456968882
 30
0.0
 11
138.28108348031111
 21
461.41798680295221
 31
0.0
  0
LINE
  5
70BF
  8
AM_0
 10
138.28108348031111
 20
461.41798680295221
 30
0.0
 11
138.35781590873609
 21
461.41798680295221
 31
0.0
  0
LINE
  5
70C0
  8
AM_0
 10
138.84997891619901
 20
461.49210456968882
 30
0.0
 11
139.01122341419679
 21
462.09386903621572
 31
0.0
  0
LINE
  5
70C1
  8
AM_0
 10
138.35781590873609
 20
461.41798680295221
 30
0.0
 11
138.75338642166011
 21
461.41798680295221
 31
0.0
  0
LINE
  5
70C2
  8
AM_0
 10
138.18144775374009
 20
461.7898273345134
 30
0.0
 11
138.26122341419691
 21
461.49210456968882
 31
0.0
  0
ARC
  5
70C3
  8
AM_0
 10
138.75338642166011
 20
461.51798680295252
 30
0.0
 40
0.0999999999999866
 50
270.0
 51
344.99980499343371
  0
ARC
  5
70C4
  8
AM_0
 10
138.35781590873609
 20
461.51798680295252
 30
0.0
 40
0.1000000000000014
 50
195.00019500656629
 51
270.0
  0
LINE
  5
70C5
  8
AM_0
 10
137.68144775373921
 20
461.32423883879233
 30
0.0
 11
137.68144775373921
 21
461.98115382244453
 31
0.0
  0
ARC
  5
70C6
  8
AM_0
 10
137.38144775373911
 20
461.32423883879272
 30
0.0
 40
0.3000000000000007
 50
270.0
 51
0.0
  0
LINE
  5
70C7
  8
AM_0
 10
136.18144775373901
 20
464.82281605066038
 30
0.0
 11
137.381447753739
 21
464.82281605066038
 31
0.0
  0
LINE
  5
70C8
  8
AM_0
 10
137.381447753739
 20
462.28115382244448
 30
0.0
 11
136.18144775373901
 21
462.28115382244448
 31
0.0
  0
LINE
  5
70C9
  8
AM_0
 10
139.03108348031111
 20
462.1679868029525
 30
0.0
 11
139.10781590873609
 21
462.1679868029525
 31
0.0
  0
ARC
  5
70CA
  8
AM_0
 10
137.38144775373911
 20
465.1228160506605
 30
0.0
 40
0.3000000000000007
 50
270.0
 51
0.0
  0
LINE
  5
70CB
  8
AM_0
 10
137.381447753739
 20
466.59505923709349
 30
0.0
 11
136.18144775373901
 21
466.59505923709349
 31
0.0
  0
ARC
  5
70CC
  8
AM_0
 10
137.38144775373911
 20
466.2950592370936
 30
0.0
 40
0.3000000000000043
 50
0.0
 51
90.0
  0
LINE
  5
70CD
  8
AM_0
 10
137.381447753739
 20
470.26798680295121
 30
0.0
 11
136.18144775373901
 21
470.26798680295121
 31
0.0
  0
ARC
  5
70CE
  8
AM_0
 10
137.38144775373911
 20
470.56798680295162
 30
0.0
 40
0.3000000000000007
 50
270.0
 51
0.0
  0
LINE
  5
70CF
  8
AM_0
 10
127.18144775373921
 20
461.13470697430552
 30
0.0
 11
133.68144775373921
 21
461.13470697430552
 31
0.0
  0
LINE
  5
70D0
  8
AM_0
 10
127.18144775373921
 20
460.63470697430552
 30
0.0
 11
133.68144775373921
 21
460.63470697430552
 31
0.0
  0
LINE
  5
70D1
  8
AM_0
 10
133.68144775373921
 20
470.76798680295258
 30
0.0
 11
127.18144775373921
 21
470.76798680295258
 31
0.0
  0
LINE
  5
70D2
  8
AM_0
 10
126.68144775373911
 20
470.26798680295258
 30
0.0
 11
133.68144775373921
 21
470.26798680295258
 31
0.0
  0
LINE
  5
70D3
  8
AM_0
 10
133.381447753739
 20
460.26798680295252
 30
0.0
 11
126.54349768892099
 21
460.26798680295252
 31
0.0
  0
LINE
  5
70D4
  8
AM_0
 10
133.68144775373921
 20
469.92129873441138
 30
0.0
 11
127.18144775373921
 21
469.92129873441138
 31
0.0
  0
LINE
  5
70D5
  8
AM_0
 10
133.68144775373921
 20
461.61467487149349
 30
0.0
 11
127.18144775373921
 21
461.61467487149349
 31
0.0
  0
ARC
  5
70D6
  8
AM_0
 10
133.9814477537391
 20
459.56798680295259
 30
0.0
 40
0.2999999999999971
 50
180.0
 51
270.0
  0
ARC
  5
70D7
  8
AM_0
 10
133.38144775373911
 20
459.96798680295262
 30
0.0
 40
0.2999999999999971
 50
0.0
 51
90.0
  0
ARC
  5
70D8
  8
AM_0
 10
135.30644775373921
 20
465.76798680295252
 30
0.0
 40
9.124999999999984
 50
152.92493329271929
 51
207.07506670728071
  0
LINE
  5
70D9
  8
AM_0
 10
125.9033132892567
 20
460.49976552335488
 30
0.0
 11
123.5412633540746
 21
462.46814046934009
 31
0.0
  0
LINE
  5
70DA
  8
AM_0
 10
126.68144775373911
 20
460.84641938646041
 30
0.0
 11
127.18144775373921
 21
460.26798680295252
 31
0.0
  0
ARC
  5
70DB
  8
AM_0
 10
126.54349768892099
 20
461.26798680295252
 30
0.0
 40
1.0
 50
230.19442890774391
 51
270.0
  0
LINE
  5
70DC
  8
AM_0
 10
127.18144775373921
 20
460.63470697430552
 30
0.0
 11
126.68144775373911
 21
460.84641938646041
 31
0.0
  0
LINE
  5
70DD
  8
AM_0
 10
126.68144775373911
 20
461.30869465943158
 30
0.0
 11
127.18144775373921
 21
460.63470697430552
 31
0.0
  0
LINE
  5
70DE
  8
AM_0
 10
127.18144775373921
 20
461.13470697430552
 30
0.0
 11
126.68144775373911
 21
461.30869465943158
 31
0.0
  0
LINE
  5
70DF
  8
AM_0
 10
126.68144775373911
 20
461.84641938646041
 30
0.0
 11
127.18144775373921
 21
461.13470697430552
 31
0.0
  0
LINE
  5
70E0
  8
AM_0
 10
127.18144775373921
 20
461.61467487149349
 30
0.0
 11
126.68144775373911
 21
461.84641938646041
 31
0.0
  0
ARC
  5
70E1
  8
AM_0
 10
124.18144775373921
 20
463.2363617489375
 30
0.0
 40
1.0000000000000291
 50
180.0
 51
230.19442890773479
  0
LINE
  5
70E2
  8
AM_0
 10
127.18144775373921
 20
470.76798680295258
 30
0.0
 11
126.68144775373911
 21
471.26798680295258
 31
0.0
  0
LINE
  5
70E3
  8
AM_0
 10
126.68144775373911
 20
470.26798680295258
 30
0.0
 11
127.18144775373921
 21
470.76798680295258
 31
0.0
  0
LINE
  5
70E4
  8
AM_0
 10
127.18144775373921
 20
469.92129873441138
 30
0.0
 11
126.68144775373911
 21
470.26798680295258
 31
0.0
  0
LINE
  5
70E5
  8
AM_0
 10
133.9814477537391
 20
483.26798680295258
 30
0.0
 11
136.18144775373901
 21
483.26798680295258
 31
0.0
  0
ARC
  5
70E6
  8
AM_0
 10
148.080118850085
 20
483.76798680295258
 30
0.0
 40
0.5
 50
269.99999999998693
 51
0.0
  0
LINE
  5
70E7
  8
AM_0
 10
143.080118850085
 20
480.36798680295249
 30
0.0
 11
139.85781590873609
 21
480.36798680295249
 31
0.0
  0
LINE
  5
70E8
  8
AM_0
 10
148.580118850085
 20
472.41191548154569
 30
0.0
 11
148.580118850085
 21
482.12405812436072
 31
0.0
  0
LINE
  5
70E9
  8
AM_0
 10
143.580118850085
 20
471.91191548154569
 30
0.0
 11
148.080118850085
 21
471.91191548154569
 31
0.0
  0
ARC
  5
70EA
  8
AM_0
 10
148.080118850085
 20
472.41191548154569
 30
0.0
 40
0.5
 50
270.0
 51
0.0
  0
LINE
  5
70EB
  8
AM_0
 10
143.580118850085
 20
482.62405812436072
 30
0.0
 11
148.080118850085
 21
482.62405812436072
 31
0.0
  0
LINE
  5
70EC
  8
AM_0
 10
148.080118850085
 20
483.26798680295258
 30
0.0
 11
144.080118850085
 21
483.26798680295258
 31
0.0
  0
ARC
  5
70ED
  8
AM_0
 10
148.080118850085
 20
482.12405812436072
 30
0.0
 40
0.5
 50
0.0
 51
90.0
  0
ARC
  5
70EE
  8
AM_0
 10
143.080118850085
 20
480.86798680295249
 30
0.0
 40
0.5
 50
270.0
 51
0.0
  0
ARC
  5
70EF
  8
AM_0
 10
144.080118850085
 20
482.76798680295258
 30
0.0
 40
0.5
 50
90.0
 51
180.0
  0
ARC
  5
70F0
  8
AM_0
 10
137.38144775373911
 20
477.4131575552446
 30
0.0
 40
0.3000000000000114
 50
0.0
 51
90.0
  0
LINE
  5
70F1
  8
AM_0
 10
136.18144775373901
 20
472.26798680295428
 30
0.0
 11
137.381447753739
 21
472.26798680295428
 31
0.0
  0
ARC
  5
70F2
  8
AM_0
 10
137.38144775373911
 20
471.96798680295473
 30
0.0
 40
0.2999999999999971
 50
0.0
 51
90.0
  0
LINE
  5
70F3
  8
AM_0
 10
136.18144775373901
 20
475.94091436881132
 30
0.0
 11
137.381447753739
 21
475.94091436881132
 31
0.0
  0
ARC
  5
70F4
  8
AM_0
 10
137.38144775373911
 20
476.24091436881162
 30
0.0
 40
0.3000000000000007
 50
270.0
 51
0.0
  0
LINE
  5
70F5
  8
AM_0
 10
137.68144775373921
 20
476.24091436881162
 30
0.0
 11
137.68144775373921
 21
477.4131575552446
 31
0.0
  0
LINE
  5
70F6
  8
AM_0
 10
139.10781590873609
 20
481.11798680295237
 30
0.0
 11
139.50338642166011
 21
481.11798680295237
 31
0.0
  0
LINE
  5
70F7
  8
AM_0
 10
139.10781590873609
 20
481.11798680295237
 30
0.0
 11
139.50338642166011
 21
481.11798680295237
 31
0.0
  0
LINE
  5
70F8
  8
AM_0
 10
139.59997891619901
 20
481.04386903621588
 30
0.0
 11
139.76122341419691
 21
480.44210456968892
 31
0.0
  0
LINE
  5
70F9
  8
AM_0
 10
139.59997891619901
 20
481.04386903621588
 30
0.0
 11
139.76122341419691
 21
480.44210456968892
 31
0.0
  0
ARC
  5
70FA
  8
AM_0
 10
139.85781590873609
 20
480.46798680295262
 30
0.0
 40
0.0999999999999943
 50
195.00019500651879
 51
270.0
  0
ARC
  5
70FB
  8
AM_0
 10
139.50338642166011
 20
481.01798680295258
 30
0.0
 40
0.0999999999999943
 50
15.000195006505431
 51
90.0
  0
LINE
  5
70FC
  8
AM_0
 10
138.18060116519791
 20
480.74298680295283
 30
0.0
 11
138.26122341419691
 21
480.44210456968892
 31
0.0
  0
LINE
  5
70FD
  8
AM_0
 10
138.83282950229091
 20
480.40725133605042
 30
0.0
 11
139.01122341419679
 21
481.04386903621588
 31
0.0
  0
LINE
  5
70FE
  8
AM_0
 10
138.84997891619901
 20
480.44210456968892
 30
0.0
 11
139.01122341419679
 21
481.04386903621588
 31
0.0
  0
LINE
  5
70FF
  8
AM_0
 10
137.68144775373921
 20
480.5548197834616
 30
0.0
 11
137.68144775373921
 21
481.21173476711249
 31
0.0
  0
LINE
  5
7100
  8
AM_0
 10
138.18144775373901
 20
480.7398273345143
 30
0.0
 11
138.26122341419691
 21
480.44210456968892
 31
0.0
  0
LINE
  5
7101
  8
AM_0
 10
136.18144775373901
 20
480.25481978346158
 30
0.0
 11
137.381447753739
 21
480.25481978346158
 31
0.0
  0
LINE
  5
7102
  8
AM_0
 10
137.381447753739
 20
477.71315755524449
 30
0.0
 11
136.18144775373901
 21
477.71315755524529
 31
0.0
  0
LINE
  5
7103
  8
AM_0
 10
138.7860186871751
 20
480.36798680295249
 30
0.0
 11
138.83282950229091
 21
480.40725133605042
 31
0.0
  0
LINE
  5
7104
  8
AM_0
 10
138.35781590873609
 20
480.36798680295249
 30
0.0
 11
138.7860186871751
 21
480.36798680295249
 31
0.0
  0
LINE
  5
7105
  8
AM_0
 10
138.35781590873609
 20
480.36798680295249
 30
0.0
 11
138.75338642166011
 21
480.36798680295249
 31
0.0
  0
ARC
  5
7106
  8
AM_0
 10
138.35781590873609
 20
480.46798680295262
 30
0.0
 40
0.0999999999999943
 50
195.00019500651879
 51
270.0
  0
ARC
  5
7107
  8
AM_0
 10
138.75338642166011
 20
480.46798680295262
 30
0.0
 40
0.0999999999999608
 50
270.0
 51
344.99980499348112
  0
ARC
  5
7108
  8
AM_0
 10
137.38144775373911
 20
480.5548197834616
 30
0.0
 40
0.3000000000000007
 50
270.0
 51
0.0
  0
LINE
  5
7109
  8
AM_0
 10
136.18144775373901
 20
482.26798680295252
 30
0.0
 11
137.68144775373921
 21
482.26798680295252
 31
0.0
  0
LINE
  5
710A
  8
AM_0
 10
137.381447753739
 20
481.5117347671125
 30
0.0
 11
136.18144775373901
 21
481.5117347671125
 31
0.0
  0
LINE
  5
710B
  8
AM_0
 10
137.40140345689611
 20
482.58665642274252
 30
0.0
 11
136.18144775373901
 21
482.6679868029525
 31
0.0
  0
ARC
  5
710C
  8
AM_0
 10
137.68144775373921
 20
481.76798680295252
 30
0.0
 40
0.5
 50
0.0
 51
90.0
  0
ARC
  5
710D
  8
AM_0
 10
139.10781590873609
 20
481.01798680295258
 30
0.0
 40
0.0999999999999606
 50
90.0
 51
164.99980499349451
  0
ARC
  5
710E
  8
AM_0
 10
137.38144775373911
 20
481.21173476711249
 30
0.0
 40
0.2999999999999971
 50
0.0
 51
90.0
  0
LINE
  5
710F
  8
AM_0
 10
137.68144775373921
 20
482.26798680295252
 30
0.0
 11
137.68144775373921
 21
482.28732087538538
 31
0.0
  0
ARC
  5
7110
  8
AM_0
 10
137.38144775373911
 20
482.28732087538538
 30
0.0
 40
0.3000000000000043
 50
0.0
 51
86.185925165718274
  0
ARC
  5
7111
  8
AM_0
 10
149.080118850085
 20
484.26798680295252
 30
0.0
 40
0.5
 50
90.0
 51
180.0
  0
LINE
  5
7112
  8
AM_0
 10
148.580118850085
 20
484.26798680295252
 30
0.0
 11
148.580118850085
 21
483.76798680295258
 31
0.0
  0
LINE
  5
7113
  8
AM_0
 10
127.18144775373921
 20
480.92129873441132
 30
0.0
 11
133.68144775373921
 21
480.92129873441132
 31
0.0
  0
LINE
  5
7114
  8
AM_0
 10
127.18144775373921
 20
472.61467487149361
 30
0.0
 11
133.68144775373921
 21
472.61467487149361
 31
0.0
  0
LINE
  5
7115
  8
AM_0
 10
126.54349768892099
 20
482.26798680295252
 30
0.0
 11
133.381447753739
 21
482.26798680295252
 31
0.0
  0
LINE
  5
7116
  8
AM_0
 10
133.68144775373921
 20
472.26798680295252
 30
0.0
 11
126.68144775373911
 21
472.26798680295252
 31
0.0
  0
LINE
  5
7117
  8
AM_0
 10
127.18144775373921
 20
471.76798680295252
 30
0.0
 11
133.68144775373921
 21
471.76798680295252
 31
0.0
  0
LINE
  5
7118
  8
AM_0
 10
133.68144775373921
 20
481.90126663160032
 30
0.0
 11
127.18144775373921
 21
481.90126663160032
 31
0.0
  0
LINE
  5
7119
  8
AM_0
 10
133.68144775373921
 20
481.40126663160032
 30
0.0
 11
127.18144775373921
 21
481.40126663160032
 31
0.0
  0
ARC
  5
711A
  8
AM_0
 10
133.38144775373911
 20
482.56798680295242
 30
0.0
 40
0.3000000000000043
 50
270.0
 51
0.0
  0
ARC
  5
711B
  8
AM_0
 10
133.9814477537391
 20
482.96798680295262
 30
0.0
 40
0.2999999999999971
 50
90.0
 51
180.0
  0
ARC
  5
711C
  8
AM_0
 10
135.30644775373921
 20
476.76798680295252
 30
0.0
 40
9.124999999999984
 50
152.92493329271929
 51
207.07506670728071
  0
LINE
  5
711D
  8
AM_0
 10
126.68144775373911
 20
472.26798680295252
 30
0.0
 11
127.18144775373921
 21
472.61467487149361
 31
0.0
  0
LINE
  5
711E
  8
AM_0
 10
127.18144775373921
 20
471.76798680295252
 30
0.0
 11
126.68144775373911
 21
472.26798680295252
 31
0.0
  0
LINE
  5
711F
  8
AM_0
 10
123.5412633540746
 20
480.06783313656581
 30
0.0
 11
125.9033132892567
 21
482.03620808254999
 31
0.0
  0
LINE
  5
7120
  8
AM_0
 10
127.18144775373921
 20
482.26798680295252
 30
0.0
 11
126.68144775373911
 21
481.68955421944571
 31
0.0
  0
ARC
  5
7121
  8
AM_0
 10
126.54349768892099
 20
481.26798680295252
 30
0.0
 40
1.0000000000000411
 50
90.0
 51
129.805571092256
  0
LINE
  5
7122
  8
AM_0
 10
126.68144775373911
 20
480.6895542194456
 30
0.0
 11
127.18144775373921
 21
480.92129873441132
 31
0.0
  0
LINE
  5
7123
  8
AM_0
 10
127.18144775373921
 20
481.40126663160032
 30
0.0
 11
126.68144775373911
 21
480.6895542194456
 31
0.0
  0
LINE
  5
7124
  8
AM_0
 10
126.68144775373911
 20
481.22727894647358
 30
0.0
 11
127.18144775373921
 21
481.40126663160032
 31
0.0
  0
LINE
  5
7125
  8
AM_0
 10
127.18144775373921
 20
481.90126663160032
 30
0.0
 11
126.68144775373911
 21
481.22727894647358
 31
0.0
  0
LINE
  5
7126
  8
AM_0
 10
126.68144775373911
 20
481.68955421944571
 30
0.0
 11
127.18144775373921
 21
481.90126663160032
 31
0.0
  0
ARC
  5
7127
  8
AM_0
 10
124.18144775373921
 20
479.29961185696851
 30
0.0
 40
1.0
 50
129.80557109226521
 51
180.0
  0
LINE
  5
7128
  8
AM_0
 10
248.5801188500852
 20
448.26798680295281
 30
0.0
 11
227.76561395055271
 21
448.26798680295281
 31
0.0
  0
LINE
  5
7129
  8
AM_0
 10
173.39462374961741
 20
448.26798680295281
 30
0.0
 11
152.58011885008571
 21
448.26798680295281
 31
0.0
  0
LINE
  5
712A
  8
AM_0
 10
242.44433718092421
 20
444.26798680295281
 30
0.0
 11
158.71590051924591
 21
444.26798680295281
 31
0.0
  0
LINE
  5
712B
  8
AM_0
 10
161.4874738223921
 20
446.20904929082502
 30
0.0
 11
161.58011885008571
 21
447.26798680295281
 31
0.0
  0
LINE
  5
712C
  8
AM_0
 10
153.67276387777909
 20
446.20904929082502
 30
0.0
 11
153.58011885008571
 21
447.26798680295281
 31
0.0
  0
ARC
  5
712D
  8
AM_0
 10
157.58011885008571
 20
450.66798680295278
 30
0.0
 40
6.5
 50
241.82726586813479
 51
298.17273413186518
  0
ARC
  5
712E
  8
AM_0
 10
155.26667539472601
 20
446.34849847922129
 30
0.0
 40
1.6000000000000001
 50
184.99999999999969
 51
241.82726586813479
  0
LINE
  5
712F
  8
AM_0
 10
159.88011885008561
 20
444.58851314152452
 30
0.0
 11
157.58011885008571
 21
446.87807282031991
 31
0.0
  0
LINE
  5
7130
  8
AM_0
 10
157.89161885008571
 20
446.56798680295259
 30
0.0
 11
157.26861885008569
 21
446.56798680295259
 31
0.0
  0
LINE
  5
7131
  8
AM_0
 10
155.28011885008581
 20
444.58851314152452
 30
0.0
 11
157.58011885008571
 21
446.87807282031991
 31
0.0
  0
LINE
  5
7132
  8
AM_0
 10
157.89161885008571
 20
444.1754551126179
 30
0.0
 11
157.89161885008571
 21
446.56798680295259
 31
0.0
  0
LINE
  5
7133
  8
AM_0
 10
157.26861885008569
 20
444.1754551126179
 30
0.0
 11
157.26861885008569
 21
446.56798680295259
 31
0.0
  0
ARC
  5
7134
  8
AM_0
 10
159.89356230544541
 20
446.34849847922129
 30
0.0
 40
1.6000000000000001
 50
298.17273413186518
 51
355.00000000000023
  0
LINE
  5
7135
  8
AM_0
 10
248.58011885008531
 20
448.26798680295281
 30
0.0
 11
248.58011885008531
 21
452.26798680295281
 31
0.0
  0
LINE
  5
7136
  8
AM_0
 10
152.5801188500848
 20
452.26798680295269
 30
0.0
 11
152.58011885008591
 21
448.26798680295281
 31
0.0
  0
LINE
  5
7137
  8
AM_0N
 10
161.38011885008569
 20
448.26798680295281
 30
0.0
 11
161.38011885008569
 21
447.26798680295281
 31
0.0
  0
LINE
  5
7138
  8
AM_0N
 10
157.78011885008581
 20
447.26798680295281
 30
0.0
 11
158.14408908435189
 21
448.26798680295281
 31
0.0
  0
LINE
  5
7139
  8
AM_0N
 10
157.38011885008561
 20
447.26798680295281
 30
0.0
 11
157.7440890843518
 21
448.26798680295281
 31
0.0
  0
LINE
  5
713A
  8
AM_0N
 10
153.58011885008571
 20
447.26798680295281
 30
0.0
 11
161.58011885008571
 21
447.26798680295281
 31
0.0
  0
LINE
  5
713B
  8
AM_0N
 10
153.78011885008581
 20
447.26798680295281
 30
0.0
 11
153.78011885008581
 21
448.26798680295281
 31
0.0
  0
LINE
  5
713C
  8
AM_0
 10
173.3946237496173
 20
444.26798680295281
 30
0.0
 11
173.3946237496173
 21
448.26798680295281
 31
0.0
  0
LINE
  5
713D
  8
AM_0
 10
171.7377695001249
 20
448.26798680295281
 30
0.0
 11
173.3946237496173
 21
444.26798680295281
 31
0.0
  0
LINE
  5
713E
  8
AM_0
 10
227.76561395055271
 20
444.26798680295281
 30
0.0
 11
227.76561395055271
 21
448.26798680295281
 31
0.0
  0
LINE
  5
713F
  8
AM_0
 10
229.4224682000453
 20
448.26798680295281
 30
0.0
 11
227.76561395055271
 21
444.26798680295281
 31
0.0
  0
LINE
  5
7140
  8
AM_0
 10
167.080118850085
 20
493.26798680295281
 30
0.0
 11
234.0801188500852
 21
493.26798680295281
 31
0.0
  0
LINE
  5
7141
  8
AM_0
 10
167.080118850085
 20
493.26798680295281
 30
0.0
 11
167.080118850085
 21
491.26798680295281
 31
0.0
  0
LINE
  5
7142
  8
AM_0
 10
234.0801188500852
 20
493.26798680295281
 30
0.0
 11
234.0801188500852
 21
491.26798680295281
 31
0.0
  0
LINE
  5
7143
  8
ﾁｭｳｼﾝｾﾝ1
 10
243.58011885008449
 20
442.00327930295271
 30
0.0
 11
243.58011885008449
 21
455.00327930295282
 31
0.0
  0
LINE
  5
7144
  8
AM_0
 10
239.6727638777781
 20
446.20904929082502
 30
0.0
 11
239.5801188500846
 21
447.26798680295281
 31
0.0
  0
LINE
  5
7145
  8
AM_0
 10
247.48747382239119
 20
446.20904929082502
 30
0.0
 11
247.58011885008449
 21
447.26798680295281
 31
0.0
  0
ARC
  5
7146
  8
AM_0
 10
243.58011885008469
 20
450.66798680295273
 30
0.0
 40
6.5
 50
241.82726586813479
 51
298.17273413186518
  0
ARC
  5
7147
  8
AM_0
 10
245.89356230544439
 20
446.34849847922112
 30
0.0
 40
1.6000000000000001
 50
298.17273413186518
 51
355.00000000000023
  0
LINE
  5
7148
  8
AM_0
 10
241.28011885008459
 20
444.58851314152452
 30
0.0
 11
243.5801188500846
 21
446.87807282031991
 31
0.0
  0
LINE
  5
7149
  8
AM_0
 10
243.26861885008461
 20
446.56798680295259
 30
0.0
 11
243.8916188500846
 21
446.56798680295259
 31
0.0
  0
LINE
  5
714A
  8
AM_0
 10
245.88011885008461
 20
444.58851314152452
 30
0.0
 11
243.5801188500846
 21
446.87807282031991
 31
0.0
  0
LINE
  5
714B
  8
AM_0
 10
243.26861885008461
 20
444.1754551126179
 30
0.0
 11
243.26861885008461
 21
446.56798680295259
 31
0.0
  0
LINE
  5
714C
  8
AM_0
 10
243.8916188500846
 20
444.1754551126179
 30
0.0
 11
243.8916188500846
 21
446.56798680295259
 31
0.0
  0
ARC
  5
714D
  8
AM_0
 10
241.2666753947251
 20
446.34849847922112
 30
0.0
 40
1.6000000000000001
 50
184.99999999999969
 51
241.82726586813479
  0
LINE
  5
714E
  8
AM_0N
 10
239.78011885008451
 20
448.26798680295281
 30
0.0
 11
239.78011885008451
 21
447.26798680295281
 31
0.0
  0
LINE
  5
714F
  8
AM_0N
 10
243.3801188500845
 20
447.26798680295281
 30
0.0
 11
243.01614861581839
 21
448.26798680295281
 31
0.0
  0
LINE
  5
7150
  8
AM_0N
 10
243.78011885008451
 20
447.26798680295281
 30
0.0
 11
243.4161486158184
 21
448.26798680295281
 31
0.0
  0
LINE
  5
7151
  8
AM_0N
 10
247.5801188500846
 20
447.26798680295281
 30
0.0
 11
239.5801188500846
 21
447.26798680295281
 31
0.0
  0
LINE
  5
7152
  8
AM_0N
 10
247.3801188500845
 20
447.26798680295281
 30
0.0
 11
247.3801188500845
 21
448.26798680295281
 31
0.0
  0
LINE
  5
7153
  8
AM_0
 10
151.580118850085
 20
455.26798680295252
 30
0.0
 11
151.580118850085
 21
487.26798680295258
 31
0.0
  0
LINE
  5
715C
  8
ﾁｭｳｼﾝｾﾝ1
 10
355.08015885008479
 20
642.26798680295246
 30
0.0
 11
375.08015885008479
 21
642.26798680295246
 31
0.0
  0
LINE
  5
715D
  8
ﾁｭｳｼﾝｾﾝ1
 10
365.08015885008479
 20
652.26798680295269
 30
0.0
 11
365.08015885008479
 21
632.26798680295269
 31
0.0
  0
LINE
  5
7166
  8
ﾁｭｳｼﾝｾﾝ1
 10
355.08015885008479
 20
492.26798680295269
 30
0.0
 11
375.08015885008479
 21
492.26798680295269
 31
0.0
  0
LINE
  5
7167
  8
ﾁｭｳｼﾝｾﾝ1
 10
365.08015885008479
 20
502.26798680295281
 30
0.0
 11
365.08015885008479
 21
482.26798680295281
 31
0.0
  0
LINE
  5
7170
  8
ﾁｭｳｼﾝｾﾝ1
 10
275.08015885008479
 20
492.26798680295269
 30
0.0
 11
295.08015885008479
 21
492.26798680295269
 31
0.0
  0
LINE
  5
7171
  8
ﾁｭｳｼﾝｾﾝ1
 10
285.08015885008479
 20
502.26798680295281
 30
0.0
 11
285.08015885008479
 21
482.26798680295281
 31
0.0
  0
LINE
  5
717A
  8
ﾁｭｳｼﾝｾﾝ1
 10
275.08015885008479
 20
642.26798680295246
 30
0.0
 11
295.08015885008479
 21
642.26798680295246
 31
0.0
  0
LINE
  5
717B
  8
ﾁｭｳｼﾝｾﾝ1
 10
285.08015885008479
 20
652.26798680295269
 30
0.0
 11
285.08015885008479
 21
632.26798680295269
 31
0.0
  0
TEXT
  5
73DE
  8
AM_0
 10
514.63089593393033
 20
570.90994824903817
 30
0.0
 40
10.0
  1
VX04-060MW~VX04-100MW
  0
ENDSEC
  0
EOF
