  0
SECTION
  2
HEADER
  9
$ACADVER
  1
AC1009
  9
$INSBASE
 10
0.0
 20
0.0
 30
0.0
  9
$EXTMIN
 10
118.6169149670945
 20
193.06961798336141
 30
-0.0000000349181948
  9
$EXTMAX
 10
671.3290117849001
 20
571.56909164825538
 30
0.0000000814935747
  9
$LIMMIN
 10
0.0
 20
0.0
  9
$LIMMAX
 10
853.5
 20
555.00000000000011
  9
$ORTHOMODE
 70
     0
  9
$REGENMODE
 70
     1
  9
$FILLMODE
 70
     1
  9
$QTEXTMODE
 70
     0
  9
$MIRRTEXT
 70
     1
  9
$DRAGMODE
 70
     2
  9
$LTSCALE
 40
3.0
  9
$OSMODE
 70
   551
  9
$ATTMODE
 70
     1
  9
$TEXTSIZE
 40
2.5
  9
$TRACEWID
 40
1.0
  9
$TEXTSTYLE
  7
STANDARD
  9
$CLAYER
  8
AM_0
  9
$CELTYPE
  6
BYLAYER
  9
$CECOLOR
 62
   256
  9
$DIMSCALE
 40
3.0
  9
$DIMASZ
 40
2.5
  9
$DIMEXO
 40
1.0
  9
$DIMDLI
 40
8.0
  9
$DIMRND
 40
0.0
  9
$DIMDLE
 40
0.0
  9
$DIMEXE
 40
0.6
  9
$DIMTP
 40
0.1
  9
$DIMTM
 40
0.1
  9
$DIMTXT
 40
2.5
  9
$DIMCEN
 40
0.0
  9
$DIMTSZ
 40
0.0
  9
$DIMTOL
 70
     0
  9
$DIMLIM
 70
     0
  9
$DIMTIH
 70
     0
  9
$DIMTOH
 70
     0
  9
$DIMSE1
 70
     0
  9
$DIMSE2
 70
     0
  9
$DIMTAD
 70
     1
  9
$DIMZIN
 70
     8
  9
$DIMBLK
  1

  9
$DIMASO
 70
     1
  9
$DIMSHO
 70
     1
  9
$DIMPOST
  1

  9
$DIMAPOST
  1
"
  9
$DIMALT
 70
     0
  9
$DIMALTD
 70
     2
  9
$DIMALTF
 40
0.0393701
  9
$DIMLFAC
 40
1.0
  9
$DIMTOFL
 70
     1
  9
$DIMTVP
 40
0.0
  9
$DIMTIX
 70
     0
  9
$DIMSOXD
 70
     0
  9
$DIMSAH
 70
     0
  9
$DIMBLK1
  1

  9
$DIMBLK2
  1

  9
$DIMSTYLE
  2
AM_ISO
  9
$DIMCLRD
 70
   256
  9
$DIMCLRE
 70
   256
  9
$DIMCLRT
 70
     4
  9
$DIMTFAC
 40
0.71
  9
$DIMGAP
 40
0.8
  9
$LUNITS
 70
     2
  9
$LUPREC
 70
     2
  9
$SKETCHINC
 40
1.0
  9
$FILLETRAD
 40
2.0
  9
$AUNITS
 70
     0
  9
$AUPREC
 70
     0
  9
$MENU
  1
.
  9
$ELEVATION
 40
0.0
  9
$PELEVATION
 40
0.0
  9
$THICKNESS
 40
0.0
  9
$LIMCHECK
 70
     0
  9
$BLIPMODE
 70
     0
  9
$CHAMFERA
 40
6.0
  9
$CHAMFERB
 40
3.0
  9
$SKPOLY
 70
     0
  9
$TDCREATE
 40
2452065.6056192131
  9
$TDUPDATE
 40
2458541.574644722
  9
$TDINDWG
 40
0.1340054398
  9
$TDUSRTIMER
 40
0.1340050463
  9
$USRTIMER
 70
     1
  9
$ANGBASE
 50
0.0
  9
$ANGDIR
 70
     0
  9
$PDMODE
 70
     0
  9
$PDSIZE
 40
0.0
  9
$PLINEWID
 40
0.0
  9
$COORDS
 70
     1
  9
$SPLFRAME
 70
     0
  9
$SPLINETYPE
 70
     6
  9
$SPLINESEGS
 70
     8
  9
$ATTDIA
 70
     1
  9
$ATTREQ
 70
     1
  9
$HANDLING
 70
     1
  9
$HANDSEED
  5
4273
  9
$SURFTAB1
 70
     6
  9
$SURFTAB2
 70
     6
  9
$SURFTYPE
 70
     6
  9
$SURFU
 70
     6
  9
$SURFV
 70
     6
  9
$UCSNAME
  2

  9
$UCSORG
 10
0.0
 20
0.0
 30
0.0
  9
$UCSXDIR
 10
1.0
 20
0.0
 30
0.0
  9
$UCSYDIR
 10
0.0
 20
1.0
 30
0.0
  9
$PUCSNAME
  2

  9
$PUCSORG
 10
0.0
 20
0.0
 30
0.0
  9
$PUCSXDIR
 10
1.0
 20
0.0
 30
0.0
  9
$PUCSYDIR
 10
0.0
 20
1.0
 30
0.0
  9
$USERI1
 70
     0
  9
$USERI2
 70
     0
  9
$USERI3
 70
     0
  9
$USERI4
 70
     0
  9
$USERI5
 70
     0
  9
$USERR1
 40
0.0
  9
$USERR2
 40
0.0
  9
$USERR3
 40
0.0
  9
$USERR4
 40
0.0
  9
$USERR5
 40
0.0
  9
$WORLDVIEW
 70
     1
  9
$SHADEDGE
 70
     3
  9
$SHADEDIF
 70
    70
  9
$TILEMODE
 70
     1
  9
$MAXACTVP
 70
    64
  9
$PLIMCHECK
 70
     0
  9
$PEXTMIN
 10
1.0000000000000000E+020
 20
1.0000000000000000E+020
 30
1.0000000000000000E+020
  9
$PEXTMAX
 10
-1.0000000000000000E+020
 20
-1.0000000000000000E+020
 30
-1.0000000000000000E+020
  9
$PLIMMIN
 10
0.0
 20
0.0
  9
$PLIMMAX
 10
420.0
 20
297.0
  9
$UNITMODE
 70
     0
  9
$VISRETAIN
 70
     1
  9
$PLINEGEN
 70
     0
  9
$PSLTSCALE
 70
     1
  0
ENDSEC
  0
SECTION
  2
TABLES
  0
TABLE
  2
VPORT
 70
     1
  0
VPORT
  2
*ACTIVE
 70
     0
 10
0.0
 20
0.0
 11
1.0
 21
1.0
 12
394.97296337599732
 22
382.31935481580842
 13
0.0
 23
0.0
 14
7.5
 24
7.5
 15
30.0
 25
30.0
 16
0.0
 26
0.0
 36
1.0
 17
0.0
 27
0.0
 37
0.0
 40
381.09786822094588
 41
1.7571592210767459
 42
50.0
 43
0.0
 44
0.0
 50
0.0
 51
0.0
 71
     0
 72
   100
 73
     1
 74
     3
 75
     0
 76
     0
 77
     0
 78
     0
  0
ENDTAB
  0
TABLE
  2
LTYPE
 70
    19
  0
LTYPE
  2
CONTINUOUS
 70
     0
  3
Solid line
 72
    65
 73
     0
 40
0.0
  0
LTYPE
  2
AM_ISO02W050
 70
     0
  3
__ __ __ __ __ __ __ __ __ __ __ __ __ __ __
 72
    65
 73
     2
 40
7.5
 49
6.0
 49
-1.5
  0
LTYPE
  2
AM_ISO08W050
 70
     0
  3
____ . ____ . ____ . ____ . ____ . ____ . ____
 72
    65
 73
     4
 40
18.0
 49
12.0
 49
-1.5
 49
3.0
 49
-1.5
  0
LTYPE
  2
AM_ISO09W050
 70
     0
  3
_____ . . _____ . . _____ . . ____ .. ____
 72
    65
 73
     6
 40
22.5
 49
12.0
 49
-1.5
 49
3.0
 49
-1.5
 49
3.0
 49
-1.5
  0
LTYPE
  2
AMCONSTR
 70
     0
  3
_______________________
 72
    65
 73
     2
 40
9999.0
 49
9999.0
 49
0.0
  0
LTYPE
  2
AM_ISO08W050X2
 70
     0
  3
__ . __ . __ . __ . __ . __
 72
    65
 73
     4
 40
9.0
 49
6.0
 49
-0.75
 49
1.5
 49
-0.75
  0
LTYPE
  2
AM_ISO02W050X2
 70
     0
  3
 _ _ _ _ _ _ _ _ _ _ _ _
 72
    65
 73
     2
 40
3.75
 49
3.0
 49
-0.75
  0
LTYPE
  2
AMZIGZAG
 70
     0
  3
/\/-/\/-/\/-/\/-/\/-/\/
 72
    65
 73
     2
 40
11.0001
 49
0.0001
 49
-11.0
  0
LTYPE
  2
CENTER
 70
     0
  3
__ . __
 72
    65
 73
     4
 40
7.0
 49
4.0
 49
-1.0
 49
1.0
 49
-1.0
  0
LTYPE
  2
PHANTOM2
 70
     0
  3
Phantom (.5x) ___ _ _ ___ _ _ ___ _ _ ___ _ _
 72
    65
 73
     6
 40
31.75
 49
15.875
 49
-3.174999999999998
 49
3.174999999999998
 49
-3.174999999999998
 49
3.174999999999998
 49
-3.174999999999998
  0
LTYPE
  2
GEN3B
 70
     0
  3
 - - - - -
 72
    65
 73
     2
 40
1.0
 49
0.5
 49
-0.5
  0
LTYPE
  2
GEN7A
 70
     0
  3
__ . __ . __
 72
    65
 73
     4
 40
7.375
 49
4.75
 49
-0.875
 49
0.875
 49
-0.875
  0
LTYPE
  2
HIDDEN
 70
     0
  3
Hidden __ __ __ __ __ __ __ __ __ __ __ __ __ _
 72
    65
 73
     2
 40
9.5249999999999986
 49
6.349999999999997
 49
-3.174999999999998
  0
LTYPE
  2
CENTER2
 70
     0
  3
Center (.5x) ___ _ ___ _ ___ _ ___ _ ___ _ ___
 72
    65
 73
     4
 40
1.125
 49
0.75
 49
-0.125
 49
0.125
 49
-0.125
  0
LTYPE
  2
HIDDEN2
 70
     0
  3
Hidden (.5x) _ _ _ _ _ _ _ _ _ _ _ _ _ _ _ _ _
 72
    65
 73
     2
 40
0.1875
 49
0.125
 49
-0.0625
  0
LTYPE
  2
AMZIGZAG2
 70
     0
  3
/\/-/\/-/\/-/\/-/\/-/\/
 72
    65
 73
     2
 40
0.4401
 49
0.0001
 49
-0.4400000000000002
  0
LTYPE
  2
ACANSTGB
 70
     0
  3
__ . . __ . .
 72
    65
 73
     6
 40
0.35433070866
 49
0.15748031496
 49
-0.03937007874
 49
0.03937007874
 49
-0.03937007874
 49
0.03937007874
 49
-0.03937007874
  0
LTYPE
  2
ACANSTGL
 70
     0
  3
_ _ _ _ _
 72
    65
 73
     2
 40
0.11811023622
 49
0.07874015748
 49
-0.03937007874
  0
ENDTAB
  0
TABLE
  2
LAYER
 70
     9
  0
LAYER
  2
0
 70
     0
 62
     7
  6
CONTINUOUS
  0
LAYER
  2
AM_0
 70
     0
 62
     7
  6
CONTINUOUS
  0
LAYER
  2
DEFPOINTS
 70
     0
 62
     7
  6
CONTINUOUS
  0
LAYER
  2
ｶｸﾚｾﾝ2
 70
     0
 62
     3
  6
GEN3B
  0
LAYER
  2
ﾁｭｳｼﾝｾﾝ1
 70
     0
 62
     1
  6
GEN7A
  0
LAYER
  2
AM_4
 70
     0
 62
     2
  6
CONTINUOUS
  0
LAYER
  2
ｽﾝﾎ_ｳｾﾝ
 70
     0
 62
     2
  6
CONTINUOUS
  0
LAYER
  2
AM_0N
 70
     0
 62
     7
  6
CONTINUOUS
  0
LAYER
  2
AM_3N
 70
     0
 62
     3
  6
AM_ISO02W050
  0
ENDTAB
  0
TABLE
  2
STYLE
 70
     5
  0
STYLE
  2
STANDARD
 70
     0
 40
0.0
 41
0.8299999999999999
 50
0.0
 71
     0
 42
2.5
  3
txt.shx
  4
bigfont.shx
  0
STYLE
  2
ANNOTATIVE
 70
     0
 40
0.0
 41
1.0
 50
0.0
 71
     0
 42
0.2
  3
txt
  4

  0
STYLE
  2

 70
     1
 40
0.0
 41
1.0
 50
0.0
 71
     0
 42
2.5
  3
genltshp.shx
  4

  0
STYLE
  2
ACANSTS
 70
     0
 40
0.0
 41
1.0
 50
0.0
 71
     0
 42
2.5
  3
romans.shx
  4
extfont.shx
  0
STYLE
  2
ACANSGDT
 70
     0
 40
0.0
 41
1.0
 50
0.0
 71
     0
 42
2.5
  3
amgdt.shx
  4

  0
ENDTAB
  0
TABLE
  2
VIEW
 70
     6
  0
VIEW
  2
AM_VIEW1
 70
     0
 40
277.50000000000011
 10
249.64779005524869
 20
416.24999999999989
 41
499.2955801104971
 11
0.0
 21
0.0
 31
1.0
 12
0.0
 22
0.0
 32
0.0
 42
50.0
 43
0.0
 44
0.0
 50
0.0
 71
     0
  0
VIEW
  2
AM_VIEW2
 70
     0
 40
277.50000000000011
 10
603.85220994475117
 20
416.24999999999989
 41
499.2955801104971
 11
0.0
 21
0.0
 31
1.0
 12
0.0
 22
0.0
 32
0.0
 42
50.0
 43
0.0
 44
0.0
 50
0.0
 71
     0
  0
VIEW
  2
AM_VIEW3
 70
     0
 40
277.50000000000011
 10
249.64779005524869
 20
138.75
 41
499.2955801104971
 11
0.0
 21
0.0
 31
1.0
 12
0.0
 22
0.0
 32
0.0
 42
50.0
 43
0.0
 44
0.0
 50
0.0
 71
     0
  0
VIEW
  2
AM_VIEW4
 70
     0
 40
277.50000000000011
 10
603.85220994475117
 20
138.75
 41
499.2955801104971
 11
0.0
 21
0.0
 31
1.0
 12
0.0
 22
0.0
 32
0.0
 42
50.0
 43
0.0
 44
0.0
 50
0.0
 71
     0
  0
VIEW
  2
AM_VIEW5
 70
     0
 40
277.50000000000011
 10
426.75
 20
277.50000000000011
 41
499.2955801104971
 11
0.0
 21
0.0
 31
1.0
 12
0.0
 22
0.0
 32
0.0
 42
50.0
 43
0.0
 44
0.0
 50
0.0
 71
     0
  0
VIEW
  2
AM_VIEW6
 70
     0
 40
554.99445000000014
 10
426.75
 20
277.5
 41
998.5811743093924
 11
0.0
 21
0.0
 31
1.0
 12
0.0
 22
0.0
 32
0.0
 42
50.0
 43
0.0
 44
0.0
 50
0.0
 71
     0
  0
ENDTAB
  0
TABLE
  2
UCS
 70
     0
  0
ENDTAB
  0
TABLE
  2
APPID
 70
   103
  0
APPID
  2
ACAD
 70
     0
  0
APPID
  2
ACADANNOTATIVE
 70
     0
  0
APPID
  2
MCAD_NO_VIS
 70
     0
  0
APPID
  2
ACAD_TEMP_GRAPHIC
 70
     0
  0
APPID
  2
ACATTRIBSERVICES
 70
     0
  0
APPID
  2
GENIUS_GENREC_14
 70
     0
  0
APPID
  2
GENIUS_GENOBJ-N-REC_13
 70
     0
  0
APPID
  2
GENIUS_GENODEF_13
 70
     0
  0
APPID
  2
GENIUS_GENOLIS_13
 70
     0
  0
APPID
  2
GENIUS_GENOBJ-N-TIT_13
 70
     0
  0
APPID
  2
GENIUS_GENOENT_13
 70
     0
  0
APPID
  2
GENIUS_GENTITLE_13
 70
     0
  0
APPID
  2
GENIUS_GENOREF_13
 70
     0
  0
APPID
  2
GENIUS_GENSCREG_15
 70
     0
  0
APPID
  2
GENIUS_GENOBJ-N-SDF_13
 70
     0
  0
APPID
  2
GENIUS_GENFIL_13
 70
     0
  0
APPID
  2
GENIUS_GENOBJ-N-CHA_13
 70
     0
  0
APPID
  2
GENIUS_GENDTOL_13
 70
     0
  0
APPID
  2
GENIUS_GENOBJ-N-FIL_13
 70
     0
  0
APPID
  2
AD_DRAW
 70
     0
  0
APPID
  2
DESIGNERASSEMBLIES
 70
     0
  0
APPID
  2
ASURF_PCURVE_APPNAME
 70
     0
  0
APPID
  2
GENIUS_GE3SECT_13
 70
     0
  0
APPID
  2
GENIUS_GENCFG_13
 70
     0
  0
APPID
  2
GENIUS_GE3CFG0_13
 70
     0
  0
APPID
  2
GENIUS_GENCFG0_13
 70
     0
  0
APPID
  2
GENIUS_GENCFG1_13
 70
     0
  0
APPID
  2
GENIUS_GENCFG2_13
 70
     0
  0
APPID
  2
GENIUS_GENCFG3_13
 70
     0
  0
APPID
  2
GENIUS_GENCFG4_13
 70
     0
  0
APPID
  2
GENIUS_GEVCFG0_13
 70
     0
  0
APPID
  2
GENIUS_GENHINW_13
 70
     0
  0
APPID
  2
GENIUS_FIRSTVISTXT_14
 70
     0
  0
APPID
  2
GENIUS_GENOBJ-N-LEADER_13
 70
     0
  0
APPID
  2
GEV_VCCNULL_SWITCH_OFF
 70
     0
  0
APPID
  2
GENIUS_GEFCFG0_13
 70
     0
  0
APPID
  2
GENIUS_GENZVEED_13
 70
     0
  0
APPID
  2
GENIUS_GENSCREG_13
 70
     0
  0
APPID
  2
GENIUS_DUMCFG0_13
 70
     0
  0
APPID
  2
GEVID936201362
 70
     0
  0
APPID
  2
GEVDC
 70
     0
  0
APPID
  2
GEVCON
 70
     0
  0
APPID
  2
VCC
 70
     0
  0
APPID
  2
GEVPT
 70
     0
  0
APPID
  2
GEVIT
 70
     0
  0
APPID
  2
GENBH
 70
     0
  0
APPID
  2
GEVMK
 70
     0
  0
APPID
  2
GENIUS_GENBH_13
 70
     0
  0
APPID
  2
GENIUS_GENOBJ-NBEHI-BHF_13
 70
     0
  0
APPID
  2
GENIUS_GENOBJ-NBEHI-BHB_13
 70
     0
  0
APPID
  2
GENIUS_GENOBJ-F-DESC_13
 70
     0
  0
APPID
  2
GENIUS_GEFDESC_14
 70
     0
  0
APPID
  2
GENIUS_GENOBJ-F-PART_13
 70
     0
  0
APPID
  2
GENIUS_GEFSTDP_13
 70
     0
  0
APPID
  2
GENIUS_GEFPARTINS_13
 70
     0
  0
APPID
  2
GENIUS_GENTRA_14
 70
     0
  0
APPID
  2
GENIUS_GENINF13_13
 70
     0
  0
APPID
  2
GENIUS_GENOBJ-N-INFOPT_13
 70
     0
  0
APPID
  2
GENIUS_GENOBJ-N-RSSYM_13
 70
     0
  0
APPID
  2
GENIUS_GENSYMENT_13
 70
     0
  0
APPID
  2
GENIUS_GENSCSYM_13
 70
     0
  0
APPID
  2
GENIUS_GEFINFNAM_13
 70
     0
  0
APPID
  2
GENIUS_GENOBJ-N-CEN_13
 70
     0
  0
APPID
  2
GENIUS_GENOBJ-N-CRS_13
 70
     0
  0
APPID
  2
GENIUS_GENOBJ-N-CRC_13
 70
     0
  0
APPID
  2
GENIUS_GENCRC_14
 70
     0
  0
APPID
  2
GEVID942827039
 70
     0
  0
APPID
  2
GEVID942827040
 70
     0
  0
APPID
  2
GEVID942827041
 70
     0
  0
APPID
  2
GENIUS_GENOBJ-F-SCPASSM_13
 70
     0
  0
APPID
  2
GENIUS_GENDIMSH_14
 70
     0
  0
APPID
  2
GEVID942827042
 70
     0
  0
APPID
  2
GEVID946020473
 70
     0
  0
APPID
  2
GEVID946020474
 70
     0
  0
APPID
  2
GEVID946020475
 70
     0
  0
APPID
  2
GENIUS_GENOBJ-N-HTC_13
 70
     0
  0
APPID
  2
GENIUS_GENHATCH_13
 70
     0
  0
APPID
  2
GEVID948854295
 70
     0
  0
APPID
  2
GEVID939402019
 70
     0
  0
APPID
  2
GEVID952919491
 70
     0
  0
APPID
  2
GEVID952919492
 70
     0
  0
APPID
  2
GENIUS_GEFWELD_13
 70
     0
  0
APPID
  2
GENIUS_GENOBJ-F-WELS_13
 70
     0
  0
APPID
  2
GEVID952919493
 70
     0
  0
APPID
  2
GENIUS_GENOBJ-N-RSBK_13
 70
     0
  0
APPID
  2
GENIUS_GENOBJ-N-LIB_13
 70
     0
  0
APPID
  2
GENIUS_GENSCALE_13
 70
     0
  0
APPID
  2
GEVID986376691
 70
     0
  0
APPID
  2
DCO15
 70
     0
  0
APPID
  2
GEVID988070561
 70
     0
  0
APPID
  2
GEVID988070562
 70
     0
  0
APPID
  2
GEVID988070563
 70
     0
  0
APPID
  2
GEVID1005782280
 70
     0
  0
APPID
  2
GEVRADREF
 70
     0
  0
APPID
  2
GEVID1005782281
 70
     0
  0
APPID
  2
ACADM_DIM_EDIT
 70
     0
  0
APPID
  2
AMDT_DM_ADJ
 70
     0
  0
APPID
  2
ACAD_DSTYLE_DIMJAG
 70
     0
  0
APPID
  2
ACAD_DSTYLE_DIMBREAK
 70
     0
  0
APPID
  2
ACAD_NAV_VCDISPLAY
 70
     0
  0
APPID
  2
ACAD_EXEMPT_FROM_CAD_STANDARDS
 70
     0
  0
APPID
  2
ACADANNOPO
 70
     0
  0
APPID
  2
ACAD_MLEADERVER
 70
     0
  0
ENDTAB
  0
TABLE
  2
DIMSTYLE
 70
     9
  0
DIMSTYLE
  2
STANDARD
 70
     0
  3

  4

  5

  6

  7

 40
1.0
 41
0.18
 42
0.0625
 43
0.38
 44
0.18
 45
0.0
 46
0.0
 47
0.0
 48
0.0
140
0.18
141
0.09
142
0.0
143
25.399999999999999
144
1.0
145
0.0
146
1.0
147
0.09
 71
     0
 72
     0
 73
     1
 74
     1
 75
     0
 76
     0
 77
     0
 78
     0
170
     0
171
     2
172
     0
173
     0
174
     0
175
     0
176
     0
177
     0
178
     0
  0
DIMSTYLE
  2
ANNOTATIVE
 70
     0
  3

  4

  5

  6

  7

 40
1.0
 41
0.18
 42
0.0625
 43
0.38
 44
0.18
 45
0.0
 46
0.0
 47
0.0
 48
0.0
140
0.18
141
0.09
142
0.0
143
25.399999999999999
144
1.0
145
0.0
146
1.0
147
0.09
 71
     0
 72
     0
 73
     1
 74
     1
 75
     0
 76
     0
 77
     0
 78
     0
170
     0
171
     2
172
     0
173
     0
174
     0
175
     0
176
     0
177
     0
178
     0
  0
DIMSTYLE
  2
AM_ISO
 70
     0
  3

  4
"
  5

  6

  7

 40
1.0
 41
2.5
 42
1.0
 43
8.0
 44
0.6
 45
0.0
 46
0.0
 47
0.1
 48
0.1
140
2.5
141
0.0
142
0.0
143
0.0393701
144
1.0
145
0.0
146
0.71
147
0.8
 71
     0
 72
     0
 73
     0
 74
     0
 75
     0
 76
     0
 77
     1
 78
     8
170
     0
171
     2
172
     1
173
     0
174
     0
175
     0
176
   256
177
   256
178
     4
  0
DIMSTYLE
  2
AM_ANSI
 70
     0
  3

  4
mm
  5

  6

  7

 40
1.0
 41
0.12
 42
0.05
 43
0.5
 44
0.1
 45
0.0
 46
0.0
 47
0.1
 48
0.1
140
0.12
141
0.0
142
0.0
143
25.399999999999999
144
1.0
145
0.0
146
0.71
147
0.06
 71
     0
 72
     0
 73
     1
 74
     1
 75
     0
 76
     0
 77
     0
 78
     7
170
     0
171
     2
172
     0
173
     0
174
     0
175
     0
176
   256
177
   256
178
     2
  0
DIMSTYLE
  2
AM_ANSI$3
 70
     0
  3

  4
mm
  5

  6

  7

 40
1.0
 41
0.12
 42
0.05
 43
0.5
 44
0.1
 45
0.0
 46
0.0
 47
0.1
 48
0.1
140
0.12
141
0.0
142
0.0
143
25.399999999999999
144
1.0
145
0.0
146
0.71
147
0.06
 71
     0
 72
     0
 73
     1
 74
     1
 75
     0
 76
     0
 77
     0
 78
     7
170
     0
171
     2
172
     0
173
     0
174
     0
175
     0
176
   256
177
   256
178
     2
  0
DIMSTYLE
  2
AM_ANSI$4
 70
     0
  3

  4
mm
  5

  6

  7

 40
1.0
 41
0.12
 42
0.05
 43
0.5
 44
0.1
 45
0.0
 46
0.0
 47
0.1
 48
0.1
140
0.12
141
0.0
142
0.0
143
25.399999999999999
144
1.0
145
0.0
146
0.71
147
0.06
 71
     0
 72
     0
 73
     1
 74
     1
 75
     0
 76
     0
 77
     0
 78
     7
170
     0
171
     2
172
     0
173
     0
174
     0
175
     0
176
   256
177
   256
178
     2
  0
DIMSTYLE
  2
AM_ANSI$7
 70
     0
  3

  4
mm
  5

  6

  7

 40
1.0
 41
0.12
 42
0.05
 43
0.5
 44
0.1
 45
0.0
 46
0.0
 47
0.1
 48
0.1
140
0.12
141
0.0
142
0.0
143
25.399999999999999
144
1.0
145
0.0
146
0.71
147
0.06
 71
     0
 72
     0
 73
     1
 74
     1
 75
     0
 76
     0
 77
     0
 78
     7
170
     0
171
     2
172
     0
173
     0
174
     0
175
     0
176
   256
177
   256
178
     2
  0
DIMSTYLE
  2
AM_ANSI$SF
 70
     0
  3

  4
mm
  5

  6

  7

 40
1.0
 41
0.12
 42
0.05
 43
0.5
 44
0.1
 45
0.0
 46
0.0
 47
0.1
 48
0.1
140
0.12
141
0.0
142
0.0
143
25.399999999999999
144
1.0
145
0.0
146
0.71
147
0.06
 71
     0
 72
     0
 73
     1
 74
     1
 75
     1
 76
     1
 77
     0
 78
     7
170
     0
171
     2
172
     0
173
     0
174
     0
175
     0
176
   256
177
   256
178
     2
  0
DIMSTYLE
  2
AM_ANSI$SH
 70
     0
  3

  4
mm
  5

  6

  7

 40
1.0
 41
0.12
 42
0.05
 43
0.5
 44
0.1
 45
0.0
 46
0.0
 47
0.1
 48
0.1
140
0.12
141
0.0
142
0.0
143
25.399999999999999
144
1.0
145
0.0
146
0.71
147
0.06
 71
     0
 72
     0
 73
     1
 74
     1
 75
     1
 76
     1
 77
     0
 78
     7
170
     0
171
     2
172
     0
173
     1
174
     0
175
     0
176
   256
177
   256
178
     2
  0
ENDTAB
  0
ENDSEC
  0
SECTION
  2
BLOCKS
  0
BLOCK
  8
0
  2
$MODEL_SPACE
 70
     0
 10
0.0
 20
0.0
 30
0.0
  3
$MODEL_SPACE
  1

  0
ENDBLK
  5
4110
  8
0
  0
BLOCK
 67
     1
  8
0
  2
$PAPER_SPACE
 70
     0
 10
0.0
 20
0.0
 30
0.0
  3
$PAPER_SPACE
  1

  0
ENDBLK
  5
410C
 67
     1
  8
0
  0
BLOCK
  8
0
  2
*U2
 70
     1
 10
0.0
 20
0.0
 30
0.0
  3
*U2
  1

  0
TEXT
  5
3D83
  8
AM_0
 10
528.93034980368725
 20
174.939754916824
 30
0.0
 40
8.0
  1
VX01-050S
 41
0.8299999999999999
  0
ENDBLK
  5
3D85
  8
0
  0
BLOCK
  8
0
  2
GENAXEH
 70
     0
 10
0.0
 20
0.0
 30
0.0
  3
GENAXEH
  1

  0
LINE
  5
400C
  8
0
 10
-1.0
 20
0.0
 30
0.0
 11
1.0
 21
0.0
 31
0.0
  0
ENDBLK
  5
400E
  8
0
  0
BLOCK
  8
0
  2
_ACMFILLEDHALF
 70
     0
 10
0.0
 20
0.0
 30
0.0
  3
_ACMFILLEDHALF
  1

  0
TRACE
  5
401C
  8
AM_0
 62
     0
 10
-0.8
 20
0.0
 30
0.0
 11
-1.0
 21
0.166666666
 31
0.0
 12
0.0
 22
0.0
 32
0.0
 13
0.0
 23
0.0
 33
0.0
  0
LINE
  5
401D
  8
AM_0
 62
     0
 10
-1.0
 20
0.0
 30
0.0
 11
-0.8
 21
0.0
 31
0.0
  0
ENDBLK
  5
401B
  8
0
  0
ENDSEC
  0
SECTION
  2
ENTITIES
  0
LINE
  5
2A75
  8
ﾁｭｳｼﾝｾﾝ1
 10
118.6713435818792
 20
501.54285775981361
 30
0.0
 11
405.23803860130818
 21
501.54285775981361
 31
0.0
  0
ARC
  5
2BFF
  8
AM_0
 10
402.87423860130832
 20
501.54285775981361
 30
0.0
 40
80.0
 50
148.90067999999891
 51
211.0993000000006
  0
LINE
  5
2C03
  8
AM_0
 10
303.87423860130838
 20
443.64831775981372
 30
0.0
 11
303.87423860130838
 21
559.43744775981361
 31
0.0
  0
LINE
  5
2C04
  8
AM_0
 10
322.87423860130849
 20
458.80923775981358
 30
0.0
 11
322.87423860130849
 21
544.27652775981358
 31
0.0
  0
LINE
  5
2C05
  8
AM_0
 10
309.87423860130838
 20
441.5428577598135
 30
0.0
 11
309.87423860130838
 21
561.54288775981365
 31
0.0
  0
LINE
  5
2C06
  8
AM_0
 10
367.87423860130838
 20
540.77997775981351
 30
0.0
 11
367.87423860130838
 21
459.10095775981358
 31
0.0
  0
LINE
  5
2C07
  8
AM_0
 10
354.87423860130838
 20
452.7272077598135
 30
0.0
 11
354.87423860130838
 21
550.35852775981346
 31
0.0
  0
LINE
  5
2C08
  8
AM_0
 10
369.87423860130838
 20
520.56872775981356
 30
0.0
 11
369.87423860130838
 21
482.51703775981349
 31
0.0
  0
LINE
  5
2C09
  8
AM_0
 10
354.87423860130838
 20
460.93695775981359
 30
0.0
 11
334.37234860130849
 21
460.22101775981361
 31
0.0
  0
LINE
  5
2C0A
  8
AM_0
 10
365.00515860130849
 20
432.98651775981358
 30
0.0
 11
309.87426860130842
 21
431.54285775981361
 31
0.0
  0
LINE
  5
2C0B
  8
AM_0
 10
349.74334860130853
 20
449.67035775981361
 30
0.0
 11
351.95278860130838
 21
449.72821775981362
 31
0.0
  0
ARC
  5
2C0C
  8
AM_0
 10
305.87423860130838
 20
443.64831775981372
 30
0.0
 40
2.0
 50
180.00001000000091
 51
268.5000000000004
  0
LINE
  5
2C0E
  8
AM_0
 10
309.87423860130838
 20
431.5428877598136
 30
0.0
 11
291.74337860130851
 21
432.01764775981371
 31
0.0
  0
LINE
  5
2C10
  8
AM_0
 10
294.87423860130838
 20
453.35858775981347
 30
0.0
 11
294.87423860130838
 21
446.50992775981348
 31
0.0
  0
ARC
  5
2C18
  8
AM_0
 10
291.87423860130838
 20
437.01593775981348
 30
0.0
 40
5.0
 50
180.00001000000091
 51
268.5000000000004
  0
ARC
  5
2C19
  8
AM_0
 10
296.87423860130838
 20
444.04285775981361
 30
0.0
 40
5.0
 50
170.3165899999986
 51
3.8501329999991381
  0
ARC
  5
2C1A
  8
ｶｸﾚｾﾝ2
 10
296.87423860130838
 20
444.04285775981361
 30
0.0
 40
5.0
 50
3.8501272999993961
 51
170.3165899999986
  0
LINE
  5
2C1B
  8
AM_0
 10
285.87426860130842
 20
445.04288775981348
 30
0.0
 11
295.86859860130818
 21
444.78116775981363
 31
0.0
  0
LINE
  5
2C1C
  8
AM_0
 10
286.87423860130838
 20
437.01593775981348
 30
0.0
 11
286.87423860130838
 21
445.01666775981357
 31
0.0
  0
LINE
  5
2C1D
  8
AM_0
 10
296.82189860130842
 20
444.51062775981347
 30
0.0
 11
302.50289860130829
 21
444.36185775981357
 31
0.0
  0
ARC
  5
2C1E
  8
AM_0
 10
296.87423860130838
 20
446.50992775981348
 30
0.0
 40
2.0
 50
180.00001000000091
 51
268.5000000000004
  0
ARC
  5
2C1F
  8
AM_0
 10
302.46365860130823
 20
442.86236775981348
 30
0.0
 40
1.5
 50
12.97665300000153
 51
88.499997000000747
  0
ARC
  5
2C27
  8
AM_0
 10
301.87423860130838
 20
467.6029077598136
 30
0.0
 40
2.0
 50
0.0
 51
90.000003000000945
  0
ARC
  5
2C28
  8
AM_0
 10
292.87423860130838
 20
453.35858775981347
 30
0.0
 40
2.0
 50
0.0
 51
88.499997000000747
  0
LINE
  5
2C29
  8
AM_0
 10
285.87426860130842
 20
455.54257775981353
 30
0.0
 11
301.92660860130849
 21
455.12222775981348
 31
0.0
  0
ARC
  5
2C2A
  8
AM_0
 10
301.87423860130838
 20
453.12292775981359
 30
0.0
 40
2.0
 50
0.0
 51
88.499997000000747
  0
LINE
  5
2C2B
  8
AM_0
 10
285.87423860130838
 20
469.60290775981372
 30
0.0
 11
301.87423860130838
 21
469.60290775981372
 31
0.0
  0
LINE
  5
2C2C
  8
AM_0
 10
321.87423860130838
 20
457.8351177598135
 30
0.0
 11
321.87423860130838
 21
445.28812775981362
 31
0.0
  0
LINE
  5
2C2D
  8
AM_0
 10
325.87423860130838
 20
446.78812775981362
 30
0.0
 11
325.87423860130838
 21
456.33514775981359
 31
0.0
  0
LINE
  5
2C2E
  8
AM_0
 10
320.87423860130849
 20
458.80923775981358
 30
0.0
 11
320.87423860130849
 21
442.1611977598136
 31
0.0
  0
LINE
  5
2C2F
  8
AM_0
 10
329.83727860130853
 20
447.00571775981348
 30
0.0
 11
323.07369860130848
 21
443.10077775981358
 31
0.0
  0
LINE
  5
2C30
  8
AM_0
 10
308.87423860130838
 20
432.54321775981367
 30
0.0
 11
308.87423860130838
 21
434.54388775981357
 31
0.0
  0
LINE
  5
2C31
  8
AM_0
 10
312.87423860130838
 20
433.5697677598136
 30
0.0
 11
312.87423860130838
 21
439.5683677598135
 31
0.0
  0
ARC
  5
2C32
  8
AM_0
 10
309.87423860130838
 20
432.54321775981367
 30
0.0
 40
1.0
 50
180.00001000000091
 51
268.5000000000004
  0
ARC
  5
2C33
  8
AM_0
 10
310.87423860130838
 20
433.5697677598136
 30
0.0
 40
2.0
 50
271.49999999999949
 51
0.0
  0
LINE
  5
2C34
  8
AM_0
 10
309.87423860130838
 20
446.01654775981359
 30
0.0
 11
320.87423860130849
 21
446.01654775981359
 31
0.0
  0
LINE
  5
2C35
  8
AM_0
 10
309.87423860130838
 20
441.54288775981348
 30
0.0
 11
318.33544860130849
 21
441.76443775981352
 31
0.0
  0
LINE
  5
2C36
  8
AM_0
 10
311.84808860130852
 20
435.49255775981362
 30
0.0
 11
309.90042860130848
 21
435.54358775981359
 31
0.0
  0
ARC
  5
2C37
  8
AM_0
 10
309.87423860130838
 20
434.54388775981357
 30
0.0
 40
1.0
 50
88.499997000000747
 51
180.00001000000091
  0
LINE
  5
2C38
  8
AM_0
 10
309.87426860130842
 20
441.5428577598135
 30
0.0
 11
305.82192860130851
 21
441.6489977598136
 31
0.0
  0
ARC
  5
2C39
  8
AM_0
 10
311.87423860130838
 20
436.4922277598136
 30
0.0
 40
1.0
 50
268.5000000000004
 51
0.0000006832462478
  0
ARC
  5
2C3A
  8
AM_0
 10
310.87423860130838
 20
439.5683677598135
 30
0.0
 40
2.0
 50
0.0
 51
91.500001000001546
  0
ARC
  5
2C3B
  8
AM_0
 10
318.07369860130848
 20
451.76099775981351
 30
0.0
 40
10.0
 50
271.49999999999949
 51
300.00001000000083
  0
LINE
  5
2C3C
  8
AM_0
 10
321.87423860130838
 20
448.67486775981359
 30
0.0
 11
324.87423860130849
 21
448.67486775981359
 31
0.0
  0
LINE
  5
2C3D
  8
AM_0
 10
321.87423860130838
 20
445.78809775981358
 30
0.0
 11
324.87423860130849
 21
445.78809775981358
 31
0.0
  0
LINE
  5
2C3E
  8
AM_0
 10
320.87423860130849
 20
445.28812775981362
 30
0.0
 11
321.87423860130838
 21
445.28812775981362
 31
0.0
  0
ARC
  5
2C3F
  8
AM_0
 10
324.87423860130849
 20
447.67486775981359
 30
0.0
 40
1.0
 50
0.0
 51
90.000003000000945
  0
ARC
  5
2C40
  8
AM_0
 10
324.87423860130849
 20
446.78812775981362
 30
0.0
 40
1.0
 50
269.999989999999
 51
0.0000006832462478
  0
ARC
  5
2C41
  8
AM_0
 10
324.87423860130849
 20
449.67486775981359
 30
0.0
 40
1.0
 50
269.999989999999
 51
0.0000006832462478
  0
ARC
  5
2C42
  8
AM_0
 10
347.87423860130849
 20
435.53894775981348
 30
0.0
 40
3.0
 50
180.00001000000091
 51
271.49999999999949
  0
LINE
  5
2C43
  8
AM_0
 10
346.86321860130852
 20
448.66382775981361
 30
0.0
 11
334.57549860130848
 21
448.34204775981362
 31
0.0
  0
ARC
  5
2C44
  8
AM_0
 10
334.83724860130877
 20
438.34546775981357
 30
0.0
 40
10.0
 50
91.500001000001546
 51
120.0000000000005
  0
LINE
  5
2C45
  8
AM_0
 10
344.87423860130838
 20
435.53894775981348
 30
0.0
 11
344.87423860130838
 21
444.67209775981348
 31
0.0
  0
ARC
  5
2C46
  8
AM_0
 10
349.87423860130849
 20
444.67209775981348
 30
0.0
 40
5.0
 50
91.500001000001546
 51
180.00001000000091
  0
LINE
  5
2C47
  8
AM_0
 10
334.37234860130849
 20
460.22104775981347
 30
0.0
 11
322.87423860130849
 21
458.80923775981358
 31
0.0
  0
LINE
  5
2C48
  8
AM_0
 10
321.87423860130838
 20
454.44836775981361
 30
0.0
 11
324.87423860130849
 21
454.44836775981361
 31
0.0
  0
LINE
  5
2C49
  8
AM_0
 10
321.87423860130838
 20
457.33514775981348
 30
0.0
 11
324.87423860130849
 21
457.33514775981348
 31
0.0
  0
LINE
  5
2C4A
  8
AM_0
 10
320.87423860130849
 20
458.80923775981358
 30
0.0
 11
322.87423860130849
 21
458.80923775981358
 31
0.0
  0
LINE
  5
2C4B
  8
AM_0
 10
320.87423860130849
 20
457.8351177598135
 30
0.0
 11
321.87423860130838
 21
457.8351177598135
 31
0.0
  0
ARC
  5
2C4C
  8
AM_0
 10
324.87423860130849
 20
456.33514775981359
 30
0.0
 40
1.0
 50
0.0
 51
90.000003000000945
  0
ARC
  5
2C4D
  8
AM_0
 10
324.87423860130849
 20
453.44836775981361
 30
0.0
 40
1.0
 50
0.0
 51
90.000003000000945
  0
ARC
  5
2C4E
  8
AM_0
 10
324.87423860130849
 20
455.44836775981361
 30
0.0
 40
1.0
 50
269.999989999999
 51
0.0000006832462478
  0
ARC
  5
2C4F
  8
AM_0
 10
351.87423860130838
 20
452.7272077598135
 30
0.0
 40
3.0
 50
271.49999999999949
 51
0.0
  0
LINE
  5
2C50
  8
AM_0
 10
369.87423860130838
 20
437.98480775981358
 30
0.0
 11
369.87423860130838
 21
455.10095775981358
 31
0.0
  0
ARC
  5
2C52
  8
AM_0
 10
364.87423860130838
 20
437.98480775981358
 30
0.0
 40
5.0
 50
271.49999999999949
 51
0.0
  0
CIRCLE
  5
2C53
  8
AM_0
 10
359.87423860130838
 20
444.04285775981361
 30
0.0
 40
5.0
  0
LINE
  5
2C55
  8
AM_0
 10
359.74337860130839
 20
459.17038775981359
 30
0.0
 11
364.9527886013085
 21
459.30679775981361
 31
0.0
  0
ARC
  5
2C56
  8
AM_0
 10
359.87423860130838
 20
454.1720977598136
 30
0.0
 40
5.0
 50
91.500001000001546
 51
180.00001000000091
  0
ARC
  5
2C57
  8
AM_0
 10
364.87423860130838
 20
462.30575775981362
 30
0.0
 40
3.0
 50
271.49999999999949
 51
0.0
  0
ARC
  5
2C58
  8
AM_0
 10
364.87423860130838
 20
455.10095775981358
 30
0.0
 40
5.0
 50
0.0
 51
70.485339000000806
  0
ARC
  5
2C59
  8
AM_0
 10
368.87423860130849
 20
482.51703775981349
 30
0.0
 40
1.0
 50
271.49999999999949
 51
0.0
  0
ARC
  5
2C5A
  8
AM_0
 10
368.87423860130849
 20
480.5163677598137
 30
0.0
 40
1.0
 50
91.500001000001546
 51
180.00001000000091
  0
LINE
  5
2C5B
  8
AM_0
 10
368.84808860130852
 20
481.51599775981362
 30
0.0
 11
368.90042860130842
 21
481.51736775981362
 31
0.0
  0
LINE
  5
2C5C
  8
AM_0
 10
354.87423860130838
 20
542.14877775981358
 30
0.0
 11
334.37237860130853
 21
542.86471775981352
 31
0.0
  0
LINE
  5
2C5D
  8
AM_0
 10
365.00512860130851
 20
570.09924775981347
 30
0.0
 11
309.87426860130842
 21
571.54288775981365
 31
0.0
  0
LINE
  5
2C5E
  8
AM_0
 10
349.74337860130839
 20
553.41537775981351
 30
0.0
 11
351.95278860130838
 21
553.35751775981362
 31
0.0
  0
ARC
  5
2C60
  8
AM_0
 10
296.87423860130838
 20
559.04288775981365
 30
0.0
 40
5.0
 50
356.1498700000015
 51
189.68341000000129
  0
ARC
  5
2C61
  8
ｶｸﾚｾﾝ2
 10
296.87423860130838
 20
559.04288775981365
 30
0.0
 40
5.0
 50
189.68341000000129
 51
356.14988000000108
  0
ARC
  5
2C62
  8
AM_0
 10
296.87423860130838
 20
556.57580775981364
 30
0.0
 40
2.0
 50
91.500001000001546
 51
180.00001000000091
  0
ARC
  5
2C63
  8
AM_0
 10
349.87423860130849
 20
558.41363775981347
 30
0.0
 40
5.0
 50
180.00001000000091
 51
268.5000000000004
  0
LINE
  5
2C67
  8
AM_0
 10
329.83727860130853
 20
556.08002775981345
 30
0.0
 11
323.07366860130838
 21
559.98498775981375
 31
0.0
  0
LINE
  5
2C68
  8
AM_0
 10
320.87423860130849
 20
544.27652775981358
 30
0.0
 11
320.87423860130849
 21
560.92456775981373
 31
0.0
  0
LINE
  5
2C77
  8
AM_0
 10
285.87423860130838
 20
533.48279775981359
 30
0.0
 11
301.87423860130838
 21
533.48279775981359
 31
0.0
  0
ARC
  5
2C78
  8
AM_0
 10
301.87423860130838
 20
535.48279775981359
 30
0.0
 40
2.0
 50
270.0
 51
0.0
  0
ARC
  5
2C79
  8
AM_0
 10
292.87423860130838
 20
549.72717775981346
 30
0.0
 40
2.0
 50
271.49999999999949
 51
0.0
  0
LINE
  5
2C7A
  8
AM_0
 10
285.87423860130838
 20
547.54318775981346
 30
0.0
 11
301.92660860130849
 21
547.96350775981364
 31
0.0
  0
ARC
  5
2C7B
  8
AM_0
 10
301.87423860130838
 20
549.96283775981374
 30
0.0
 40
2.0
 50
271.49999999999949
 51
0.0
  0
LINE
  5
2C7C
  8
AM_0
 10
294.87423860130838
 20
549.72717775981346
 30
0.0
 11
294.87423860130838
 21
556.57580775981364
 31
0.0
  0
LINE
  5
2C7D
  8
AM_0
 10
334.37234860130849
 20
542.86471775981352
 30
0.0
 11
322.87423860130849
 21
544.27652775981358
 31
0.0
  0
LINE
  5
2C7E
  8
AM_0
 10
309.87423860130838
 20
557.06921775981368
 30
0.0
 11
320.87423860130849
 21
557.06921775981368
 31
0.0
  0
ARC
  5
2C7F
  8
AM_0
 10
324.87423860130849
 20
549.63739775981355
 30
0.0
 40
1.0
 50
269.999989999999
 51
0.0000006832462478
  0
LINE
  5
2C80
  8
AM_0
 10
325.87423860130838
 20
556.29764775981357
 30
0.0
 11
325.87423860130838
 21
546.75061775981362
 31
0.0
  0
LINE
  5
2C81
  8
AM_0
 10
321.87423860130838
 20
545.25061775981362
 30
0.0
 11
321.87423860130838
 21
557.79764775981346
 31
0.0
  0
LINE
  5
2C82
  8
AM_0
 10
321.87423860130838
 20
545.75061775981362
 30
0.0
 11
324.87423860130849
 21
545.75061775981362
 31
0.0
  0
LINE
  5
2C83
  8
AM_0
 10
321.87423860130838
 20
548.63736775981363
 30
0.0
 11
324.87423860130849
 21
548.63736775981363
 31
0.0
  0
LINE
  5
2C84
  8
AM_0
 10
320.87423860130849
 20
544.27652775981358
 30
0.0
 11
322.87423860130849
 21
544.27652775981358
 31
0.0
  0
LINE
  5
2C85
  8
AM_0
 10
320.87423860130849
 20
545.25061775981362
 30
0.0
 11
321.87423860130838
 21
545.25061775981362
 31
0.0
  0
ARC
  5
2C86
  8
AM_0
 10
324.87423860130849
 20
547.63739775981355
 30
0.0
 40
1.0
 50
0.0
 51
90.000003000000945
  0
ARC
  5
2C87
  8
AM_0
 10
324.87423860130849
 20
546.75061775981362
 30
0.0
 40
1.0
 50
269.999989999999
 51
0.0000006832462478
  0
LINE
  5
2C88
  8
AM_0
 10
321.87423860130838
 20
557.29764775981346
 30
0.0
 11
324.87423860130849
 21
557.29764775981346
 31
0.0
  0
LINE
  5
2C89
  8
AM_0
 10
321.87423860130838
 20
554.41089775981368
 30
0.0
 11
324.87423860130849
 21
554.41089775981368
 31
0.0
  0
LINE
  5
2C8A
  8
AM_0
 10
320.87423860130849
 20
557.79764775981346
 30
0.0
 11
321.87423860130838
 21
557.79764775981346
 31
0.0
  0
ARC
  5
2C8B
  8
AM_0
 10
324.87423860130849
 20
553.41089775981345
 30
0.0
 40
1.0
 50
0.0
 51
90.000003000000945
  0
ARC
  5
2C8C
  8
AM_0
 10
324.87423860130849
 20
556.29764775981357
 30
0.0
 40
1.0
 50
0.0
 51
90.000003000000945
  0
ARC
  5
2C8D
  8
AM_0
 10
324.87423860130849
 20
555.41089775981357
 30
0.0
 40
1.0
 50
269.999989999999
 51
0.0000006832462478
  0
LINE
  5
2C8E
  8
AM_0
 10
346.86321860130852
 20
554.42194775981363
 30
0.0
 11
334.57549860130848
 21
554.74371775981365
 31
0.0
  0
ARC
  5
2C8F
  8
AM_0
 10
334.83724860130877
 20
564.74029775981364
 30
0.0
 40
10.0
 50
239.99999999999949
 51
268.5000000000004
  0
ARC
  5
2C90
  8
AM_0
 10
305.87423860130838
 20
559.43744775981361
 30
0.0
 40
2.0
 50
91.500001000001546
 51
180.00001000000091
  0
LINE
  5
2C92
  8
AM_0
 10
309.87426860130842
 20
571.54285775981361
 30
0.0
 11
291.74337860130851
 21
571.06808775981347
 31
0.0
  0
LINE
  5
2C96
  8
AM_0
 10
285.87426860130842
 20
558.04288775981365
 30
0.0
 11
295.86859860130818
 21
558.30456775981361
 31
0.0
  0
ARC
  5
2C97
  8
AM_0
 10
291.87423860130838
 20
566.06982775981362
 30
0.0
 40
5.0
 50
91.500001000001546
 51
180.00001000000091
  0
LINE
  5
2C98
  8
AM_0
 10
286.87423860130838
 20
566.06982775981362
 30
0.0
 11
286.87423860130838
 21
558.06906775981361
 31
0.0
  0
LINE
  5
2C99
  8
AM_0
 10
296.82189860130842
 20
558.57513775981374
 30
0.0
 11
302.5029286013085
 21
558.72391775981373
 31
0.0
  0
ARC
  5
2C9A
  8
AM_0
 10
302.46365860130823
 20
560.22339775981345
 30
0.0
 40
1.5
 50
271.49999999999949
 51
347.02334999999908
  0
LINE
  5
2C9B
  8
AM_0
 10
309.87426860130842
 20
561.54288775981365
 30
0.0
 11
318.33547860130852
 21
561.32132775981347
 31
0.0
  0
ARC
  5
2C9C
  8
AM_0
 10
311.87423860130838
 20
566.59354775981365
 30
0.0
 40
1.0
 50
0.0
 51
91.500001000001546
  0
LINE
  5
2C9D
  8
AM_0
 10
312.87423860130838
 20
569.51599775981356
 30
0.0
 11
312.87423860130838
 21
563.51736775981362
 31
0.0
  0
LINE
  5
2C9E
  8
AM_0
 10
305.82189860130842
 20
561.43677775981325
 30
0.0
 11
309.87423860130838
 21
561.54288775981365
 31
0.0
  0
ARC
  5
2C9F
  8
AM_0
 10
310.87423860130838
 20
563.51736775981362
 30
0.0
 40
2.0
 50
268.5000000000004
 51
0.0000006832462478
  0
LINE
  5
2CA0
  8
AM_0
 10
311.84808860130852
 20
567.59317775981356
 30
0.0
 11
309.90045860130851
 21
567.54217775981363
 31
0.0
  0
ARC
  5
2CA1
  8
AM_0
 10
309.87423860130838
 20
568.54184775981355
 30
0.0
 40
1.0
 50
180.00001000000091
 51
271.49999999999949
  0
ARC
  5
2CA2
  8
AM_0
 10
309.87423860130838
 20
570.5425477598136
 30
0.0
 40
1.0
 50
91.500001000001546
 51
180.00001000000091
  0
LINE
  5
2CA3
  8
AM_0
 10
308.87423860130838
 20
570.5425477598136
 30
0.0
 11
308.87423860130838
 21
568.54184775981355
 31
0.0
  0
ARC
  5
2CA4
  8
AM_0
 10
310.87423860130838
 20
569.51599775981356
 30
0.0
 40
2.0
 50
0.0
 51
88.499997000000747
  0
ARC
  5
2CA5
  8
AM_0
 10
318.07369860130848
 20
551.32474775981348
 30
0.0
 40
10.0
 50
60.000002000001302
 51
88.499997000000747
  0
LINE
  5
2CA6
  8
AM_0
 10
344.87423860130838
 20
567.54678775981347
 30
0.0
 11
344.87423860130838
 21
558.41363775981347
 31
0.0
  0
ARC
  5
2CA7
  8
AM_0
 10
347.87423860130849
 20
567.54678775981347
 30
0.0
 40
3.0
 50
88.499997000000747
 51
180.00001000000091
  0
CIRCLE
  5
2CA8
  8
AM_0
 10
359.87423860130838
 20
559.04288775981365
 30
0.0
 40
5.0
  0
LINE
  5
2CA9
  8
AM_0
 10
369.87423860130838
 20
565.10092775981354
 30
0.0
 11
369.87423860130838
 21
547.98480775981352
 31
0.0
  0
LINE
  5
2CAA
  8
ﾁｭｳｼﾝｾﾝ1
 10
359.87423860130838
 20
570.04288775981365
 30
0.0
 11
359.87423860130838
 21
548.04288775981365
 31
0.0
  0
LINE
  5
2CAB
  8
AM_0
 10
377.87423860130838
 20
504.54285775981361
 30
0.0
 11
399.87423860130838
 21
504.54285775981361
 31
0.0
  0
LINE
  5
2CAC
  8
AM_0
 10
377.87423860130838
 20
498.54285775981361
 30
0.0
 11
399.87423860130838
 21
498.54285775981361
 31
0.0
  0
LINE
  5
2CAD
  8
AM_0
 10
371.87423860130838
 20
511.0428877598136
 30
0.0
 11
399.87423860130838
 21
511.0428877598136
 31
0.0
  0
LINE
  5
2CAE
  8
AM_0
 10
371.87423860130838
 20
492.04288775981348
 30
0.0
 11
399.87423860130838
 21
492.04288775981348
 31
0.0
  0
ARC
  5
2CAF
  8
AM_0
 10
368.87423860130849
 20
522.56940775981354
 30
0.0
 40
1.0
 50
179.999989999999
 51
268.50000999999878
  0
ARC
  5
2CB0
  8
AM_0
 10
377.87423860130838
 20
501.54285775981361
 30
0.0
 40
3.0
 50
89.986013999999244
 51
270.01398999999998
  0
LINE
  5
2CB1
  8
AM_0
 10
371.87423860130838
 20
491.54288775981348
 30
0.0
 11
371.87423860130838
 21
511.5428877598136
 31
0.0
  0
LINE
  5
2CB2
  8
AM_0
 10
369.87423860130838
 20
491.54288775981348
 30
0.0
 11
371.87423860130838
 21
491.54288775981348
 31
0.0
  0
LINE
  5
2CB3
  8
AM_0
 10
369.87423860130838
 20
511.5428877598136
 30
0.0
 11
371.87423860130838
 21
511.5428877598136
 31
0.0
  0
ARC
  5
2CB4
  8
AM_0
 10
368.87423860130849
 20
520.56872775981356
 30
0.0
 40
1.0
 50
0.0
 51
88.499997000000747
  0
LINE
  5
2CB5
  8
AM_0
 10
368.84808860130852
 20
521.56973775981362
 30
0.0
 11
368.90042860130842
 21
521.56836775981367
 31
0.0
  0
LINE
  5
2CB6
  8
AM_0
 10
377.87423860130838
 20
498.54285775981361
 30
0.0
 11
377.87423860130838
 21
504.54285775981361
 31
0.0
  0
LINE
  5
2CB7
  8
AM_0
 10
359.74337860130839
 20
543.91537775981362
 30
0.0
 11
364.9527886013085
 21
543.77896775981367
 31
0.0
  0
ARC
  5
2CB8
  8
AM_0
 10
359.87423860130838
 20
548.91363775981358
 30
0.0
 40
5.0
 50
180.00001000000091
 51
268.5000000000004
  0
ARC
  5
2CB9
  8
AM_0
 10
351.87423860130838
 20
550.35852775981346
 30
0.0
 40
3.0
 50
0.0
 51
88.499997000000747
  0
ARC
  5
2CBA
  8
AM_0
 10
364.87423860130838
 20
547.98480775981352
 30
0.0
 40
5.0
 50
289.51466999999963
 51
0.0
  0
ARC
  5
2CBB
  8
AM_0
 10
364.87423860130838
 20
540.77997775981351
 30
0.0
 40
3.0
 50
0.0
 51
88.499997000000747
  0
LINE
  5
2CBC
  8
AM_0
 10
399.87423860130838
 20
492.04288775981348
 30
0.0
 11
399.87423860130838
 21
511.0428877598136
 31
0.0
  0
LINE
  5
2CBD
  8
ﾁｭｳｼﾝｾﾝ1
 10
348.87423860130838
 20
559.04288775981365
 30
0.0
 11
370.87423860130849
 21
559.04288775981365
 31
0.0
  0
ARC
  5
2CBE
  8
AM_0
 10
364.87423860130838
 20
565.10092775981354
 30
0.0
 40
5.0
 50
0.0
 51
88.499997000000747
  0
LINE
  5
2D3E
  8
ﾁｭｳｼﾝｾﾝ1
 10
359.87423860130838
 20
455.04285775981361
 30
0.0
 11
359.87423860130838
 21
433.0428577598135
 31
0.0
  0
LINE
  5
2D3F
  8
ﾁｭｳｼﾝｾﾝ1
 10
348.87423860130838
 20
444.04285775981361
 30
0.0
 11
370.87423860130849
 21
444.04285775981361
 31
0.0
  0
LINE
  5
2D46
  8
ﾁｭｳｼﾝｾﾝ1
 10
296.87423860130838
 20
455.04285775981361
 30
0.0
 11
296.87423860130838
 21
433.0428577598135
 31
0.0
  0
LINE
  5
2D47
  8
ﾁｭｳｼﾝｾﾝ1
 10
285.87423860130838
 20
444.04285775981361
 30
0.0
 11
307.87423860130838
 21
444.04285775981361
 31
0.0
  0
LINE
  5
2D4E
  8
ﾁｭｳｼﾝｾﾝ1
 10
296.87423860130838
 20
570.04288775981365
 30
0.0
 11
296.87423860130838
 21
548.04288775981365
 31
0.0
  0
LINE
  5
2D4F
  8
ﾁｭｳｼﾝｾﾝ1
 10
285.87423860130838
 20
559.04288775981365
 30
0.0
 11
307.87423860130838
 21
559.04288775981365
 31
0.0
  0
LINE
  5
365F
  8
AM_0
 10
369.87423860130838
 20
324.3998658169279
 30
0.0
 11
369.87423860130838
 21
286.34817181692802
 31
0.0
  0
LINE
  5
3660
  8
AM_0
 10
367.87419860130859
 20
333.37403581692797
 30
0.0
 11
367.87419860130859
 21
233.564416816928
 31
0.0
  0
LINE
  5
3661
  8
AM_0
 10
303.87423860130838
 20
328.24763581692793
 30
0.0
 11
303.87423860130838
 21
288.37402081692801
 31
0.0
  0
LINE
  5
3662
  8
AM_0
 10
357.87423860130838
 20
342.24632581692788
 30
0.0
 11
357.87423860130838
 21
257.1414438169279
 31
0.0
  0
LINE
  5
3663
  8
AM_0
 10
285.87423860130838
 20
351.3740403169279
 30
0.0
 11
285.87423860130838
 21
225.3740403169279
 31
0.0
  0
LINE
  5
3664
  8
AM_0
 10
309.87423860130838
 20
348.37403581692797
 30
0.0
 11
309.87423860130838
 21
238.37403481692789
 31
0.0
  0
LINE
  5
3665
  8
AM_0
 10
334.6599386013084
 20
312.71334781692798
 30
0.0
 11
322.87422860130852
 21
230.37398881692789
 31
0.0
  0
LINE
  5
3666
  8
AM_0
 10
322.87419860130848
 20
317.00488081692788
 30
0.0
 11
322.87419860130848
 21
230.37401881692799
 31
0.0
  0
LINE
  5
3667
  8
AM_0
 10
344.87424860130858
 20
235.37400481692791
 30
0.0
 11
344.87424860130858
 21
313.291441816928
 31
0.0
  0
LINE
  5
3668
  8
AM_0
 10
371.8742186013086
 20
295.3740198169279
 30
0.0
 11
371.8742186013086
 21
305.37402181692789
 31
0.0
  0
LINE
  5
3669
  8
AM_0
 10
399.87423860130838
 20
295.87402081692801
 30
0.0
 11
399.87423860130832
 21
317.37402081692801
 31
0.0
  0
ARC
  5
366B
  8
AM_0
 10
1074.5603624111279
 20
288.37404031692768
 30
0.0
 40
940.68612380981915
 50
176.76392470776159
 51
183.2360752922383
  0
LINE
  5
366C
  8
AM_0
 10
135.37423860130849
 20
341.47590818830741
 30
0.0
 11
135.37423860130829
 21
235.27217244554839
 31
0.0
  0
LINE
  5
366D
  8
AM_0
 10
139.87423860130849
 20
351.97404031692798
 30
0.0
 11
139.87423860130849
 21
224.77404031692791
 31
0.0
  0
LINE
  5
366E
  8
AM_0
 10
142.37423860130841
 20
353.97404031692793
 30
0.0
 11
142.37423860130841
 21
222.77404031692791
 31
0.0
  0
LINE
  5
366F
  8
AM_0
 10
278.87423860130838
 20
354.37404031692768
 30
0.0
 11
278.87423860130838
 21
222.3740403169279
 31
0.0
  0
LINE
  5
3670
  8
AM_0
 10
267.37423860130838
 20
354.37404031692768
 30
0.0
 11
267.37423860130838
 21
222.3740403169279
 31
0.0
  0
LINE
  5
3671
  8
AM_0
 10
124.37423860130851
 20
305.3740403169279
 30
0.0
 11
124.37423860130841
 21
271.3740403169279
 31
0.0
  0
LINE
  5
3672
  8
AM_0
 10
145.37423860130829
 20
313.37404031692768
 30
0.0
 11
145.37423860130829
 21
269.3740403169279
 31
0.0
  0
LINE
  5
3673
  8
AM_0
 10
203.37423860130849
 20
313.37404031692768
 30
0.0
 11
203.37423860130841
 21
269.3740403169279
 31
0.0
  0
LINE
  5
3675
  8
ﾁｭｳｼﾝｾﾝ1
 10
119.1129157531248
 20
288.37402081692778
 30
0.0
 11
307.83780860130838
 21
288.37402081692801
 31
0.0
  0
LINE
  5
3676
  8
AM_0
 10
141.87423860130841
 20
222.77404031692791
 30
0.0
 11
267.37423860130838
 21
222.77404031692791
 31
0.0
  0
LINE
  5
3677
  8
AM_0
 10
146.37423860130841
 20
268.3740403169279
 30
0.0
 11
202.37423860130841
 21
268.3740403169279
 31
0.0
  0
LINE
  5
3678
  8
AM_0
 10
139.20296627896829
 20
230.9707268256748
 30
0.0
 11
136.04551092364861
 21
233.777353808181
 31
0.0
  0
ARC
  5
3679
  8
AM_0
 10
141.87423860130841
 20
224.77404031692791
 30
0.0
 40
2.0
 50
180.0
 51
270.0
1001
GENIUS_GENOBJ-N-FIL_13
1002
{
1000
OWNER
1000
GEN
1002
}
1001
GENIUS_GENODEF_13
1002
{
1000
HIER
1070
     0
1002
}
1002
{
1000
MANEDIT
1070
     0
1002
}
1002
{
1000
NOSEL
1070
     0
1002
}
1002
{
1000
BEHIND
1070
     0
1002
}
1002
{
1000
OTHER
1070
     0
1002
}
1002
{
1000
REACTOR
1002
}
  0
ARC
  5
367A
  8
AM_0
 10
137.87423860130849
 20
229.47590818830739
 30
0.0
 40
2.0
 50
0.0
 51
48.366460663430352
1001
GENIUS_GENOBJ-N-FIL_13
1002
{
1000
OWNER
1000
GEN
1002
}
1001
GENIUS_GENODEF_13
1002
{
1000
HIER
1070
     0
1002
}
1002
{
1000
MANEDIT
1070
     0
1002
}
1002
{
1000
NOSEL
1070
     0
1002
}
1002
{
1000
BEHIND
1070
     0
1002
}
1002
{
1000
OTHER
1070
     0
1002
}
1002
{
1000
REACTOR
1002
}
  0
ARC
  5
367B
  8
AM_0
 10
137.37423860130829
 20
235.27217244554839
 30
0.0
 40
2.0
 50
180.0
 51
228.3664606634303
1001
GENIUS_GENODEF_13
1002
{
1000
HIER
1070
     0
1002
}
1002
{
1000
MANEDIT
1070
     0
1002
}
1002
{
1000
NOSEL
1070
     0
1002
}
1002
{
1000
BEHIND
1070
     0
1002
}
1002
{
1000
OTHER
1070
     0
1002
}
1002
{
1000
REACTOR
1002
}
1001
GENIUS_GENOBJ-N-FIL_13
1002
{
1000
OWNER
1000
GEN
1002
}
  0
LINE
  5
367C
  8
AM_0
 10
127.37423860130841
 20
268.3740403169279
 30
0.0
 11
134.08687340235059
 21
268.3740403169279
 31
0.0
  0
ARC
  5
367D
  8
AM_0
 10
127.37423860130841
 20
271.3740403169279
 30
0.0
 40
3.0
 50
180.0
 51
270.0
1001
GENIUS_GENODEF_13
1002
{
1000
HIER
1070
     0
1002
}
1002
{
1000
MANEDIT
1070
     0
1002
}
1002
{
1000
NOSEL
1070
     0
1002
}
1002
{
1000
BEHIND
1070
     0
1002
}
1002
{
1000
OTHER
1070
     0
1002
}
1002
{
1000
REACTOR
1002
}
1001
GENIUS_GENOBJ-N-FIL_13
1002
{
1000
OWNER
1000
GEN
1002
}
  0
ARC
  5
367E
  8
AM_0
 10
146.37423860130841
 20
269.3740403169279
 30
0.0
 40
1.0
 50
180.0
 51
270.0
1001
GENIUS_GENOBJ-N-FIL_13
1002
{
1000
OWNER
1000
GEN
1002
}
1001
GENIUS_GENODEF_13
1002
{
1000
HIER
1070
     0
1002
}
1002
{
1000
MANEDIT
1070
     0
1002
}
1002
{
1000
NOSEL
1070
     0
1002
}
1002
{
1000
BEHIND
1070
     0
1002
}
1002
{
1000
OTHER
1070
     0
1002
}
1002
{
1000
REACTOR
1002
}
  0
LINE
  5
367F
  8
AM_0
 10
285.87423860130838
 20
232.37400481692799
 30
0.0
 11
302.41353860130818
 21
231.94091281692789
 31
0.0
  0
LINE
  5
3680
  8
AM_0
 10
306.20649860130823
 20
230.37401881692799
 30
0.0
 11
288.37422860130852
 21
230.37401881692799
 31
0.0
  0
LINE
  5
3681
  8
AM_0
 10
286.87422860130852
 20
220.37400481692791
 30
0.0
 11
306.87423860130838
 21
220.37400481692791
 31
0.0
  0
LINE
  5
3682
  8
AM_0
 10
285.87423860130838
 20
256.43658181692791
 30
0.0
 11
303.87423860130838
 21
256.43658181692791
 31
0.0
  0
LINE
  5
3683
  8
AM_0
 10
285.87423860130838
 20
242.3740188169279
 30
0.0
 11
303.87423860130838
 21
242.3740188169279
 31
0.0
  0
LINE
  5
3685
  8
ﾁｭｳｼﾝｾﾝ1
 10
193.37423860130841
 20
269.69441152529492
 30
0.0
 11
193.37423860130841
 21
193.10036309022891
 31
0.0
  0
LINE
  5
3686
  8
AM_0
 10
189.37423860130841
 20
213.54893995150101
 30
0.0
 11
189.37423860130841
 21
209.55971370710239
 31
0.0
  0
LINE
  5
3687
  8
AM_0
 10
191.37423860130829
 20
214.1575276190255
 30
0.0
 11
191.37423860130829
 21
209.56046325404981
 31
0.0
  0
LINE
  5
3688
  8
AM_0
 10
192.37423860130829
 20
213.87312927492439
 30
0.0
 11
192.37423860130829
 21
208.1841314167242
 31
0.0
  0
LINE
  5
3689
  8
AM_0
 10
197.36525060130839
 20
213.65093159753121
 30
0.0
 11
197.3652506013083
 21
209.55971370710239
 31
0.0
  0
LINE
  5
368A
  8
AM_0
 10
195.37289519526749
 20
212.6597881295838
 30
0.0
 11
195.3652506013083
 21
209.56046325404981
 31
0.0
  0
LINE
  5
368B
  8
AM_0
 10
194.37423860130841
 20
212.90763723625341
 30
0.0
 11
194.37423860130841
 21
208.18561827364331
 31
0.0
  0
LINE
  5
368D
  8
AM_0
 10
189.22459360130841
 20
203.26154954006279
 30
0.0
 11
188.66422960130851
 21
203.2627024400629
 31
0.0
  0
LINE
  5
368E
  8
AM_0
 10
189.22459360130841
 20
203.26157054006279
 30
0.0
 11
188.1897346013084
 21
199.4565259400627
 31
0.0
  0
LINE
  5
368F
  8
AM_0
 10
188.65816060130831
 20
209.55944534006289
 30
0.0
 11
192.09023381389639
 21
209.5607315900628
 31
0.0
  0
LINE
  5
3690
  8
AM_0
 10
188.6641876013083
 20
203.26272344006281
 30
0.0
 11
188.65816060130831
 21
209.55944534006289
 31
0.0
  0
LINE
  5
3691
  8
AM_0
 10
192.22009960130839
 20
201.88571045421631
 30
0.0
 11
191.18524060130841
 21
198.08066585421619
 31
0.0
  0
LINE
  5
3692
  8
AM_0
 10
194.5315906013083
 20
201.88356215421629
 30
0.0
 11
195.6313606013085
 21
198.12614765421631
 31
0.0
  0
LINE
  5
3693
  8
AM_0
 10
197.51489560130841
 20
203.26157054006279
 30
0.0
 11
198.54975460130839
 21
199.4565259400627
 31
0.0
  0
LINE
  5
3694
  8
AM_0
 10
197.51489560130841
 20
203.26154954006279
 30
0.0
 11
196.35913960130841
 21
203.26048064006289
 31
0.0
  0
LINE
  5
3695
  8
AM_0
 10
198.08132860130851
 20
209.55944534006289
 30
0.0
 11
194.64925538872041
 21
209.5607315900628
 31
0.0
  0
LINE
  5
3696
  8
AM_0
 10
191.6537086013083
 20
208.1835957542163
 30
0.0
 11
195.08578060130839
 21
208.18614725421631
 31
0.0
  0
LINE
  5
3697
  8
AM_0
 10
193.3758556013081
 20
201.88462055421641
 30
0.0
 11
194.53163260130839
 21
201.88355165421621
 31
0.0
  0
LINE
  5
3698
  8
AM_0
 10
191.65969360130831
 20
201.8868633542163
 30
0.0
 11
191.65366660130829
 21
208.18358525421641
 31
0.0
  0
LINE
  5
3699
  8
AM_0
 10
189.22459360130841
 20
203.26154954006279
 30
0.0
 11
190.3803496013083
 21
203.26048064006289
 31
0.0
  0
LINE
  5
369A
  8
AM_0
 10
191.93799708606639
 20
201.8862698555088
 30
0.0
 11
192.08430375345591
 21
201.38640643543371
 31
0.0
  0
LINE
  5
369B
  8
AM_0
 10
190.3803496013083
 20
203.26048064006289
 30
0.0
 11
191.6583799546494
 21
203.25929867620229
 31
0.0
  0
LINE
  5
369C
  8
AM_0
 10
191.53608460130829
 20
203.2594222400628
 30
0.0
 11
191.6587810780299
 21
202.840224116153
 31
0.0
  0
LINE
  5
369D
  8
AM_0
 10
192.22009960130839
 20
201.88568945421639
 30
0.0
 11
193.3758556013081
 21
201.88462055421641
 31
0.0
  0
LINE
  5
369E
  8
AM_0
 10
192.22009960130839
 20
201.88568945421639
 30
0.0
 11
191.6597356013084
 21
201.8868423542163
 31
0.0
  0
LINE
  5
369F
  8
AM_0
 10
192.09023260130849
 20
209.56200734006279
 30
0.0
 11
192.0915424585416
 21
208.1839212523663
 31
0.0
  0
LINE
  5
36A0
  8
AM_0
 10
195.08573860130849
 20
208.18614725421631
 30
0.0
 11
195.09172360130839
 21
201.88939595421641
 31
0.0
  0
LINE
  5
36A1
  8
AM_0
 10
194.80149211655029
 20
201.8862698555088
 30
0.0
 11
194.6551854491608
 21
201.38640643543371
 31
0.0
  0
LINE
  5
36A2
  8
AM_0
 10
196.35913960130841
 20
203.26048064006289
 30
0.0
 11
195.08110924796719
 21
203.25929867620229
 31
0.0
  0
LINE
  5
36A3
  8
AM_0
 10
195.20340460130839
 20
203.2594222400628
 30
0.0
 11
195.08070812458681
 21
202.840224116153
 31
0.0
  0
LINE
  5
36A4
  8
AM_0
 10
195.09176560130811
 20
201.8894274542163
 30
0.0
 11
194.53163260130839
 21
201.8835852542164
 31
0.0
  0
LINE
  5
36A5
  8
AM_0
 10
194.64925660130811
 20
209.56200734006279
 30
0.0
 11
194.6479467440752
 21
208.1839212523663
 31
0.0
  0
LINE
  5
36A6
  8
AM_0
 10
198.07530160130841
 20
203.26272344006281
 30
0.0
 11
198.08132860130851
 21
209.55944534006289
 31
0.0
  0
LINE
  5
36A7
  8
AM_0
 10
197.51489560130841
 20
203.26154954006279
 30
0.0
 11
198.07525960130829
 21
203.2627024400629
 31
0.0
  0
ARC
  5
36A8
  8
AM_0
 10
191.37423860130829
 20
253.3740403169279
 30
0.0
 40
1.0
 50
0.0
 51
90.0
1001
GENIUS_GENOBJ-N-FIL_13
1002
{
1000
OWNER
1000
GEN
1002
}
1001
GENIUS_GENODEF_13
1002
{
1000
HIER
1070
     0
1002
}
1002
{
1000
MANEDIT
1070
     0
1002
}
1002
{
1000
NOSEL
1070
     0
1002
}
1002
{
1000
BEHIND
1070
     0
1002
}
1002
{
1000
OTHER
1070
     0
1002
}
1002
{
1000
REACTOR
1002
}
  0
ARC
  5
36A9
  8
AM_0
 10
168.37423860130841
 20
253.3740403169279
 30
0.0
 40
1.0
 50
90.0
 51
180.0
1001
GENIUS_GENODEF_13
1002
{
1000
HIER
1070
     0
1002
}
1002
{
1000
MANEDIT
1070
     0
1002
}
1002
{
1000
NOSEL
1070
     0
1002
}
1002
{
1000
BEHIND
1070
     0
1002
}
1002
{
1000
OTHER
1070
     0
1002
}
1002
{
1000
REACTOR
1002
}
1001
GENIUS_GENOBJ-N-FIL_13
1002
{
1000
OWNER
1000
GEN
1002
}
  0
LINE
  5
36AA
  8
AM_0
 10
168.37423860130841
 20
228.67404031692789
 30
0.0
 11
191.37423860130829
 21
228.67404031692789
 31
0.0
  0
LINE
  5
36AB
  8
AM_0
 10
168.37423860130841
 20
226.07404031692789
 30
0.0
 11
191.37423860130829
 21
226.07404031692789
 31
0.0
  0
LINE
  5
36AC
  8
AM_0
 10
168.37423860130841
 20
232.1740403169278
 30
0.0
 11
191.37423860130829
 21
232.1740403169278
 31
0.0
  0
LINE
  5
36AD
  8
AM_0
 10
168.37423860130841
 20
236.4740403169279
 30
0.0
 11
191.37423860130829
 21
236.4740403169279
 31
0.0
  0
LINE
  5
36AE
  8
AM_0
 10
168.37423860130841
 20
245.1740403169278
 30
0.0
 11
191.37423860130829
 21
245.174040316928
 31
0.0
  0
LINE
  5
36AF
  8
AM_0
 10
168.37423860130841
 20
239.9740403169279
 30
0.0
 11
191.37423860130829
 21
239.9740403169279
 31
0.0
  0
LINE
  5
36B0
  8
AM_0
 10
168.37423860130841
 20
248.8740403169279
 30
0.0
 11
191.37423860130829
 21
248.8740403169279
 31
0.0
  0
ARC
  5
36B1
  8
AM_0
 10
168.37423860130841
 20
233.17404031692789
 30
0.0
 40
1.0
 50
180.0
 51
270.0
1001
GENIUS_GENOBJ-N-FIL_13
1002
{
1000
OWNER
1000
GEN
1002
}
1001
GENIUS_GENODEF_13
1002
{
1000
HIER
1070
     0
1002
}
1002
{
1000
MANEDIT
1070
     0
1002
}
1002
{
1000
NOSEL
1070
     0
1002
}
1002
{
1000
BEHIND
1070
     0
1002
}
1002
{
1000
OTHER
1070
     0
1002
}
1002
{
1000
REACTOR
1002
}
  0
ARC
  5
36B2
  8
AM_0
 10
168.37423860130841
 20
227.07404031692801
 30
0.0
 40
1.0
 50
180.0
 51
270.0
1001
GENIUS_GENODEF_13
1002
{
1000
HIER
1070
     0
1002
}
1002
{
1000
MANEDIT
1070
     0
1002
}
1002
{
1000
NOSEL
1070
     0
1002
}
1002
{
1000
BEHIND
1070
     0
1002
}
1002
{
1000
OTHER
1070
     0
1002
}
1002
{
1000
REACTOR
1002
}
1001
GENIUS_GENOBJ-N-FIL_13
1002
{
1000
OWNER
1000
GEN
1002
}
  0
ARC
  5
36B3
  8
AM_0
 10
168.37423860130841
 20
227.67404031692789
 30
0.0
 40
1.0
 50
90.0
 51
180.0
1001
GENIUS_GENOBJ-N-FIL_13
1002
{
1000
OWNER
1000
GEN
1002
}
1001
GENIUS_GENODEF_13
1002
{
1000
HIER
1070
     0
1002
}
1002
{
1000
MANEDIT
1070
     0
1002
}
1002
{
1000
NOSEL
1070
     0
1002
}
1002
{
1000
BEHIND
1070
     0
1002
}
1002
{
1000
OTHER
1070
     0
1002
}
1002
{
1000
REACTOR
1002
}
  0
LINE
  5
36B4
  8
AM_0
 10
167.37423860130841
 20
227.67404031692789
 30
0.0
 11
167.37423860130841
 21
227.07404031692801
 31
0.0
  0
LINE
  5
36B5
  8
AM_0
 10
167.37423860130841
 20
244.17404031692789
 30
0.0
 11
167.37423860130841
 21
240.9740403169279
 31
0.0
  0
ARC
  5
36B6
  8
AM_0
 10
168.37423860130841
 20
235.4740403169279
 30
0.0
 40
1.0
 50
90.0
 51
180.0
1001
GENIUS_GENODEF_13
1002
{
1000
HIER
1070
     0
1002
}
1002
{
1000
MANEDIT
1070
     0
1002
}
1002
{
1000
NOSEL
1070
     0
1002
}
1002
{
1000
BEHIND
1070
     0
1002
}
1002
{
1000
OTHER
1070
     0
1002
}
1002
{
1000
REACTOR
1002
}
1001
GENIUS_GENOBJ-N-FIL_13
1002
{
1000
OWNER
1000
GEN
1002
}
  0
LINE
  5
36B7
  8
AM_0
 10
167.37423860130841
 20
235.4740403169279
 30
0.0
 11
167.37423860130841
 21
233.17404031692789
 31
0.0
  0
ARC
  5
36B8
  8
AM_0
 10
168.37423860130841
 20
240.9740403169279
 30
0.0
 40
1.0
 50
180.0
 51
270.0
1001
GENIUS_GENOBJ-N-FIL_13
1002
{
1000
OWNER
1000
GEN
1002
}
1001
GENIUS_GENODEF_13
1002
{
1000
HIER
1070
     0
1002
}
1002
{
1000
MANEDIT
1070
     0
1002
}
1002
{
1000
NOSEL
1070
     0
1002
}
1002
{
1000
BEHIND
1070
     0
1002
}
1002
{
1000
OTHER
1070
     0
1002
}
1002
{
1000
REACTOR
1002
}
  0
ARC
  5
36B9
  8
AM_0
 10
168.37423860130841
 20
244.17404031692789
 30
0.0
 40
1.0
 50
90.0
 51
180.0
1001
GENIUS_GENODEF_13
1002
{
1000
HIER
1070
     0
1002
}
1002
{
1000
MANEDIT
1070
     0
1002
}
1002
{
1000
NOSEL
1070
     0
1002
}
1002
{
1000
BEHIND
1070
     0
1002
}
1002
{
1000
OTHER
1070
     0
1002
}
1002
{
1000
REACTOR
1002
}
1001
GENIUS_GENOBJ-N-FIL_13
1002
{
1000
OWNER
1000
GEN
1002
}
  0
ARC
  5
36BA
  8
AM_0
 10
168.37423860130841
 20
249.8740403169279
 30
0.0
 40
1.0
 50
180.0
 51
270.0
1001
GENIUS_GENODEF_13
1002
{
1000
HIER
1070
     0
1002
}
1002
{
1000
MANEDIT
1070
     0
1002
}
1002
{
1000
NOSEL
1070
     0
1002
}
1002
{
1000
BEHIND
1070
     0
1002
}
1002
{
1000
OTHER
1070
     0
1002
}
1002
{
1000
REACTOR
1002
}
1001
GENIUS_GENOBJ-N-FIL_13
1002
{
1000
OWNER
1000
GEN
1002
}
  0
LINE
  5
36BB
  8
AM_0
 10
167.37423860130841
 20
253.3740403169279
 30
0.0
 11
167.37423860130841
 21
249.8740403169279
 31
0.0
  0
ARC
  5
36BC
  8
AM_0
 10
191.37423860130829
 20
233.17404031692789
 30
0.0
 40
1.0
 50
270.0
 51
0.0
1001
GENIUS_GENODEF_13
1002
{
1000
HIER
1070
     0
1002
}
1002
{
1000
MANEDIT
1070
     0
1002
}
1002
{
1000
NOSEL
1070
     0
1002
}
1002
{
1000
BEHIND
1070
     0
1002
}
1002
{
1000
OTHER
1070
     0
1002
}
1002
{
1000
REACTOR
1002
}
1001
GENIUS_GENOBJ-N-FIL_13
1002
{
1000
OWNER
1000
GEN
1002
}
  0
POLYLINE
  5
36BD
  8
AM_4
 66
     1
 10
0.0
 20
0.0
 30
0.0
 70
     4
  0
VERTEX
  5
36BE
  8
AM_4
 10
189.37423860130841
 20
213.54893995150101
 30
0.0
 70
    16
  0
VERTEX
  5
36BF
  8
AM_4
 10
189.37423860130841
 20
213.54893995150101
 30
0.0
 70
     8
  0
VERTEX
  5
36C0
  8
AM_4
 10
190.46525382572079
 20
214.13072992758839
 30
0.0
 70
     8
  0
VERTEX
  5
36C1
  8
AM_4
 10
191.4987907992946
 20
214.1611995302159
 30
0.0
 70
     8
  0
VERTEX
  5
36C2
  8
AM_4
 10
192.49058647253281
 20
213.83484445555629
 30
0.0
 70
     8
  0
VERTEX
  5
36C3
  8
AM_4
 10
193.45637779593869
 20
213.3461603997826
 30
0.0
 70
     8
  0
VERTEX
  5
36C4
  8
AM_4
 10
194.41190172001581
 20
212.88964305906759
 30
0.0
 70
     8
  0
VERTEX
  5
36C5
  8
AM_4
 10
195.37289519526749
 20
212.6597881295838
 30
0.0
 70
     8
  0
VERTEX
  5
36C6
  8
AM_4
 10
196.3550951721972
 20
212.8510913075045
 30
0.0
 70
     8
  0
VERTEX
  5
36C7
  8
AM_4
 10
197.37423860130841
 20
213.65804828900221
 30
0.0
 70
     8
  0
VERTEX
  5
36C8
  8
AM_4
 10
192.37423860130829
 20
216.00835878227861
 30
0.0
 70
    16
  0
VERTEX
  5
36C9
  8
AM_4
 10
194.5932764536559
 20
210.51240620364069
 30
0.0
 70
    16
  0
VERTEX
  5
36CA
  8
AM_4
 10
197.37423860130841
 20
213.65804828900221
 30
0.0
 70
    16
  0
SEQEND
  5
36CB
  8
AM_4
  0
ARC
  5
36CC
  8
AM_0
 10
191.37423860130829
 20
227.07404031692801
 30
0.0
 40
1.0
 50
270.0
 51
0.0
1001
GENIUS_GENOBJ-N-FIL_13
1002
{
1000
OWNER
1000
GEN
1002
}
1001
GENIUS_GENODEF_13
1002
{
1000
HIER
1070
     0
1002
}
1002
{
1000
MANEDIT
1070
     0
1002
}
1002
{
1000
NOSEL
1070
     0
1002
}
1002
{
1000
BEHIND
1070
     0
1002
}
1002
{
1000
OTHER
1070
     0
1002
}
1002
{
1000
REACTOR
1002
}
  0
LINE
  5
36CD
  8
AM_0
 10
192.37423860130829
 20
227.67404031692789
 30
0.0
 11
192.37423860130829
 21
227.07404031692801
 31
0.0
  0
ARC
  5
36CE
  8
AM_0
 10
191.37423860130829
 20
227.67404031692789
 30
0.0
 40
1.0
 50
0.0
 51
90.0
1001
GENIUS_GENODEF_13
1002
{
1000
HIER
1070
     0
1002
}
1002
{
1000
MANEDIT
1070
     0
1002
}
1002
{
1000
NOSEL
1070
     0
1002
}
1002
{
1000
BEHIND
1070
     0
1002
}
1002
{
1000
OTHER
1070
     0
1002
}
1002
{
1000
REACTOR
1002
}
1001
GENIUS_GENOBJ-N-FIL_13
1002
{
1000
OWNER
1000
GEN
1002
}
  0
LINE
  5
36CF
  8
AM_0
 10
192.37423860130829
 20
244.174040316928
 30
0.0
 11
192.37423860130829
 21
240.9740403169279
 31
0.0
  0
ARC
  5
36D0
  8
AM_0
 10
191.37423860130829
 20
235.4740403169279
 30
0.0
 40
1.0
 50
0.0
 51
90.0
1001
GENIUS_GENODEF_13
1002
{
1000
HIER
1070
     0
1002
}
1002
{
1000
MANEDIT
1070
     0
1002
}
1002
{
1000
NOSEL
1070
     0
1002
}
1002
{
1000
BEHIND
1070
     0
1002
}
1002
{
1000
OTHER
1070
     0
1002
}
1002
{
1000
REACTOR
1002
}
1001
GENIUS_GENOBJ-N-FIL_13
1002
{
1000
OWNER
1000
GEN
1002
}
  0
LINE
  5
36D1
  8
AM_0
 10
192.37423860130829
 20
235.4740403169279
 30
0.0
 11
192.37423860130829
 21
233.17404031692789
 31
0.0
  0
ARC
  5
36D2
  8
AM_0
 10
191.37423860130829
 20
240.9740403169279
 30
0.0
 40
1.0
 50
270.0
 51
0.0
1001
GENIUS_GENODEF_13
1002
{
1000
HIER
1070
     0
1002
}
1002
{
1000
MANEDIT
1070
     0
1002
}
1002
{
1000
NOSEL
1070
     0
1002
}
1002
{
1000
BEHIND
1070
     0
1002
}
1002
{
1000
OTHER
1070
     0
1002
}
1002
{
1000
REACTOR
1002
}
1001
GENIUS_GENOBJ-N-FIL_13
1002
{
1000
OWNER
1000
GEN
1002
}
  0
ARC
  5
36D3
  8
AM_0
 10
191.37423860130829
 20
244.174040316928
 30
0.0
 40
1.0
 50
0.0
 51
90.0
1001
GENIUS_GENODEF_13
1002
{
1000
HIER
1070
     0
1002
}
1002
{
1000
MANEDIT
1070
     0
1002
}
1002
{
1000
NOSEL
1070
     0
1002
}
1002
{
1000
BEHIND
1070
     0
1002
}
1002
{
1000
OTHER
1070
     0
1002
}
1002
{
1000
REACTOR
1002
}
1001
GENIUS_GENOBJ-N-FIL_13
1002
{
1000
OWNER
1000
GEN
1002
}
  0
ARC
  5
36D4
  8
AM_0
 10
191.37423860130829
 20
249.8740403169279
 30
0.0
 40
1.0
 50
270.0
 51
0.0
1001
GENIUS_GENODEF_13
1002
{
1000
HIER
1070
     0
1002
}
1002
{
1000
MANEDIT
1070
     0
1002
}
1002
{
1000
NOSEL
1070
     0
1002
}
1002
{
1000
BEHIND
1070
     0
1002
}
1002
{
1000
OTHER
1070
     0
1002
}
1002
{
1000
REACTOR
1002
}
1001
GENIUS_GENOBJ-N-FIL_13
1002
{
1000
OWNER
1000
GEN
1002
}
  0
LINE
  5
36D5
  8
AM_0
 10
192.37423860130829
 20
253.3740403169279
 30
0.0
 11
192.37423860130829
 21
249.8740403169279
 31
0.0
  0
LINE
  5
36D6
  8
AM_0
 10
168.37423860130841
 20
254.3740403169279
 30
0.0
 11
191.37423860130829
 21
254.3740403169279
 31
0.0
  0
LINE
  5
36D7
  8
AM_0
 10
161.87423860130841
 20
260.3740403169279
 30
0.0
 11
173.87423860130829
 21
260.3740403169279
 31
0.0
  0
LINE
  5
36D8
  8
AM_0
 10
159.87423860130841
 20
262.3740403169279
 30
0.0
 11
159.87423860130841
 21
268.3740403169279
 31
0.0
  0
LINE
  5
36D9
  8
AM_0
 10
163.87423860130841
 20
260.3740403169279
 30
0.0
 11
163.87423860130841
 21
268.3740403169279
 31
0.0
  0
LINE
  5
36DA
  8
AM_0
 10
171.87423860130849
 20
260.3740403169279
 30
0.0
 11
171.87423860130829
 21
268.3740403169279
 31
0.0
  0
LINE
  5
36DB
  8
AM_0N
 10
168.1267386013084
 20
264.62654031692801
 30
0.0
 11
168.1267386013084
 21
265.85263551169902
 31
0.0
  0
LINE
  5
36DC
  8
AM_0N
 10
167.62173860130841
 20
264.62654031692801
 30
0.0
 11
167.62173860130841
 21
265.85263551169902
 31
0.0
  0
CIRCLE
  5
36DD
  8
AM_0N
 10
167.87423860130841
 20
264.3740403169279
 30
0.0
 40
2.799999999999998
  0
ARC
  5
36DE
  8
AM_0
 10
161.87423860130841
 20
262.3740403169279
 30
0.0
 40
2.0
 50
180.0
 51
270.0
1001
GENIUS_GENOBJ-N-FIL_13
1002
{
1000
OWNER
1000
GEN
1002
}
1001
GENIUS_GENODEF_13
1002
{
1000
HIER
1070
     0
1002
}
1002
{
1000
MANEDIT
1070
     0
1002
}
1002
{
1000
NOSEL
1070
     0
1002
}
1002
{
1000
BEHIND
1070
     0
1002
}
1002
{
1000
OTHER
1070
     0
1002
}
1002
{
1000
REACTOR
1002
}
  0
LINE
  5
36DF
  8
AM_0N
 10
169.35283379607941
 20
264.62654031692801
 30
0.0
 11
168.1267386013084
 21
264.62654031692801
 31
0.0
  0
LINE
  5
36E0
  8
AM_0N
 10
169.35283379607941
 20
264.12154031692791
 30
0.0
 11
168.1267386013084
 21
264.12154031692791
 31
0.0
  0
LINE
  5
36E1
  8
AM_0N
 10
167.62173860130841
 20
262.89544512215679
 30
0.0
 11
168.1267386013084
 21
262.89544512215679
 31
0.0
  0
LINE
  5
36E2
  8
AM_0N
 10
167.62173860130841
 20
264.62654031692801
 30
0.0
 11
166.3956434065374
 21
264.62654031692801
 31
0.0
  0
LINE
  5
36E3
  8
AM_0N
 10
167.62173860130841
 20
264.12154031692791
 30
0.0
 11
166.3956434065374
 21
264.12154031692791
 31
0.0
  0
LINE
  5
36E4
  8
AM_0N
 10
166.3956434065374
 20
264.62654031692801
 30
0.0
 11
166.3956434065374
 21
264.12154031692791
 31
0.0
  0
LINE
  5
36E5
  8
AM_0N
 10
167.62173860130841
 20
262.89544512215679
 30
0.0
 11
167.62173860130841
 21
264.12154031692791
 31
0.0
  0
LINE
  5
36E6
  8
AM_0N
 10
168.1267386013084
 20
262.89544512215679
 30
0.0
 11
168.1267386013084
 21
264.12154031692791
 31
0.0
  0
LINE
  5
36E7
  8
AM_0N
 10
169.35283379607941
 20
264.62654031692801
 30
0.0
 11
169.35283379607941
 21
264.12154031692791
 31
0.0
  0
LINE
  5
36E8
  8
AM_0N
 10
167.62173860130841
 20
265.85263551169902
 30
0.0
 11
168.1267386013084
 21
265.85263551169902
 31
0.0
  0
LINE
  5
36E9
  8
AM_0
 10
175.87423860130829
 20
262.3740403169279
 30
0.0
 11
175.87423860130829
 21
268.3740403169279
 31
0.0
  0
ARC
  5
36EA
  8
AM_0
 10
173.87423860130829
 20
262.3740403169279
 30
0.0
 40
2.0
 50
270.0
 51
0.0
1001
GENIUS_GENOBJ-N-FIL_13
1002
{
1000
OWNER
1000
GEN
1002
}
1001
GENIUS_GENODEF_13
1002
{
1000
HIER
1070
     0
1002
}
1002
{
1000
MANEDIT
1070
     0
1002
}
1002
{
1000
NOSEL
1070
     0
1002
}
1002
{
1000
BEHIND
1070
     0
1002
}
1002
{
1000
OTHER
1070
     0
1002
}
1002
{
1000
REACTOR
1002
}
  0
LINE
  5
36EB
  8
AM_0
 10
191.37423860130829
 20
268.3740403169279
 30
0.0
 11
191.37423860130829
 21
259.97708540153093
 31
0.0
  0
LINE
  5
36EC
  8
AM_0
 10
189.37423860130849
 20
268.3740403169279
 30
0.0
 11
189.37423860130841
 21
259.36849773400638
 31
0.0
  0
LINE
  5
36ED
  8
AM_0
 10
192.37423860130849
 20
268.3740403169279
 30
0.0
 11
192.37423860130849
 21
259.69268705742991
 31
0.0
  0
LINE
  5
36EE
  8
AM_0
 10
197.37423860130841
 20
268.3740403169279
 30
0.0
 11
197.37423860130841
 21
259.47760607150758
 31
0.0
  0
LINE
  5
36EF
  8
AM_0
 10
195.37423860130849
 20
268.3740403169279
 30
0.0
 11
195.37423860130849
 21
258.47960756740491
 31
0.0
  0
LINE
  5
36F0
  8
AM_0
 10
194.37423860130841
 20
268.3740403169279
 30
0.0
 11
194.37423860130841
 21
258.72719501875918
 31
0.0
  0
POLYLINE
  5
36F1
  8
AM_4
 66
     1
 10
0.0
 20
0.0
 30
0.0
 70
     4
  0
VERTEX
  5
36F2
  8
AM_4
 10
189.37423860130841
 20
259.36849773400638
 30
0.0
 70
    16
  0
VERTEX
  5
36F3
  8
AM_4
 10
189.37423860130841
 20
259.36849773400638
 30
0.0
 70
     8
  0
VERTEX
  5
36F4
  8
AM_4
 10
190.46525382572111
 20
259.95028771009379
 30
0.0
 70
     8
  0
VERTEX
  5
36F5
  8
AM_4
 10
191.4987907992948
 20
259.98075731272138
 30
0.0
 70
     8
  0
VERTEX
  5
36F6
  8
AM_4
 10
192.4905864725329
 20
259.65440223806178
 30
0.0
 70
     8
  0
VERTEX
  5
36F7
  8
AM_4
 10
193.45637779593869
 20
259.16571818228817
 30
0.0
 70
     8
  0
VERTEX
  5
36F8
  8
AM_4
 10
194.41190172001581
 20
258.70920084157302
 30
0.0
 70
     8
  0
VERTEX
  5
36F9
  8
AM_4
 10
195.3728951952676
 20
258.4793459120894
 30
0.0
 70
     8
  0
VERTEX
  5
36FA
  8
AM_4
 10
196.3550951721972
 20
258.67064909000999
 30
0.0
 70
     8
  0
VERTEX
  5
36FB
  8
AM_4
 10
197.3742386013086
 20
259.47760607150769
 30
0.0
 70
     8
  0
VERTEX
  5
36FC
  8
AM_4
 10
192.37423860130829
 20
261.82791656478412
 30
0.0
 70
    16
  0
VERTEX
  5
36FD
  8
AM_4
 10
194.59327645365599
 20
256.33196398614621
 30
0.0
 70
    16
  0
VERTEX
  5
36FE
  8
AM_4
 10
197.37423860130841
 20
259.47760607150769
 30
0.0
 70
    16
  0
SEQEND
  5
36FF
  8
AM_4
  0
ARC
  5
3700
  8
AM_0
 10
202.37423860130841
 20
269.3740403169279
 30
0.0
 40
1.0
 50
270.0
 51
0.0
1001
GENIUS_GENOBJ-N-FIL_13
1002
{
1000
OWNER
1000
GEN
1002
}
1001
GENIUS_GENODEF_13
1002
{
1000
HIER
1070
     0
1002
}
1002
{
1000
MANEDIT
1070
     0
1002
}
1002
{
1000
NOSEL
1070
     0
1002
}
1002
{
1000
BEHIND
1070
     0
1002
}
1002
{
1000
OTHER
1070
     0
1002
}
1002
{
1000
REACTOR
1002
}
  0
ARC
  5
3701
  8
AM_0
 10
256.37423860130838
 20
253.3740403169279
 30
0.0
 40
1.0
 50
0.0
 51
90.0
1001
GENIUS_GENOBJ-N-FIL_13
1002
{
1000
OWNER
1000
GEN
1002
}
1001
GENIUS_GENODEF_13
1002
{
1000
HIER
1070
     0
1002
}
1002
{
1000
MANEDIT
1070
     0
1002
}
1002
{
1000
NOSEL
1070
     0
1002
}
1002
{
1000
BEHIND
1070
     0
1002
}
1002
{
1000
OTHER
1070
     0
1002
}
1002
{
1000
REACTOR
1002
}
  0
ARC
  5
3702
  8
AM_0
 10
233.37423860130841
 20
253.3740403169279
 30
0.0
 40
1.0
 50
90.0
 51
180.0
1001
GENIUS_GENODEF_13
1002
{
1000
HIER
1070
     0
1002
}
1002
{
1000
MANEDIT
1070
     0
1002
}
1002
{
1000
NOSEL
1070
     0
1002
}
1002
{
1000
BEHIND
1070
     0
1002
}
1002
{
1000
OTHER
1070
     0
1002
}
1002
{
1000
REACTOR
1002
}
1001
GENIUS_GENOBJ-N-FIL_13
1002
{
1000
OWNER
1000
GEN
1002
}
  0
LINE
  5
3703
  8
AM_0
 10
233.37423860130841
 20
226.07404031692789
 30
0.0
 11
256.37423860130838
 21
226.07404031692789
 31
0.0
  0
LINE
  5
3704
  8
AM_0
 10
233.37423860130841
 20
228.67404031692789
 30
0.0
 11
256.37423860130838
 21
228.67404031692789
 31
0.0
  0
LINE
  5
3705
  8
AM_0
 10
233.37423860130841
 20
232.1740403169278
 30
0.0
 11
256.37423860130838
 21
232.1740403169278
 31
0.0
  0
LINE
  5
3706
  8
AM_0
 10
233.37423860130841
 20
236.4740403169279
 30
0.0
 11
256.37423860130838
 21
236.4740403169279
 31
0.0
  0
LINE
  5
3707
  8
AM_0
 10
233.37423860130841
 20
239.9740403169279
 30
0.0
 11
256.37423860130838
 21
239.9740403169279
 31
0.0
  0
LINE
  5
3708
  8
AM_0
 10
233.37423860130841
 20
245.1740403169278
 30
0.0
 11
256.37423860130838
 21
245.174040316928
 31
0.0
  0
LINE
  5
3709
  8
AM_0
 10
233.37423860130841
 20
248.8740403169279
 30
0.0
 11
256.37423860130838
 21
248.8740403169279
 31
0.0
  0
ARC
  5
370A
  8
AM_0
 10
233.37423860130841
 20
233.17404031692789
 30
0.0
 40
1.0
 50
180.0
 51
270.0
1001
GENIUS_GENOBJ-N-FIL_13
1002
{
1000
OWNER
1000
GEN
1002
}
1001
GENIUS_GENODEF_13
1002
{
1000
HIER
1070
     0
1002
}
1002
{
1000
MANEDIT
1070
     0
1002
}
1002
{
1000
NOSEL
1070
     0
1002
}
1002
{
1000
BEHIND
1070
     0
1002
}
1002
{
1000
OTHER
1070
     0
1002
}
1002
{
1000
REACTOR
1002
}
  0
ARC
  5
370B
  8
AM_0
 10
233.37423860130841
 20
227.07404031692801
 30
0.0
 40
1.0
 50
180.0
 51
270.0
1001
GENIUS_GENODEF_13
1002
{
1000
HIER
1070
     0
1002
}
1002
{
1000
MANEDIT
1070
     0
1002
}
1002
{
1000
NOSEL
1070
     0
1002
}
1002
{
1000
BEHIND
1070
     0
1002
}
1002
{
1000
OTHER
1070
     0
1002
}
1002
{
1000
REACTOR
1002
}
1001
GENIUS_GENOBJ-N-FIL_13
1002
{
1000
OWNER
1000
GEN
1002
}
  0
LINE
  5
370C
  8
AM_0
 10
232.37423860130841
 20
227.67404031692789
 30
0.0
 11
232.37423860130841
 21
227.07404031692801
 31
0.0
  0
ARC
  5
370D
  8
AM_0
 10
233.37423860130841
 20
227.67404031692789
 30
0.0
 40
1.0
 50
90.0
 51
180.0
1001
GENIUS_GENOBJ-N-FIL_13
1002
{
1000
OWNER
1000
GEN
1002
}
1001
GENIUS_GENODEF_13
1002
{
1000
HIER
1070
     0
1002
}
1002
{
1000
MANEDIT
1070
     0
1002
}
1002
{
1000
NOSEL
1070
     0
1002
}
1002
{
1000
BEHIND
1070
     0
1002
}
1002
{
1000
OTHER
1070
     0
1002
}
1002
{
1000
REACTOR
1002
}
  0
LINE
  5
370E
  8
AM_0
 10
232.37423860130841
 20
244.17404031692789
 30
0.0
 11
232.37423860130841
 21
240.9740403169279
 31
0.0
  0
LINE
  5
370F
  8
AM_0
 10
232.37423860130841
 20
235.4740403169279
 30
0.0
 11
232.37423860130841
 21
233.17404031692789
 31
0.0
  0
ARC
  5
3710
  8
AM_0
 10
233.37423860130841
 20
235.4740403169279
 30
0.0
 40
1.0
 50
90.0
 51
180.0
1001
GENIUS_GENODEF_13
1002
{
1000
HIER
1070
     0
1002
}
1002
{
1000
MANEDIT
1070
     0
1002
}
1002
{
1000
NOSEL
1070
     0
1002
}
1002
{
1000
BEHIND
1070
     0
1002
}
1002
{
1000
OTHER
1070
     0
1002
}
1002
{
1000
REACTOR
1002
}
1001
GENIUS_GENOBJ-N-FIL_13
1002
{
1000
OWNER
1000
GEN
1002
}
  0
ARC
  5
3711
  8
AM_0
 10
233.37423860130841
 20
240.9740403169279
 30
0.0
 40
1.0
 50
180.0
 51
270.0
1001
GENIUS_GENOBJ-N-FIL_13
1002
{
1000
OWNER
1000
GEN
1002
}
1001
GENIUS_GENODEF_13
1002
{
1000
HIER
1070
     0
1002
}
1002
{
1000
MANEDIT
1070
     0
1002
}
1002
{
1000
NOSEL
1070
     0
1002
}
1002
{
1000
BEHIND
1070
     0
1002
}
1002
{
1000
OTHER
1070
     0
1002
}
1002
{
1000
REACTOR
1002
}
  0
ARC
  5
3712
  8
AM_0
 10
233.37423860130841
 20
244.17404031692789
 30
0.0
 40
1.0
 50
90.0
 51
180.0
1001
GENIUS_GENODEF_13
1002
{
1000
HIER
1070
     0
1002
}
1002
{
1000
MANEDIT
1070
     0
1002
}
1002
{
1000
NOSEL
1070
     0
1002
}
1002
{
1000
BEHIND
1070
     0
1002
}
1002
{
1000
OTHER
1070
     0
1002
}
1002
{
1000
REACTOR
1002
}
1001
GENIUS_GENOBJ-N-FIL_13
1002
{
1000
OWNER
1000
GEN
1002
}
  0
ARC
  5
3713
  8
AM_0
 10
233.37423860130841
 20
249.8740403169279
 30
0.0
 40
1.0
 50
180.0
 51
270.0
1001
GENIUS_GENODEF_13
1002
{
1000
HIER
1070
     0
1002
}
1002
{
1000
MANEDIT
1070
     0
1002
}
1002
{
1000
NOSEL
1070
     0
1002
}
1002
{
1000
BEHIND
1070
     0
1002
}
1002
{
1000
OTHER
1070
     0
1002
}
1002
{
1000
REACTOR
1002
}
1001
GENIUS_GENOBJ-N-FIL_13
1002
{
1000
OWNER
1000
GEN
1002
}
  0
LINE
  5
3714
  8
AM_0
 10
232.37423860130841
 20
253.3740403169279
 30
0.0
 11
232.37423860130841
 21
249.8740403169279
 31
0.0
  0
ARC
  5
3715
  8
AM_0
 10
256.37423860130838
 20
233.17404031692789
 30
0.0
 40
1.0
 50
270.0
 51
0.0
1001
GENIUS_GENODEF_13
1002
{
1000
HIER
1070
     0
1002
}
1002
{
1000
MANEDIT
1070
     0
1002
}
1002
{
1000
NOSEL
1070
     0
1002
}
1002
{
1000
BEHIND
1070
     0
1002
}
1002
{
1000
OTHER
1070
     0
1002
}
1002
{
1000
REACTOR
1002
}
1001
GENIUS_GENOBJ-N-FIL_13
1002
{
1000
OWNER
1000
GEN
1002
}
  0
LINE
  5
3716
  8
AM_0
 10
267.37423860130838
 20
222.3740403169279
 30
0.0
 11
278.87423860130838
 21
222.3740403169279
 31
0.0
  0
ARC
  5
3717
  8
AM_0
 10
256.37423860130838
 20
227.07404031692801
 30
0.0
 40
1.0
 50
270.0
 51
0.0
1001
GENIUS_GENOBJ-N-FIL_13
1002
{
1000
OWNER
1000
GEN
1002
}
1001
GENIUS_GENODEF_13
1002
{
1000
HIER
1070
     0
1002
}
1002
{
1000
MANEDIT
1070
     0
1002
}
1002
{
1000
NOSEL
1070
     0
1002
}
1002
{
1000
BEHIND
1070
     0
1002
}
1002
{
1000
OTHER
1070
     0
1002
}
1002
{
1000
REACTOR
1002
}
  0
LINE
  5
3718
  8
AM_0
 10
257.37423860130838
 20
227.67404031692789
 30
0.0
 11
257.37423860130838
 21
227.07404031692801
 31
0.0
  0
ARC
  5
3719
  8
AM_0
 10
256.37423860130838
 20
227.67404031692789
 30
0.0
 40
1.0
 50
0.0
 51
90.0
1001
GENIUS_GENODEF_13
1002
{
1000
HIER
1070
     0
1002
}
1002
{
1000
MANEDIT
1070
     0
1002
}
1002
{
1000
NOSEL
1070
     0
1002
}
1002
{
1000
BEHIND
1070
     0
1002
}
1002
{
1000
OTHER
1070
     0
1002
}
1002
{
1000
REACTOR
1002
}
1001
GENIUS_GENOBJ-N-FIL_13
1002
{
1000
OWNER
1000
GEN
1002
}
  0
LINE
  5
371A
  8
AM_0
 10
286.87422860130852
 20
220.37400481692791
 30
0.0
 11
286.87422860130852
 21
228.8740188169279
 31
0.0
  0
LINE
  5
371B
  8
AM_0
 10
285.87423860130838
 20
225.3740403169279
 30
0.0
 11
278.87423860130838
 21
222.3740403169279
 31
0.0
  0
ARC
  5
371C
  8
AM_0
 10
288.37422860130852
 20
228.8740188169279
 30
0.0
 40
1.5000000299999969
 50
90.00000299999769
 51
180.00001000000091
  0
LINE
  5
371D
  8
AM_0
 10
257.37423860130838
 20
244.174040316928
 30
0.0
 11
257.37423860130838
 21
240.9740403169279
 31
0.0
  0
LINE
  5
371E
  8
AM_0
 10
257.37423860130838
 20
235.4740403169279
 30
0.0
 11
257.37423860130838
 21
233.17404031692789
 31
0.0
  0
ARC
  5
371F
  8
AM_0
 10
256.37423860130838
 20
235.4740403169279
 30
0.0
 40
1.0
 50
0.0
 51
90.0
1001
GENIUS_GENODEF_13
1002
{
1000
HIER
1070
     0
1002
}
1002
{
1000
MANEDIT
1070
     0
1002
}
1002
{
1000
NOSEL
1070
     0
1002
}
1002
{
1000
BEHIND
1070
     0
1002
}
1002
{
1000
OTHER
1070
     0
1002
}
1002
{
1000
REACTOR
1002
}
1001
GENIUS_GENOBJ-N-FIL_13
1002
{
1000
OWNER
1000
GEN
1002
}
  0
ARC
  5
3720
  8
AM_0
 10
256.37423860130838
 20
240.9740403169279
 30
0.0
 40
1.0
 50
270.0
 51
0.0
1001
GENIUS_GENODEF_13
1002
{
1000
HIER
1070
     0
1002
}
1002
{
1000
MANEDIT
1070
     0
1002
}
1002
{
1000
NOSEL
1070
     0
1002
}
1002
{
1000
BEHIND
1070
     0
1002
}
1002
{
1000
OTHER
1070
     0
1002
}
1002
{
1000
REACTOR
1002
}
1001
GENIUS_GENOBJ-N-FIL_13
1002
{
1000
OWNER
1000
GEN
1002
}
  0
ARC
  5
3721
  8
AM_0
 10
256.37423860130838
 20
244.174040316928
 30
0.0
 40
1.0
 50
0.0
 51
90.0
1001
GENIUS_GENODEF_13
1002
{
1000
HIER
1070
     0
1002
}
1002
{
1000
MANEDIT
1070
     0
1002
}
1002
{
1000
NOSEL
1070
     0
1002
}
1002
{
1000
BEHIND
1070
     0
1002
}
1002
{
1000
OTHER
1070
     0
1002
}
1002
{
1000
REACTOR
1002
}
1001
GENIUS_GENOBJ-N-FIL_13
1002
{
1000
OWNER
1000
GEN
1002
}
  0
ARC
  5
3722
  8
AM_0
 10
256.37423860130838
 20
249.8740403169279
 30
0.0
 40
1.0
 50
270.0
 51
0.0
1001
GENIUS_GENODEF_13
1002
{
1000
HIER
1070
     0
1002
}
1002
{
1000
MANEDIT
1070
     0
1002
}
1002
{
1000
NOSEL
1070
     0
1002
}
1002
{
1000
BEHIND
1070
     0
1002
}
1002
{
1000
OTHER
1070
     0
1002
}
1002
{
1000
REACTOR
1002
}
1001
GENIUS_GENOBJ-N-FIL_13
1002
{
1000
OWNER
1000
GEN
1002
}
  0
LINE
  5
3723
  8
AM_0
 10
257.37423860130838
 20
253.3740403169279
 30
0.0
 11
257.37423860130838
 21
249.8740403169279
 31
0.0
  0
LINE
  5
3724
  8
AM_0
 10
233.37423860130841
 20
254.3740403169279
 30
0.0
 11
256.37423860130838
 21
254.3740403169279
 31
0.0
  0
LINE
  5
3725
  8
AM_0
 10
233.37423860130841
 20
259.8740403169279
 30
0.0
 11
256.37423860130838
 21
259.8740403169279
 31
0.0
  0
LINE
  5
3726
  8
AM_0
 10
233.37423860130841
 20
266.3740403169279
 30
0.0
 11
256.37423860130838
 21
266.3740403169279
 31
0.0
  0
LINE
  5
3727
  8
AM_0
 10
232.37423860130841
 20
265.3740403169279
 30
0.0
 11
232.37423860130841
 21
260.8740403169279
 31
0.0
  0
ARC
  5
3728
  8
AM_0
 10
233.37423860130841
 20
260.8740403169279
 30
0.0
 40
1.0
 50
180.0
 51
270.0
1001
GENIUS_GENODEF_13
1002
{
1000
HIER
1070
     0
1002
}
1002
{
1000
MANEDIT
1070
     0
1002
}
1002
{
1000
NOSEL
1070
     0
1002
}
1002
{
1000
BEHIND
1070
     0
1002
}
1002
{
1000
OTHER
1070
     0
1002
}
1002
{
1000
REACTOR
1002
}
1001
GENIUS_GENOBJ-N-FIL_13
1002
{
1000
OWNER
1000
GEN
1002
}
  0
ARC
  5
3729
  8
AM_0
 10
233.37423860130841
 20
265.3740403169279
 30
0.0
 40
1.0
 50
90.0
 51
180.0
1001
GENIUS_GENOBJ-N-FIL_13
1002
{
1000
OWNER
1000
GEN
1002
}
1001
GENIUS_GENODEF_13
1002
{
1000
HIER
1070
     0
1002
}
1002
{
1000
MANEDIT
1070
     0
1002
}
1002
{
1000
NOSEL
1070
     0
1002
}
1002
{
1000
BEHIND
1070
     0
1002
}
1002
{
1000
OTHER
1070
     0
1002
}
1002
{
1000
REACTOR
1002
}
  0
LINE
  5
372A
  8
AM_0
 10
257.37423860130838
 20
265.3740403169279
 30
0.0
 11
257.37423860130838
 21
260.8740403169279
 31
0.0
  0
ARC
  5
372B
  8
AM_0
 10
256.37423860130838
 20
260.8740403169279
 30
0.0
 40
1.0
 50
270.0
 51
0.0
1001
GENIUS_GENODEF_13
1002
{
1000
HIER
1070
     0
1002
}
1002
{
1000
MANEDIT
1070
     0
1002
}
1002
{
1000
NOSEL
1070
     0
1002
}
1002
{
1000
BEHIND
1070
     0
1002
}
1002
{
1000
OTHER
1070
     0
1002
}
1002
{
1000
REACTOR
1002
}
1001
GENIUS_GENOBJ-N-FIL_13
1002
{
1000
OWNER
1000
GEN
1002
}
  0
ARC
  5
372C
  8
AM_0
 10
256.37423860130838
 20
265.3740403169279
 30
0.0
 40
1.0
 50
0.0
 51
90.0
1001
GENIUS_GENOBJ-N-FIL_13
1002
{
1000
OWNER
1000
GEN
1002
}
1001
GENIUS_GENODEF_13
1002
{
1000
HIER
1070
     0
1002
}
1002
{
1000
MANEDIT
1070
     0
1002
}
1002
{
1000
NOSEL
1070
     0
1002
}
1002
{
1000
BEHIND
1070
     0
1002
}
1002
{
1000
OTHER
1070
     0
1002
}
1002
{
1000
REACTOR
1002
}
  0
LINE
  5
372F
  8
AM_0
 10
349.87419860130859
 20
220.37400481692791
 30
0.0
 11
369.87423860130838
 21
220.37400481692791
 31
0.0
  0
LINE
  5
3730
  8
AM_0
 10
368.37423860130838
 20
230.37401881692799
 30
0.0
 11
349.87419860130859
 21
230.37401881692799
 31
0.0
  0
ARC
  5
3731
  8
AM_0
 10
352.87419860130859
 20
257.1414438169279
 30
0.0
 40
5.0000001000000003
 50
270.0
 51
0.0
  0
LINE
  5
3732
  8
AM_0
 10
303.87423860130838
 20
230.37401881692799
 30
0.0
 11
303.87423860130838
 21
288.37402081692801
 31
0.0
  0
LINE
  5
3733
  8
AM_0
 10
312.8537186013084
 20
264.199336816928
 30
0.0
 11
309.18600860130852
 21
233.02346281692789
 31
0.0
  0
LINE
  5
3734
  8
AM_0
 10
307.87422860130852
 20
221.37401881692799
 30
0.0
 11
348.87423860130838
 21
221.37401881692799
 31
0.0
  0
ARC
  5
3735
  8
AM_0
 10
306.20649860130823
 20
233.3740188169279
 30
0.0
 40
3.0
 50
270.0
 51
353.29016000000053
  0
LINE
  5
3736
  8
ﾁｭｳｼﾝｾﾝ1
 10
296.87424860130858
 20
217.76546881692801
 30
0.0
 11
296.87424860130858
 21
233.276287816928
 31
0.0
  0
LINE
  5
3737
  8
ｶｸﾚｾﾝ2
 10
301.87422860130852
 20
220.37400481692791
 30
0.0
 11
301.87422860130852
 21
230.37401881692799
 31
0.0
  0
LINE
  5
3738
  8
ｶｸﾚｾﾝ2
 10
291.87423860130838
 20
220.37400481692791
 30
0.0
 11
291.87423860130838
 21
230.37401881692799
 31
0.0
  0
ARC
  5
3739
  8
AM_0
 10
302.37423860130838
 20
230.44144681692799
 30
0.0
 40
1.5000000299999969
 50
0.0
 51
88.499997000000747
  0
LINE
  5
373A
  8
AM_0
 10
306.87423860130838
 20
220.37400481692791
 30
0.0
 11
306.87423860130838
 21
220.37400481692791
 31
0.0
  0
ARC
  5
373B
  8
AM_0
 10
307.87422860130852
 20
220.37400481692791
 30
0.0
 40
1.0000000199999981
 50
90.00000299999769
 51
180.00001000000091
  0
ARC
  5
373C
  8
AM_0
 10
349.87419860130859
 20
235.37400481692791
 30
0.0
 40
5.0000001000000003
 50
180.00001000000091
 51
270.0
  0
LINE
  5
373D
  8
ｶｸﾚｾﾝ2
 10
354.87423860130838
 20
220.37400481692791
 30
0.0
 11
354.87423860130838
 21
230.37401881692799
 31
0.0
  0
ARC
  5
373E
  8
AM_0
 10
348.87423860130838
 20
220.37400481692791
 30
0.0
 40
1.0000000199999981
 50
0.0
 51
90.00000299999769
  0
LINE
  5
373F
  8
AM_0
 10
349.87419860130859
 20
220.37400481692791
 30
0.0
 11
349.87419860130859
 21
220.37400481692791
 31
0.0
  0
LINE
  5
3740
  8
AM_0
 10
352.87419860130859
 20
252.14143081692791
 30
0.0
 11
344.87424860130858
 21
252.14143081692791
 31
0.0
  0
LINE
  5
3741
  8
AM_0
 10
312.87423860130838
 20
293.12484481692798
 30
0.0
 11
312.87423860130838
 21
264.5498778169279
 31
0.0
  0
ARC
  5
3742
  8
AM_0
 10
309.87423860130838
 20
264.5498778169279
 30
0.0
 40
3.0
 50
353.29016000000053
 51
0.0
  0
ARC
  5
3743
  8
AM_0
 10
372.87423860130838
 20
233.564416816928
 30
0.0
 40
5.0000001000000003
 50
179.999989999999
 51
226.18693000000181
  0
LINE
  5
3744
  8
ﾁｭｳｼﾝｾﾝ1
 10
359.87421860130848
 20
217.76546881692801
 30
0.0
 11
359.87421860130848
 21
233.276287816928
 31
0.0
  0
LINE
  5
3745
  8
AM_0
 10
369.87423860130838
 20
220.37400481692791
 30
0.0
 11
369.87423860130838
 21
228.8740188169279
 31
0.0
  0
LINE
  5
3746
  8
ｶｸﾚｾﾝ2
 10
364.87419860130859
 20
220.37400481692791
 30
0.0
 11
364.87419860130859
 21
230.37401881692799
 31
0.0
  0
ARC
  5
3747
  8
AM_0
 10
368.37423860130838
 20
228.8740188169279
 30
0.0
 40
1.5000000299999969
 50
0.0
 51
90.00000299999769
  0
LINE
  5
3748
  8
AM_0
 10
371.8742186013086
 20
295.87402081692801
 30
0.0
 11
399.87423860130838
 21
295.87402081692801
 31
0.0
  0
ARC
  5
3749
  8
AM_0
 10
368.87424860130858
 20
286.34817181692802
 30
0.0
 40
1.0000000199999981
 50
271.49999999999608
 51
0.0
  0
LINE
  5
374A
  8
AM_0
 10
368.84805860130848
 20
285.34713481692791
 30
0.0
 11
368.90037860130838
 21
285.3485088169279
 31
0.0
  0
ARC
  5
374B
  8
AM_0
 10
368.87424860130858
 20
284.34746881692797
 30
0.0
 40
1.0000000199999981
 50
91.500001000001546
 51
180.00001000000091
  0
LINE
  5
374C
  8
AM_0
 10
369.87423860130838
 20
295.3740198169279
 30
0.0
 11
371.8742186013086
 21
295.3740198169279
 31
0.0
  0
LINE
  5
374E
  8
AM_0
 10
146.37423860130841
 20
314.3740403169279
 30
0.0
 11
202.37423860130849
 21
314.3740403169279
 31
0.0
1001
GENIUS_GENOREF_13
1005
384A
  0
LINE
  5
374F
  8
AM_0
 10
141.87423860130841
 20
353.97404031692798
 30
0.0
 11
267.37423860130838
 21
353.97404031692793
 31
0.0
  0
ARC
  5
3751
  8
AM_0
 10
127.37423860130851
 20
305.3740403169279
 30
0.0
 40
3.0
 50
90.0
 51
180.0
1001
GENIUS_GENOBJ-N-FIL_13
1002
{
1000
OWNER
1000
GEN
1002
}
1001
GENIUS_GENODEF_13
1002
{
1000
HIER
1070
     0
1002
}
1002
{
1000
MANEDIT
1070
     0
1002
}
1002
{
1000
NOSEL
1070
     0
1002
}
1002
{
1000
BEHIND
1070
     0
1002
}
1002
{
1000
OTHER
1070
     0
1002
}
1002
{
1000
REACTOR
1002
}
  0
LINE
  5
3752
  8
AM_0
 10
127.37423860130851
 20
308.37404031692768
 30
0.0
 11
134.08687340235059
 21
308.37404031692768
 31
0.0
  0
ARC
  5
3753
  8
AM_0
 10
146.37423860130841
 20
313.37404031692768
 30
0.0
 40
1.0
 50
90.0
 51
180.0
1001
GENIUS_GENODEF_13
1002
{
1000
HIER
1070
     0
1002
}
1002
{
1000
MANEDIT
1070
     0
1002
}
1002
{
1000
NOSEL
1070
     0
1002
}
1002
{
1000
BEHIND
1070
     0
1002
}
1002
{
1000
OTHER
1070
     0
1002
}
1002
{
1000
REACTOR
1002
}
1001
GENIUS_GENOBJ-N-FIL_13
1002
{
1000
OWNER
1000
GEN
1002
}
  0
LINE
  5
3754
  8
AM_0
 10
139.20296627896829
 20
345.77735380818092
 30
0.0
 11
136.04551092364861
 21
342.97072682567477
 31
0.0
  0
ARC
  5
3755
  8
AM_0
 10
137.37423860130849
 20
341.47590818830741
 30
0.0
 40
2.0
 50
131.63353933656961
 51
180.0
1001
GENIUS_GENODEF_13
1002
{
1000
HIER
1070
     0
1002
}
1002
{
1000
MANEDIT
1070
     0
1002
}
1002
{
1000
NOSEL
1070
     0
1002
}
1002
{
1000
BEHIND
1070
     0
1002
}
1002
{
1000
OTHER
1070
     0
1002
}
1002
{
1000
REACTOR
1002
}
1001
GENIUS_GENOBJ-N-FIL_13
1002
{
1000
OWNER
1000
GEN
1002
}
  0
ARC
  5
3756
  8
AM_0
 10
137.87423860130849
 20
347.27217244554839
 30
0.0
 40
2.0
 50
311.63353933656958
 51
0.0
1001
GENIUS_GENOBJ-N-FIL_13
1002
{
1000
OWNER
1000
GEN
1002
}
1001
GENIUS_GENODEF_13
1002
{
1000
HIER
1070
     0
1002
}
1002
{
1000
MANEDIT
1070
     0
1002
}
1002
{
1000
NOSEL
1070
     0
1002
}
1002
{
1000
BEHIND
1070
     0
1002
}
1002
{
1000
OTHER
1070
     0
1002
}
1002
{
1000
REACTOR
1002
}
  0
ARC
  5
3757
  8
AM_0
 10
141.87423860130841
 20
351.97404031692798
 30
0.0
 40
2.0
 50
90.0
 51
180.0
1001
GENIUS_GENOBJ-N-FIL_13
1002
{
1000
OWNER
1000
GEN
1002
}
1001
GENIUS_GENODEF_13
1002
{
1000
HIER
1070
     0
1002
}
1002
{
1000
MANEDIT
1070
     0
1002
}
1002
{
1000
NOSEL
1070
     0
1002
}
1002
{
1000
BEHIND
1070
     0
1002
}
1002
{
1000
OTHER
1070
     0
1002
}
1002
{
1000
REACTOR
1002
}
  0
LINE
  5
3758
  8
AM_0
 10
285.87423860130838
 20
320.31145981692788
 30
0.0
 11
294.87423860130838
 21
320.31145981692788
 31
0.0
  0
LINE
  5
3759
  8
AM_0
 10
285.87423860130838
 20
344.37401581692802
 30
0.0
 11
302.41347860130861
 21
344.80712581692802
 31
0.0
  0
LINE
  5
375A
  8
AM_0
 10
285.87423860130838
 20
334.374025816928
 30
0.0
 11
303.87423860130838
 21
334.374025816928
 31
0.0
  0
LINE
  5
375C
  8
AM_0
 10
163.87423860130841
 20
322.3740403169279
 30
0.0
 11
163.87423860130841
 21
314.3740403169279
 31
0.0
  0
LINE
  5
375D
  8
AM_0
 10
159.87423860130841
 20
320.3740403169279
 30
0.0
 11
159.87423860130841
 21
314.3740403169279
 31
0.0
  0
LINE
  5
375E
  8
AM_0N
 10
168.1267386013084
 20
319.85263551169908
 30
0.0
 11
168.1267386013084
 21
318.62654031692801
 31
0.0
1001
GENIUS_GENOREF_13
1005
0
  0
LINE
  5
375F
  8
AM_0N
 10
167.62173860130841
 20
319.85263551169908
 30
0.0
 11
167.62173860130841
 21
318.62654031692801
 31
0.0
1001
GENIUS_GENOREF_13
1005
0
  0
CIRCLE
  5
3760
  8
AM_0N
 10
167.87423860130841
 20
318.3740403169279
 30
0.0
 40
2.799999999999998
1001
GENIUS_GENOREF_13
1005
0
  0
LINE
  5
3761
  8
AM_0
 10
171.87423860130849
 20
322.3740403169279
 30
0.0
 11
171.87423860130829
 21
314.3740403169279
 31
0.0
  0
LINE
  5
3762
  8
AM_0
 10
175.87423860130829
 20
320.3740403169279
 30
0.0
 11
175.87423860130829
 21
314.3740403169279
 31
0.0
  0
LINE
  5
3763
  8
AM_0N
 10
169.35283379607941
 20
318.62654031692801
 30
0.0
 11
168.1267386013084
 21
318.62654031692801
 31
0.0
1001
GENIUS_GENOREF_13
1005
0
  0
LINE
  5
3764
  8
AM_0N
 10
169.35283379607941
 20
318.12154031692802
 30
0.0
 11
168.1267386013084
 21
318.12154031692802
 31
0.0
1001
GENIUS_GENOREF_13
1005
0
  0
LINE
  5
3765
  8
AM_0N
 10
167.62173860130841
 20
318.12154031692802
 30
0.0
 11
167.62173860130841
 21
316.89544512215679
 31
0.0
1001
GENIUS_GENOREF_13
1005
0
  0
LINE
  5
3766
  8
AM_0N
 10
168.1267386013084
 20
318.12154031692802
 30
0.0
 11
168.1267386013084
 21
316.89544512215679
 31
0.0
1001
GENIUS_GENOREF_13
1005
0
  0
LINE
  5
3767
  8
AM_0N
 10
167.62173860130841
 20
316.89544512215679
 30
0.0
 11
168.1267386013084
 21
316.89544512215679
 31
0.0
1001
GENIUS_GENOREF_13
1005
0
  0
LINE
  5
3768
  8
AM_0N
 10
166.3956434065374
 20
318.12154031692802
 30
0.0
 11
166.3956434065374
 21
318.62654031692801
 31
0.0
1001
GENIUS_GENOREF_13
1005
0
  0
LINE
  5
3769
  8
AM_0N
 10
167.62173860130841
 20
318.62654031692801
 30
0.0
 11
166.3956434065374
 21
318.62654031692801
 31
0.0
1001
GENIUS_GENOREF_13
1005
0
  0
LINE
  5
376A
  8
AM_0N
 10
167.62173860130841
 20
318.12154031692802
 30
0.0
 11
166.3956434065374
 21
318.12154031692802
 31
0.0
1001
GENIUS_GENOREF_13
1005
0
  0
LINE
  5
376B
  8
AM_0N
 10
169.35283379607941
 20
318.12154031692802
 30
0.0
 11
169.35283379607941
 21
318.62654031692801
 31
0.0
1001
GENIUS_GENOREF_13
1005
0
  0
LINE
  5
376C
  8
AM_0
 10
161.87423860130841
 20
322.3740403169279
 30
0.0
 11
173.87423860130829
 21
322.3740403169279
 31
0.0
1001
GENIUS_GENOREF_13
1005
384A
  0
ARC
  5
376D
  8
AM_0
 10
161.87423860130841
 20
320.3740403169279
 30
0.0
 40
2.0
 50
90.0
 51
180.0
1001
GENIUS_GENOBJ-N-FIL_13
1002
{
1000
OWNER
1000
GEN
1002
}
1001
GENIUS_GENODEF_13
1002
{
1000
HIER
1070
     0
1002
}
1002
{
1000
MANEDIT
1070
     0
1002
}
1002
{
1000
NOSEL
1070
     0
1002
}
1002
{
1000
BEHIND
1070
     0
1002
}
1002
{
1000
OTHER
1070
     0
1002
}
1002
{
1000
REACTOR
1002
}
  0
LINE
  5
376E
  8
AM_0N
 10
167.62173860130841
 20
319.85263551169908
 30
0.0
 11
168.1267386013084
 21
319.85263551169908
 31
0.0
1001
GENIUS_GENOREF_13
1005
0
  0
ARC
  5
376F
  8
AM_0
 10
173.87423860130829
 20
320.3740403169279
 30
0.0
 40
2.0
 50
0.0
 51
90.0
1001
GENIUS_GENOBJ-N-FIL_13
1002
{
1000
OWNER
1000
GEN
1002
}
1001
GENIUS_GENODEF_13
1002
{
1000
HIER
1070
     0
1002
}
1002
{
1000
MANEDIT
1070
     0
1002
}
1002
{
1000
NOSEL
1070
     0
1002
}
1002
{
1000
BEHIND
1070
     0
1002
}
1002
{
1000
OTHER
1070
     0
1002
}
1002
{
1000
REACTOR
1002
}
  0
ARC
  5
3770
  8
AM_0
 10
202.37423860130849
 20
313.37404031692768
 30
0.0
 40
1.0
 50
0.0
 51
90.0
1001
GENIUS_GENODEF_13
1002
{
1000
HIER
1070
     0
1002
}
1002
{
1000
MANEDIT
1070
     0
1002
}
1002
{
1000
NOSEL
1070
     0
1002
}
1002
{
1000
BEHIND
1070
     0
1002
}
1002
{
1000
OTHER
1070
     0
1002
}
1002
{
1000
REACTOR
1002
}
1001
GENIUS_GENOBJ-N-FIL_13
1002
{
1000
OWNER
1000
GEN
1002
}
  0
LINE
  5
3771
  8
AM_0
 10
267.37423860130838
 20
354.37404031692768
 30
0.0
 11
278.87423860130838
 21
354.37404031692768
 31
0.0
  0
LINE
  5
3772
  8
AM_0
 10
278.87423860130838
 20
354.37404031692768
 30
0.0
 11
285.87423860130838
 21
351.3740403169279
 31
0.0
  0
LINE
  5
3773
  8
ﾁｭｳｼﾝｾﾝ1
 10
298.52481860130843
 20
305.37402181692789
 30
0.0
 11
401.60772860130851
 21
305.37402181692789
 31
0.0
  0
LINE
  5
3774
  8
AM_0
 10
357.87423860130838
 20
318.291439816928
 30
0.0
 11
349.87419860130859
 21
318.291439816928
 31
0.0
  0
ARC
  5
3775
  8
AM_0
 10
352.87419860130859
 20
342.24632581692788
 30
0.0
 40
5.0000001000000003
 50
0.0
 51
88.499997000000747
  0
ARC
  5
3776
  8
AM_0
 10
352.87419860130859
 20
326.89541581692788
 30
0.0
 40
5.0000001000000003
 50
0.0
 51
90.00000299999769
  0
LINE
  5
3777
  8
AM_0
 10
335.27424860130839
 20
331.89542581692808
 30
0.0
 11
322.87428860130842
 21
348.03359581692808
 31
0.0
  0
LINE
  5
3778
  8
AM_0
 10
322.87419860130848
 20
347.9288658169279
 30
0.0
 11
322.87419860130848
 21
332.499475816928
 31
0.0
  0
LINE
  5
3779
  8
AM_0
 10
303.87423860130838
 20
346.75568581692801
 30
0.0
 11
303.87423860130838
 21
332.37401581692802
 31
0.0
  0
ARC
  5
377A
  8
AM_0
 10
321.87423860130838
 20
315.21224881692791
 30
0.0
 40
1.0000000199999981
 50
0.0
 51
90.00000299999769
  0
LINE
  5
377B
  8
AM_0
 10
321.87423860130838
 20
320.95245181692798
 30
0.0
 11
324.87423860130838
 21
320.95245181692798
 31
0.0
  0
ARC
  5
377C
  8
AM_0
 10
321.87423860130838
 20
338.59601581692789
 30
0.0
 40
1.0000000199999981
 50
270.0
 51
0.0
  0
LINE
  5
377D
  8
AM_0
 10
321.87423860130838
 20
329.61272581692788
 30
0.0
 11
324.87423860130838
 21
329.61272581692788
 31
0.0
  0
LINE
  5
377E
  8
AM_0
 10
321.87423860130838
 20
323.83920181692798
 30
0.0
 11
324.87423860130838
 21
323.83920181692798
 31
0.0
  0
LINE
  5
377F
  8
AM_0
 10
321.87423860130838
 20
332.499475816928
 30
0.0
 11
324.87423860130838
 21
332.499475816928
 31
0.0
  0
LINE
  5
3780
  8
AM_0
 10
294.87423860130838
 20
332.37401581692802
 30
0.0
 11
294.87423860130838
 21
314.15673481692789
 31
0.0
  0
LINE
  5
3781
  8
AM_0
 10
320.87424860130858
 20
336.59597581692788
 30
0.0
 11
320.87424860130858
 21
317.21224681692797
 31
0.0
  0
LINE
  5
3782
  8
AM_0
 10
294.87423860130838
 20
314.15673481692789
 30
0.0
 11
303.87423860130838
 21
314.15673481692789
 31
0.0
  0
ARC
  5
3783
  8
AM_0
 10
321.87423860130838
 20
317.21224681692797
 30
0.0
 40
1.0000000199999981
 50
179.999989999999
 51
270.0
  0
LINE
  5
3784
  8
AM_0
 10
294.87423860130838
 20
330.98087581692801
 30
0.0
 11
320.87424860130858
 21
330.98087581692801
 31
0.0
  0
LINE
  5
3785
  8
AM_0
 10
294.87423860130838
 20
332.37401581692802
 30
0.0
 11
303.87423860130838
 21
332.37401581692802
 31
0.0
  0
LINE
  5
3786
  8
AM_0
 10
321.87423860130838
 20
332.99948581692797
 30
0.0
 11
321.87423860130838
 21
320.45248081692802
 31
0.0
  0
LINE
  5
3787
  8
AM_0
 10
320.87424860130858
 20
320.45248081692802
 30
0.0
 11
321.87423860130838
 21
320.45248081692802
 31
0.0
  0
ARC
  5
3788
  8
AM_0
 10
321.87423860130838
 20
336.59597581692788
 30
0.0
 40
1.0000000199999981
 50
90.00000299999769
 51
180.00001000000091
  0
LINE
  5
3789
  8
AM_0
 10
320.87424860130858
 20
332.99948581692797
 30
0.0
 11
321.87423860130838
 21
332.99948581692797
 31
0.0
  0
ARC
  5
378A
  8
AM_0
 10
339.60948860130839
 20
312.00487981692788
 30
0.0
 40
5.0000001000000003
 50
90.00000299999769
 51
171.85423999999969
  0
LINE
  5
378B
  8
AM_0
 10
322.87419860130848
 20
317.00488081692788
 30
0.0
 11
346.52601860130818
 21
317.00488081692788
 31
0.0
  0
ARC
  5
378C
  8
AM_0
 10
349.87419860130859
 20
313.291441816928
 30
0.0
 40
5.0000001000000003
 50
90.00000299999769
 51
180.00001000000091
  0
LINE
  5
378D
  8
AM_0
 10
325.87419860130848
 20
331.89542581692808
 30
0.0
 11
352.87419860130859
 21
331.89542581692808
 31
0.0
  0
LINE
  5
378E
  8
AM_0
 10
325.87419860130848
 20
321.95248381692801
 30
0.0
 11
325.87419860130848
 21
331.49951581692801
 31
0.0
  0
ARC
  5
378F
  8
AM_0
 10
324.87423860130838
 20
330.6127158169279
 30
0.0
 40
1.0000000199999981
 50
270.0
 51
0.0
  0
ARC
  5
3790
  8
AM_0
 10
324.87423860130838
 20
322.83923281692768
 30
0.0
 40
1.0000000199999981
 50
0.0
 51
90.00000299999769
  0
ARC
  5
3791
  8
AM_0
 10
324.87423860130838
 20
321.95248381692801
 30
0.0
 40
1.0000000199999981
 50
270.0
 51
0.0
  0
ARC
  5
3792
  8
AM_0
 10
324.87423860130838
 20
328.61273581692802
 30
0.0
 40
1.0000000199999981
 50
0.0
 51
90.00000299999769
  0
ARC
  5
3793
  8
AM_0
 10
324.87423860130838
 20
324.83924581692793
 30
0.0
 40
1.0000000199999981
 50
270.0
 51
0.0
  0
ARC
  5
3794
  8
AM_0
 10
324.87423860130838
 20
331.49951581692801
 30
0.0
 40
1.0000000199999981
 50
0.0
 51
90.00000299999769
  0
LINE
  5
3795
  8
AM_0
 10
309.87423860130838
 20
348.37400581692788
 30
0.0
 11
353.0051186013086
 21
347.24456581692789
 31
0.0
  0
LINE
  5
3796
  8
AM_0
 10
305.33499860130848
 20
348.2551758169281
 30
0.0
 11
309.87423860130838
 21
348.37406581692801
 31
0.0
  0
ARC
  5
3797
  8
AM_0
 10
302.37423860130838
 20
346.30661581692789
 30
0.0
 40
1.5000000299999969
 50
271.49999999999608
 51
0.0
  0
ARC
  5
3798
  8
AM_0
 10
305.37423860130838
 20
346.75568581692801
 30
0.0
 40
1.5000000299999969
 50
91.500001000001546
 51
180.00001000000091
  0
LINE
  5
379B
  8
AM_0
 10
371.8742186013086
 20
314.874022816928
 30
0.0
 11
399.87423860130838
 21
314.874022816928
 31
0.0
  0
LINE
  5
379C
  8
AM_0
 10
377.8742186013086
 20
317.37402081692801
 30
0.0
 11
399.87423860130838
 21
317.37402081692801
 31
0.0
  0
LINE
  5
379D
  8
AM_0
 10
371.8742186013086
 20
315.37402081692801
 30
0.0
 11
371.8742186013086
 21
305.37402181692789
 31
0.0
  0
LINE
  5
379E
  8
AM_0
 10
369.87423860130838
 20
315.37402081692801
 30
0.0
 11
371.8742186013086
 21
315.37402081692801
 31
0.0
  0
LINE
  5
379F
  8
AM_0
 10
377.8742186013086
 20
314.874022816928
 30
0.0
 11
377.8742186013086
 21
317.37402081692801
 31
0.0
  0
ARC
  5
37A0
  8
AM_0
 10
368.87424860130858
 20
324.3998658169279
 30
0.0
 40
1.0000000199999981
 50
0.0
 51
88.499997000000747
  0
LINE
  5
37A1
  8
AM_0
 10
368.84805860130848
 20
325.40087581692802
 30
0.0
 11
368.9004086013083
 21
325.39949581692792
 31
0.0
  0
ARC
  5
37A2
  8
AM_0
 10
368.87424860130858
 20
326.40053581692808
 30
0.0
 40
1.0000000199999981
 50
179.999989999999
 51
268.50000999999878
  0
LINE
  5
37A3
  8
AM_0
 10
362.87424860130858
 20
335.37401581692802
 30
0.0
 11
365.87424860130858
 21
335.37401581692802
 31
0.0
  0
ARC
  5
37A4
  8
AM_0
 10
362.87424860130858
 20
340.37399581692767
 30
0.0
 40
5.0000001000000003
 50
180.00001000000091
 51
270.0
  0
ARC
  5
37A5
  8
AM_0
 10
365.87424860130858
 20
333.37403581692797
 30
0.0
 40
2.00000007
 50
0.0
 51
90.00000299999769
  0
ARC
  5
37A6
  8
AM_0
 10
555.9285206370206
 20
305.37402181692789
 30
0.0
 40
20.000000700000001
 50
90.00000299999769
 51
270.0
  0
ARC
  5
37A7
  8
AM_0
 10
555.9285206370206
 20
305.37402181692789
 30
0.0
 40
20.000000700000001
 50
270.0
 51
90.00000299999769
  0
ARC
  5
37A8
  8
AM_0
 10
555.9285206370206
 20
292.87402081692801
 30
0.0
 40
42.500000999999997
 50
0.0
 51
180.00001000000091
  0
LINE
  5
37A9
  8
ﾁｭｳｼﾝｾﾝ1
 10
555.9285206370206
 20
220.8740178169279
 30
0.0
 11
555.9285206370206
 21
354.73780418412758
 31
0.0
  0
LINE
  5
37AA
  8
AM_0
 10
485.92852163702059
 20
230.374003816928
 30
0.0
 11
496.05325163702042
 21
320.6041848169279
 31
0.0
  0
LINE
  5
37AB
  8
AM_0
 10
485.92855163702052
 20
230.37398881692789
 30
0.0
 11
496.67620163702031
 21
297.81646381692798
 31
0.0
  0
LINE
  5
37AC
  8
AM_0
 10
503.92851863702032
 20
312.60943381692789
 30
0.0
 11
503.92851863702032
 21
270.3740208169279
 31
0.0
  0
ARC
  5
37AD
  8
AM_0
 10
555.9285206370206
 20
305.37402181692789
 30
0.0
 40
9.5000003999999993
 50
108.40848
 51
71.591512000000776
  0
LINE
  5
37AE
  8
AM_0
 10
625.92850763702052
 20
230.374003816928
 30
0.0
 11
615.80378063702051
 21
320.60421481692799
 31
0.0
  0
LINE
  5
37AF
  8
AM_0
 10
625.92852263702025
 20
230.37398881692789
 30
0.0
 11
615.18085463702039
 21
297.81646381692798
 31
0.0
  0
LINE
  5
37B0
  8
AM_0
 10
607.92851963702049
 20
312.60943381692789
 30
0.0
 11
607.92851963702049
 21
270.3740208169279
 31
0.0
  0
ARC
  5
37B5
  8
AM_0
 10
739.86855590808216
 20
280.34805354170601
 30
0.0
 40
264.99999999999989
 50
173.53019364652329
 51
181.46980635347501
  0
ARC
  5
37B8
  8
AM_0
 10
555.9285206370206
 20
288.37402081692801
 30
0.0
 40
65.999899527185562
 50
349.34253131306917
 51
23.462218627925139
  0
ARC
  5
37B9
  8
AM_0
 10
555.9285206370206
 20
288.37402081692801
 30
0.0
 40
65.999899527185562
 50
156.53779917401539
 51
190.65744290038171
  0
LINE
  5
37BB
  8
ﾁｭｳｼﾝｾﾝ1
 10
617.66335463702035
 20
288.37402081692801
 30
0.0
 11
494.42401163702021
 21
288.37402081692801
 31
0.0
  0
ARC
  5
37BC
  8
AM_0
 10
525.92851763702026
 20
234.8740188169279
 30
0.0
 40
5.0000001000000003
 50
90.00000299999769
 51
180.00001000000091
  0
LINE
  5
37BD
  8
AM_0
 10
516.92851763702038
 20
221.37401881692799
 30
0.0
 11
555.9285206370206
 21
221.37401881692799
 31
0.0
  0
LINE
  5
37C0
  8
AM_0
 10
513.42851963702014
 20
292.87402081692801
 30
0.0
 11
513.42851963702014
 21
233.3740188169279
 31
0.0
  0
ARC
  5
37C1
  8
AM_0
 10
535.92851963702049
 20
270.3740208169279
 30
0.0
 40
32.000000999999997
 50
179.999989999999
 51
225.32174000000111
  0
POLYLINE
  5
37C2
  8
AM_4
 66
     1
 10
0.0
 20
0.0
 30
0.0
 70
     4
  0
VERTEX
  5
37C3
  8
AM_4
 10
480.79763061479281
 20
254.36847823400649
 30
0.0
 70
    16
  0
VERTEX
  5
37C4
  8
AM_4
 10
480.79763061479281
 20
254.36847823400649
 30
0.0
 70
     8
  0
VERTEX
  5
37C5
  8
AM_4
 10
481.88864583920559
 20
254.95026821009381
 30
0.0
 70
     8
  0
VERTEX
  5
37C6
  8
AM_4
 10
482.92218281277911
 20
254.9807378127214
 30
0.0
 70
     8
  0
VERTEX
  5
37C7
  8
AM_4
 10
483.91397848601741
 20
254.65438273806191
 30
0.0
 70
     8
  0
VERTEX
  5
37C8
  8
AM_4
 10
484.87976980942318
 20
254.16569868228819
 30
0.0
 70
     8
  0
VERTEX
  5
37C9
  8
AM_4
 10
485.83529373350018
 20
253.70918134157299
 30
0.0
 70
     8
  0
VERTEX
  5
37CA
  8
AM_4
 10
486.79628720875178
 20
253.47932641208939
 30
0.0
 70
     8
  0
VERTEX
  5
37CB
  8
AM_4
 10
487.77848718568168
 20
253.67062959001001
 30
0.0
 70
     8
  0
VERTEX
  5
37CC
  8
AM_4
 10
488.79763061479281
 20
254.47758657150769
 30
0.0
 70
     8
  0
VERTEX
  5
37CD
  8
AM_4
 10
483.79763061479281
 20
256.82789706478422
 30
0.0
 70
    16
  0
VERTEX
  5
37CE
  8
AM_4
 10
486.01666846714051
 20
251.3319444861462
 30
0.0
 70
    16
  0
VERTEX
  5
37CF
  8
AM_4
 10
488.79763061479281
 20
254.47758657150769
 30
0.0
 70
    16
  0
SEQEND
  5
37D0
  8
AM_4
  0
LINE
  5
37D1
  8
AM_0
 10
486.79763061479269
 20
268.37545700398442
 30
0.0
 11
486.79763061479269
 21
253.4795880674049
 31
0.0
  0
LINE
  5
37D2
  8
AM_0
 10
485.79763061479292
 20
268.41911794689292
 30
0.0
 11
485.79763061479292
 21
253.7271755187592
 31
0.0
  0
LINE
  5
37D3
  8
AM_0
 10
487.42852163702031
 20
230.37401881692799
 30
0.0
 11
498.42853163702011
 21
230.37401881692799
 31
0.0
  0
LINE
  5
37D4
  8
AM_0
 10
485.92852163702059
 20
220.37400481692791
 30
0.0
 11
515.92851863702037
 21
220.37400481692791
 31
0.0
  0
LINE
  5
37D5
  8
AM_0
 10
485.92852163702059
 20
230.37401881692799
 30
0.0
 11
485.92852163702059
 21
220.37400481692791
 31
0.0
  0
ARC
  5
37D6
  8
AM_0
 10
487.42852163702031
 20
228.8740188169279
 30
0.0
 40
1.5000000299999969
 50
90.00000299999769
 51
180.00001000000091
  0
ARC
  5
37D7
  8
AM_0
 10
510.42851663702021
 20
233.3740188169279
 30
0.0
 40
3.0
 50
270.0
 51
0.0
  0
LINE
  5
37D8
  8
ﾁｭｳｼﾝｾﾝ1
 10
498.42853163702011
 20
233.276287816928
 30
0.0
 11
498.42853163702011
 21
217.76546881692801
 31
0.0
  0
LINE
  5
37D9
  8
AM_0
 10
520.92851963702037
 20
234.8740188169279
 30
0.0
 11
520.92851963702037
 21
225.87401881692799
 31
0.0
  0
LINE
  5
37DA
  8
AM_0
 10
498.42853163702011
 20
230.37401881692799
 30
0.0
 11
513.92851763702015
 21
230.37401881692799
 31
0.0
  0
LINE
  5
37DB
  8
ｶｸﾚｾﾝ2
 10
503.42851763702032
 20
230.37401881692799
 30
0.0
 11
503.42851763702032
 21
220.37400481692791
 31
0.0
  0
LINE
  5
37DC
  8
ｶｸﾚｾﾝ2
 10
493.42852163702059
 20
230.37401881692799
 30
0.0
 11
493.42852163702059
 21
220.37400481692791
 31
0.0
  0
LINE
  5
37DD
  8
AM_0
 10
515.92851863702037
 20
228.3740178169279
 30
0.0
 11
515.92851863702037
 21
220.37400481692791
 31
0.0
  0
ARC
  5
37DE
  8
AM_0
 10
516.92851763702038
 20
220.37400481692791
 30
0.0
 40
1.0000000199999981
 50
90.00000299999769
 51
180.00001000000091
  0
ARC
  5
37DF
  8
AM_0
 10
516.92851763702038
 20
221.87400481692799
 30
0.0
 40
1.0000000199999981
 50
90.00000299999769
 51
180.00001000000091
  0
ARC
  5
37E0
  8
AM_0
 10
513.92851763702015
 20
228.3740178169279
 30
0.0
 40
2.00000007
 50
0.0
 51
90.00000299999769
  0
ARC
  5
37E1
  8
AM_0
 10
517.92851963702014
 20
225.87401881692799
 30
0.0
 40
3.0
 50
270.0
 51
0.0
  0
LINE
  5
37E2
  8
AM_0
 10
516.92851763702038
 20
222.8740188169279
 30
0.0
 11
517.92851963702014
 21
222.8740188169279
 31
0.0
  0
ARC
  5
37E3
  8
AM_0
 10
479.95410088462711
 20
273.67901539064241
 30
0.0
 40
5.0
 50
181.46980635347501
 51
267.50000000000148
1001
GENIUS_GENOBJ-N-FIL_13
1002
{
1000
OWNER
1000
GEN
1002
}
1001
GENIUS_GENODEF_13
1002
{
1000
HIER
1070
     0
1002
}
1002
{
1000
MANEDIT
1070
     0
1002
}
1002
{
1000
NOSEL
1070
     0
1002
}
1002
{
1000
BEHIND
1070
     0
1002
}
1002
{
1000
OTHER
1070
     0
1002
}
1002
{
1000
REACTOR
1002
}
  0
LINE
  5
37E4
  8
AM_0
 10
480.79763061479281
 20
268.63742266143538
 30
0.0
 11
480.79763061479281
 21
254.36847823400649
 31
0.0
  0
LINE
  5
37E5
  8
AM_0
 10
488.79763061479281
 20
268.2881351181673
 30
0.0
 11
488.79763061479281
 21
254.47758657150749
 31
0.0
  0
LINE
  5
37E6
  8
AM_0
 10
483.79763061479281
 20
268.50643983270999
 30
0.0
 11
483.79763061479281
 21
254.69266755743001
 31
0.0
  0
LINE
  5
37E7
  8
AM_0
 10
482.79763061479269
 20
268.55010077561838
 30
0.0
 11
482.79763061479269
 21
254.97706590153089
 31
0.0
  0
ARC
  5
37E8
  8
AM_0
 10
556.04368313702025
 20
288.37402081692801
 30
0.0
 40
74.0
 50
198.32817101502039
 51
200.6491345267662
  0
LINE
  5
37E9
  8
AM_0
 10
489.05304009650621
 20
259.76888587547973
 30
0.0
 11
489.22607407840468
 21
259.76133104867478
 31
0.0
  0
ARC
  5
37EA
  8
AM_0
 10
489.14027887123717
 20
261.76698231864339
 30
0.0
 40
2.0
 50
260.1351844099828
 51
267.50000000000148
1001
GENIUS_GENODEF_13
1002
{
1000
HIER
1070
     0
1002
}
1002
{
1000
MANEDIT
1070
     0
1002
}
1002
{
1000
NOSEL
1070
     0
1002
}
1002
{
1000
BEHIND
1070
     0
1002
}
1002
{
1000
OTHER
1070
     0
1002
}
1002
{
1000
REACTOR
1002
}
1001
GENIUS_GENOBJ-N-FIL_13
1002
{
1000
OWNER
1000
GEN
1002
}
  0
LINE
  5
37EB
  8
AM_0
 10
479.73600394780038
 20
268.68377428273322
 30
0.0
 11
490.17611343813638
 21
268.22794925831698
 31
0.0
  0
ARC
  5
37EC
  8
AM_0
 10
556.04368313702025
 20
288.37402081692801
 30
0.0
 40
69.0
 50
196.97122063449081
 51
197.2364763962058
  0
ARC
  5
37ED
  8
AM_0
 10
555.9285206370206
 20
288.37402081692801
 30
0.0
 40
60.000002999999992
 50
171.12478999999959
 51
172.44925999999899
  0
LINE
  5
37EF
  8
AM_0
 10
594.92852063702048
 20
221.37401881692799
 30
0.0
 11
555.9285206370206
 21
221.37401881692799
 31
0.0
  0
ARC
  5
37F0
  8
AM_0
 10
585.9285206370206
 20
234.8740188169279
 30
0.0
 40
5.0000001000000003
 50
0.0
 51
90.00000299999769
  0
ARC
  5
37F1
  8
AM_0
 10
593.92850663701995
 20
225.87401881692799
 30
0.0
 40
3.0
 50
179.999989999999
 51
270.0
  0
LINE
  5
37F2
  8
AM_0
 10
585.9285206370206
 20
239.87400481692791
 30
0.0
 11
525.92851763702026
 21
239.87400481692791
 31
0.0
  0
ARC
  5
37F3
  8
AM_0
 10
555.9285206370206
 20
236.3740188169279
 30
0.0
 40
6.0000002999999991
 50
176.81527000000079
 51
3.184735999998189
  0
LINE
  5
37F4
  8
AM_0
 10
536.81944763701995
 20
227.28284881692801
 30
0.0
 11
536.81944763701995
 21
233.0563758169279
 31
0.0
  0
LINE
  5
37F5
  8
AM_0
 10
526.81947863702055
 20
233.0563758169279
 30
0.0
 11
526.81947863702055
 21
227.28284881692801
 31
0.0
  0
CIRCLE
  5
37F6
  8
AM_0
 10
531.81944963702051
 20
230.169628816928
 30
0.0
 40
4.9999998000000003
  0
LINE
  5
37F7
  8
AM_0
 10
531.81947963702044
 20
224.39609881692789
 30
0.0
 11
536.81948063702055
 21
227.28284881692801
 31
0.0
  0
LINE
  5
37F8
  8
AM_0
 10
526.81944863702029
 20
227.28284881692801
 30
0.0
 11
531.81944963702051
 21
224.39609881692789
 31
0.0
  0
LINE
  5
37F9
  8
AM_0
 10
536.81944763701995
 20
233.056345816928
 30
0.0
 11
531.81944963702051
 21
235.94309581692789
 31
0.0
  0
LINE
  5
37FA
  8
AM_0
 10
531.81947963702044
 20
235.94309581692789
 30
0.0
 11
526.81947863702055
 21
233.056345816928
 31
0.0
  0
ARC
  5
37FB
  8
AM_0
 10
546.94240463702045
 20
236.87400481692791
 30
0.0
 40
3.0
 50
356.81526000000008
 51
90.00000299999769
  0
LINE
  5
37FC
  8
AM_0
 10
585.0375746370205
 20
227.28284881692801
 30
0.0
 11
585.0375746370205
 21
233.0563758169279
 31
0.0
  0
LINE
  5
37FD
  8
AM_0
 10
575.03756063702008
 20
233.0563758169279
 30
0.0
 11
575.03756063702008
 21
227.28284881692801
 31
0.0
  0
CIRCLE
  5
37FE
  8
AM_0
 10
580.0375736370205
 20
230.169628816928
 30
0.0
 40
4.9999998000000003
  0
LINE
  5
37FF
  8
AM_0
 10
580.0375736370205
 20
224.39609881692789
 30
0.0
 11
585.03758963702035
 21
227.28284881692801
 31
0.0
  0
LINE
  5
3800
  8
AM_0
 10
575.03757563702015
 20
227.28284881692801
 30
0.0
 11
580.0375736370205
 21
224.39609881692789
 31
0.0
  0
ARC
  5
3801
  8
AM_0
 10
564.91461863702045
 20
236.87400481692791
 30
0.0
 40
3.0
 50
90.00000299999769
 51
183.18473999999989
  0
LINE
  5
3802
  8
AM_0
 10
585.0375746370205
 20
233.056345816928
 30
0.0
 11
580.0375736370205
 21
235.94309581692789
 31
0.0
  0
LINE
  5
3803
  8
AM_0
 10
580.03758863702035
 20
235.943110816928
 30
0.0
 11
575.03757563702015
 21
233.05636081692791
 31
0.0
  0
LINE
  5
3804
  8
AM_0
 10
598.42850663702029
 20
292.87402081692801
 30
0.0
 11
598.42850663702029
 21
233.3740188169279
 31
0.0
  0
ARC
  5
3805
  8
AM_0
 10
575.92850363702053
 20
270.3740208169279
 30
0.0
 40
32.000000999999997
 50
314.67825999999889
 51
0.0
  0
LINE
  5
3806
  8
AM_0
 10
624.42852263702036
 20
230.37401881692799
 30
0.0
 11
613.42850663702006
 21
230.37401881692799
 31
0.0
  0
LINE
  5
3807
  8
AM_0
 10
625.92852263702025
 20
220.37400481692791
 30
0.0
 11
595.92851963702037
 21
220.37400481692791
 31
0.0
  0
ARC
  5
3808
  8
AM_0
 10
601.42850663701995
 20
233.3740188169279
 30
0.0
 40
3.0
 50
179.999989999999
 51
270.0
  0
LINE
  5
3809
  8
ﾁｭｳｼﾝｾﾝ1
 10
613.42850663702006
 20
233.30585881692801
 30
0.0
 11
613.42850663702006
 21
217.36267981692799
 31
0.0
  0
LINE
  5
380A
  8
AM_0
 10
590.92850663702029
 20
234.8740188169279
 30
0.0
 11
590.92850663702029
 21
225.87401881692799
 31
0.0
  0
LINE
  5
380B
  8
AM_0
 10
613.42850663702006
 20
230.37401881692799
 30
0.0
 11
597.9285206370206
 21
230.37401881692799
 31
0.0
  0
LINE
  5
380C
  8
AM_0
 10
595.92851963702037
 20
220.37400481692791
 30
0.0
 11
595.92851963702037
 21
228.3740178169279
 31
0.0
  0
ARC
  5
380D
  8
AM_0
 10
594.92852063702048
 20
220.37400481692791
 30
0.0
 40
1.0000000199999981
 50
0.0
 51
90.00000299999769
  0
ARC
  5
380E
  8
AM_0
 10
594.92852063702048
 20
221.87400481692799
 30
0.0
 40
1.0000000199999981
 50
0.0
 51
90.00000299999769
  0
LINE
  5
380F
  8
AM_0
 10
594.92852063702048
 20
222.8740188169279
 30
0.0
 11
593.92850663701995
 21
222.8740188169279
 31
0.0
  0
ARC
  5
3810
  8
AM_0
 10
597.9285206370206
 20
228.3740178169279
 30
0.0
 40
2.00000007
 50
90.00000299999769
 51
180.00001000000091
  0
LINE
  5
3811
  8
ｶｸﾚｾﾝ2
 10
608.42852063702026
 20
230.37401881692799
 30
0.0
 11
608.42852063702026
 21
220.37400481692791
 31
0.0
  0
LINE
  5
3812
  8
ｶｸﾚｾﾝ2
 10
618.42852263702048
 20
230.37401881692799
 30
0.0
 11
618.42852263702048
 21
220.37400481692791
 31
0.0
  0
LINE
  5
3813
  8
AM_0
 10
625.92852263702025
 20
230.37401881692799
 30
0.0
 11
625.92852263702025
 21
220.37400481692791
 31
0.0
  0
ARC
  5
3814
  8
AM_0
 10
624.42852263702036
 20
228.8740188169279
 30
0.0
 40
1.5000000299999969
 50
0.0
 51
90.00000299999769
  0
LINE
  5
3815
  8
ﾁｭｳｼﾝｾﾝ1
 10
519.0750005515265
 20
305.37402181692789
 30
0.0
 11
592.78204072251469
 21
305.37402181692789
 31
0.0
  0
ARC
  5
3816
  8
AM_0
 10
555.9285206370206
 20
243.3740178169279
 30
0.0
 40
105.00000300000001
 50
61.92751500000066
 51
118.0724799999965
  0
ARC
  5
3817
  8
AM_0
 10
555.9285206370206
 20
288.37402081692801
 30
0.0
 40
60.000002999999992
 50
48.330844999997289
 51
131.66914999999591
  0
ARC
  5
3818
  8
AM_0
 10
556.04368313702025
 20
288.37402081692801
 30
0.0
 40
66.0
 50
51.280280407090402
 51
128.4264613545335
  0
ARC
  5
3819
  8
AM_0
 10
518.19487463702035
 20
335.98166581692789
 30
0.0
 40
5.0000001000000003
 50
112.1688000000029
 51
210.1577899999985
  0
LINE
  5
381A
  8
AM_0
 10
481.7424957666056
 20
314.63999247549867
 30
0.0
 11
495.24305736512309
 21
314.05054522631292
 31
0.0
  0
ARC
  5
381B
  8
AM_0
 10
491.713822725792
 20
320.71082739197311
 30
0.0
 40
2.0
 50
87.500000000001435
 51
153.3126135681085
1001
GENIUS_GENODEF_13
1002
{
1000
HIER
1070
     0
1002
}
1002
{
1000
MANEDIT
1070
     0
1002
}
1002
{
1000
NOSEL
1070
     0
1002
}
1002
{
1000
BEHIND
1070
     0
1002
}
1002
{
1000
OTHER
1070
     0
1002
}
1002
{
1000
REACTOR
1002
}
1001
GENIUS_GENOBJ-N-FIL_13
1002
{
1000
OWNER
1000
GEN
1002
}
  0
ARC
  5
381C
  8
AM_0
 10
556.04368313702025
 20
288.37402081692801
 30
0.0
 40
74.0
 50
153.3126135681085
 51
159.39189950030001
  0
ARC
  5
381D
  8
AM_0
 10
481.52439882977922
 20
309.64475136758932
 30
0.0
 40
5.0
 50
87.500000000001435
 51
173.53019364652329
1001
GENIUS_GENODEF_13
1002
{
1000
HIER
1070
     0
1002
}
1002
{
1000
MANEDIT
1070
     0
1002
}
1002
{
1000
NOSEL
1070
     0
1002
}
1002
{
1000
BEHIND
1070
     0
1002
}
1002
{
1000
OTHER
1070
     0
1002
}
1002
{
1000
REACTOR
1002
}
1001
GENIUS_GENOBJ-N-FIL_13
1002
{
1000
OWNER
1000
GEN
1002
}
  0
ARC
  5
381E
  8
AM_0
 10
504.3605546370203
 20
327.94349581692802
 30
0.0
 40
11.000000399999999
 50
254.8363599999997
 51
30.157795000003929
  0
ARC
  5
381F
  8
AM_0
 10
556.04368313702025
 20
288.37402081692801
 30
0.0
 40
69.0
 50
150.3371115778433
 51
158.02877936551451
  0
ARC
  5
3820
  8
AM_0
 10
555.9285206370206
 20
288.37402081692801
 30
0.0
 40
60.000002999999992
 50
153.3308500000023
 51
170.94546000000039
  0
ARC
  5
3821
  8
AM_0
 10
500.1753446370202
 20
312.500578816928
 30
0.0
 40
5.0000001000000003
 50
74.836353999996945
 51
173.59761999999901
  0
ARC
  5
3822
  8
AM_0
 10
504.99257363702031
 20
313.95776281692798
 30
0.0
 40
3.0
 50
92.587449000000944
 51
153.3308500000023
  0
ARC
  5
3823
  8
AM_0
 10
508.92851663702049
 20
312.60943381692789
 30
0.0
 40
5.0000001000000003
 50
106.5886100000029
 51
180.00001000000091
  0
LINE
  5
3824
  8
AM_0
 10
505.94725463702059
 20
320.95251181692788
 30
0.0
 11
510.94725563702048
 21
323.83926181692789
 31
0.0
  0
CIRCLE
  5
3825
  8
AM_0
 10
505.94725463702059
 20
326.72597581692793
 30
0.0
 40
4.9999998000000003
  0
LINE
  5
3826
  8
AM_0
 10
510.94722563702049
 20
329.61272581692788
 30
0.0
 11
505.94725463702059
 21
332.499475816928
 31
0.0
  0
ARC
  5
3827
  8
AM_0
 10
515.92851863702037
 20
318.3740208169279
 30
0.0
 40
20.000000700000001
 50
118.0724799999965
 51
173.59761999999901
  0
LINE
  5
3828
  8
AM_0
 10
505.94725463702059
 20
332.49950581692798
 30
0.0
 11
500.9472566370203
 21
329.61275581692797
 31
0.0
  0
LINE
  5
3829
  8
AM_0
 10
495.81041567774122
 20
322.03339530872358
 30
0.0
 11
496.26248011872991
 21
322.01365774897482
 31
0.0
  0
LINE
  5
382A
  8
AM_0
 10
491.80106150052262
 20
322.70892383513677
 30
0.0
 11
496.08597786583368
 21
322.52184034634331
 31
0.0
  0
LINE
  5
382B
  8
AM_0
 10
500.9472566370203
 20
323.83923181692791
 30
0.0
 11
505.94725463702059
 21
320.9524818169279
 31
0.0
  0
LINE
  5
382C
  8
AM_0
 10
500.9472566370203
 20
329.61272581692788
 30
0.0
 11
500.9472566370203
 21
323.83923181692791
 31
0.0
  0
LINE
  5
382D
  8
AM_0
 10
510.94725563702048
 20
323.83923181692791
 30
0.0
 11
510.94725563702048
 21
329.61272581692788
 31
0.0
  0
ARC
  5
382E
  8
AM_0
 10
518.03331563702045
 20
330.9527958169279
 30
0.0
 40
3.0
 50
131.66914999999591
 51
192.41255000000001
  0
CIRCLE
  5
382F
  8
AM_0
 10
555.9285206370206
 20
305.37402181692789
 30
0.0
 40
2.4999998400000001
  0
LINE
  5
3830
  8
AM_0
 10
552.9285206370206
 20
311.37402181692789
 30
0.0
 11
558.92852063702026
 21
311.37402181692789
 31
0.0
  0
LINE
  5
3831
  8
AM_0
 10
558.92852063702026
 20
317.37402181692789
 30
0.0
 11
552.9285206370206
 21
317.37402181692789
 31
0.0
  0
CIRCLE
  5
3832
  8
AM_4
 10
555.9285206370206
 20
305.37402181692789
 30
0.0
 40
3.0
  0
LINE
  5
3833
  8
AM_0
 10
552.9285206370206
 20
317.37402181692789
 30
0.0
 11
552.9285206370206
 21
311.37402181692789
 31
0.0
  0
LINE
  5
3834
  8
AM_0
 10
558.92852063702026
 20
311.37402181692789
 30
0.0
 11
558.92852063702026
 21
317.37402181692789
 31
0.0
  0
ARC
  5
3835
  8
AM_0
 10
593.66216363702051
 20
335.98166581692789
 30
0.0
 40
5.0000001000000003
 50
329.84219999999971
 51
67.831202999998027
  0
ARC
  5
3836
  8
AM_0
 10
607.49648363702045
 20
327.94349581692802
 30
0.0
 40
11.000000399999999
 50
149.8422100000013
 51
285.1636500000007
  0
ARC
  5
3837
  8
AM_0
 10
602.92850663702029
 20
312.60943381692789
 30
0.0
 40
5.0000001000000003
 50
0.0
 51
73.411385000001331
  0
ARC
  5
3838
  8
AM_0
 10
606.86447963702039
 20
313.95776281692798
 30
0.0
 40
3.0
 50
26.66915699999943
 51
87.412549000002571
  0
ARC
  5
3839
  8
AM_0
 10
555.9285206370206
 20
288.37402081692801
 30
0.0
 40
60.000002999999992
 50
9.0545419000017677
 51
26.66915699999943
  0
ARC
  5
383A
  8
AM_0
 10
611.68171163702061
 20
312.500578816928
 30
0.0
 40
5.0000001000000003
 50
6.4023798000018921
 51
105.1636400000003
  0
CIRCLE
  5
383B
  8
AM_0
 10
605.90976863702053
 20
326.72597581692793
 30
0.0
 40
4.9999998000000003
  0
LINE
  5
383C
  8
AM_0
 10
605.9097836370205
 20
320.9524818169279
 30
0.0
 11
610.90978463702038
 21
323.83923181692791
 31
0.0
  0
ARC
  5
383D
  8
AM_0
 10
595.92851963702037
 20
318.3740208169279
 30
0.0
 40
20.000000700000001
 50
6.4023798000018921
 51
61.92751500000066
  0
LINE
  5
383E
  8
AM_0
 10
610.90976663702031
 20
329.61272581692788
 30
0.0
 11
605.90976863702053
 21
332.499475816928
 31
0.0
  0
LINE
  5
383F
  8
AM_0
 10
605.9097836370205
 20
332.499475816928
 30
0.0
 11
600.90978263702027
 21
329.61272581692788
 31
0.0
  0
LINE
  5
3840
  8
AM_0
 10
600.90976763702054
 20
323.83923181692791
 30
0.0
 11
605.90976863702053
 21
320.9524818169279
 31
0.0
  0
LINE
  5
3841
  8
AM_0
 10
600.90976763702054
 20
329.61272581692788
 30
0.0
 11
600.90976763702054
 21
323.83923181692791
 31
0.0
  0
ARC
  5
3842
  8
AM_0
 10
593.82372263702052
 20
330.9527958169279
 30
0.0
 40
3.0
 50
347.58744999999982
 51
48.330844999997289
  0
LINE
  5
3843
  8
AM_0
 10
610.90978463702038
 20
323.83923181692791
 30
0.0
 11
610.90978463702038
 21
329.61272581692788
 31
0.0
  0
ARC
  5
3844
  8
ｽﾝﾎ_ｳｾﾝ
 10
190.3787326013084
 20
198.85509224006279
 30
0.0
 40
1.5050001119999981
 50
34.081774240386501
 51
298.90870486052683
  0
ARC
  5
3845
  8
AM_0
 10
190.4191786013084
 20
198.85515734006239
 30
0.0
 40
2.3091486599999991
 50
164.90527199999909
 51
290.87219614688911
  0
ARC
  5
3846
  8
ｽﾝﾎ_ｳｾﾝ
 10
196.36075660130831
 20
198.85509224006279
 30
0.0
 40
1.5050001119999981
 50
241.0912951394732
 51
145.91822575961351
  0
ARC
  5
3847
  8
AM_0
 10
196.32031060130831
 20
198.85515734006239
 30
0.0
 40
2.3091486599999991
 50
249.12780385311081
 51
15.094728000000879
  0
CIRCLE
  5
3848
  8
ｽﾝﾎ_ｳｾﾝ
 10
193.37423860130841
 20
197.47923215421639
 30
0.0
 40
1.5050001119999981
  0
ARC
  5
3849
  8
AM_0
 10
193.41468460130841
 20
197.47929725421631
 30
0.0
 40
2.3091486599999991
 50
164.90527199999909
 51
16.267320000001838
  0
POINT
  5
384A
  8
0
 10
127.86802580559529
 20
514.19995760864481
 30
0.0
1001
GENIUS_GENOLIS_13
1002
{
1000
ENT
1005
0
1005
374E
1005
376C
1002
}
1001
GENIUS_GENOENT_13
1002
{
1000
MYREF
1005
384A
1002
}
1002
{
1000
GRP
1005
0
1002
}
1001
GENIUS_GENOBJ-NBEHI-BHB_13
1002
{
1000
OWNER
1000
genbehi
1002
}
1001
GENIUS_GENBH_13
1002
{
1000
FGO
1005
0
1002
}
1001
GENIUS_GENODEF_13
1002
{
1000
HIER
1070
     1
1002
}
1002
{
1000
MANEDIT
1070
     1
1002
}
1002
{
1000
NOSEL
1070
     1
1002
}
1002
{
1000
BEHIND
1070
     0
1002
}
1002
{
1000
OTHER
1070
     1
1002
}
1002
{
1000
REACTOR
1002
}
  0
LINE
  5
39C1
  8
AM_0
 10
285.87423860130838
 20
564.54289225981336
 30
0.0
 11
285.87423860130838
 21
438.54289225981353
 31
0.0
  0
LINE
  5
39C2
  8
AM_0
 10
139.87423860130849
 20
565.14289225981338
 30
0.0
 11
139.87423860130849
 21
437.9428922598135
 31
0.0
  0
LINE
  5
39C3
  8
AM_0
 10
142.37423860130841
 20
567.14289225981361
 30
0.0
 11
142.37423860130841
 21
435.9428922598135
 31
0.0
  0
LINE
  5
39C4
  8
AM_0
 10
278.87423860130838
 20
567.54289225981347
 30
0.0
 11
278.87423860130838
 21
435.54289225981353
 31
0.0
  0
LINE
  5
39C5
  8
AM_0
 10
267.37423860130838
 20
567.54289225981347
 30
0.0
 11
267.37423860130838
 21
435.54289225981353
 31
0.0
  0
LINE
  5
39C6
  8
AM_0
 10
141.87423860130841
 20
567.14289225981361
 30
0.0
 11
267.37423860130838
 21
567.14289225981361
 31
0.0
  0
ARC
  5
39C7
  8
AM_0
 10
137.87423860130849
 20
560.44102438843379
 30
0.0
 40
2.0
 50
311.63353933656958
 51
0.0
1001
GENIUS_GENOBJ-N-FIL_13
1002
{
1000
OWNER
1000
GEN
1002
}
1001
GENIUS_GENODEF_13
1002
{
1000
HIER
1070
     0
1002
}
1002
{
1000
MANEDIT
1070
     0
1002
}
1002
{
1000
NOSEL
1070
     0
1002
}
1002
{
1000
BEHIND
1070
     0
1002
}
1002
{
1000
OTHER
1070
     0
1002
}
1002
{
1000
REACTOR
1002
}
  0
ARC
  5
39C8
  8
AM_0
 10
141.87423860130841
 20
565.14289225981338
 30
0.0
 40
2.0
 50
90.0
 51
180.0
1001
GENIUS_GENOBJ-N-FIL_13
1002
{
1000
OWNER
1000
GEN
1002
}
1001
GENIUS_GENODEF_13
1002
{
1000
HIER
1070
     0
1002
}
1002
{
1000
MANEDIT
1070
     0
1002
}
1002
{
1000
NOSEL
1070
     0
1002
}
1002
{
1000
BEHIND
1070
     0
1002
}
1002
{
1000
OTHER
1070
     0
1002
}
1002
{
1000
REACTOR
1002
}
  0
LINE
  5
39C9
  8
AM_0
 10
267.37423860130838
 20
567.54289225981347
 30
0.0
 11
278.87423860130838
 21
567.54289225981347
 31
0.0
  0
LINE
  5
39CA
  8
AM_0
 10
278.87423860130838
 20
567.54289225981347
 30
0.0
 11
285.87423860130838
 21
564.54289225981347
 31
0.0
  0
ARC
  5
39CB
  8
AM_0
 10
1074.5603624111279
 20
501.54289225981307
 30
0.0
 40
940.68612380981915
 50
176.76392470776159
 51
183.2360752922383
  0
LINE
  5
39CC
  8
AM_0
 10
135.37423860130849
 20
554.6447601311927
 30
0.0
 11
135.37423860130841
 21
448.44102438843379
 31
0.0
  0
LINE
  5
39CD
  8
AM_0
 10
124.37423860130851
 20
518.54289225981347
 30
0.0
 11
124.37423860130841
 21
484.54289225981353
 31
0.0
  0
LINE
  5
39D1
  8
AM_0
 10
141.87423860130841
 20
435.9428922598135
 30
0.0
 11
145.37423860130841
 21
435.9428922598135
 31
0.0
  0
ARC
  5
39D3
  8
AM_0
 10
141.87423860130841
 20
437.9428922598135
 30
0.0
 40
2.0
 50
180.0
 51
270.0
1001
GENIUS_GENOBJ-N-FIL_13
1002
{
1000
OWNER
1000
GEN
1002
}
1001
GENIUS_GENODEF_13
1002
{
1000
HIER
1070
     0
1002
}
1002
{
1000
MANEDIT
1070
     0
1002
}
1002
{
1000
NOSEL
1070
     0
1002
}
1002
{
1000
BEHIND
1070
     0
1002
}
1002
{
1000
OTHER
1070
     0
1002
}
1002
{
1000
REACTOR
1002
}
  0
ARC
  5
39D4
  8
AM_0
 10
137.37423860130841
 20
448.44102438843379
 30
0.0
 40
2.0
 50
180.0
 51
228.3664606634303
1001
GENIUS_GENODEF_13
1002
{
1000
HIER
1070
     0
1002
}
1002
{
1000
MANEDIT
1070
     0
1002
}
1002
{
1000
NOSEL
1070
     0
1002
}
1002
{
1000
BEHIND
1070
     0
1002
}
1002
{
1000
OTHER
1070
     0
1002
}
1002
{
1000
REACTOR
1002
}
1001
GENIUS_GENOBJ-N-FIL_13
1002
{
1000
OWNER
1000
GEN
1002
}
  0
LINE
  5
39D5
  8
AM_0
 10
139.20296627896829
 20
444.13957876856023
 30
0.0
 11
136.04551092364861
 21
446.94620575106671
 31
0.0
  0
ARC
  5
39D6
  8
AM_0
 10
137.87423860130849
 20
442.6447601311927
 30
0.0
 40
2.0
 50
0.0
 51
48.366460663430352
1001
GENIUS_GENOBJ-N-FIL_13
1002
{
1000
OWNER
1000
GEN
1002
}
1001
GENIUS_GENODEF_13
1002
{
1000
HIER
1070
     0
1002
}
1002
{
1000
MANEDIT
1070
     0
1002
}
1002
{
1000
NOSEL
1070
     0
1002
}
1002
{
1000
BEHIND
1070
     0
1002
}
1002
{
1000
OTHER
1070
     0
1002
}
1002
{
1000
REACTOR
1002
}
  0
ARC
  5
39D7
  8
AM_0
 10
127.37423860130841
 20
484.54289225981353
 30
0.0
 40
3.0
 50
180.0
 51
270.0
1001
GENIUS_GENODEF_13
1002
{
1000
HIER
1070
     0
1002
}
1002
{
1000
MANEDIT
1070
     0
1002
}
1002
{
1000
NOSEL
1070
     0
1002
}
1002
{
1000
BEHIND
1070
     0
1002
}
1002
{
1000
OTHER
1070
     0
1002
}
1002
{
1000
REACTOR
1002
}
1001
GENIUS_GENOBJ-N-FIL_13
1002
{
1000
OWNER
1000
GEN
1002
}
  0
LINE
  5
39DA
  8
AM_0
 10
127.37423860130841
 20
481.54289225981358
 30
0.0
 11
134.08687340235059
 21
481.54289225981358
 31
0.0
  0
LINE
  5
3A4F
  8
AM_0
 10
285.87423860130838
 20
438.54289225981353
 30
0.0
 11
278.87423860130838
 21
435.54289225981353
 31
0.0
  0
LINE
  5
3A50
  8
AM_0
 10
267.37423860130838
 20
435.54289225981353
 30
0.0
 11
278.87423860130838
 21
435.54289225981353
 31
0.0
  0
ARC
  5
3A63
  8
AM_0
 10
127.37423860130851
 20
518.54289225981347
 30
0.0
 40
3.0
 50
90.0
 51
180.0
1001
GENIUS_GENOBJ-N-FIL_13
1002
{
1000
OWNER
1000
GEN
1002
}
1001
GENIUS_GENODEF_13
1002
{
1000
HIER
1070
     0
1002
}
1002
{
1000
MANEDIT
1070
     0
1002
}
1002
{
1000
NOSEL
1070
     0
1002
}
1002
{
1000
BEHIND
1070
     0
1002
}
1002
{
1000
OTHER
1070
     0
1002
}
1002
{
1000
REACTOR
1002
}
  0
LINE
  5
3A65
  8
AM_0
 10
127.37423860130851
 20
521.54289225981347
 30
0.0
 11
134.08687340235059
 21
521.54289225981347
 31
0.0
  0
LINE
  5
3A67
  8
AM_0
 10
139.20296627896829
 20
558.94620575106671
 30
0.0
 11
136.04551092364861
 21
556.13957876856045
 31
0.0
  0
ARC
  5
3A68
  8
AM_0
 10
137.37423860130849
 20
554.6447601311927
 30
0.0
 40
2.0
 50
131.63353933656961
 51
180.0
1001
GENIUS_GENODEF_13
1002
{
1000
HIER
1070
     0
1002
}
1002
{
1000
MANEDIT
1070
     0
1002
}
1002
{
1000
NOSEL
1070
     0
1002
}
1002
{
1000
BEHIND
1070
     0
1002
}
1002
{
1000
OTHER
1070
     0
1002
}
1002
{
1000
REACTOR
1002
}
1001
GENIUS_GENOBJ-N-FIL_13
1002
{
1000
OWNER
1000
GEN
1002
}
  0
LINE
  5
3B6E
  8
AM_0
 10
201.37423860130841
 20
441.2839192866345
 30
0.0
 11
175.87423860130841
 21
441.2839192866345
 31
0.0
  0
LINE
  5
3B6F
  8
AM_0
 10
201.37423860130841
 20
423.8904940295821
 30
0.0
 11
147.37423860130841
 21
423.89049402958159
 31
0.0
  0
LINE
  5
3B70
  8
AM_0
 10
201.37423860130841
 20
420.482893030875
 30
0.0
 11
147.37423860130841
 21
420.4828930308754
 31
0.0
  0
LINE
  5
3B71
  8
AM_0
 10
203.37423860130841
 20
439.2839192866345
 30
0.0
 11
203.37423860130841
 21
422.48289303087512
 31
0.0
  0
LINE
  5
3B72
  8
AM_0
 10
145.37423860130841
 20
439.2839192866345
 30
0.0
 11
145.37423860130841
 21
422.4828930308754
 31
0.0
  0
ARC
  5
3B75
  8
AM_0
 10
147.37423860130841
 20
439.2839192866345
 30
0.0
 40
2.0
 50
90.0
 51
180.0
1001
GENIUS_GENOBJ-N-FIL_13
1002
{
1000
OWNER
1000
GEN
1002
}
1001
GENIUS_GENODEF_13
1002
{
1000
HIER
1070
     0
1002
}
1002
{
1000
MANEDIT
1070
     0
1002
}
1002
{
1000
NOSEL
1070
     0
1002
}
1002
{
1000
BEHIND
1070
     0
1002
}
1002
{
1000
OTHER
1070
     0
1002
}
1002
{
1000
REACTOR
1002
}
  0
ARC
  5
3B77
  8
AM_0
 10
201.37423860130841
 20
439.2839192866345
 30
0.0
 40
2.0
 50
0.0
 51
90.0
1001
GENIUS_GENODEF_13
1002
{
1000
HIER
1070
     0
1002
}
1002
{
1000
MANEDIT
1070
     0
1002
}
1002
{
1000
NOSEL
1070
     0
1002
}
1002
{
1000
BEHIND
1070
     0
1002
}
1002
{
1000
OTHER
1070
     0
1002
}
1002
{
1000
REACTOR
1002
}
1001
GENIUS_GENOBJ-N-FIL_13
1002
{
1000
OWNER
1000
GEN
1002
}
  0
ARC
  5
3B79
  8
AM_0
 10
201.37423860130841
 20
425.8904940295821
 30
0.0
 40
2.0
 50
270.0
 51
0.0
1001
GENIUS_GENOBJ-N-FIL_13
1002
{
1000
OWNER
1000
GEN
1002
}
1001
GENIUS_GENODEF_13
1002
{
1000
HIER
1070
     0
1002
}
1002
{
1000
MANEDIT
1070
     0
1002
}
1002
{
1000
NOSEL
1070
     0
1002
}
1002
{
1000
BEHIND
1070
     0
1002
}
1002
{
1000
OTHER
1070
     0
1002
}
1002
{
1000
REACTOR
1002
}
  0
ARC
  5
3B7B
  8
AM_0
 10
201.37423860130841
 20
422.48289303087512
 30
0.0
 40
2.0
 50
270.0
 51
0.0
1001
GENIUS_GENOBJ-N-FIL_13
1002
{
1000
OWNER
1000
GEN
1002
}
1001
GENIUS_GENODEF_13
1002
{
1000
HIER
1070
     0
1002
}
1002
{
1000
MANEDIT
1070
     0
1002
}
1002
{
1000
NOSEL
1070
     0
1002
}
1002
{
1000
BEHIND
1070
     0
1002
}
1002
{
1000
OTHER
1070
     0
1002
}
1002
{
1000
REACTOR
1002
}
  0
ARC
  5
3B7D
  8
AM_0
 10
147.37423860130841
 20
425.89049402958199
 30
0.0
 40
2.0
 50
180.0
 51
270.00000000000011
1001
GENIUS_GENODEF_13
1002
{
1000
HIER
1070
     0
1002
}
1002
{
1000
MANEDIT
1070
     0
1002
}
1002
{
1000
NOSEL
1070
     0
1002
}
1002
{
1000
BEHIND
1070
     0
1002
}
1002
{
1000
OTHER
1070
     0
1002
}
1002
{
1000
REACTOR
1002
}
1001
GENIUS_GENOBJ-N-FIL_13
1002
{
1000
OWNER
1000
GEN
1002
}
  0
ARC
  5
3B7F
  8
AM_0
 10
147.37423860130841
 20
422.4828930308754
 30
0.0
 40
2.0
 50
180.0
 51
269.99999999999989
1001
GENIUS_GENOBJ-N-FIL_13
1002
{
1000
OWNER
1000
GEN
1002
}
1001
GENIUS_GENODEF_13
1002
{
1000
HIER
1070
     0
1002
}
1002
{
1000
MANEDIT
1070
     0
1002
}
1002
{
1000
NOSEL
1070
     0
1002
}
1002
{
1000
BEHIND
1070
     0
1002
}
1002
{
1000
OTHER
1070
     0
1002
}
1002
{
1000
REACTOR
1002
}
  0
LINE
  5
3B80
  8
AM_0
 10
203.37423860130841
 20
435.9428922598135
 30
0.0
 11
267.37423860130838
 21
435.9428922598135
 31
0.0
  0
LINE
  5
3B81
  8
AM_0
 10
175.87423860130841
 20
432.39329632711878
 30
0.0
 11
171.87423860130849
 21
432.39329632711878
 31
0.0
  0
LINE
  5
3B83
  8
AM_0
 10
159.87423860130841
 20
445.25209928034491
 30
0.0
 11
159.87423860130841
 21
432.39329632711878
 31
0.0
  0
LINE
  5
3B85
  8
AM_0
 10
175.87423860130841
 20
445.25209928034411
 30
0.0
 11
175.87423860130841
 21
432.39329632711878
 31
0.0
  0
LINE
  5
3B86
  8
AM_0
 10
159.87423860130841
 20
441.2839192866345
 30
0.0
 11
147.37423860130841
 21
441.2839192866345
 31
0.0
  0
LINE
  5
3B87
  8
AM_0
 10
163.87423860130841
 20
441.70031498862562
 30
0.0
 11
163.87423860130841
 21
432.39329632711878
 31
0.0
  0
LINE
  5
3B89
  8
AM_0
 10
171.87423860130849
 20
441.70031498862568
 30
0.0
 11
171.87423860130849
 21
432.39329632711878
 31
0.0
  0
LINE
  5
3B8A
  8
AM_0
 10
163.87423860130841
 20
432.39329632711878
 30
0.0
 11
159.87423860130841
 21
432.39329632711878
 31
0.0
  0
LINE
  5
3B8B
  8
AM_0
 10
171.87423860130849
 20
437.66935912562781
 30
0.0
 11
163.87423860130841
 21
437.66935912562781
 31
0.0
  0
LINE
  5
3BA2
  8
AM_0
 10
175.87423860130841
 20
445.25209928034491
 30
0.0
 11
159.87423860130841
 21
445.25209928034491
 31
0.0
1001
GENIUS_GENOREF_13
1005
3BC2
  0
POINT
  5
3BC2
  8
0
 10
0.0
 20
0.0
 30
0.0
1001
GENIUS_GENOLIS_13
1002
{
1000
ENT
1005
3B6D
1005
3BA1
1005
3B9F
1005
3BA2
1002
}
1001
GENIUS_GENOENT_13
1002
{
1000
MYREF
1005
3BC2
1002
}
1002
{
1000
GRP
1005
0
1002
}
1001
GENIUS_GENOBJ-NBEHI-BHB_13
1002
{
1000
OWNER
1000
genbehi
1002
}
1001
GENIUS_GENBH_13
1002
{
1000
FGO
1005
3BC1
1002
}
1001
GENIUS_GENODEF_13
1002
{
1000
HIER
1070
     1
1002
}
1002
{
1000
MANEDIT
1070
     1
1002
}
1002
{
1000
NOSEL
1070
     1
1002
}
1002
{
1000
BEHIND
1070
     0
1002
}
1002
{
1000
OTHER
1070
     1
1002
}
1002
{
1000
REACTOR
1002
}
  0
LINE
  5
3BC7
  8
AM_0N
 10
170.58778515600881
 20
440.71214758709641
 30
0.0
 11
170.67423860130839
 21
441.70031498862562
 31
0.0
1001
GENIUS_GENOREF_13
1005
0
  0
LINE
  5
3BC8
  8
AM_0N
 10
165.16069204660809
 20
440.71214758709641
 30
0.0
 11
165.07423860130839
 21
441.70031498862562
 31
0.0
1001
GENIUS_GENOREF_13
1005
0
  0
ARC
  5
3BCA
  8
AM_0N
 10
167.87423860130841
 20
444.3003149886257
 30
0.0
 40
5.0
 50
246.4528627629233
 51
293.54713723707658
1001
GENIUS_GENOREF_13
1005
0
  0
ARC
  5
3BCB
  8
AM_0N
 10
166.35612568431819
 20
440.81673447839381
 30
0.0
 40
1.1999999999999991
 50
184.99999999999989
 51
246.4528627629233
1001
GENIUS_GENOREF_13
1005
0
  0
LINE
  5
3BCC
  8
AM_3N
  6
AM_ISO02W050X2
 10
169.37423860130841
 20
439.5306189815409
 30
0.0
 11
167.87423860130841
 21
441.4180290100997
 31
0.0
1001
GENIUS_GENOREF_13
1005
0
  0
LINE
  5
3BCD
  8
AM_3N
  6
AM_ISO02W050X2
 10
168.1267386013084
 20
441.1003149886256
 30
0.0
 11
167.62173860130841
 21
441.1003149886256
 31
0.0
1001
GENIUS_GENOREF_13
1005
0
  0
LINE
  5
3BCE
  8
AM_3N
  6
AM_ISO02W050X2
 10
166.37423860130841
 20
439.5306189815409
 30
0.0
 11
167.87423860130841
 21
441.4180290100997
 31
0.0
1001
GENIUS_GENOREF_13
1005
0
  0
LINE
  5
3BCF
  8
AM_3N
  6
AM_ISO02W050X2
 10
168.1267386013084
 20
439.3066946836766
 30
0.0
 11
168.1267386013084
 21
441.1003149886256
 31
0.0
1001
GENIUS_GENOREF_13
1005
0
  0
LINE
  5
3BD0
  8
AM_3N
  6
AM_ISO02W050X2
 10
167.62173860130841
 20
439.3066946836766
 30
0.0
 11
167.62173860130841
 21
441.1003149886256
 31
0.0
1001
GENIUS_GENOREF_13
1005
0
  0
ARC
  5
3BD1
  8
AM_0N
 10
169.3923515182986
 20
440.81673447839381
 30
0.0
 40
1.1999999999999991
 50
293.54713723707681
 51
355.00000000000011
1001
GENIUS_GENOREF_13
1005
0
  0
LINE
  5
3BD2
  8
AM_0N
 10
159.87423860130841
 20
441.70031498862562
 30
0.0
 11
175.87423860130841
 21
441.70031498862562
 31
0.0
1001
GENIUS_GENOREF_13
1005
0
  0
TEXT
  5
403C
  8
AM_0
 10
494.61189740913233
 20
502.86299102357339
 30
0.0
 40
10.0
  1
VX01-005S~VX01-050S
  0
ENDSEC
  0
EOF
