  0
SECTION
  2
HEADER
  9
$ACADVER
  1
AC1009
  9
$INSBASE
 10
0.0
 20
0.0
 30
0.0
  9
$EXTMIN
 10
92.324442924423693
 20
184.2690597506446
 30
-0.0015258207003583
  9
$EXTMAX
 10
641.93735446334665
 20
577.49115992833947
 30
0.0000000349246037
  9
$LIMMIN
 10
0.0
 20
0.0
  9
$LIMMAX
 10
853.5
 20
555.00000000000011
  9
$ORTHOMODE
 70
     0
  9
$REGENMODE
 70
     1
  9
$FILLMODE
 70
     1
  9
$QTEXTMODE
 70
     0
  9
$MIRRTEXT
 70
     1
  9
$DRAGMODE
 70
     2
  9
$LTSCALE
 40
3.0
  9
$OSMODE
 70
   551
  9
$ATTMODE
 70
     1
  9
$TEXTSIZE
 40
2.5
  9
$TRACEWID
 40
1.0
  9
$TEXTSTYLE
  7
STANDARD
  9
$CLAYER
  8
AM_0
  9
$CELTYPE
  6
BYLAYER
  9
$CECOLOR
 62
   256
  9
$DIMSCALE
 40
1.0
  9
$DIMASZ
 40
2.5
  9
$DIMEXO
 40
1.0
  9
$DIMDLI
 40
8.0
  9
$DIMRND
 40
0.0
  9
$DIMDLE
 40
0.0
  9
$DIMEXE
 40
0.6
  9
$DIMTP
 40
0.1
  9
$DIMTM
 40
0.1
  9
$DIMTXT
 40
2.5
  9
$DIMCEN
 40
0.0
  9
$DIMTSZ
 40
0.0
  9
$DIMTOL
 70
     0
  9
$DIMLIM
 70
     0
  9
$DIMTIH
 70
     0
  9
$DIMTOH
 70
     0
  9
$DIMSE1
 70
     0
  9
$DIMSE2
 70
     0
  9
$DIMTAD
 70
     1
  9
$DIMZIN
 70
     8
  9
$DIMBLK
  1

  9
$DIMASO
 70
     1
  9
$DIMSHO
 70
     1
  9
$DIMPOST
  1

  9
$DIMAPOST
  1
"
  9
$DIMALT
 70
     0
  9
$DIMALTD
 70
     2
  9
$DIMALTF
 40
0.0393701
  9
$DIMLFAC
 40
1.0
  9
$DIMTOFL
 70
     1
  9
$DIMTVP
 40
0.0
  9
$DIMTIX
 70
     0
  9
$DIMSOXD
 70
     0
  9
$DIMSAH
 70
     0
  9
$DIMBLK1
  1

  9
$DIMBLK2
  1

  9
$DIMSTYLE
  2
AM_ISO
  9
$DIMCLRD
 70
   256
  9
$DIMCLRE
 70
   256
  9
$DIMCLRT
 70
     4
  9
$DIMTFAC
 40
0.71
  9
$DIMGAP
 40
0.8
  9
$LUNITS
 70
     2
  9
$LUPREC
 70
     2
  9
$SKETCHINC
 40
1.0
  9
$FILLETRAD
 40
15.0
  9
$AUNITS
 70
     0
  9
$AUPREC
 70
     0
  9
$MENU
  1
.
  9
$ELEVATION
 40
0.0
  9
$PELEVATION
 40
0.0
  9
$THICKNESS
 40
0.0
  9
$LIMCHECK
 70
     0
  9
$BLIPMODE
 70
     0
  9
$CHAMFERA
 40
6.0
  9
$CHAMFERB
 40
3.0
  9
$SKPOLY
 70
     0
  9
$TDCREATE
 40
2452065.6147138998
  9
$TDUPDATE
 40
2458541.5651783221
  9
$TDINDWG
 40
0.1069570255
  9
$TDUSRTIMER
 40
0.1069568171
  9
$USRTIMER
 70
     1
  9
$ANGBASE
 50
0.0
  9
$ANGDIR
 70
     0
  9
$PDMODE
 70
     0
  9
$PDSIZE
 40
0.0
  9
$PLINEWID
 40
0.0
  9
$COORDS
 70
     1
  9
$SPLFRAME
 70
     0
  9
$SPLINETYPE
 70
     6
  9
$SPLINESEGS
 70
     8
  9
$ATTDIA
 70
     1
  9
$ATTREQ
 70
     1
  9
$HANDLING
 70
     1
  9
$HANDSEED
  5
3A0D
  9
$SURFTAB1
 70
     6
  9
$SURFTAB2
 70
     6
  9
$SURFTYPE
 70
     6
  9
$SURFU
 70
     6
  9
$SURFV
 70
     6
  9
$UCSNAME
  2

  9
$UCSORG
 10
0.0
 20
0.0
 30
0.0
  9
$UCSXDIR
 10
1.0
 20
0.0
 30
0.0
  9
$UCSYDIR
 10
0.0
 20
1.0
 30
0.0
  9
$PUCSNAME
  2

  9
$PUCSORG
 10
0.0
 20
0.0
 30
0.0
  9
$PUCSXDIR
 10
1.0
 20
0.0
 30
0.0
  9
$PUCSYDIR
 10
0.0
 20
1.0
 30
0.0
  9
$USERI1
 70
     0
  9
$USERI2
 70
     0
  9
$USERI3
 70
     0
  9
$USERI4
 70
     0
  9
$USERI5
 70
     0
  9
$USERR1
 40
0.0
  9
$USERR2
 40
0.0
  9
$USERR3
 40
0.0
  9
$USERR4
 40
0.0
  9
$USERR5
 40
0.0
  9
$WORLDVIEW
 70
     1
  9
$SHADEDGE
 70
     3
  9
$SHADEDIF
 70
    70
  9
$TILEMODE
 70
     1
  9
$MAXACTVP
 70
    64
  9
$PLIMCHECK
 70
     0
  9
$PEXTMIN
 10
1.0000000000000000E+020
 20
1.0000000000000000E+020
 30
1.0000000000000000E+020
  9
$PEXTMAX
 10
-1.0000000000000000E+020
 20
-1.0000000000000000E+020
 30
-1.0000000000000000E+020
  9
$PLIMMIN
 10
0.0
 20
0.0
  9
$PLIMMAX
 10
420.0
 20
297.0
  9
$UNITMODE
 70
     0
  9
$VISRETAIN
 70
     1
  9
$PLINEGEN
 70
     0
  9
$PSLTSCALE
 70
     1
  0
ENDSEC
  0
SECTION
  2
TABLES
  0
TABLE
  2
VPORT
 70
     1
  0
VPORT
  2
*ACTIVE
 70
     0
 10
0.0
 20
0.0
 11
1.0
 21
1.0
 12
367.13089869388517
 22
380.88010983949209
 13
0.0
 23
0.0
 14
7.5
 24
7.5
 15
30.0
 25
30.0
 16
0.0
 26
0.0
 36
1.0
 17
0.0
 27
0.0
 37
0.0
 40
395.92156539630611
 41
1.757159221076747
 42
50.0
 43
0.0
 44
0.0
 50
0.0
 51
0.0
 71
     0
 72
   100
 73
     1
 74
     3
 75
     0
 76
     0
 77
     0
 78
     0
  0
ENDTAB
  0
TABLE
  2
LTYPE
 70
    20
  0
LTYPE
  2
CONTINUOUS
 70
     0
  3
Solid line
 72
    65
 73
     0
 40
0.0
  0
LTYPE
  2
AM_ISO02W050
 70
     0
  3
__ __ __ __ __ __ __ __ __ __ __ __ __ __ __
 72
    65
 73
     2
 40
7.5
 49
6.0
 49
-1.5
  0
LTYPE
  2
AM_ISO08W050
 70
     0
  3
____ . ____ . ____ . ____ . ____ . ____ . ____
 72
    65
 73
     4
 40
18.0
 49
12.0
 49
-1.5
 49
3.0
 49
-1.5
  0
LTYPE
  2
AM_ISO09W050
 70
     0
  3
_____ . . _____ . . _____ . . ____ .. ____
 72
    65
 73
     6
 40
22.5
 49
12.0
 49
-1.5
 49
3.0
 49
-1.5
 49
3.0
 49
-1.5
  0
LTYPE
  2
AMCONSTR
 70
     0
  3
_______________________
 72
    65
 73
     2
 40
9999.0
 49
9999.0
 49
0.0
  0
LTYPE
  2
AM_ISO08W050X2
 70
     0
  3
__ . __ . __ . __ . __ . __
 72
    65
 73
     4
 40
9.0
 49
6.0
 49
-0.75
 49
1.5
 49
-0.75
  0
LTYPE
  2
AM_ISO02W050X2
 70
     0
  3
 _ _ _ _ _ _ _ _ _ _ _ _
 72
    65
 73
     2
 40
3.75
 49
3.0
 49
-0.75
  0
LTYPE
  2
AMZIGZAG
 70
     0
  3
/\/-/\/-/\/-/\/-/\/-/\/
 72
    65
 73
     2
 40
11.0001
 49
0.0001
 49
-11.0
  0
LTYPE
  2
CENTER
 70
     0
  3
__ . __
 72
    65
 73
     4
 40
7.0
 49
4.0
 49
-1.0
 49
1.0
 49
-1.0
  0
LTYPE
  2
PHANTOM2
 70
     0
  3
Phantom (.5x) ___ _ _ ___ _ _ ___ _ _ ___ _ _
 72
    65
 73
     6
 40
31.75
 49
15.875
 49
-3.174999999999998
 49
3.174999999999998
 49
-3.174999999999998
 49
3.174999999999998
 49
-3.174999999999998
  0
LTYPE
  2
GEN3B
 70
     0
  3
 - - - - -
 72
    65
 73
     2
 40
1.0
 49
0.5
 49
-0.5
  0
LTYPE
  2
GEN7A
 70
     0
  3
__ . __ . __
 72
    65
 73
     4
 40
7.375
 49
4.75
 49
-0.875
 49
0.875
 49
-0.875
  0
LTYPE
  2
GEN7
 70
     0
  3
____ . ____ . ____ . ____ . ____ . ____ . ____
 72
    65
 73
     4
 40
14.25
 49
9.75
 49
-1.5
 49
1.5
 49
-1.5
  0
LTYPE
  2
HIDDEN
 70
     0
  3
Hidden __ __ __ __ __ __ __ __ __ __ __ __ __ _
 72
    65
 73
     2
 40
9.5249999999999986
 49
6.349999999999997
 49
-3.174999999999998
  0
LTYPE
  2
CENTER2
 70
     0
  3
Center (.5x) ___ _ ___ _ ___ _ ___ _ ___ _ ___
 72
    65
 73
     4
 40
1.125
 49
0.75
 49
-0.125
 49
0.125
 49
-0.125
  0
LTYPE
  2
HIDDEN2
 70
     0
  3
Hidden (.5x) _ _ _ _ _ _ _ _ _ _ _ _ _ _ _ _ _
 72
    65
 73
     2
 40
0.1875
 49
0.125
 49
-0.0625
  0
LTYPE
  2
AMZIGZAG2
 70
     0
  3
/\/-/\/-/\/-/\/-/\/-/\/
 72
    65
 73
     2
 40
0.4401
 49
0.0001
 49
-0.4400000000000001
  0
LTYPE
  2
ACANSTGB
 70
     0
  3
__ . . __ . .
 72
    65
 73
     6
 40
0.35433070866
 49
0.15748031496
 49
-0.03937007874
 49
0.03937007874
 49
-0.03937007874
 49
0.03937007874
 49
-0.03937007874
  0
LTYPE
  2
ACANSTGL
 70
     0
  3
_ _ _ _ _
 72
    65
 73
     2
 40
0.11811023622
 49
0.07874015748
 49
-0.03937007874
  0
ENDTAB
  0
TABLE
  2
LAYER
 70
    10
  0
LAYER
  2
0
 70
     0
 62
     7
  6
CONTINUOUS
  0
LAYER
  2
AM_0
 70
     0
 62
     7
  6
CONTINUOUS
  0
LAYER
  2
DEFPOINTS
 70
     0
 62
     7
  6
CONTINUOUS
  0
LAYER
  2
ｶｸﾚｾﾝ2
 70
     0
 62
     3
  6
GEN3B
  0
LAYER
  2
ﾁｭｳｼﾝｾﾝ1
 70
     0
 62
     1
  6
GEN7A
  0
LAYER
  2
ｽﾝﾎ_ｳｾﾝ
 70
     0
 62
     2
  6
CONTINUOUS
  0
LAYER
  2
ﾁｭｳｼﾝｾﾝ
 70
     0
 62
     1
  6
GEN7
  0
LAYER
  2
AM_0N
 70
     0
 62
     7
  6
CONTINUOUS
  0
LAYER
  2
AM_4
 70
     0
 62
     2
  6
CONTINUOUS
  0
LAYER
  2
AM_3N
 70
     0
 62
     3
  6
AM_ISO02W050
  0
ENDTAB
  0
TABLE
  2
STYLE
 70
     5
  0
STYLE
  2
STANDARD
 70
     0
 40
0.0
 41
0.8299999999999999
 50
0.0
 71
     0
 42
2.5
  3
txt.shx
  4
bigfont.shx
  0
STYLE
  2
ANNOTATIVE
 70
     0
 40
0.0
 41
1.0
 50
0.0
 71
     0
 42
0.2
  3
txt
  4

  0
STYLE
  2

 70
     1
 40
0.0
 41
1.0
 50
0.0
 71
     0
 42
2.5
  3
genltshp.shx
  4

  0
STYLE
  2
ACANSTS
 70
     0
 40
0.0
 41
1.0
 50
0.0
 71
     0
 42
2.5
  3
romans.shx
  4
extfont.shx
  0
STYLE
  2
ACANSGDT
 70
     0
 40
0.0
 41
1.0
 50
0.0
 71
     0
 42
2.5
  3
amgdt.shx
  4

  0
ENDTAB
  0
TABLE
  2
VIEW
 70
     6
  0
VIEW
  2
AM_VIEW1
 70
     0
 40
277.50000000000011
 10
249.64779005524869
 20
416.24999999999989
 41
499.2955801104971
 11
0.0
 21
0.0
 31
1.0
 12
0.0
 22
0.0
 32
0.0
 42
50.0
 43
0.0
 44
0.0
 50
0.0
 71
     0
  0
VIEW
  2
AM_VIEW2
 70
     0
 40
277.50000000000011
 10
603.85220994475117
 20
416.24999999999989
 41
499.2955801104971
 11
0.0
 21
0.0
 31
1.0
 12
0.0
 22
0.0
 32
0.0
 42
50.0
 43
0.0
 44
0.0
 50
0.0
 71
     0
  0
VIEW
  2
AM_VIEW3
 70
     0
 40
277.50000000000011
 10
249.64779005524869
 20
138.75
 41
499.2955801104971
 11
0.0
 21
0.0
 31
1.0
 12
0.0
 22
0.0
 32
0.0
 42
50.0
 43
0.0
 44
0.0
 50
0.0
 71
     0
  0
VIEW
  2
AM_VIEW4
 70
     0
 40
277.50000000000011
 10
603.85220994475117
 20
138.75
 41
499.2955801104971
 11
0.0
 21
0.0
 31
1.0
 12
0.0
 22
0.0
 32
0.0
 42
50.0
 43
0.0
 44
0.0
 50
0.0
 71
     0
  0
VIEW
  2
AM_VIEW5
 70
     0
 40
277.50000000000011
 10
426.75
 20
277.50000000000011
 41
499.2955801104971
 11
0.0
 21
0.0
 31
1.0
 12
0.0
 22
0.0
 32
0.0
 42
50.0
 43
0.0
 44
0.0
 50
0.0
 71
     0
  0
VIEW
  2
AM_VIEW6
 70
     0
 40
554.99445000000014
 10
426.75
 20
277.5
 41
998.5811743093924
 11
0.0
 21
0.0
 31
1.0
 12
0.0
 22
0.0
 32
0.0
 42
50.0
 43
0.0
 44
0.0
 50
0.0
 71
     0
  0
ENDTAB
  0
TABLE
  2
UCS
 70
     0
  0
ENDTAB
  0
TABLE
  2
APPID
 70
    97
  0
APPID
  2
ACAD
 70
     0
  0
APPID
  2
ACADANNOTATIVE
 70
     0
  0
APPID
  2
MCAD_NO_VIS
 70
     0
  0
APPID
  2
ACAD_TEMP_GRAPHIC
 70
     0
  0
APPID
  2
ACATTRIBSERVICES
 70
     0
  0
APPID
  2
GENIUS_GENREC_14
 70
     0
  0
APPID
  2
GENIUS_GENOBJ-N-REC_13
 70
     0
  0
APPID
  2
GENIUS_GENODEF_13
 70
     0
  0
APPID
  2
GENIUS_GENOLIS_13
 70
     0
  0
APPID
  2
GENIUS_GENOBJ-N-TIT_13
 70
     0
  0
APPID
  2
GENIUS_GENOENT_13
 70
     0
  0
APPID
  2
GENIUS_GENTITLE_13
 70
     0
  0
APPID
  2
GENIUS_GENOREF_13
 70
     0
  0
APPID
  2
GENIUS_GENSCREG_15
 70
     0
  0
APPID
  2
GENIUS_GENOBJ-N-SDF_13
 70
     0
  0
APPID
  2
GENIUS_GENFIL_13
 70
     0
  0
APPID
  2
GENIUS_GENOBJ-N-CHA_13
 70
     0
  0
APPID
  2
GENIUS_GENDTOL_13
 70
     0
  0
APPID
  2
GENIUS_GENOBJ-N-FIL_13
 70
     0
  0
APPID
  2
AD_DRAW
 70
     0
  0
APPID
  2
DESIGNERASSEMBLIES
 70
     0
  0
APPID
  2
ASURF_PCURVE_APPNAME
 70
     0
  0
APPID
  2
GENIUS_GE3SECT_13
 70
     0
  0
APPID
  2
GENIUS_GENCFG_13
 70
     0
  0
APPID
  2
GENIUS_GE3CFG0_13
 70
     0
  0
APPID
  2
GENIUS_GENCFG0_13
 70
     0
  0
APPID
  2
GENIUS_GENCFG1_13
 70
     0
  0
APPID
  2
GENIUS_GENCFG2_13
 70
     0
  0
APPID
  2
GENIUS_GENCFG3_13
 70
     0
  0
APPID
  2
GENIUS_GENCFG4_13
 70
     0
  0
APPID
  2
GENIUS_GEVCFG0_13
 70
     0
  0
APPID
  2
GENIUS_GENHINW_13
 70
     0
  0
APPID
  2
GENIUS_FIRSTVISTXT_14
 70
     0
  0
APPID
  2
GENIUS_GENOBJ-N-LEADER_13
 70
     0
  0
APPID
  2
GEV_VCCNULL_SWITCH_OFF
 70
     0
  0
APPID
  2
GENIUS_GEFCFG0_13
 70
     0
  0
APPID
  2
GENIUS_GENZVEED_13
 70
     0
  0
APPID
  2
GENIUS_GENSCREG_13
 70
     0
  0
APPID
  2
GENIUS_DUMCFG0_13
 70
     0
  0
APPID
  2
GEVID936201362
 70
     0
  0
APPID
  2
GEVDC
 70
     0
  0
APPID
  2
GEVCON
 70
     0
  0
APPID
  2
VCC
 70
     0
  0
APPID
  2
GEVPT
 70
     0
  0
APPID
  2
GEVIT
 70
     0
  0
APPID
  2
GENBH
 70
     0
  0
APPID
  2
GEVMK
 70
     0
  0
APPID
  2
GENIUS_GENBH_13
 70
     0
  0
APPID
  2
GENIUS_GENOBJ-NBEHI-BHF_13
 70
     0
  0
APPID
  2
GENIUS_GENOBJ-NBEHI-BHB_13
 70
     0
  0
APPID
  2
GENIUS_GENOBJ-F-DESC_13
 70
     0
  0
APPID
  2
GENIUS_GEFDESC_14
 70
     0
  0
APPID
  2
GENIUS_GENOBJ-F-PART_13
 70
     0
  0
APPID
  2
GENIUS_GEFSTDP_13
 70
     0
  0
APPID
  2
GENIUS_GEFPARTINS_13
 70
     0
  0
APPID
  2
GENIUS_GENTRA_14
 70
     0
  0
APPID
  2
GENIUS_GENINF13_13
 70
     0
  0
APPID
  2
GENIUS_GENOBJ-N-INFOPT_13
 70
     0
  0
APPID
  2
GENIUS_GENOBJ-N-RSSYM_13
 70
     0
  0
APPID
  2
GENIUS_GENSYMENT_13
 70
     0
  0
APPID
  2
GENIUS_GENSCSYM_13
 70
     0
  0
APPID
  2
GENIUS_GEFINFNAM_13
 70
     0
  0
APPID
  2
GENIUS_GENOBJ-N-CEN_13
 70
     0
  0
APPID
  2
GENIUS_GENOBJ-N-CRS_13
 70
     0
  0
APPID
  2
GENIUS_GENOBJ-N-CRC_13
 70
     0
  0
APPID
  2
GENIUS_GENCRC_14
 70
     0
  0
APPID
  2
GEVID942827039
 70
     0
  0
APPID
  2
GEVID942827040
 70
     0
  0
APPID
  2
GEVID942827041
 70
     0
  0
APPID
  2
GENIUS_GENOBJ-F-SCPASSM_13
 70
     0
  0
APPID
  2
GENIUS_GENDIMSH_14
 70
     0
  0
APPID
  2
GEVID942827042
 70
     0
  0
APPID
  2
GEVID946020473
 70
     0
  0
APPID
  2
GEVID946020474
 70
     0
  0
APPID
  2
GEVID946020475
 70
     0
  0
APPID
  2
GENIUS_GENOBJ-N-HTC_13
 70
     0
  0
APPID
  2
GENIUS_GENHATCH_13
 70
     0
  0
APPID
  2
GEVID948854295
 70
     0
  0
APPID
  2
GEVID939402019
 70
     0
  0
APPID
  2
GEVID952919491
 70
     0
  0
APPID
  2
GEVID952919492
 70
     0
  0
APPID
  2
GENIUS_GEFWELD_13
 70
     0
  0
APPID
  2
GENIUS_GENOBJ-F-WELS_13
 70
     0
  0
APPID
  2
GEVID952919493
 70
     0
  0
APPID
  2
GENIUS_GENOBJ-N-RSBK_13
 70
     0
  0
APPID
  2
GENIUS_GENOBJ-N-LIB_13
 70
     0
  0
APPID
  2
GENIUS_GENSCALE_13
 70
     0
  0
APPID
  2
GEVID986376691
 70
     0
  0
APPID
  2
DCO15
 70
     0
  0
APPID
  2
ACADM_DIM_EDIT
 70
     0
  0
APPID
  2
AMDT_DM_ADJ
 70
     0
  0
APPID
  2
ACAD_DSTYLE_DIMJAG
 70
     0
  0
APPID
  2
ACAD_DSTYLE_DIMBREAK
 70
     0
  0
APPID
  2
ACAD_NAV_VCDISPLAY
 70
     0
  0
APPID
  2
ACADANNOPO
 70
     0
  0
APPID
  2
ACAD_EXEMPT_FROM_CAD_STANDARDS
 70
     0
  0
APPID
  2
ACAD_MLEADERVER
 70
     0
  0
ENDTAB
  0
TABLE
  2
DIMSTYLE
 70
     9
  0
DIMSTYLE
  2
STANDARD
 70
     0
  3

  4

  5

  6

  7

 40
1.0
 41
0.18
 42
0.0625
 43
0.38
 44
0.18
 45
0.0
 46
0.0
 47
0.0
 48
0.0
140
0.18
141
0.09
142
0.0
143
25.399999999999999
144
1.0
145
0.0
146
1.0
147
0.09
 71
     0
 72
     0
 73
     1
 74
     1
 75
     0
 76
     0
 77
     0
 78
     0
170
     0
171
     2
172
     0
173
     0
174
     0
175
     0
176
     0
177
     0
178
     0
  0
DIMSTYLE
  2
ANNOTATIVE
 70
     0
  3

  4

  5

  6

  7

 40
1.0
 41
0.18
 42
0.0625
 43
0.38
 44
0.18
 45
0.0
 46
0.0
 47
0.0
 48
0.0
140
0.18
141
0.09
142
0.0
143
25.399999999999999
144
1.0
145
0.0
146
1.0
147
0.09
 71
     0
 72
     0
 73
     1
 74
     1
 75
     0
 76
     0
 77
     0
 78
     0
170
     0
171
     2
172
     0
173
     0
174
     0
175
     0
176
     0
177
     0
178
     0
  0
DIMSTYLE
  2
AM_ISO
 70
     0
  3

  4
"
  5

  6

  7

 40
1.0
 41
2.5
 42
1.0
 43
8.0
 44
0.6
 45
0.0
 46
0.0
 47
0.1
 48
0.1
140
2.5
141
0.0
142
0.0
143
0.0393701
144
1.0
145
0.0
146
0.71
147
0.8
 71
     0
 72
     0
 73
     0
 74
     0
 75
     0
 76
     0
 77
     1
 78
     8
170
     0
171
     2
172
     1
173
     0
174
     0
175
     0
176
   256
177
   256
178
     4
  0
DIMSTYLE
  2
AM_ANSI
 70
     0
  3

  4
mm
  5

  6

  7

 40
1.0
 41
0.12
 42
0.05
 43
0.5
 44
0.1
 45
0.0
 46
0.0
 47
0.1
 48
0.1
140
0.12
141
0.0
142
0.0
143
25.399999999999999
144
1.0
145
0.0
146
0.71
147
0.06
 71
     0
 72
     0
 73
     1
 74
     1
 75
     0
 76
     0
 77
     0
 78
     7
170
     0
171
     2
172
     0
173
     0
174
     0
175
     0
176
   256
177
   256
178
     2
  0
DIMSTYLE
  2
AM_ANSI$3
 70
     0
  3

  4
mm
  5

  6

  7

 40
1.0
 41
0.12
 42
0.05
 43
0.5
 44
0.1
 45
0.0
 46
0.0
 47
0.1
 48
0.1
140
0.12
141
0.0
142
0.0
143
25.399999999999999
144
1.0
145
0.0
146
0.71
147
0.06
 71
     0
 72
     0
 73
     1
 74
     1
 75
     0
 76
     0
 77
     0
 78
     7
170
     0
171
     2
172
     0
173
     0
174
     0
175
     0
176
   256
177
   256
178
     2
  0
DIMSTYLE
  2
AM_ANSI$4
 70
     0
  3

  4
mm
  5

  6

  7

 40
1.0
 41
0.12
 42
0.05
 43
0.5
 44
0.1
 45
0.0
 46
0.0
 47
0.1
 48
0.1
140
0.12
141
0.0
142
0.0
143
25.399999999999999
144
1.0
145
0.0
146
0.71
147
0.06
 71
     0
 72
     0
 73
     1
 74
     1
 75
     0
 76
     0
 77
     0
 78
     7
170
     0
171
     2
172
     0
173
     0
174
     0
175
     0
176
   256
177
   256
178
     2
  0
DIMSTYLE
  2
AM_ANSI$7
 70
     0
  3

  4
mm
  5

  6

  7

 40
1.0
 41
0.12
 42
0.05
 43
0.5
 44
0.1
 45
0.0
 46
0.0
 47
0.1
 48
0.1
140
0.12
141
0.0
142
0.0
143
25.399999999999999
144
1.0
145
0.0
146
0.71
147
0.06
 71
     0
 72
     0
 73
     1
 74
     1
 75
     0
 76
     0
 77
     0
 78
     7
170
     0
171
     2
172
     0
173
     0
174
     0
175
     0
176
   256
177
   256
178
     2
  0
DIMSTYLE
  2
AM_ANSI$SF
 70
     0
  3

  4
mm
  5

  6

  7

 40
1.0
 41
0.12
 42
0.05
 43
0.5
 44
0.1
 45
0.0
 46
0.0
 47
0.1
 48
0.1
140
0.12
141
0.0
142
0.0
143
25.399999999999999
144
1.0
145
0.0
146
0.71
147
0.06
 71
     0
 72
     0
 73
     1
 74
     1
 75
     1
 76
     1
 77
     0
 78
     7
170
     0
171
     2
172
     0
173
     0
174
     0
175
     0
176
   256
177
   256
178
     2
  0
DIMSTYLE
  2
AM_ANSI$SH
 70
     0
  3

  4
mm
  5

  6
GENAXEH
  7

 40
1.0
 41
0.12
 42
0.05
 43
0.5
 44
0.1
 45
0.0
 46
0.0
 47
0.1
 48
0.1
140
0.12
141
0.0
142
0.0
143
25.399999999999999
144
1.0
145
0.0
146
0.71
147
0.06
 71
     0
 72
     0
 73
     1
 74
     1
 75
     1
 76
     1
 77
     0
 78
     7
170
     0
171
     2
172
     0
173
     1
174
     0
175
     0
176
   256
177
   256
178
     2
  0
ENDTAB
  0
ENDSEC
  0
SECTION
  2
BLOCKS
  0
BLOCK
  8
0
  2
$MODEL_SPACE
 70
     0
 10
0.0
 20
0.0
 30
0.0
  3
$MODEL_SPACE
  1

  0
ENDBLK
  5
389E
  8
0
  0
BLOCK
 67
     1
  8
0
  2
$PAPER_SPACE
 70
     0
 10
0.0
 20
0.0
 30
0.0
  3
$PAPER_SPACE
  1

  0
ENDBLK
  5
389A
 67
     1
  8
0
  0
BLOCK
  8
0
  2
*U2
 70
     1
 10
0.0
 20
0.0
 30
0.0
  3
*U2
  1

  0
TEXT
  5
36ED
  8
AM_0
 10
531.54927811167715
 20
163.06438761595959
 30
0.0
 40
10.0
  1
VX01-200S
 41
0.8299999999999999
  0
ENDBLK
  5
36EF
  8
0
  0
BLOCK
  8
0
  2
GENAXEH
 70
     0
 10
0.0
 20
0.0
 30
0.0
  3
GENAXEH
  1

  0
LINE
  5
396E
  8
0
 10
-1.0
 20
0.0
 30
0.0
 11
1.0
 21
0.0
 31
0.0
  0
ENDBLK
  5
3970
  8
0
  0
BLOCK
  8
0
  2
_ACMFILLEDHALF
 70
     0
 10
0.0
 20
0.0
 30
0.0
  3
_ACMFILLEDHALF
  1

  0
TRACE
  5
397E
  8
AM_0
 62
     0
 10
-0.8
 20
0.0
 30
0.0
 11
-1.0
 21
0.166666666
 31
0.0
 12
0.0
 22
0.0
 32
0.0
 13
0.0
 23
0.0
 33
0.0
  0
LINE
  5
397F
  8
AM_0
 62
     0
 10
-1.0
 20
0.0
 30
0.0
 11
-0.8
 21
0.0
 31
0.0
  0
ENDBLK
  5
397D
  8
0
  0
ENDSEC
  0
SECTION
  2
ENTITIES
  0
LINE
  5
2731
  8
ﾁｭｳｼﾝｾﾝ1
 10
92.371676225457534
 20
499.47806054327981
 30
0.0
 11
403.57507499816109
 21
499.47806054327958
 31
0.0
  0
ARC
  5
28BC
  8
AM_0
 10
409.87271499816109
 20
499.47806054327958
 30
0.0
 40
101.48872
 50
151.89333000000019
 51
208.10666999999961
  0
LINE
  5
28BE
  8
AM_0
 10
287.38400499816129
 20
430.60968054327969
 30
0.0
 11
287.38400499816129
 21
568.34643054327967
 31
0.0
  0
LINE
  5
28BF
  8
AM_0
 10
308.38400499816117
 20
449.4108305432797
 30
0.0
 11
308.38400499816117
 21
549.54529054327963
 31
0.0
  0
LINE
  5
28C2
  8
AM_0
 10
343.38400499816117
 20
449.22705054327969
 30
0.0
 11
343.38400499816117
 21
549.72906054327973
 31
0.0
  0
LINE
  5
28C3
  8
AM_0
 10
359.38397499816108
 20
473.94372054327971
 30
0.0
 11
359.38397499816108
 21
525.01236054327956
 31
0.0
  0
LINE
  5
28C4
  8
AM_0
 10
356.38397499816108
 20
549.02301054327972
 30
0.0
 11
356.38397499816108
 21
449.93310054327969
 31
0.0
  0
LINE
  5
28C5
  8
AM_0
 10
294.38397499816119
 20
570.47806054327975
 30
0.0
 11
294.38397499816119
 21
428.47806054327958
 31
0.0
  0
LINE
  5
28C6
  8
AM_0
 10
361.3839449981611
 20
511.9780305432796
 30
0.0
 11
361.3839449981611
 21
486.97809054327968
 31
0.0
  0
LINE
  5
28C7
  8
AM_0
 10
401.38397499816091
 20
511.47806054327958
 30
0.0
 11
401.38397499816091
 21
487.47806054327958
 31
0.0
  0
ARC
  5
28C8
  8
AM_0
 10
335.38397499816119
 20
427.47485054327967
 30
0.0
 40
5.0
 50
180.00001000000091
 51
271.49999999999949
  0
ARC
  5
28C9
  8
AM_0
 10
335.38397499816119
 20
440.75903054327972
 30
0.0
 40
5.0
 50
95.00000199999856
 51
180.00001000000091
  0
LINE
  5
28CA
  8
AM_0
 10
340.46255499816118
 20
452.45352054327969
 30
0.0
 11
321.96597499816119
 21
451.96918054327972
 31
0.0
  0
LINE
  5
28CB
  8
AM_0
 10
297.38400499816117
 20
421.4780605432797
 30
0.0
 11
357.43633499816121
 21
423.05057054327972
 31
0.0
  0
LINE
  5
28CC
  8
AM_0
 10
297.38397499816119
 20
428.55661054327959
 30
0.0
 11
297.38397499816119
 21
425.33404054327968
 31
0.0
  0
LINE
  5
28CD
  8
AM_0
 10
294.78698499816119
 20
428.48862054327969
 30
0.0
 11
290.38397499816119
 21
426.17850054327971
 31
0.0
  0
LINE
  5
28CE
  8
AM_0
 10
265.38397499816119
 20
424.26434054327967
 30
0.0
 11
265.38397499816119
 21
443.24237054327972
 31
0.0
  0
LINE
  5
28D0
  8
AM_0
 10
267.33163499816118
 20
422.26501054327969
 30
0.0
 11
297.38397499816119
 21
421.4780605432797
 31
0.0
  0
ARC
  5
28D1
  8
AM_0
 10
267.38397499816119
 20
424.26434054327967
 30
0.0
 40
2.0
 50
180.00001000000091
 51
268.5000000000004
  0
LINE
  5
28D2
  8
AM_0
 10
297.38397499816119
 20
425.33404054327968
 30
0.0
 11
290.38397499816119
 21
421.66138054327962
 31
0.0
  0
LINE
  5
28D3
  8
AM_0
 10
290.38397499816119
 20
421.66138054327962
 30
0.0
 11
290.38397499816119
 21
426.17847054327967
 31
0.0
  0
LINE
  5
28D4
  8
AM_0
 10
256.38400499816117
 20
467.53812054327972
 30
0.0
 11
287.38400499816129
 21
467.53812054327972
 31
0.0
  0
LINE
  5
28D5
  8
AM_0
 10
284.38397499816119
 20
434.26678054327971
 30
0.0
 11
285.38400499816129
 21
434.26678054327971
 31
0.0
  0
LINE
  5
28D6
  8
AM_0
 10
256.38400499816117
 20
453.47775054327968
 30
0.0
 11
287.38400499816129
 21
453.47775054327968
 31
0.0
  0
LINE
  5
28D9
  8
AM_0
 10
282.38397499816119
 20
442.79724054327971
 30
0.0
 11
256.38403499816121
 21
443.47806054327981
 31
0.0
  0
LINE
  5
28E1
  8
AM_0
 10
282.38397499816119
 20
436.26678054327959
 30
0.0
 11
282.38397499816119
 21
451.47775054327968
 31
0.0
  0
ARC
  5
28E2
  8
AM_0
 10
277.38397499816119
 20
434.4780605432797
 30
0.0
 40
6.0
 50
33.5572999999982
 51
0.5425182800010755
  0
ARC
  5
28E3
  8
AM_0
 10
284.38397499816119
 20
436.26678054327959
 30
0.0
 40
2.0
 50
180.00001000000091
 51
270.0
  0
ARC
  5
28E4
  8
AM_0
 10
280.38397499816119
 20
451.47775054327968
 30
0.0
 40
2.0
 50
0.0
 51
90.000003000000945
  0
ARC
  5
28EA
  8
AM_0
 10
306.98895499816132
 20
433.80984054327968
 30
0.0
 40
5.0
 50
271.49999999999949
 51
299.88701999999921
  0
LINE
  5
28EB
  8
AM_0
 10
308.38400499816117
 20
449.41080054327972
 30
0.0
 11
321.96597499816119
 21
451.96918054327972
 31
0.0
  0
LINE
  5
28EC
  8
AM_0
 10
306.38397499816119
 20
446.9401205432797
 30
0.0
 11
309.38397499816119
 21
446.9401205432797
 31
0.0
  0
LINE
  5
28ED
  8
AM_0
 10
306.38397499816119
 20
435.39307054327969
 30
0.0
 11
309.38397499816119
 21
435.39307054327969
 31
0.0
  0
LINE
  5
28EE
  8
AM_0
 10
306.38397499816119
 20
438.27984054327959
 30
0.0
 11
309.38397499816119
 21
438.27984054327959
 31
0.0
  0
LINE
  5
28EF
  8
AM_0
 10
306.38397499816119
 20
444.0533405432796
 30
0.0
 11
309.38397499816119
 21
444.0533405432796
 31
0.0
  0
LINE
  5
28F0
  8
AM_0
 10
306.38397499816119
 20
447.94012054327982
 30
0.0
 11
306.38397499816119
 21
434.39307054327969
 31
0.0
  0
LINE
  5
28F1
  8
AM_0
 10
305.38397499816119
 20
449.4108305432797
 30
0.0
 11
305.38397499816119
 21
428.76611054327969
 31
0.0
  0
LINE
  5
28F2
  8
AM_0
 10
307.11984499816123
 20
428.81155054327968
 30
0.0
 11
294.38400499816117
 21
428.47806054327958
 31
0.0
  0
LINE
  5
28F3
  8
AM_0
 10
294.38400499816117
 20
428.47806054327958
 30
0.0
 11
289.33163499816129
 21
428.61035054327971
 31
0.0
  0
ARC
  5
28F4
  8
AM_0
 10
285.38400499816129
 20
432.26678054327959
 30
0.0
 40
2.0
 50
0.0
 51
90.000003000000945
  0
ARC
  5
28F5
  8
AM_0
 10
289.38400499816117
 20
430.60968054327969
 30
0.0
 40
2.0
 50
180.00001000000091
 51
268.5000000000004
  0
LINE
  5
28F6
  8
AM_0
 10
305.38397499816119
 20
434.39307054327969
 30
0.0
 11
306.38397499816119
 21
434.39307054327969
 31
0.0
  0
LINE
  5
28F7
  8
AM_0
 10
305.38397499816119
 20
449.4108305432797
 30
0.0
 11
308.38397499816119
 21
449.4108305432797
 31
0.0
  0
LINE
  5
28F8
  8
AM_0
 10
305.38397499816119
 20
447.94012054327982
 30
0.0
 11
306.38397499816119
 21
447.94012054327982
 31
0.0
  0
ARC
  5
28F9
  8
AM_0
 10
309.38397499816119
 20
445.05334054327972
 30
0.0
 40
1.0
 50
269.999989999999
 51
0.0000006832462478
  0
ARC
  5
28FA
  8
AM_0
 10
309.38397499816119
 20
443.05334054327972
 30
0.0
 40
1.0
 50
0.0
 51
90.000003000000945
  0
LINE
  5
28FB
  8
AM_0
 10
310.38394499816121
 20
436.39307054327969
 30
0.0
 11
310.38394499816121
 21
445.94009054327972
 31
0.0
  0
ARC
  5
28FC
  8
AM_0
 10
322.6086449981612
 20
431.25296054327958
 30
0.0
 40
5.0
 50
91.500001000001546
 51
119.8870199999991
  0
ARC
  5
28FD
  8
AM_0
 10
309.38397499816119
 20
436.39307054327969
 30
0.0
 40
1.0
 50
269.999989999999
 51
0.0000006832462478
  0
LINE
  5
28FE
  8
AM_0
 10
309.48040499816119
 20
429.47479054327971
 30
0.0
 11
320.11718499816129
 21
435.58801054327972
 31
0.0
  0
ARC
  5
28FF
  8
AM_0
 10
309.38397499816119
 20
439.27981054327972
 30
0.0
 40
1.0
 50
269.999989999999
 51
0.0000006832462478
  0
ARC
  5
2900
  8
AM_0
 10
309.38397499816119
 20
437.2798405432797
 30
0.0
 40
1.0
 50
0.0
 51
90.000003000000945
  0
LINE
  5
2901
  8
AM_0
 10
330.38397499816119
 20
427.47485054327967
 30
0.0
 11
330.38397499816119
 21
440.75903054327972
 31
0.0
  0
LINE
  5
2902
  8
AM_0
 10
327.4625249981612
 20
436.38177054327969
 30
0.0
 11
322.47778499816121
 21
436.25122054327971
 31
0.0
  0
ARC
  5
2903
  8
AM_0
 10
327.38397499816119
 20
439.38074054327973
 30
0.0
 40
3.0
 50
271.49999999999949
 51
0.0
  0
ARC
  5
2904
  8
AM_0
 10
309.38397499816119
 20
445.94009054327972
 30
0.0
 40
1.0
 50
0.0
 51
90.000003000000945
  0
LINE
  5
2905
  8
ﾁｭｳｼﾝｾﾝ1
 10
347.38397499816108
 20
425.4780605432797
 30
0.0
 11
347.38397499816108
 21
443.47806054327981
 31
0.0
  0
LINE
  5
2906
  8
AM_0
 10
359.38397499816108
 20
425.04989054327967
 30
0.0
 11
359.38397499816108
 21
447.90622054327969
 31
0.0
  0
ARC
  5
2907
  8
AM_0
 10
357.38397499816108
 20
425.04989054327967
 30
0.0
 40
2.0
 50
271.49999999999949
 51
0.0
  0
LINE
  5
2908
  8
AM_0
 10
361.3839449981611
 20
487.47806054327958
 30
0.0
 11
401.38397499816091
 21
487.47806054327958
 31
0.0
  0
LINE
  5
2909
  8
AM_0
 10
357.43630499816118
 20
449.90552054327969
 30
0.0
 11
356.38397499816108
 21
449.93307054327971
 31
0.0
  0
CIRCLE
  5
290A
  8
AM_0
 10
347.38397499816108
 20
434.4780605432797
 30
0.0
 40
6.0
  0
LINE
  5
290B
  8
ﾁｭｳｼﾝｾﾝ1
 10
338.38397499816119
 20
434.4780605432797
 30
0.0
 11
356.38397499816108
 21
434.4780605432797
 31
0.0
  0
ARC
  5
290C
  8
AM_0
 10
347.55801499816118
 20
445.68677054327969
 30
0.0
 40
5.0
 50
95.00000199999856
 51
153.73432999999969
  0
ARC
  5
290D
  8
AM_0
 10
340.38400499816117
 20
455.45251054327969
 30
0.0
 40
3.0
 50
271.49999999999949
 51
0.0
  0
LINE
  5
290E
  8
AM_0
 10
340.64547499816121
 20
446.2384605432797
 30
0.0
 11
334.9481849981612
 21
445.74002054327968
 31
0.0
  0
ARC
  5
290F
  8
AM_0
 10
340.38400499816117
 20
449.22705054327969
 30
0.0
 40
3.0
 50
274.99999999999972
 51
0.0
  0
ARC
  5
2910
  8
AM_0
 10
351.38397499816108
 20
456.05969054327971
 30
0.0
 40
5.0
 50
274.99999999999972
 51
0.0
  0
LINE
  5
2911
  8
AM_0
 10
351.81976499816119
 20
451.0787605432796
 30
0.0
 11
347.12225499816122
 21
450.66778054327972
 31
0.0
  0
ARC
  5
2912
  8
AM_0
 10
357.38397499816108
 20
447.90622054327969
 30
0.0
 40
2.0
 50
0.0
 51
88.499997000000747
  0
LINE
  5
2913
  8
AM_0
 10
357.34909499816121
 20
472.90698054327959
 30
0.0
 11
358.4188849981611
 21
472.9443305432797
 31
0.0
  0
ARC
  5
2914
  8
AM_0
 10
357.38397499816108
 20
471.9075905432797
 30
0.0
 40
1.0
 50
91.999998000000545
 51
180.00001000000091
  0
ARC
  5
2915
  8
AM_0
 10
358.38397499816108
 20
473.94372054327971
 30
0.0
 40
1.0
 50
272.0000000000004
 51
0.0
  0
LINE
  5
2916
  8
AM_0
 10
359.38397499816108
 20
486.97809054327968
 30
0.0
 11
361.3839449981611
 21
486.97809054327968
 31
0.0
  0
ARC
  5
2917
  8
AM_0
 10
335.38397499816119
 20
571.48126054327963
 30
0.0
 40
5.0
 50
88.499997000000747
 51
180.00001000000091
  0
ARC
  5
2918
  8
AM_0
 10
335.38397499816119
 20
558.19705054327972
 30
0.0
 40
5.0
 50
180.00001000000091
 51
265.00001000000071
  0
LINE
  5
2919
  8
AM_0
 10
340.46255499816118
 20
546.50256054327974
 30
0.0
 11
321.96594499816121
 21
546.98694054327973
 31
0.0
  0
LINE
  5
291A
  8
AM_0
 10
297.38400499816117
 20
577.47806054327975
 30
0.0
 11
357.43633499816121
 21
575.90552054327975
 31
0.0
  0
ARC
  5
291B
  8
AM_0
 10
284.38397499816119
 20
562.68936054327969
 30
0.0
 40
2.0
 50
90.000003000000945
 51
180.00001000000091
  0
ARC
  5
291C
  8
AM_0
 10
277.38397499816119
 20
564.47806054327975
 30
0.0
 40
6.0
 50
359.4574799999985
 51
326.4427199999991
  0
LINE
  5
291D
  8
AM_0
 10
305.38397499816119
 20
549.54529054327963
 30
0.0
 11
305.38397499816119
 21
570.19000054327955
 31
0.0
  0
LINE
  5
291E
  8
AM_0
 10
306.38397499816119
 20
551.0159905432796
 30
0.0
 11
306.38397499816119
 21
564.5630505432797
 31
0.0
  0
LINE
  5
291F
  8
AM_0
 10
309.48040499816119
 20
569.48129054327956
 30
0.0
 11
320.1171549981612
 21
563.36810054327975
 31
0.0
  0
LINE
  5
2920
  8
AM_0
 10
330.38397499816119
 20
558.19705054327972
 30
0.0
 11
330.38397499816119
 21
571.48126054327963
 31
0.0
  0
LINE
  5
2922
  8
AM_0
 10
265.38397499816119
 20
574.69180054327956
 30
0.0
 11
265.38397499816119
 21
555.71374054327976
 31
0.0
  0
LINE
  5
2923
  8
AM_0
 10
256.38400499816117
 20
531.41800054327973
 30
0.0
 11
287.38400499816129
 21
531.41800054327973
 31
0.0
  0
LINE
  5
2924
  8
AM_0
 10
256.38400499816117
 20
545.47836054327968
 30
0.0
 11
287.38400499816129
 21
545.47836054327968
 31
0.0
  0
LINE
  5
2927
  8
AM_0
 10
282.38400499816117
 20
556.15890054327974
 30
0.0
 11
256.38403499816121
 21
555.47806054327975
 31
0.0
  0
ARC
  5
293A
  8
AM_0
 10
280.38397499816119
 20
547.47836054327956
 30
0.0
 40
2.0
 50
270.0
 51
0.0
  0
LINE
  5
293B
  8
AM_0
 10
282.38397499816119
 20
562.68936054327969
 30
0.0
 11
282.38397499816119
 21
547.47836054327956
 31
0.0
  0
LINE
  5
293C
  8
AM_0
 10
306.38397499816119
 20
554.90277054327976
 30
0.0
 11
309.38397499816119
 21
554.90277054327976
 31
0.0
  0
LINE
  5
293D
  8
AM_0
 10
306.38397499816119
 20
560.67627054327977
 30
0.0
 11
309.38397499816119
 21
560.67627054327977
 31
0.0
  0
LINE
  5
293E
  8
AM_0
 10
306.38397499816119
 20
563.56302054327955
 30
0.0
 11
309.38397499816119
 21
563.56302054327955
 31
0.0
  0
LINE
  5
293F
  8
AM_0
 10
306.38397499816119
 20
552.01602054327975
 30
0.0
 11
309.38397499816119
 21
552.01602054327975
 31
0.0
  0
LINE
  5
2940
  8
AM_0
 10
308.38400499816117
 20
549.54529054327963
 30
0.0
 11
321.96597499816119
 21
546.98691054327958
 31
0.0
  0
LINE
  5
2941
  8
AM_0
 10
305.38397499816119
 20
549.54529054327963
 30
0.0
 11
308.38397499816119
 21
549.54529054327963
 31
0.0
  0
LINE
  5
2942
  8
AM_0
 10
305.38397499816119
 20
551.0159905432796
 30
0.0
 11
306.38397499816119
 21
551.0159905432796
 31
0.0
  0
ARC
  5
2943
  8
AM_0
 10
322.6086449981612
 20
567.70315054327955
 30
0.0
 40
5.0
 50
240.1129800000009
 51
268.5000000000004
  0
ARC
  5
2944
  8
AM_0
 10
309.38397499816119
 20
555.90277054327964
 30
0.0
 40
1.0
 50
269.999989999999
 51
0.0000006832462478
  0
LINE
  5
2945
  8
AM_0
 10
310.38394499816121
 20
562.5630505432797
 30
0.0
 11
310.38394499816121
 21
553.01602054327975
 31
0.0
  0
ARC
  5
2946
  8
AM_0
 10
309.38397499816119
 20
553.01602054327975
 30
0.0
 40
1.0
 50
269.999989999999
 51
0.0000006832462478
  0
ARC
  5
2947
  8
AM_0
 10
309.38397499816119
 20
553.90277054327964
 30
0.0
 40
1.0
 50
0.0
 51
90.000003000000945
  0
ARC
  5
2948
  8
AM_0
 10
309.38397499816119
 20
561.67627054327966
 30
0.0
 40
1.0
 50
269.999989999999
 51
0.0000006832462478
  0
ARC
  5
2949
  8
AM_0
 10
309.38397499816119
 20
562.5630505432797
 30
0.0
 40
1.0
 50
0.0
 51
90.000003000000945
  0
ARC
  5
294A
  8
AM_0
 10
309.38397499816119
 20
559.67630054327969
 30
0.0
 40
1.0
 50
0.0
 51
90.000003000000945
  0
LINE
  5
294B
  8
AM_0
 10
327.46249499816122
 20
562.57434054327973
 30
0.0
 11
322.47775499816117
 21
562.70486054327955
 31
0.0
  0
ARC
  5
294C
  8
AM_0
 10
327.38397499816119
 20
559.57538054327972
 30
0.0
 40
3.0
 50
0.0
 51
88.499997000000747
  0
LINE
  5
294D
  8
AM_0
 10
284.38397499816119
 20
564.68936054327958
 30
0.0
 11
285.38400499816129
 21
564.68936054327958
 31
0.0
  0
LINE
  5
294E
  8
AM_0
 10
267.33163499816118
 20
576.69113054327966
 30
0.0
 11
297.38397499816119
 21
577.47809054327956
 31
0.0
  0
ARC
  5
2950
  8
AM_0
 10
267.38397499816119
 20
574.69180054327956
 30
0.0
 40
2.0
 50
91.500001000001546
 51
180.00001000000091
  0
ARC
  5
2951
  8
AM_0
 10
306.98895499816132
 20
565.14627054327968
 30
0.0
 40
5.0
 50
60.112980000000888
 51
88.499997000000747
  0
LINE
  5
2952
  8
AM_0
 10
307.11981499816119
 20
570.14456054327957
 30
0.0
 11
294.38400499816117
 21
570.47806054327975
 31
0.0
  0
LINE
  5
2953
  8
AM_0
 10
297.38397499816119
 20
573.62210054327954
 30
0.0
 11
290.38397499816119
 21
577.29477054327958
 31
0.0
  0
LINE
  5
2954
  8
AM_0
 10
294.78698499816119
 20
570.46753054327962
 30
0.0
 11
290.38400499816117
 21
572.77762054327957
 31
0.0
  0
LINE
  5
2955
  8
AM_0
 10
294.38397499816119
 20
570.47806054327975
 30
0.0
 11
289.33166499816122
 21
570.34573054327961
 31
0.0
  0
ARC
  5
2956
  8
AM_0
 10
285.38400499816129
 20
566.68936054327969
 30
0.0
 40
2.0
 50
270.0
 51
0.0
  0
ARC
  5
2957
  8
AM_0
 10
289.38400499816117
 20
568.34643054327967
 30
0.0
 40
2.0
 50
91.500001000001546
 51
180.00001000000091
  0
LINE
  5
2958
  8
AM_0
 10
290.38397499816119
 20
577.29474054327954
 30
0.0
 11
290.38397499816119
 21
572.77765054327961
 31
0.0
  0
LINE
  5
2959
  8
AM_0
 10
297.38397499816119
 20
570.3995005432796
 30
0.0
 11
297.38397499816119
 21
573.62207054327962
 31
0.0
  0
LINE
  5
295A
  8
AM_0
 10
305.38397499816119
 20
564.5630505432797
 30
0.0
 11
306.38397499816119
 21
564.5630505432797
 31
0.0
  0
CIRCLE
  5
295B
  8
AM_0
 10
347.38397499816108
 20
564.47806054327975
 30
0.0
 40
6.0
  0
LINE
  5
295D
  8
AM_0
 10
359.38397499816108
 20
573.90622054327957
 30
0.0
 11
359.38397499816108
 21
551.04989054327973
 31
0.0
  0
LINE
  5
295E
  8
AM_0
 10
369.38397499816119
 20
503.4780305432796
 30
0.0
 11
401.38397499816091
 21
503.4780305432796
 31
0.0
  0
LINE
  5
295F
  8
AM_0
 10
369.38397499816119
 20
495.47806054327958
 30
0.0
 11
401.38397499816091
 21
495.47806054327958
 31
0.0
  0
LINE
  5
2960
  8
AM_0
 10
361.3839449981611
 20
511.47806054327958
 30
0.0
 11
401.38397499816091
 21
511.47806054327958
 31
0.0
  0
LINE
  5
2961
  8
AM_0
 10
357.34905499816108
 20
526.04913054327972
 30
0.0
 11
358.4188849981611
 21
526.01178054327966
 31
0.0
  0
ARC
  5
2962
  8
AM_0
 10
357.38397499816108
 20
527.04852054327955
 30
0.0
 40
1.0
 50
180.00001000000091
 51
267.99999999999972
  0
ARC
  5
2963
  8
AM_0
 10
369.38397499816119
 20
499.4780305432796
 30
0.0
 40
3.9999962
 50
90.000003000000945
 51
270.0
  0
LINE
  5
2964
  8
AM_0
 10
369.38397499816119
 20
503.4780305432796
 30
0.0
 11
369.38397499816119
 21
495.47806054327958
 31
0.0
  0
LINE
  5
2965
  8
AM_0
 10
359.38397499816108
 20
511.9780305432796
 30
0.0
 11
361.3839449981611
 21
511.9780305432796
 31
0.0
  0
ARC
  5
2966
  8
AM_0
 10
358.38397499816108
 20
525.01236054327956
 30
0.0
 40
1.0
 50
0.0
 51
87.999999999999659
  0
LINE
  5
2967
  8
AM_0
 10
356.38400499816117
 20
549.02301054327972
 30
0.0
 11
357.43633499816121
 21
549.05057054327972
 31
0.0
  0
ARC
  5
2968
  8
AM_0
 10
340.38400499816117
 20
543.50360054327973
 30
0.0
 40
3.0
 50
0.0
 51
88.499997000000747
  0
ARC
  5
2969
  8
AM_0
 10
351.38397499816108
 20
542.89639054327972
 30
0.0
 40
5.0
 50
0.0
 51
85.000004000001198
  0
ARC
  5
296A
  8
AM_0
 10
347.55801499816118
 20
553.26932054327972
 30
0.0
 40
5.0
 50
206.2656700000002
 51
265.00001000000071
  0
LINE
  5
296B
  8
AM_0
 10
340.64547499816121
 20
552.71762054327974
 30
0.0
 11
334.94821499816118
 21
553.21609054327973
 31
0.0
  0
ARC
  5
296C
  8
AM_0
 10
340.38400499816117
 20
549.72906054327973
 30
0.0
 40
3.0
 50
0.0
 51
85.000004000001198
  0
LINE
  5
296D
  8
AM_0
 10
351.81976499816119
 20
547.87738054327974
 30
0.0
 11
347.12225499816122
 21
548.28836054327974
 31
0.0
  0
ARC
  5
296E
  8
AM_0
 10
357.38397499816108
 20
551.04989054327973
 30
0.0
 40
2.0
 50
271.49999999999949
 51
0.0
  0
ARC
  5
2970
  8
AM_0
 10
357.38397499816108
 20
573.90622054327957
 30
0.0
 40
2.0
 50
0.0
 51
88.499997000000747
  0
LINE
  5
2A08
  8
ﾁｭｳｼﾝｾﾝ1
 10
347.38397499816108
 20
555.47806054327975
 30
0.0
 11
347.38397499816108
 21
573.47806054327975
 31
0.0
  0
LINE
  5
2A09
  8
ﾁｭｳｼﾝｾﾝ1
 10
338.38397499816119
 20
564.47806054327975
 30
0.0
 11
356.38397499816108
 21
564.47806054327975
 31
0.0
  0
LINE
  5
2A10
  8
ﾁｭｳｼﾝｾﾝ1
 10
277.38397499816119
 20
555.47806054327975
 30
0.0
 11
277.38397499816119
 21
573.47806054327975
 31
0.0
  0
LINE
  5
2A11
  8
ﾁｭｳｼﾝｾﾝ1
 10
268.38397499816119
 20
564.47806054327975
 30
0.0
 11
286.38397499816119
 21
564.47806054327975
 31
0.0
  0
LINE
  5
2A18
  8
ﾁｭｳｼﾝｾﾝ1
 10
277.38397499816119
 20
425.4780605432797
 30
0.0
 11
277.38397499816119
 21
443.47806054327981
 31
0.0
  0
LINE
  5
2A19
  8
ﾁｭｳｼﾝｾﾝ1
 10
268.38397499816119
 20
434.4780605432797
 30
0.0
 11
286.38397499816119
 21
434.4780605432797
 31
0.0
  0
LINE
  5
327E
  8
AM_0
 10
361.38392499816092
 20
311.55662870398919
 30
0.0
 11
401.38397499816091
 21
311.55662870398919
 31
0.0
  0
LINE
  5
327F
  8
AM_0
 10
361.38392499816092
 20
287.55664370398932
 30
0.0
 11
401.38397499816091
 21
287.55664370398932
 31
0.0
  0
LINE
  5
3280
  8
AM_0
 10
369.38393499816118
 20
314.55662870398919
 30
0.0
 11
401.38397499816091
 21
314.55662870398919
 31
0.0
  0
LINE
  5
3285
  8
ﾁｭｳｼﾝｾﾝ1
 10
405.09644499816079
 20
299.55664370398932
 30
0.0
 11
277.48324896862999
 21
299.55664370398932
 31
0.0
  0
LINE
  5
3287
  8
AM_0
 10
359.38397499816108
 20
274.21133570398928
 30
0.0
 11
359.38397499816108
 21
324.90194870398921
 31
0.0
  0
LINE
  5
3288
  8
AM_0
 10
294.38393499816118
 20
350.55665870398929
 30
0.0
 11
294.38393499816118
 21
235.41380270398929
 31
0.0
  0
LINE
  5
3289
  8
AM_0
 10
356.38397499816108
 20
329.80763870398931
 30
0.0
 11
356.38397499816108
 21
220.30120970398929
 31
0.0
  0
LINE
  5
328A
  8
AM_0
 10
297.38393499816129
 20
286.7729207039892
 30
0.0
 11
297.38393499816129
 21
250.08111770398929
 31
0.0
  0
LINE
  5
328B
  8
AM_0
 10
330.38393499816118
 20
309.34745870398928
 30
0.0
 11
330.38393499816118
 21
221.55665570398929
 31
0.0
  0
LINE
  5
328C
  8
AM_0
 10
343.38395499816141
 20
344.40275870398921
 30
0.0
 11
343.38395499816141
 21
235.59745970398919
 31
0.0
  0
LINE
  5
328D
  8
AM_0
 10
287.38400499816112
 20
321.05099870398919
 30
0.0
 11
287.38400499816112
 21
216.68656970398919
 31
0.0
  0
LINE
  5
328E
  8
AM_0
 10
115.8839849981613
 20
304.55664270398933
 30
0.0
 11
115.8839849981613
 21
260.55664270398933
 31
0.0
  0
LINE
  5
328F
  8
AM_0
 10
94.88398499816131
 20
296.55664270398933
 30
0.0
 11
94.88398499816131
 21
262.55664270398933
 31
0.0
  0
LINE
  5
3290
  8
AM_0
 10
112.8839849981613
 20
345.15664270398918
 30
0.0
 11
112.8839849981613
 21
213.9566427039893
 31
0.0
  0
LINE
  5
3291
  8
AM_0
 10
110.3839849981613
 20
343.15664270398918
 30
0.0
 11
110.3839849981613
 21
215.9566427039893
 31
0.0
  0
LINE
  5
3292
  8
AM_0
 10
105.8839849981613
 20
332.65851057536878
 30
0.0
 11
105.8839849981613
 21
226.45477483260979
 31
0.0
  0
ARC
  5
3293
  8
AM_0
 10
1045.0701088079809
 20
279.55664270398893
 30
0.0
 40
940.68612380981915
 50
176.76392470776159
 51
183.2360752922383
  0
LINE
  5
3294
  8
AM_0
 10
173.88398499816131
 20
304.55664270398933
 30
0.0
 11
173.88398499816131
 21
260.55664270398933
 31
0.0
  0
LINE
  5
3295
  8
AM_0
 10
237.88398499816131
 20
345.55664270398933
 30
0.0
 11
237.88398499816131
 21
213.5566427039893
 31
0.0
  0
LINE
  5
3296
  8
AM_0
 10
249.38398499816131
 20
345.55664270398933
 30
0.0
 11
249.38398499816131
 21
213.5566427039893
 31
0.0
  0
LINE
  5
3297
  8
AM_0
 10
256.38398499816128
 20
216.5566427039893
 30
0.0
 11
256.38398499816128
 21
342.55664270398933
 31
0.0
  0
LINE
  5
3299
  8
AM_0
 10
116.8839849981613
 20
259.55664270398933
 30
0.0
 11
172.88398499816131
 21
259.55664270398933
 31
0.0
  0
LINE
  5
329A
  8
AM_0
 10
112.3839849981613
 20
213.9566427039893
 30
0.0
 11
237.88398499816131
 21
213.9566427039893
 31
0.0
  0
ARC
  5
329B
  8
AM_0
 10
112.3839849981613
 20
215.9566427039893
 30
0.0
 40
2.0
 50
180.0
 51
270.0
1001
GENIUS_GENOBJ-N-FIL_13
1002
{
1000
OWNER
1000
GEN
1002
}
1001
GENIUS_GENODEF_13
1002
{
1000
HIER
1070
     0
1002
}
1002
{
1000
MANEDIT
1070
     0
1002
}
1002
{
1000
NOSEL
1070
     0
1002
}
1002
{
1000
BEHIND
1070
     0
1002
}
1002
{
1000
OTHER
1070
     0
1002
}
1002
{
1000
REACTOR
1002
}
  0
LINE
  5
329C
  8
AM_0
 10
109.71271267582129
 20
222.15332921273611
 30
0.0
 11
106.5552573205015
 21
224.9599561952424
 31
0.0
  0
ARC
  5
329D
  8
AM_0
 10
107.8839849981613
 20
226.45477483260979
 30
0.0
 40
2.0
 50
180.0
 51
228.36646066343241
1001
GENIUS_GENODEF_13
1002
{
1000
HIER
1070
     0
1002
}
1002
{
1000
MANEDIT
1070
     0
1002
}
1002
{
1000
NOSEL
1070
     0
1002
}
1002
{
1000
BEHIND
1070
     0
1002
}
1002
{
1000
OTHER
1070
     0
1002
}
1002
{
1000
REACTOR
1002
}
1001
GENIUS_GENOBJ-N-FIL_13
1002
{
1000
OWNER
1000
GEN
1002
}
  0
ARC
  5
329E
  8
AM_0
 10
108.3839849981613
 20
220.65851057536869
 30
0.0
 40
2.0
 50
0.0
 51
48.36646066343252
1001
GENIUS_GENOBJ-N-FIL_13
1002
{
1000
OWNER
1000
GEN
1002
}
1001
GENIUS_GENODEF_13
1002
{
1000
HIER
1070
     0
1002
}
1002
{
1000
MANEDIT
1070
     0
1002
}
1002
{
1000
NOSEL
1070
     0
1002
}
1002
{
1000
BEHIND
1070
     0
1002
}
1002
{
1000
OTHER
1070
     0
1002
}
1002
{
1000
REACTOR
1002
}
  0
LINE
  5
329F
  8
AM_0
 10
97.883984998161324
 20
259.55664270398933
 30
0.0
 11
104.59661979920349
 21
259.55664270398933
 31
0.0
  0
ARC
  5
32A0
  8
AM_0
 10
97.883984998161324
 20
262.55664270398933
 30
0.0
 40
3.0
 50
180.0
 51
270.0
1001
GENIUS_GENODEF_13
1002
{
1000
HIER
1070
     0
1002
}
1002
{
1000
MANEDIT
1070
     0
1002
}
1002
{
1000
NOSEL
1070
     0
1002
}
1002
{
1000
BEHIND
1070
     0
1002
}
1002
{
1000
OTHER
1070
     0
1002
}
1002
{
1000
REACTOR
1002
}
1001
GENIUS_GENOBJ-N-FIL_13
1002
{
1000
OWNER
1000
GEN
1002
}
  0
ARC
  5
32A1
  8
AM_0
 10
116.8839849981613
 20
260.55664270398933
 30
0.0
 40
1.0
 50
180.0
 51
270.0
1001
GENIUS_GENOBJ-N-FIL_13
1002
{
1000
OWNER
1000
GEN
1002
}
1001
GENIUS_GENODEF_13
1002
{
1000
HIER
1070
     0
1002
}
1002
{
1000
MANEDIT
1070
     0
1002
}
1002
{
1000
NOSEL
1070
     0
1002
}
1002
{
1000
BEHIND
1070
     0
1002
}
1002
{
1000
OTHER
1070
     0
1002
}
1002
{
1000
REACTOR
1002
}
  0
LINE
  5
32A2
  8
AM_0
 10
256.38398499816128
 20
223.55665670398929
 30
0.0
 11
279.46247499816121
 21
222.95231570398931
 31
0.0
  0
LINE
  5
32A3
  8
AM_0
 10
256.38398499816128
 20
247.61962970398929
 30
0.0
 11
287.38400499816112
 21
247.61962970398929
 31
0.0
  0
LINE
  5
32A4
  8
AM_0
 10
256.38398499816128
 20
233.55665570398929
 30
0.0
 11
287.38400499816112
 21
233.55665570398929
 31
0.0
  0
LINE
  5
32A5
  8
ﾁｭｳｼﾝｾﾝ
 10
163.88398499816131
 20
260.87701391235612
 30
0.0
 11
163.88398499816131
 21
184.2829654772903
 31
0.0
  0
LINE
  5
32A6
  8
AM_0
 10
165.04133699816111
 20
193.0661645412776
 30
0.0
 11
166.1411069981614
 21
189.3087500412777
 31
0.0
  0
LINE
  5
32A7
  8
AM_0
 10
159.7343399981614
 20
194.44417292712421
 30
0.0
 11
158.6994809981615
 21
190.6391283271241
 31
0.0
  0
LINE
  5
32A8
  8
AM_0
 10
162.7298459981613
 20
193.0683128412777
 30
0.0
 11
161.6949869981612
 21
189.26326824127759
 31
0.0
  0
LINE
  5
32A9
  8
AM_0
 10
168.0246419981612
 20
194.44417292712421
 30
0.0
 11
169.0595009981613
 21
190.6391283271241
 31
0.0
  0
ARC
  5
32AB
  8
AM_0
 10
160.92892499816151
 20
190.0377597271241
 30
0.0
 40
2.3091486599999991
 50
164.90527199999909
 51
290.87219614688911
  0
ARC
  5
32AC
  8
ｽﾝﾎ_ｳｾﾝ
 10
166.8705029981613
 20
190.03769462712421
 30
0.0
 40
1.5050001119999981
 50
241.0912951394732
 51
145.91822575961609
  0
ARC
  5
32AD
  8
AM_0
 10
166.8300569981613
 20
190.0377597271241
 30
0.0
 40
2.3091486599999991
 50
249.12780385311081
 51
15.094728000000879
  0
ARC
  5
32AE
  8
AM_0
 10
163.92443099816131
 20
188.6618996412777
 30
0.0
 40
2.3091486599999991
 50
164.90527199999909
 51
16.267320000001838
  0
CIRCLE
  5
32AF
  8
ｽﾝﾎ_ｳｾﾝ
 10
163.88398499816131
 20
188.66183454127781
 30
0.0
 40
1.5050001119999981
  0
ARC
  5
32B0
  8
ｽﾝﾎ_ｳｾﾝ
 10
160.8884789981613
 20
190.03769462712421
 30
0.0
 40
1.5050001119999981
 50
34.081774240383801
 51
298.90870486052683
  0
ARC
  5
32B1
  8
AM_0
 10
138.88398499816131
 20
235.35664270398919
 30
0.0
 40
1.0
 50
90.0
 51
180.0
1001
GENIUS_GENODEF_13
1002
{
1000
HIER
1070
     0
1002
}
1002
{
1000
MANEDIT
1070
     0
1002
}
1002
{
1000
NOSEL
1070
     0
1002
}
1002
{
1000
BEHIND
1070
     0
1002
}
1002
{
1000
OTHER
1070
     0
1002
}
1002
{
1000
REACTOR
1002
}
1001
GENIUS_GENOBJ-N-FIL_13
1002
{
1000
OWNER
1000
GEN
1002
}
  0
ARC
  5
32B2
  8
AM_0
 10
161.88398499816131
 20
235.35664270398931
 30
0.0
 40
1.0
 50
0.0
 51
90.0
1001
GENIUS_GENODEF_13
1002
{
1000
HIER
1070
     0
1002
}
1002
{
1000
MANEDIT
1070
     0
1002
}
1002
{
1000
NOSEL
1070
     0
1002
}
1002
{
1000
BEHIND
1070
     0
1002
}
1002
{
1000
OTHER
1070
     0
1002
}
1002
{
1000
REACTOR
1002
}
1001
GENIUS_GENOBJ-N-FIL_13
1002
{
1000
OWNER
1000
GEN
1002
}
  0
LINE
  5
32B3
  8
AM_0
 10
138.88398499816131
 20
217.25664270398929
 30
0.0
 11
161.88398499816131
 21
217.25664270398929
 31
0.0
  0
LINE
  5
32B4
  8
AM_0
 10
138.88398499816131
 20
219.85664270398919
 30
0.0
 11
161.88398499816131
 21
219.85664270398919
 31
0.0
  0
LINE
  5
32B5
  8
AM_0
 10
138.88398499816131
 20
231.15664270398929
 30
0.0
 11
161.88398499816131
 21
231.15664270398929
 31
0.0
  0
LINE
  5
32B6
  8
AM_0
 10
138.88398499816131
 20
227.65664270398929
 30
0.0
 11
161.88398499816131
 21
227.65664270398929
 31
0.0
  0
LINE
  5
32B7
  8
AM_0
 10
138.88398499816131
 20
223.35664270398919
 30
0.0
 11
161.88398499816131
 21
223.35664270398919
 31
0.0
  0
LINE
  5
32B8
  8
AM_0
 10
137.88398499816131
 20
226.65664270398929
 30
0.0
 11
137.88398499816131
 21
224.35664270398919
 31
0.0
  0
LINE
  5
32B9
  8
AM_0
 10
137.88398499816131
 20
218.85664270398919
 30
0.0
 11
137.88398499816131
 21
218.25664270398929
 31
0.0
  0
ARC
  5
32BA
  8
AM_0
 10
138.88398499816131
 20
218.85664270398919
 30
0.0
 40
1.0
 50
90.0
 51
180.0
1001
GENIUS_GENOBJ-N-FIL_13
1002
{
1000
OWNER
1000
GEN
1002
}
1001
GENIUS_GENODEF_13
1002
{
1000
HIER
1070
     0
1002
}
1002
{
1000
MANEDIT
1070
     0
1002
}
1002
{
1000
NOSEL
1070
     0
1002
}
1002
{
1000
BEHIND
1070
     0
1002
}
1002
{
1000
OTHER
1070
     0
1002
}
1002
{
1000
REACTOR
1002
}
  0
ARC
  5
32BB
  8
AM_0
 10
138.88398499816131
 20
218.25664270398929
 30
0.0
 40
1.0
 50
180.0
 51
270.0
1001
GENIUS_GENODEF_13
1002
{
1000
HIER
1070
     0
1002
}
1002
{
1000
MANEDIT
1070
     0
1002
}
1002
{
1000
NOSEL
1070
     0
1002
}
1002
{
1000
BEHIND
1070
     0
1002
}
1002
{
1000
OTHER
1070
     0
1002
}
1002
{
1000
REACTOR
1002
}
1001
GENIUS_GENOBJ-N-FIL_13
1002
{
1000
OWNER
1000
GEN
1002
}
  0
ARC
  5
32BC
  8
AM_0
 10
138.88398499816131
 20
224.35664270398919
 30
0.0
 40
1.0
 50
180.0
 51
270.0
1001
GENIUS_GENOBJ-N-FIL_13
1002
{
1000
OWNER
1000
GEN
1002
}
1001
GENIUS_GENODEF_13
1002
{
1000
HIER
1070
     0
1002
}
1002
{
1000
MANEDIT
1070
     0
1002
}
1002
{
1000
NOSEL
1070
     0
1002
}
1002
{
1000
BEHIND
1070
     0
1002
}
1002
{
1000
OTHER
1070
     0
1002
}
1002
{
1000
REACTOR
1002
}
  0
ARC
  5
32BD
  8
AM_0
 10
138.88398499816131
 20
232.15664270398929
 30
0.0
 40
1.0
 50
180.0
 51
270.0
1001
GENIUS_GENOBJ-N-FIL_13
1002
{
1000
OWNER
1000
GEN
1002
}
1001
GENIUS_GENODEF_13
1002
{
1000
HIER
1070
     0
1002
}
1002
{
1000
MANEDIT
1070
     0
1002
}
1002
{
1000
NOSEL
1070
     0
1002
}
1002
{
1000
BEHIND
1070
     0
1002
}
1002
{
1000
OTHER
1070
     0
1002
}
1002
{
1000
REACTOR
1002
}
  0
ARC
  5
32BE
  8
AM_0
 10
138.88398499816131
 20
226.65664270398929
 30
0.0
 40
1.0
 50
90.0
 51
180.0
1001
GENIUS_GENODEF_13
1002
{
1000
HIER
1070
     0
1002
}
1002
{
1000
MANEDIT
1070
     0
1002
}
1002
{
1000
NOSEL
1070
     0
1002
}
1002
{
1000
BEHIND
1070
     0
1002
}
1002
{
1000
OTHER
1070
     0
1002
}
1002
{
1000
REACTOR
1002
}
1001
GENIUS_GENOBJ-N-FIL_13
1002
{
1000
OWNER
1000
GEN
1002
}
  0
LINE
  5
32BF
  8
AM_0
 10
137.88398499816131
 20
235.35664270398919
 30
0.0
 11
137.88398499816131
 21
232.15664270398929
 31
0.0
  0
LINE
  5
32C0
  8
AM_0
 10
164.88398499816131
 20
204.0902396233148
 30
0.0
 11
164.88398499816131
 21
199.3682206607044
 31
0.0
  0
LINE
  5
32C1
  8
AM_0
 10
162.88398499816131
 20
205.0557316619857
 30
0.0
 11
162.88398499816131
 21
199.36673380378551
 31
0.0
  0
LINE
  5
32C2
  8
AM_0
 10
161.88398499816131
 20
205.34013000608689
 30
0.0
 11
161.88398499816131
 21
200.74306564111109
 31
0.0
  0
LINE
  5
32C3
  8
AM_0
 10
159.88398499816131
 20
204.73154233856241
 30
0.0
 11
159.88398499816131
 21
200.7423160941637
 31
0.0
  0
LINE
  5
32C4
  8
AM_0
 10
165.88264159212039
 20
203.8423905166452
 30
0.0
 11
165.87499699816109
 21
200.74306564111109
 31
0.0
  0
LINE
  5
32C5
  8
AM_0
 10
167.87499699816121
 20
204.83353398459261
 30
0.0
 11
167.87499699816121
 21
200.7423160941637
 31
0.0
  0
LINE
  5
32C6
  8
AM_0
 10
168.59107499816139
 20
200.74204772712429
 30
0.0
 11
165.15900178557351
 21
200.74333397712419
 31
0.0
  0
LINE
  5
32C7
  8
AM_0
 10
166.8688859981614
 20
194.4430830271242
 30
0.0
 11
165.59085564482021
 21
194.44190106326371
 31
0.0
  0
LINE
  5
32C8
  8
AM_0
 10
165.7131509981613
 20
194.44202462712411
 30
0.0
 11
165.59045452143999
 21
194.0228265032143
 31
0.0
  0
LINE
  5
32C9
  8
AM_0
 10
165.5954849981614
 20
199.36874964127759
 30
0.0
 11
165.60146999816141
 21
193.07199834127769
 31
0.0
  0
LINE
  5
32CA
  8
AM_0
 10
162.16943999816121
 20
193.0694657412777
 30
0.0
 11
162.16341299816111
 21
199.36618764127769
 31
0.0
  0
LINE
  5
32CB
  8
AM_0
 10
159.17393399816129
 20
194.44532582712421
 30
0.0
 11
159.16790699816141
 21
200.74204772712429
 31
0.0
  0
LINE
  5
32CC
  8
AM_0
 10
165.6015119981611
 20
193.07202984127761
 30
0.0
 11
165.04137899816141
 21
193.06618764127771
 31
0.0
  0
LINE
  5
32CD
  8
AM_0
 10
165.31123851340331
 20
193.06887224257011
 30
0.0
 11
165.1649318460137
 21
192.56900882249511
 31
0.0
  0
LINE
  5
32CE
  8
AM_0
 10
162.7298459981613
 20
193.0682918412777
 30
0.0
 11
162.16948199816139
 21
193.06944474127769
 31
0.0
  0
LINE
  5
32CF
  8
AM_0
 10
162.7298459981613
 20
193.0682918412777
 30
0.0
 11
163.88560199816121
 21
193.06722294127781
 31
0.0
  0
LINE
  5
32D0
  8
AM_0
 10
162.04583099816131
 20
194.44202462712411
 30
0.0
 11
162.16852747488281
 21
194.0228265032143
 31
0.0
  0
LINE
  5
32D1
  8
AM_0
 10
160.89009599816109
 20
194.4430830271242
 30
0.0
 11
162.16812635150239
 21
194.44190106326371
 31
0.0
  0
LINE
  5
32D2
  8
AM_0
 10
162.44774348291941
 20
193.06887224257011
 30
0.0
 11
162.59405015030879
 21
192.56900882249511
 31
0.0
  0
LINE
  5
32D3
  8
AM_0
 10
159.7343399981614
 20
194.4441519271241
 30
0.0
 11
159.17397599816141
 21
194.4453048271242
 31
0.0
  0
LINE
  5
32D4
  8
AM_0
 10
159.7343399981614
 20
194.4441519271241
 30
0.0
 11
160.89009599816109
 21
194.4430830271242
 31
0.0
  0
LINE
  5
32D5
  8
AM_0
 10
163.88560199816121
 20
193.06722294127781
 30
0.0
 11
165.04137899816141
 21
193.0661540412776
 31
0.0
  0
LINE
  5
32D6
  8
AM_0
 10
165.1590029981611
 20
200.74460972712421
 30
0.0
 11
165.15769314092799
 21
199.36652363942761
 31
0.0
  0
LINE
  5
32D7
  8
AM_0
 10
162.59997899816139
 20
200.74460972712421
 30
0.0
 11
162.6012888553945
 21
199.36652363942761
 31
0.0
  0
LINE
  5
32D8
  8
AM_0
 10
159.16790699816141
 20
200.74204772712429
 30
0.0
 11
162.59998021074929
 21
200.74333397712419
 31
0.0
  0
LINE
  5
32D9
  8
AM_0
 10
162.16345499816131
 20
199.36619814127761
 30
0.0
 11
165.59552699816129
 21
199.36874964127759
 31
0.0
  0
LINE
  5
32DA
  8
AM_0
 10
168.58504799816129
 20
194.44532582712421
 30
0.0
 11
168.59107499816139
 21
200.74204772712429
 31
0.0
  0
LINE
  5
32DB
  8
AM_0
 10
168.0246419981612
 20
194.4441519271241
 30
0.0
 11
166.8688859981614
 21
194.4430830271242
 31
0.0
  0
LINE
  5
32DC
  8
AM_0
 10
168.0246419981612
 20
194.4441519271241
 30
0.0
 11
168.58500599816119
 21
194.4453048271242
 31
0.0
  0
POLYLINE
  5
32DD
  8
AM_4
 66
     1
 10
0.0
 20
0.0
 30
0.0
 70
     4
  0
VERTEX
  5
32DE
  8
AM_4
 10
159.88398499816131
 20
204.73154233856241
 30
0.0
 70
    16
  0
VERTEX
  5
32DF
  8
AM_4
 10
159.88398499816131
 20
204.73154233856241
 30
0.0
 70
     8
  0
VERTEX
  5
32E0
  8
AM_4
 10
160.9750002225741
 20
205.3133323146497
 30
0.0
 70
     8
  0
VERTEX
  5
32E1
  8
AM_4
 10
162.00853719614761
 20
205.34380191727729
 30
0.0
 70
     8
  0
VERTEX
  5
32E2
  8
AM_4
 10
163.0003328693858
 20
205.01744684261769
 30
0.0
 70
     8
  0
VERTEX
  5
32E3
  8
AM_4
 10
163.96612419279171
 20
204.528762786844
 30
0.0
 70
     8
  0
VERTEX
  5
32E4
  8
AM_4
 10
164.9216481168686
 20
204.0722454461289
 30
0.0
 70
     8
  0
VERTEX
  5
32E5
  8
AM_4
 10
165.88264159212039
 20
203.8423905166452
 30
0.0
 70
     8
  0
VERTEX
  5
32E6
  8
AM_4
 10
166.8648415690501
 20
204.03369369456581
 30
0.0
 70
     8
  0
VERTEX
  5
32E7
  8
AM_4
 10
167.88398499816131
 20
204.8406506760636
 30
0.0
 70
     8
  0
VERTEX
  5
32E8
  8
AM_4
 10
162.88398499816131
 20
207.19096116934
 30
0.0
 70
    16
  0
VERTEX
  5
32E9
  8
AM_4
 10
165.10302285050889
 20
201.69500859070209
 30
0.0
 70
    16
  0
VERTEX
  5
32EA
  8
AM_4
 10
167.88398499816131
 20
204.8406506760636
 30
0.0
 70
    16
  0
SEQEND
  5
32EB
  8
AM_4
  0
LINE
  5
32EC
  8
AM_0
 10
162.88398499816131
 20
226.65664270398929
 30
0.0
 11
162.88398499816131
 21
224.35664270398919
 31
0.0
  0
ARC
  5
32ED
  8
AM_0
 10
161.88398499816131
 20
218.85664270398919
 30
0.0
 40
1.0
 50
0.0
 51
90.0
1001
GENIUS_GENODEF_13
1002
{
1000
HIER
1070
     0
1002
}
1002
{
1000
MANEDIT
1070
     0
1002
}
1002
{
1000
NOSEL
1070
     0
1002
}
1002
{
1000
BEHIND
1070
     0
1002
}
1002
{
1000
OTHER
1070
     0
1002
}
1002
{
1000
REACTOR
1002
}
1001
GENIUS_GENOBJ-N-FIL_13
1002
{
1000
OWNER
1000
GEN
1002
}
  0
LINE
  5
32EE
  8
AM_0
 10
162.88398499816131
 20
218.85664270398919
 30
0.0
 11
162.88398499816131
 21
218.25664270398929
 31
0.0
  0
ARC
  5
32EF
  8
AM_0
 10
161.88398499816131
 20
218.25664270398929
 30
0.0
 40
1.0
 50
270.0
 51
0.0
1001
GENIUS_GENOBJ-N-FIL_13
1002
{
1000
OWNER
1000
GEN
1002
}
1001
GENIUS_GENODEF_13
1002
{
1000
HIER
1070
     0
1002
}
1002
{
1000
MANEDIT
1070
     0
1002
}
1002
{
1000
NOSEL
1070
     0
1002
}
1002
{
1000
BEHIND
1070
     0
1002
}
1002
{
1000
OTHER
1070
     0
1002
}
1002
{
1000
REACTOR
1002
}
  0
ARC
  5
32F0
  8
AM_0
 10
161.88398499816131
 20
224.35664270398919
 30
0.0
 40
1.0
 50
270.0
 51
0.0
1001
GENIUS_GENODEF_13
1002
{
1000
HIER
1070
     0
1002
}
1002
{
1000
MANEDIT
1070
     0
1002
}
1002
{
1000
NOSEL
1070
     0
1002
}
1002
{
1000
BEHIND
1070
     0
1002
}
1002
{
1000
OTHER
1070
     0
1002
}
1002
{
1000
REACTOR
1002
}
1001
GENIUS_GENOBJ-N-FIL_13
1002
{
1000
OWNER
1000
GEN
1002
}
  0
ARC
  5
32F1
  8
AM_0
 10
161.88398499816131
 20
232.15664270398929
 30
0.0
 40
1.0
 50
270.0
 51
0.0
1001
GENIUS_GENODEF_13
1002
{
1000
HIER
1070
     0
1002
}
1002
{
1000
MANEDIT
1070
     0
1002
}
1002
{
1000
NOSEL
1070
     0
1002
}
1002
{
1000
BEHIND
1070
     0
1002
}
1002
{
1000
OTHER
1070
     0
1002
}
1002
{
1000
REACTOR
1002
}
1001
GENIUS_GENOBJ-N-FIL_13
1002
{
1000
OWNER
1000
GEN
1002
}
  0
ARC
  5
32F2
  8
AM_0
 10
161.88398499816131
 20
226.65664270398929
 30
0.0
 40
1.0
 50
0.0
 51
90.0
1001
GENIUS_GENODEF_13
1002
{
1000
HIER
1070
     0
1002
}
1002
{
1000
MANEDIT
1070
     0
1002
}
1002
{
1000
NOSEL
1070
     0
1002
}
1002
{
1000
BEHIND
1070
     0
1002
}
1002
{
1000
OTHER
1070
     0
1002
}
1002
{
1000
REACTOR
1002
}
1001
GENIUS_GENOBJ-N-FIL_13
1002
{
1000
OWNER
1000
GEN
1002
}
  0
LINE
  5
32F3
  8
AM_0
 10
162.88398499816131
 20
235.35664270398931
 30
0.0
 11
162.88398499816131
 21
232.15664270398929
 31
0.0
  0
LINE
  5
32F4
  8
AM_0
 10
138.88398499816131
 20
240.0566427039893
 30
0.0
 11
161.88398499816131
 21
240.0566427039893
 31
0.0
  0
LINE
  5
32F5
  8
AM_0
 10
138.88398499816131
 20
236.35664270398919
 30
0.0
 11
161.88398499816131
 21
236.35664270398931
 31
0.0
  0
LINE
  5
32F6
  8
AM_0
 10
138.88398499816131
 20
245.5566427039893
 30
0.0
 11
161.88398499816131
 21
245.5566427039893
 31
0.0
  0
LINE
  5
32F7
  8
AM_0
 10
130.38398499816131
 20
253.55664270398921
 30
0.0
 11
130.38398499816131
 21
259.55664270398933
 31
0.0
  0
CIRCLE
  5
32F8
  8
AM_0N
 10
138.38398499816131
 20
255.5566427039893
 30
0.0
 40
2.799999999999998
  0
LINE
  5
32F9
  8
AM_0
 10
142.38398499816131
 20
251.55664270398921
 30
0.0
 11
142.38398499816131
 21
259.55664270398933
 31
0.0
  0
LINE
  5
32FA
  8
AM_0
 10
134.38398499816131
 20
251.55664270398921
 30
0.0
 11
134.38398499816131
 21
259.55664270398933
 31
0.0
  0
LINE
  5
32FB
  8
AM_0
 10
146.38398499816131
 20
253.55664270398921
 30
0.0
 11
146.38398499816131
 21
259.55664270398933
 31
0.0
  0
LINE
  5
32FC
  8
AM_0
 10
132.38398499816131
 20
251.55664270398921
 30
0.0
 11
144.38398499816131
 21
251.55664270398921
 31
0.0
  0
LINE
  5
32FD
  8
AM_0
 10
137.88398499816131
 20
244.5566427039893
 30
0.0
 11
137.88398499816131
 21
241.05664270398921
 31
0.0
  0
ARC
  5
32FE
  8
AM_0
 10
138.88398499816131
 20
241.05664270398921
 30
0.0
 40
1.0
 50
180.0
 51
270.0
1001
GENIUS_GENODEF_13
1002
{
1000
HIER
1070
     0
1002
}
1002
{
1000
MANEDIT
1070
     0
1002
}
1002
{
1000
NOSEL
1070
     0
1002
}
1002
{
1000
BEHIND
1070
     0
1002
}
1002
{
1000
OTHER
1070
     0
1002
}
1002
{
1000
REACTOR
1002
}
1001
GENIUS_GENOBJ-N-FIL_13
1002
{
1000
OWNER
1000
GEN
1002
}
  0
ARC
  5
32FF
  8
AM_0
 10
138.88398499816131
 20
244.5566427039893
 30
0.0
 40
1.0
 50
90.0
 51
180.0
1001
GENIUS_GENODEF_13
1002
{
1000
HIER
1070
     0
1002
}
1002
{
1000
MANEDIT
1070
     0
1002
}
1002
{
1000
NOSEL
1070
     0
1002
}
1002
{
1000
BEHIND
1070
     0
1002
}
1002
{
1000
OTHER
1070
     0
1002
}
1002
{
1000
REACTOR
1002
}
1001
GENIUS_GENOBJ-N-FIL_13
1002
{
1000
OWNER
1000
GEN
1002
}
  0
ARC
  5
3300
  8
AM_0
 10
132.38398499816131
 20
253.55664270398921
 30
0.0
 40
2.0
 50
180.0
 51
270.0
1001
GENIUS_GENOBJ-N-FIL_13
1002
{
1000
OWNER
1000
GEN
1002
}
1001
GENIUS_GENODEF_13
1002
{
1000
HIER
1070
     0
1002
}
1002
{
1000
MANEDIT
1070
     0
1002
}
1002
{
1000
NOSEL
1070
     0
1002
}
1002
{
1000
BEHIND
1070
     0
1002
}
1002
{
1000
OTHER
1070
     0
1002
}
1002
{
1000
REACTOR
1002
}
  0
LINE
  5
3301
  8
AM_0N
 10
138.13148499816131
 20
257.03523789876027
 30
0.0
 11
138.63648499816139
 21
257.03523789876027
 31
0.0
  0
LINE
  5
3302
  8
AM_0N
 10
139.8625801929324
 20
255.80914270398929
 30
0.0
 11
139.8625801929324
 21
255.30414270398921
 31
0.0
  0
LINE
  5
3303
  8
AM_0N
 10
138.63648499816139
 20
254.07804750921821
 30
0.0
 11
138.63648499816139
 21
255.30414270398921
 31
0.0
  0
LINE
  5
3304
  8
AM_0N
 10
138.13148499816131
 20
254.07804750921821
 30
0.0
 11
138.13148499816131
 21
255.30414270398921
 31
0.0
  0
LINE
  5
3305
  8
AM_0N
 10
136.90538980339031
 20
255.80914270398929
 30
0.0
 11
136.90538980339031
 21
255.30414270398921
 31
0.0
  0
LINE
  5
3306
  8
AM_0N
 10
138.13148499816131
 20
255.30414270398921
 30
0.0
 11
136.90538980339031
 21
255.30414270398921
 31
0.0
  0
LINE
  5
3307
  8
AM_0N
 10
138.13148499816131
 20
255.80914270398929
 30
0.0
 11
136.90538980339031
 21
255.80914270398929
 31
0.0
  0
LINE
  5
3308
  8
AM_0N
 10
138.13148499816131
 20
254.07804750921821
 30
0.0
 11
138.63648499816139
 21
254.07804750921821
 31
0.0
  0
LINE
  5
3309
  8
AM_0N
 10
139.8625801929324
 20
255.30414270398921
 30
0.0
 11
138.63648499816139
 21
255.30414270398921
 31
0.0
  0
LINE
  5
330A
  8
AM_0N
 10
139.8625801929324
 20
255.80914270398929
 30
0.0
 11
138.63648499816139
 21
255.80914270398929
 31
0.0
  0
LINE
  5
330B
  8
AM_0N
 10
138.13148499816131
 20
255.80914270398929
 30
0.0
 11
138.13148499816131
 21
257.03523789876027
 31
0.0
  0
LINE
  5
330C
  8
AM_0N
 10
138.63648499816139
 20
255.80914270398929
 30
0.0
 11
138.63648499816139
 21
257.03523789876027
 31
0.0
  0
ARC
  5
330D
  8
AM_0
 10
144.38398499816131
 20
253.55664270398921
 30
0.0
 40
2.0
 50
270.0
 51
0.0
1001
GENIUS_GENOBJ-N-FIL_13
1002
{
1000
OWNER
1000
GEN
1002
}
1001
GENIUS_GENODEF_13
1002
{
1000
HIER
1070
     0
1002
}
1002
{
1000
MANEDIT
1070
     0
1002
}
1002
{
1000
NOSEL
1070
     0
1002
}
1002
{
1000
BEHIND
1070
     0
1002
}
1002
{
1000
OTHER
1070
     0
1002
}
1002
{
1000
REACTOR
1002
}
  0
LINE
  5
330E
  8
AM_0
 10
164.88398499816131
 20
259.55664270398933
 30
0.0
 11
164.88398499816131
 21
249.90979740582051
 31
0.0
  0
LINE
  5
330F
  8
AM_0
 10
162.88398499816131
 20
259.55664270398933
 30
0.0
 11
162.88398499816131
 21
250.8752894444913
 31
0.0
  0
LINE
  5
3310
  8
AM_0
 10
159.88398499816131
 20
259.55664270398933
 30
0.0
 11
159.88398499816131
 21
250.5511001210678
 31
0.0
  0
LINE
  5
3311
  8
AM_0
 10
161.88398499816131
 20
259.55664270398933
 30
0.0
 11
161.88398499816131
 21
251.15968778859229
 31
0.0
  0
LINE
  5
3312
  8
AM_0
 10
165.88398499816131
 20
259.55664270398933
 30
0.0
 11
165.88398499816131
 21
249.66220995446619
 31
0.0
  0
LINE
  5
3313
  8
AM_0
 10
167.88398499816131
 20
259.55664270398933
 30
0.0
 11
167.88398499816131
 21
250.660208458569
 31
0.0
  0
LINE
  5
3314
  8
AM_0
 10
162.88398499816131
 20
244.5566427039893
 30
0.0
 11
162.88398499816131
 21
241.05664270398921
 31
0.0
  0
ARC
  5
3315
  8
AM_0
 10
161.88398499816131
 20
241.05664270398921
 30
0.0
 40
1.0
 50
270.0
 51
0.0
1001
GENIUS_GENODEF_13
1002
{
1000
HIER
1070
     0
1002
}
1002
{
1000
MANEDIT
1070
     0
1002
}
1002
{
1000
NOSEL
1070
     0
1002
}
1002
{
1000
BEHIND
1070
     0
1002
}
1002
{
1000
OTHER
1070
     0
1002
}
1002
{
1000
REACTOR
1002
}
1001
GENIUS_GENOBJ-N-FIL_13
1002
{
1000
OWNER
1000
GEN
1002
}
  0
ARC
  5
3316
  8
AM_0
 10
161.88398499816131
 20
244.5566427039893
 30
0.0
 40
1.0
 50
0.0
 51
90.0
1001
GENIUS_GENOBJ-N-FIL_13
1002
{
1000
OWNER
1000
GEN
1002
}
1001
GENIUS_GENODEF_13
1002
{
1000
HIER
1070
     0
1002
}
1002
{
1000
MANEDIT
1070
     0
1002
}
1002
{
1000
NOSEL
1070
     0
1002
}
1002
{
1000
BEHIND
1070
     0
1002
}
1002
{
1000
OTHER
1070
     0
1002
}
1002
{
1000
REACTOR
1002
}
  0
POLYLINE
  5
3317
  8
AM_4
 66
     1
 10
0.0
 20
0.0
 30
0.0
 70
     4
  0
VERTEX
  5
3318
  8
AM_4
 10
159.88398499816131
 20
250.5511001210678
 30
0.0
 70
    16
  0
VERTEX
  5
3319
  8
AM_4
 10
159.88398499816131
 20
250.5511001210678
 30
0.0
 70
     8
  0
VERTEX
  5
331A
  8
AM_4
 10
160.9750002225741
 20
251.13289009715521
 30
0.0
 70
     8
  0
VERTEX
  5
331B
  8
AM_4
 10
162.00853719614761
 20
251.16335969978269
 30
0.0
 70
     8
  0
VERTEX
  5
331C
  8
AM_4
 10
163.000332869386
 20
250.8370046251232
 30
0.0
 70
     8
  0
VERTEX
  5
331D
  8
AM_4
 10
163.96612419279171
 20
250.34832056934951
 30
0.0
 70
     8
  0
VERTEX
  5
331E
  8
AM_4
 10
164.92164811686891
 20
249.89180322863439
 30
0.0
 70
     8
  0
VERTEX
  5
331F
  8
AM_4
 10
165.88264159212071
 20
249.66194829915079
 30
0.0
 70
     8
  0
VERTEX
  5
3320
  8
AM_4
 10
166.86484156905041
 20
249.85325147707141
 30
0.0
 70
     8
  0
VERTEX
  5
3321
  8
AM_4
 10
167.88398499816151
 20
250.660208458569
 30
0.0
 70
     8
  0
VERTEX
  5
3322
  8
AM_4
 10
162.88398499816131
 20
253.01051895184551
 30
0.0
 70
    16
  0
VERTEX
  5
3323
  8
AM_4
 10
165.10302285050909
 20
247.5145663732076
 30
0.0
 70
    16
  0
VERTEX
  5
3324
  8
AM_4
 10
167.88398499816131
 20
250.660208458569
 30
0.0
 70
    16
  0
SEQEND
  5
3325
  8
AM_4
  0
ARC
  5
3326
  8
AM_0
 10
172.88398499816131
 20
260.55664270398933
 30
0.0
 40
1.0
 50
270.0
 51
0.0
1001
GENIUS_GENOBJ-N-FIL_13
1002
{
1000
OWNER
1000
GEN
1002
}
1001
GENIUS_GENODEF_13
1002
{
1000
HIER
1070
     0
1002
}
1002
{
1000
MANEDIT
1070
     0
1002
}
1002
{
1000
NOSEL
1070
     0
1002
}
1002
{
1000
BEHIND
1070
     0
1002
}
1002
{
1000
OTHER
1070
     0
1002
}
1002
{
1000
REACTOR
1002
}
  0
ARC
  5
3327
  8
AM_0
 10
203.88398499816131
 20
235.35664270398919
 30
0.0
 40
1.0
 50
90.0
 51
180.0
1001
GENIUS_GENODEF_13
1002
{
1000
HIER
1070
     0
1002
}
1002
{
1000
MANEDIT
1070
     0
1002
}
1002
{
1000
NOSEL
1070
     0
1002
}
1002
{
1000
BEHIND
1070
     0
1002
}
1002
{
1000
OTHER
1070
     0
1002
}
1002
{
1000
REACTOR
1002
}
1001
GENIUS_GENOBJ-N-FIL_13
1002
{
1000
OWNER
1000
GEN
1002
}
  0
ARC
  5
3328
  8
AM_0
 10
226.88398499816131
 20
235.35664270398931
 30
0.0
 40
1.0
 50
0.0
 51
90.0
1001
GENIUS_GENODEF_13
1002
{
1000
HIER
1070
     0
1002
}
1002
{
1000
MANEDIT
1070
     0
1002
}
1002
{
1000
NOSEL
1070
     0
1002
}
1002
{
1000
BEHIND
1070
     0
1002
}
1002
{
1000
OTHER
1070
     0
1002
}
1002
{
1000
REACTOR
1002
}
1001
GENIUS_GENOBJ-N-FIL_13
1002
{
1000
OWNER
1000
GEN
1002
}
  0
LINE
  5
3329
  8
AM_0
 10
203.88398499816131
 20
219.85664270398919
 30
0.0
 11
226.88398499816131
 21
219.85664270398919
 31
0.0
  0
LINE
  5
332A
  8
AM_0
 10
203.88398499816131
 20
217.25664270398929
 30
0.0
 11
226.88398499816131
 21
217.25664270398929
 31
0.0
  0
LINE
  5
332B
  8
AM_0
 10
203.88398499816131
 20
231.15664270398929
 30
0.0
 11
226.88398499816131
 21
231.15664270398929
 31
0.0
  0
LINE
  5
332C
  8
AM_0
 10
203.88398499816131
 20
227.65664270398929
 30
0.0
 11
226.88398499816131
 21
227.65664270398929
 31
0.0
  0
LINE
  5
332D
  8
AM_0
 10
203.88398499816131
 20
223.35664270398919
 30
0.0
 11
226.88398499816131
 21
223.35664270398919
 31
0.0
  0
LINE
  5
332E
  8
AM_0
 10
202.8839849981614
 20
226.65664270398929
 30
0.0
 11
202.8839849981614
 21
224.35664270398919
 31
0.0
  0
ARC
  5
332F
  8
AM_0
 10
203.88398499816131
 20
218.85664270398919
 30
0.0
 40
1.0
 50
90.0
 51
180.0
1001
GENIUS_GENOBJ-N-FIL_13
1002
{
1000
OWNER
1000
GEN
1002
}
1001
GENIUS_GENODEF_13
1002
{
1000
HIER
1070
     0
1002
}
1002
{
1000
MANEDIT
1070
     0
1002
}
1002
{
1000
NOSEL
1070
     0
1002
}
1002
{
1000
BEHIND
1070
     0
1002
}
1002
{
1000
OTHER
1070
     0
1002
}
1002
{
1000
REACTOR
1002
}
  0
LINE
  5
3330
  8
AM_0
 10
202.8839849981614
 20
218.85664270398919
 30
0.0
 11
202.8839849981614
 21
218.25664270398929
 31
0.0
  0
ARC
  5
3331
  8
AM_0
 10
203.88398499816131
 20
218.25664270398929
 30
0.0
 40
1.0
 50
180.0
 51
270.0
1001
GENIUS_GENODEF_13
1002
{
1000
HIER
1070
     0
1002
}
1002
{
1000
MANEDIT
1070
     0
1002
}
1002
{
1000
NOSEL
1070
     0
1002
}
1002
{
1000
BEHIND
1070
     0
1002
}
1002
{
1000
OTHER
1070
     0
1002
}
1002
{
1000
REACTOR
1002
}
1001
GENIUS_GENOBJ-N-FIL_13
1002
{
1000
OWNER
1000
GEN
1002
}
  0
ARC
  5
3332
  8
AM_0
 10
203.88398499816131
 20
224.35664270398919
 30
0.0
 40
1.0
 50
180.0
 51
270.0
1001
GENIUS_GENOBJ-N-FIL_13
1002
{
1000
OWNER
1000
GEN
1002
}
1001
GENIUS_GENODEF_13
1002
{
1000
HIER
1070
     0
1002
}
1002
{
1000
MANEDIT
1070
     0
1002
}
1002
{
1000
NOSEL
1070
     0
1002
}
1002
{
1000
BEHIND
1070
     0
1002
}
1002
{
1000
OTHER
1070
     0
1002
}
1002
{
1000
REACTOR
1002
}
  0
ARC
  5
3333
  8
AM_0
 10
203.88398499816131
 20
232.15664270398929
 30
0.0
 40
1.0
 50
180.0
 51
270.0
1001
GENIUS_GENOBJ-N-FIL_13
1002
{
1000
OWNER
1000
GEN
1002
}
1001
GENIUS_GENODEF_13
1002
{
1000
HIER
1070
     0
1002
}
1002
{
1000
MANEDIT
1070
     0
1002
}
1002
{
1000
NOSEL
1070
     0
1002
}
1002
{
1000
BEHIND
1070
     0
1002
}
1002
{
1000
OTHER
1070
     0
1002
}
1002
{
1000
REACTOR
1002
}
  0
ARC
  5
3334
  8
AM_0
 10
203.88398499816131
 20
226.65664270398929
 30
0.0
 40
1.0
 50
90.0
 51
180.0
1001
GENIUS_GENODEF_13
1002
{
1000
HIER
1070
     0
1002
}
1002
{
1000
MANEDIT
1070
     0
1002
}
1002
{
1000
NOSEL
1070
     0
1002
}
1002
{
1000
BEHIND
1070
     0
1002
}
1002
{
1000
OTHER
1070
     0
1002
}
1002
{
1000
REACTOR
1002
}
1001
GENIUS_GENOBJ-N-FIL_13
1002
{
1000
OWNER
1000
GEN
1002
}
  0
LINE
  5
3335
  8
AM_0
 10
202.8839849981614
 20
235.35664270398919
 30
0.0
 11
202.8839849981614
 21
232.15664270398929
 31
0.0
  0
LINE
  5
3336
  8
AM_0
 10
256.38398499816128
 20
216.5566427039893
 30
0.0
 11
249.38398499816131
 21
213.5566427039893
 31
0.0
  0
LINE
  5
3337
  8
AM_0
 10
237.88398499816131
 20
213.5566427039893
 30
0.0
 11
249.38398499816131
 21
213.5566427039893
 31
0.0
  0
LINE
  5
3338
  8
AM_0
 10
227.8839849981614
 20
226.65664270398929
 30
0.0
 11
227.8839849981614
 21
224.35664270398919
 31
0.0
  0
ARC
  5
3339
  8
AM_0
 10
226.88398499816131
 20
218.85664270398919
 30
0.0
 40
1.0
 50
0.0
 51
90.0
1001
GENIUS_GENODEF_13
1002
{
1000
HIER
1070
     0
1002
}
1002
{
1000
MANEDIT
1070
     0
1002
}
1002
{
1000
NOSEL
1070
     0
1002
}
1002
{
1000
BEHIND
1070
     0
1002
}
1002
{
1000
OTHER
1070
     0
1002
}
1002
{
1000
REACTOR
1002
}
1001
GENIUS_GENOBJ-N-FIL_13
1002
{
1000
OWNER
1000
GEN
1002
}
  0
LINE
  5
333A
  8
AM_0
 10
227.8839849981614
 20
218.85664270398919
 30
0.0
 11
227.8839849981614
 21
218.25664270398929
 31
0.0
  0
ARC
  5
333B
  8
AM_0
 10
226.88398499816131
 20
218.25664270398929
 30
0.0
 40
1.0
 50
270.0
 51
0.0
1001
GENIUS_GENOBJ-N-FIL_13
1002
{
1000
OWNER
1000
GEN
1002
}
1001
GENIUS_GENODEF_13
1002
{
1000
HIER
1070
     0
1002
}
1002
{
1000
MANEDIT
1070
     0
1002
}
1002
{
1000
NOSEL
1070
     0
1002
}
1002
{
1000
BEHIND
1070
     0
1002
}
1002
{
1000
OTHER
1070
     0
1002
}
1002
{
1000
REACTOR
1002
}
  0
ARC
  5
333C
  8
AM_0
 10
226.88398499816131
 20
224.35664270398919
 30
0.0
 40
1.0
 50
270.0
 51
0.0
1001
GENIUS_GENODEF_13
1002
{
1000
HIER
1070
     0
1002
}
1002
{
1000
MANEDIT
1070
     0
1002
}
1002
{
1000
NOSEL
1070
     0
1002
}
1002
{
1000
BEHIND
1070
     0
1002
}
1002
{
1000
OTHER
1070
     0
1002
}
1002
{
1000
REACTOR
1002
}
1001
GENIUS_GENOBJ-N-FIL_13
1002
{
1000
OWNER
1000
GEN
1002
}
  0
ARC
  5
333D
  8
AM_0
 10
226.88398499816131
 20
232.15664270398929
 30
0.0
 40
1.0
 50
270.0
 51
0.0
1001
GENIUS_GENODEF_13
1002
{
1000
HIER
1070
     0
1002
}
1002
{
1000
MANEDIT
1070
     0
1002
}
1002
{
1000
NOSEL
1070
     0
1002
}
1002
{
1000
BEHIND
1070
     0
1002
}
1002
{
1000
OTHER
1070
     0
1002
}
1002
{
1000
REACTOR
1002
}
1001
GENIUS_GENOBJ-N-FIL_13
1002
{
1000
OWNER
1000
GEN
1002
}
  0
ARC
  5
333E
  8
AM_0
 10
226.88398499816131
 20
226.65664270398929
 30
0.0
 40
1.0
 50
0.0
 51
90.0
1001
GENIUS_GENODEF_13
1002
{
1000
HIER
1070
     0
1002
}
1002
{
1000
MANEDIT
1070
     0
1002
}
1002
{
1000
NOSEL
1070
     0
1002
}
1002
{
1000
BEHIND
1070
     0
1002
}
1002
{
1000
OTHER
1070
     0
1002
}
1002
{
1000
REACTOR
1002
}
1001
GENIUS_GENOBJ-N-FIL_13
1002
{
1000
OWNER
1000
GEN
1002
}
  0
LINE
  5
333F
  8
AM_0
 10
227.8839849981614
 20
235.35664270398931
 30
0.0
 11
227.8839849981614
 21
232.15664270398929
 31
0.0
  0
LINE
  5
3340
  8
AM_0
 10
203.88398499816131
 20
240.0566427039893
 30
0.0
 11
226.88398499816131
 21
240.0566427039893
 31
0.0
  0
LINE
  5
3341
  8
AM_0
 10
203.88398499816131
 20
236.35664270398919
 30
0.0
 11
226.88398499816131
 21
236.35664270398931
 31
0.0
  0
LINE
  5
3342
  8
AM_0
 10
203.88398499816131
 20
257.55664270398933
 30
0.0
 11
226.88398499816131
 21
257.55664270398933
 31
0.0
  0
LINE
  5
3343
  8
AM_0
 10
203.88398499816131
 20
251.0566427039893
 30
0.0
 11
226.88398499816131
 21
251.0566427039893
 31
0.0
  0
LINE
  5
3344
  8
AM_0
 10
203.88398499816131
 20
245.5566427039893
 30
0.0
 11
226.88398499816131
 21
245.5566427039893
 31
0.0
  0
ARC
  5
3345
  8
AM_0
 10
203.88398499816131
 20
256.55664270398933
 30
0.0
 40
1.0
 50
90.0
 51
180.0
1001
GENIUS_GENOBJ-N-FIL_13
1002
{
1000
OWNER
1000
GEN
1002
}
1001
GENIUS_GENODEF_13
1002
{
1000
HIER
1070
     0
1002
}
1002
{
1000
MANEDIT
1070
     0
1002
}
1002
{
1000
NOSEL
1070
     0
1002
}
1002
{
1000
BEHIND
1070
     0
1002
}
1002
{
1000
OTHER
1070
     0
1002
}
1002
{
1000
REACTOR
1002
}
  0
LINE
  5
3346
  8
AM_0
 10
202.8839849981614
 20
244.5566427039893
 30
0.0
 11
202.8839849981614
 21
241.05664270398921
 31
0.0
  0
ARC
  5
3347
  8
AM_0
 10
203.88398499816131
 20
241.05664270398921
 30
0.0
 40
1.0
 50
180.0
 51
270.0
1001
GENIUS_GENODEF_13
1002
{
1000
HIER
1070
     0
1002
}
1002
{
1000
MANEDIT
1070
     0
1002
}
1002
{
1000
NOSEL
1070
     0
1002
}
1002
{
1000
BEHIND
1070
     0
1002
}
1002
{
1000
OTHER
1070
     0
1002
}
1002
{
1000
REACTOR
1002
}
1001
GENIUS_GENOBJ-N-FIL_13
1002
{
1000
OWNER
1000
GEN
1002
}
  0
ARC
  5
3348
  8
AM_0
 10
203.88398499816131
 20
244.5566427039893
 30
0.0
 40
1.0
 50
90.0
 51
180.0
1001
GENIUS_GENODEF_13
1002
{
1000
HIER
1070
     0
1002
}
1002
{
1000
MANEDIT
1070
     0
1002
}
1002
{
1000
NOSEL
1070
     0
1002
}
1002
{
1000
BEHIND
1070
     0
1002
}
1002
{
1000
OTHER
1070
     0
1002
}
1002
{
1000
REACTOR
1002
}
1001
GENIUS_GENOBJ-N-FIL_13
1002
{
1000
OWNER
1000
GEN
1002
}
  0
LINE
  5
3349
  8
AM_0
 10
202.8839849981614
 20
256.55664270398933
 30
0.0
 11
202.8839849981614
 21
252.0566427039893
 31
0.0
  0
ARC
  5
334A
  8
AM_0
 10
203.88398499816131
 20
252.0566427039893
 30
0.0
 40
1.0
 50
180.0
 51
270.0
1001
GENIUS_GENODEF_13
1002
{
1000
HIER
1070
     0
1002
}
1002
{
1000
MANEDIT
1070
     0
1002
}
1002
{
1000
NOSEL
1070
     0
1002
}
1002
{
1000
BEHIND
1070
     0
1002
}
1002
{
1000
OTHER
1070
     0
1002
}
1002
{
1000
REACTOR
1002
}
1001
GENIUS_GENOBJ-N-FIL_13
1002
{
1000
OWNER
1000
GEN
1002
}
  0
ARC
  5
334B
  8
AM_0
 10
226.88398499816131
 20
256.55664270398933
 30
0.0
 40
1.0
 50
0.0
 51
90.0
1001
GENIUS_GENOBJ-N-FIL_13
1002
{
1000
OWNER
1000
GEN
1002
}
1001
GENIUS_GENODEF_13
1002
{
1000
HIER
1070
     0
1002
}
1002
{
1000
MANEDIT
1070
     0
1002
}
1002
{
1000
NOSEL
1070
     0
1002
}
1002
{
1000
BEHIND
1070
     0
1002
}
1002
{
1000
OTHER
1070
     0
1002
}
1002
{
1000
REACTOR
1002
}
  0
LINE
  5
334C
  8
AM_0
 10
227.8839849981614
 20
244.5566427039893
 30
0.0
 11
227.8839849981614
 21
241.05664270398921
 31
0.0
  0
ARC
  5
334D
  8
AM_0
 10
226.88398499816131
 20
241.05664270398921
 30
0.0
 40
1.0
 50
270.0
 51
0.0
1001
GENIUS_GENODEF_13
1002
{
1000
HIER
1070
     0
1002
}
1002
{
1000
MANEDIT
1070
     0
1002
}
1002
{
1000
NOSEL
1070
     0
1002
}
1002
{
1000
BEHIND
1070
     0
1002
}
1002
{
1000
OTHER
1070
     0
1002
}
1002
{
1000
REACTOR
1002
}
1001
GENIUS_GENOBJ-N-FIL_13
1002
{
1000
OWNER
1000
GEN
1002
}
  0
ARC
  5
334E
  8
AM_0
 10
226.88398499816131
 20
244.5566427039893
 30
0.0
 40
1.0
 50
0.0
 51
90.0
1001
GENIUS_GENOBJ-N-FIL_13
1002
{
1000
OWNER
1000
GEN
1002
}
1001
GENIUS_GENODEF_13
1002
{
1000
HIER
1070
     0
1002
}
1002
{
1000
MANEDIT
1070
     0
1002
}
1002
{
1000
NOSEL
1070
     0
1002
}
1002
{
1000
BEHIND
1070
     0
1002
}
1002
{
1000
OTHER
1070
     0
1002
}
1002
{
1000
REACTOR
1002
}
  0
LINE
  5
334F
  8
AM_0
 10
227.8839849981614
 20
256.55664270398933
 30
0.0
 11
227.8839849981614
 21
252.0566427039893
 31
0.0
  0
ARC
  5
3350
  8
AM_0
 10
226.88398499816131
 20
252.0566427039893
 30
0.0
 40
1.0
 50
270.0
 51
0.0
1001
GENIUS_GENODEF_13
1002
{
1000
HIER
1070
     0
1002
}
1002
{
1000
MANEDIT
1070
     0
1002
}
1002
{
1000
NOSEL
1070
     0
1002
}
1002
{
1000
BEHIND
1070
     0
1002
}
1002
{
1000
OTHER
1070
     0
1002
}
1002
{
1000
REACTOR
1002
}
1001
GENIUS_GENOBJ-N-FIL_13
1002
{
1000
OWNER
1000
GEN
1002
}
  0
LINE
  5
3353
  8
AM_0
 10
291.38393499816118
 20
205.55664170398919
 30
0.0
 11
333.38393499816118
 21
205.55664170398919
 31
0.0
  0
LINE
  5
3354
  8
AM_0
 10
297.38393499816129
 20
219.55665470398921
 30
0.0
 11
297.38393499816129
 21
249.5566577039892
 31
0.0
  0
LINE
  5
3355
  8
AM_0
 10
291.22451499816111
 20
220.51913570398929
 30
0.0
 11
297.27509499816142
 21
249.04359470398921
 31
0.0
  0
LINE
  5
3356
  8
AM_0
 10
286.33334499816141
 20
216.5566547039893
 30
0.0
 11
294.38393499816118
 21
216.5566547039893
 31
0.0
  0
ARC
  5
3357
  8
AM_0
 10
286.33334499816141
 20
221.55665570398929
 30
0.0
 40
5.0000001000000003
 50
270.0
 51
348.0238700000001
  0
LINE
  5
3358
  8
AM_0
 10
265.3839849981614
 20
214.55664170398919
 30
0.0
 11
265.3839849981614
 21
204.55665470398921
 31
0.0
  0
LINE
  5
3359
  8
ﾁｭｳｼﾝｾﾝ1
 10
277.38398499816128
 20
221.1021107039893
 30
0.0
 11
277.38398499816128
 21
200.01119870398929
 31
0.0
  0
LINE
  5
335A
  8
ｶｸﾚｾﾝ2
 10
271.3839849981614
 20
216.5566547039893
 30
0.0
 11
271.3839849981614
 21
204.55665470398921
 31
0.0
  0
LINE
  5
335B
  8
ｶｸﾚｾﾝ2
 10
283.38398499816122
 20
216.5566547039893
 30
0.0
 11
283.38398499816122
 21
204.55665470398921
 31
0.0
  0
LINE
  5
335C
  8
AM_0
 10
265.3839849981614
 20
204.55665470398921
 30
0.0
 11
290.384004998161
 21
204.55665470398921
 31
0.0
  0
LINE
  5
335D
  8
AM_0
 10
290.384004998161
 20
204.55665470398921
 30
0.0
 11
290.384004998161
 21
204.55665470398921
 31
0.0
  0
ARC
  5
335E
  8
AM_0
 10
291.38393499816118
 20
204.55665470398921
 30
0.0
 40
1.0000000199999981
 50
90.00000299999769
 51
180.00001000000091
  0
LINE
  5
335F
  8
AM_0
 10
267.38393499816118
 20
216.5566547039893
 30
0.0
 11
286.33334499816141
 21
216.5566547039893
 31
0.0
  0
ARC
  5
3360
  8
AM_0
 10
267.38393499816118
 20
214.55664170398919
 30
0.0
 40
2.00000007
 50
90.00000299999769
 51
180.00001000000091
  0
LINE
  5
3361
  8
AM_0
 10
282.38393499816129
 20
228.3408977039893
 30
0.0
 11
282.38393499816129
 21
216.5566547039893
 31
0.0
  0
ARC
  5
3362
  8
AM_0
 10
279.38393499816118
 20
219.9533387039892
 30
0.0
 40
3.0
 50
0.0
 51
88.499997000000747
  0
LINE
  5
3363
  8
AM_0
 10
282.38393499816129
 20
230.34091370398929
 30
0.0
 11
287.38400499816112
 21
230.34091370398929
 31
0.0
  0
ARC
  5
3364
  8
AM_0
 10
280.38398499816128
 20
228.3408977039893
 30
0.0
 40
2.00000007
 50
0.0
 51
90.00000299999769
  0
ARC
  5
3365
  8
AM_0
 10
294.38393499816118
 20
219.55665470398921
 30
0.0
 40
3.0
 50
270.0
 51
0.0
  0
ARC
  5
3366
  8
AM_0
 10
292.3839849981614
 20
250.08111770398929
 30
0.0
 40
5.0000001000000003
 50
348.0238700000001
 51
0.0
  0
LINE
  5
3367
  8
AM_0
 10
334.38395499816141
 20
204.55665470398921
 30
0.0
 11
359.38397499816108
 21
204.55665470398921
 31
0.0
  0
ARC
  5
3368
  8
AM_0
 10
361.38395499816153
 20
220.30120970398929
 30
0.0
 40
5.0000001000000003
 50
179.999989999999
 51
235.15011000000041
  0
ARC
  5
3369
  8
AM_0
 10
357.38393499816129
 20
214.55664170398919
 30
0.0
 40
2.00000007
 50
0.0
 51
90.00000299999769
  0
LINE
  5
336A
  8
ﾁｭｳｼﾝｾﾝ1
 10
347.38397499816108
 20
221.1021107039893
 30
0.0
 11
347.38397499816108
 21
200.01119870398929
 31
0.0
  0
LINE
  5
336B
  8
ｶｸﾚｾﾝ2
 10
341.38397499816102
 20
216.5566547039893
 30
0.0
 11
341.38397499816102
 21
204.55665470398921
 31
0.0
  0
LINE
  5
336C
  8
ｶｸﾚｾﾝ2
 10
353.38397499816108
 20
216.5566547039893
 30
0.0
 11
353.38397499816108
 21
204.55665470398921
 31
0.0
  0
LINE
  5
336D
  8
AM_0
 10
334.38395499816141
 20
204.55665470398921
 30
0.0
 11
334.38395499816141
 21
204.55665470398921
 31
0.0
  0
ARC
  5
336E
  8
AM_0
 10
333.38393499816118
 20
204.55665470398921
 30
0.0
 40
1.0000000199999981
 50
0.0
 51
90.00000299999769
  0
LINE
  5
336F
  8
AM_0
 10
335.38397499816102
 20
216.5566547039893
 30
0.0
 11
357.38393499816129
 21
216.5566547039893
 31
0.0
  0
ARC
  5
3370
  8
AM_0
 10
339.38393499816118
 20
235.59745970398919
 30
0.0
 40
4.000000199999997
 50
270.0
 51
0.0
  0
ARC
  5
3371
  8
AM_0
 10
335.38397499816102
 20
221.55665570398929
 30
0.0
 40
5.0000001000000003
 50
180.00001000000091
 51
270.0
  0
LINE
  5
3372
  8
AM_0
 10
330.38393499816118
 20
231.59747270398921
 30
0.0
 11
339.38393499816118
 21
231.59747270398921
 31
0.0
  0
LINE
  5
3373
  8
AM_0
 10
359.38397499816108
 20
214.55664170398919
 30
0.0
 11
359.38397499816108
 21
204.55665470398921
 31
0.0
  0
ARC
  5
3374
  8
AM_0
 10
357.38393499816129
 20
274.21133570398928
 30
0.0
 40
2.00000007
 50
300.00000000000051
 51
0.0
  0
ARC
  5
3375
  8
AM_0
 10
358.38395499816141
 20
270.16989170398932
 30
0.0
 40
2.00000007
 50
120.0000000000005
 51
180.00001000000091
  0
LINE
  5
3376
  8
AM_0
 10
357.38396499816139
 20
271.90194770398921
 30
0.0
 11
358.38395499816141
 21
272.47927970398922
 31
0.0
  0
LINE
  5
3377
  8
AM_0
 10
112.3839849981613
 20
345.15664270398941
 30
0.0
 11
237.88398499816131
 21
345.15664270398918
 31
0.0
  0
LINE
  5
3378
  8
AM_0
 10
116.8839849981613
 20
305.55664270398933
 30
0.0
 11
172.88398499816131
 21
305.55664270398933
 31
0.0
1001
GENIUS_GENOREF_13
1005
3449
  0
LINE
  5
337A
  8
ﾁｭｳｼﾝｾﾝ1
 10
92.371676225457534
 20
279.55664270398933
 30
0.0
 11
291.80988472938401
 21
279.55664270398933
 31
0.0
  0
LINE
  5
337B
  8
AM_0
 10
97.883984998161324
 20
299.55664270398933
 30
0.0
 11
104.59661979920349
 21
299.55664270398933
 31
0.0
  0
ARC
  5
337C
  8
AM_0
 10
97.883984998161324
 20
296.55664270398933
 30
0.0
 40
3.0
 50
90.0
 51
180.0
1001
GENIUS_GENOBJ-N-FIL_13
1002
{
1000
OWNER
1000
GEN
1002
}
1001
GENIUS_GENODEF_13
1002
{
1000
HIER
1070
     0
1002
}
1002
{
1000
MANEDIT
1070
     0
1002
}
1002
{
1000
NOSEL
1070
     0
1002
}
1002
{
1000
BEHIND
1070
     0
1002
}
1002
{
1000
OTHER
1070
     0
1002
}
1002
{
1000
REACTOR
1002
}
  0
ARC
  5
337D
  8
AM_0
 10
116.8839849981613
 20
304.55664270398933
 30
0.0
 40
1.0
 50
90.0
 51
180.0
1001
GENIUS_GENODEF_13
1002
{
1000
HIER
1070
     0
1002
}
1002
{
1000
MANEDIT
1070
     0
1002
}
1002
{
1000
NOSEL
1070
     0
1002
}
1002
{
1000
BEHIND
1070
     0
1002
}
1002
{
1000
OTHER
1070
     0
1002
}
1002
{
1000
REACTOR
1002
}
1001
GENIUS_GENOBJ-N-FIL_13
1002
{
1000
OWNER
1000
GEN
1002
}
  0
ARC
  5
337E
  8
AM_0
 10
112.3839849981613
 20
343.15664270398918
 30
0.0
 40
2.0
 50
90.0
 51
180.0
1001
GENIUS_GENOBJ-N-FIL_13
1002
{
1000
OWNER
1000
GEN
1002
}
1001
GENIUS_GENODEF_13
1002
{
1000
HIER
1070
     0
1002
}
1002
{
1000
MANEDIT
1070
     0
1002
}
1002
{
1000
NOSEL
1070
     0
1002
}
1002
{
1000
BEHIND
1070
     0
1002
}
1002
{
1000
OTHER
1070
     0
1002
}
1002
{
1000
REACTOR
1002
}
  0
LINE
  5
337F
  8
AM_0
 10
109.71271267582129
 20
336.9599561952424
 30
0.0
 11
106.5552573205015
 21
334.15332921273603
 31
0.0
  0
ARC
  5
3380
  8
AM_0
 10
107.8839849981613
 20
332.65851057536878
 30
0.0
 40
2.0
 50
131.63353933656751
 51
180.0
1001
GENIUS_GENODEF_13
1002
{
1000
HIER
1070
     0
1002
}
1002
{
1000
MANEDIT
1070
     0
1002
}
1002
{
1000
NOSEL
1070
     0
1002
}
1002
{
1000
BEHIND
1070
     0
1002
}
1002
{
1000
OTHER
1070
     0
1002
}
1002
{
1000
REACTOR
1002
}
1001
GENIUS_GENOBJ-N-FIL_13
1002
{
1000
OWNER
1000
GEN
1002
}
  0
ARC
  5
3381
  8
AM_0
 10
108.3839849981613
 20
338.45477483260981
 30
0.0
 40
2.0
 50
311.63353933656748
 51
0.0
1001
GENIUS_GENOBJ-N-FIL_13
1002
{
1000
OWNER
1000
GEN
1002
}
1001
GENIUS_GENODEF_13
1002
{
1000
HIER
1070
     0
1002
}
1002
{
1000
MANEDIT
1070
     0
1002
}
1002
{
1000
NOSEL
1070
     0
1002
}
1002
{
1000
BEHIND
1070
     0
1002
}
1002
{
1000
OTHER
1070
     0
1002
}
1002
{
1000
REACTOR
1002
}
  0
LINE
  5
3382
  8
AM_0
 10
256.38392499816098
 20
335.55665870398929
 30
0.0
 11
282.5148549981613
 21
336.24089870398922
 31
0.0
  0
LINE
  5
3383
  8
AM_0
 10
256.38398499816128
 20
325.55663870398922
 30
0.0
 11
282.38393499816129
 21
325.55663870398922
 31
0.0
  0
LINE
  5
3384
  8
AM_0
 10
256.38398499816128
 20
311.49365870398918
 30
0.0
 11
282.38393499816129
 21
311.49365870398918
 31
0.0
  0
LINE
  5
3385
  8
AM_0
 10
132.38398499816131
 20
313.55664270398933
 30
0.0
 11
144.38398499816131
 21
313.55664270398933
 31
0.0
1001
GENIUS_GENOREF_13
1005
3449
  0
ARC
  5
3386
  8
AM_0
 10
132.38398499816131
 20
311.55664270398933
 30
0.0
 40
2.0
 50
90.0
 51
180.0
1001
GENIUS_GENOBJ-N-FIL_13
1002
{
1000
OWNER
1000
GEN
1002
}
1001
GENIUS_GENODEF_13
1002
{
1000
HIER
1070
     0
1002
}
1002
{
1000
MANEDIT
1070
     0
1002
}
1002
{
1000
NOSEL
1070
     0
1002
}
1002
{
1000
BEHIND
1070
     0
1002
}
1002
{
1000
OTHER
1070
     0
1002
}
1002
{
1000
REACTOR
1002
}
  0
CIRCLE
  5
3387
  8
AM_0N
 10
138.38398499816131
 20
309.55664270398933
 30
0.0
 40
2.799999999999998
1001
GENIUS_GENOREF_13
1005
0
  0
LINE
  5
3388
  8
AM_0
 10
134.38398499816131
 20
313.55664270398933
 30
0.0
 11
134.38398499816131
 21
305.55664270398933
 31
0.0
  0
LINE
  5
3389
  8
AM_0
 10
130.38398499816131
 20
311.55664270398933
 30
0.0
 11
130.38398499816131
 21
305.55664270398933
 31
0.0
  0
LINE
  5
338A
  8
AM_0N
 10
138.13148499816131
 20
311.03523789876027
 30
0.0
 11
138.63648499816139
 21
311.03523789876027
 31
0.0
1001
GENIUS_GENOREF_13
1005
0
  0
LINE
  5
338B
  8
AM_0N
 10
139.8625801929324
 20
309.30414270398921
 30
0.0
 11
139.8625801929324
 21
309.80914270398932
 31
0.0
1001
GENIUS_GENOREF_13
1005
0
  0
LINE
  5
338C
  8
AM_0N
 10
138.13148499816131
 20
309.30414270398921
 30
0.0
 11
136.90538980339031
 21
309.30414270398921
 31
0.0
1001
GENIUS_GENOREF_13
1005
0
  0
LINE
  5
338D
  8
AM_0N
 10
138.13148499816131
 20
309.80914270398932
 30
0.0
 11
136.90538980339031
 21
309.80914270398932
 31
0.0
1001
GENIUS_GENOREF_13
1005
0
  0
LINE
  5
338E
  8
AM_0N
 10
136.90538980339031
 20
309.30414270398921
 30
0.0
 11
136.90538980339031
 21
309.80914270398932
 31
0.0
1001
GENIUS_GENOREF_13
1005
0
  0
LINE
  5
338F
  8
AM_0N
 10
138.13148499816131
 20
308.0780475092181
 30
0.0
 11
138.63648499816139
 21
308.0780475092181
 31
0.0
1001
GENIUS_GENOREF_13
1005
0
  0
LINE
  5
3390
  8
AM_0N
 10
138.63648499816139
 20
309.30414270398921
 30
0.0
 11
138.63648499816139
 21
308.0780475092181
 31
0.0
1001
GENIUS_GENOREF_13
1005
0
  0
LINE
  5
3391
  8
AM_0N
 10
138.13148499816131
 20
309.30414270398921
 30
0.0
 11
138.13148499816131
 21
308.0780475092181
 31
0.0
1001
GENIUS_GENOREF_13
1005
0
  0
LINE
  5
3392
  8
AM_0N
 10
139.8625801929324
 20
309.30414270398921
 30
0.0
 11
138.63648499816139
 21
309.30414270398921
 31
0.0
1001
GENIUS_GENOREF_13
1005
0
  0
LINE
  5
3393
  8
AM_0N
 10
139.8625801929324
 20
309.80914270398932
 30
0.0
 11
138.63648499816139
 21
309.80914270398932
 31
0.0
1001
GENIUS_GENOREF_13
1005
0
  0
LINE
  5
3394
  8
AM_0N
 10
138.13148499816131
 20
311.03523789876027
 30
0.0
 11
138.13148499816131
 21
309.80914270398932
 31
0.0
1001
GENIUS_GENOREF_13
1005
0
  0
LINE
  5
3395
  8
AM_0N
 10
138.63648499816139
 20
311.03523789876027
 30
0.0
 11
138.63648499816139
 21
309.80914270398932
 31
0.0
1001
GENIUS_GENOREF_13
1005
0
  0
LINE
  5
3396
  8
AM_0
 10
142.38398499816131
 20
313.55664270398933
 30
0.0
 11
142.38398499816131
 21
305.55664270398933
 31
0.0
  0
ARC
  5
3397
  8
AM_0
 10
144.38398499816131
 20
311.55664270398933
 30
0.0
 40
2.0
 50
0.0
 51
90.0
1001
GENIUS_GENOBJ-N-FIL_13
1002
{
1000
OWNER
1000
GEN
1002
}
1001
GENIUS_GENODEF_13
1002
{
1000
HIER
1070
     0
1002
}
1002
{
1000
MANEDIT
1070
     0
1002
}
1002
{
1000
NOSEL
1070
     0
1002
}
1002
{
1000
BEHIND
1070
     0
1002
}
1002
{
1000
OTHER
1070
     0
1002
}
1002
{
1000
REACTOR
1002
}
  0
LINE
  5
3398
  8
AM_0
 10
146.38398499816131
 20
311.55664270398933
 30
0.0
 11
146.38398499816131
 21
305.55664270398933
 31
0.0
  0
ARC
  5
3399
  8
AM_0
 10
172.88398499816131
 20
304.55664270398933
 30
0.0
 40
1.0
 50
0.0
 51
90.0
1001
GENIUS_GENODEF_13
1002
{
1000
HIER
1070
     0
1002
}
1002
{
1000
MANEDIT
1070
     0
1002
}
1002
{
1000
NOSEL
1070
     0
1002
}
1002
{
1000
BEHIND
1070
     0
1002
}
1002
{
1000
OTHER
1070
     0
1002
}
1002
{
1000
REACTOR
1002
}
1001
GENIUS_GENOBJ-N-FIL_13
1002
{
1000
OWNER
1000
GEN
1002
}
  0
LINE
  5
339A
  8
AM_0
 10
249.38398499816131
 20
345.55664270398933
 30
0.0
 11
256.38398499816128
 21
342.55664270398933
 31
0.0
  0
LINE
  5
339B
  8
AM_0
 10
237.88398499816131
 20
345.55664270398933
 30
0.0
 11
249.38398499816131
 21
345.55664270398933
 31
0.0
  0
LINE
  5
339C
  8
AM_0
 10
294.38399499816092
 20
350.55665870398929
 30
0.0
 11
338.51486499816087
 21
349.4010287039892
 31
0.0
  0
LINE
  5
339D
  8
AM_0
 10
308.38400499816112
 20
331.08410870398922
 30
0.0
 11
343.38395499816141
 21
331.08410870398922
 31
0.0
  0
LINE
  5
339E
  8
AM_0
 10
308.38400499816112
 20
312.90536870398932
 30
0.0
 11
331.21868499816122
 21
312.90536870398932
 31
0.0
  0
LINE
  5
339F
  8
AM_0
 10
310.38392499816081
 20
319.52708870398919
 30
0.0
 11
310.38392499816081
 21
329.07413870398932
 31
0.0
  0
LINE
  5
33A0
  8
AM_0
 10
306.38393499816118
 20
331.07414870398929
 30
0.0
 11
306.38393499816118
 21
317.52713870398918
 31
0.0
  0
LINE
  5
33A1
  8
AM_0
 10
282.38393499816129
 20
329.22380870398928
 30
0.0
 11
282.38393499816129
 21
309.5846987039892
 31
0.0
  0
LINE
  5
33A2
  8
AM_0
 10
305.384004998161
 20
336.08342870398928
 30
0.0
 11
305.384004998161
 21
313.18139870398932
 31
0.0
  0
ARC
  5
33A3
  8
AM_0
 10
285.38393499816118
 20
321.05099870398919
 30
0.0
 40
2.00000007
 50
0.0
 51
90.00000299999769
  0
LINE
  5
33A5
  8
AM_0
 10
282.38393499816129
 20
307.58468870398917
 30
0.0
 11
287.38400499816112
 21
307.58468870398917
 31
0.0
  0
ARC
  5
33A6
  8
AM_0
 10
280.38398499816128
 20
309.5846987039892
 30
0.0
 40
2.00000007
 50
270.0
 51
0.0
  0
LINE
  5
33A7
  8
AM_0
 10
308.38400499816112
 20
312.90536870398932
 30
0.0
 11
308.38400499816112
 21
286.7729207039892
 31
0.0
  0
LINE
  5
33A8
  8
AM_0
 10
321.21359499816123
 20
312.90536870398932
 30
0.0
 11
308.38394499816121
 21
286.7729207039892
 31
0.0
  0
LINE
  5
33A9
  8
AM_0
 10
297.38393499816129
 20
286.7729207039892
 30
0.0
 11
308.38400499816112
 21
286.7729207039892
 31
0.0
  0
LINE
  5
33AA
  8
AM_0
 10
306.38393499816118
 20
318.52712870398921
 30
0.0
 11
309.38393499816129
 21
318.52712870398921
 31
0.0
  0
LINE
  5
33AB
  8
AM_0
 10
306.38393499816118
 20
321.41387870398938
 30
0.0
 11
309.38393499816129
 21
321.41387870398938
 31
0.0
  0
ARC
  5
33AC
  8
AM_0
 10
306.38393499816118
 20
310.18139870398932
 30
0.0
 40
2.00000007
 50
0.0
 51
90.00000299999769
  0
LINE
  5
33AD
  8
AM_0
 10
305.384004998161
 20
317.52713870398918
 30
0.0
 11
306.38393499816118
 21
317.52713870398918
 31
0.0
  0
ARC
  5
33AE
  8
AM_0
 10
306.38393499816118
 20
313.18139870398932
 30
0.0
 40
1.0000000199999981
 50
179.999989999999
 51
270.0
  0
ARC
  5
33AF
  8
AM_0
 10
309.38393499816129
 20
322.4138387039892
 30
0.0
 40
1.0000000199999981
 50
270.0
 51
0.0
  0
ARC
  5
33B0
  8
AM_0
 10
309.38393499816129
 20
320.4138887039893
 30
0.0
 40
1.0000000199999981
 50
0.0
 51
90.00000299999769
  0
ARC
  5
33B1
  8
AM_0
 10
309.38393499816129
 20
319.52708870398919
 30
0.0
 40
1.0000000199999981
 50
270.0
 51
0.0
  0
LINE
  5
33B2
  8
AM_0
 10
289.38398499816122
 20
350.55665870398929
 30
0.0
 11
294.38393499816118
 21
350.55665870398929
 31
0.0
  0
LINE
  5
33B3
  8
AM_0
 10
287.38400499816112
 20
348.55664870398931
 30
0.0
 11
287.38400499816112
 21
333.2237987039893
 31
0.0
  0
ARC
  5
33B4
  8
AM_0
 10
284.384004998161
 20
329.22380870398928
 30
0.0
 40
2.00000007
 50
90.00000299999769
 51
180.00001000000091
  0
ARC
  5
33B5
  8
AM_0
 10
284.384004998161
 20
325.05098870398928
 30
0.0
 40
2.00000007
 50
179.999989999999
 51
270.0
  0
LINE
  5
33B6
  8
AM_0
 10
284.384004998161
 20
331.22378870398921
 30
0.0
 11
285.38393499816118
 21
331.22378870398921
 31
0.0
  0
LINE
  5
33B7
  8
AM_0
 10
284.384004998161
 20
323.05100870398928
 30
0.0
 11
285.38393499816118
 21
323.05100870398928
 31
0.0
  0
ARC
  5
33B8
  8
AM_0
 10
285.38393499816118
 20
333.2237987039893
 30
0.0
 40
2.00000007
 50
270.0
 51
0.0
  0
ARC
  5
33B9
  8
AM_0
 10
282.38393499816129
 20
341.2391987039893
 30
0.0
 40
5.0000001000000003
 50
271.50000000000267
 51
0.0
  0
ARC
  5
33BA
  8
AM_0
 10
289.38398499816122
 20
348.55664870398931
 30
0.0
 40
2.00000007
 50
90.00000299999769
 51
180.00001000000091
  0
LINE
  5
33BB
  8
AM_0
 10
308.38400499816112
 20
350.11148870398932
 30
0.0
 11
308.38400499816112
 21
331.08410870398922
 31
0.0
  0
LINE
  5
33BC
  8
AM_0
 10
308.38394499816121
 20
350.11148870398932
 30
0.0
 11
321.96590499816142
 21
331.08410870398922
 31
0.0
  0
LINE
  5
33BD
  8
AM_0
 10
306.38393499816118
 20
330.07415870398933
 30
0.0
 11
309.38393499816129
 21
330.07415870398933
 31
0.0
  0
LINE
  5
33BE
  8
AM_0
 10
306.38393499816118
 20
327.18737870398928
 30
0.0
 11
309.38393499816129
 21
327.18737870398928
 31
0.0
  0
ARC
  5
33BF
  8
AM_0
 10
306.38393499816118
 20
339.08342870398928
 30
0.0
 40
2.00000007
 50
270.0
 51
0.0
  0
LINE
  5
33C0
  8
AM_0
 10
305.384004998161
 20
331.07414870398929
 30
0.0
 11
306.38393499816118
 21
331.07414870398929
 31
0.0
  0
ARC
  5
33C1
  8
AM_0
 10
306.38393499816118
 20
336.08342870398928
 30
0.0
 40
1.0000000199999981
 50
90.00000299999769
 51
180.00001000000091
  0
ARC
  5
33C2
  8
AM_0
 10
309.38393499816129
 20
326.18738870398931
 30
0.0
 40
1.0000000199999981
 50
0.0
 51
90.00000299999769
  0
ARC
  5
33C3
  8
AM_0
 10
309.38393499816129
 20
328.18736870398931
 30
0.0
 40
1.0000000199999981
 50
270.0
 51
0.0
  0
ARC
  5
33C4
  8
AM_0
 10
309.38393499816129
 20
329.07413870398932
 30
0.0
 40
1.0000000199999981
 50
0.0
 51
90.00000299999769
  0
LINE
  5
33C5
  8
AM_0
 10
338.38397499816102
 20
317.34743870398921
 30
0.0
 11
343.38395499816141
 21
317.34743870398921
 31
0.0
  0
ARC
  5
33C6
  8
AM_0
 10
338.38397499816102
 20
309.34745870398928
 30
0.0
 40
8.0000000999999976
 50
90.00000299999769
 51
180.00001000000091
  0
LINE
  5
33C7
  8
AM_0
 10
361.38392499816092
 20
312.05663870398922
 30
0.0
 11
361.38392499816092
 21
287.05664270398933
 31
0.0
  0
LINE
  5
33C8
  8
AM_0
 10
359.38397499816108
 20
287.05664270398933
 30
0.0
 11
361.38392499816092
 21
287.05664270398933
 31
0.0
  0
LINE
  5
33C9
  8
AM_0
 10
369.38393499816118
 20
314.55662870398919
 30
0.0
 11
369.38393499816118
 21
311.55662870398919
 31
0.0
  0
LINE
  5
33CA
  8
AM_0
 10
359.38397499816108
 20
312.05663870398922
 30
0.0
 11
361.38392499816092
 21
312.05663870398922
 31
0.0
  0
ARC
  5
33CB
  8
AM_0
 10
357.38393499816129
 20
324.90194870398921
 30
0.0
 40
2.00000007
 50
0.0
 51
60.000002000001302
  0
ARC
  5
33CC
  8
AM_0
 10
348.38393499816118
 20
338.27564870398919
 30
0.0
 40
5.0000001000000003
 50
179.999989999999
 51
265.00000000000028
  0
LINE
  5
33CD
  8
AM_0
 10
347.9481849981612
 20
333.29468870398932
 30
0.0
 11
353.64545499816131
 21
332.79623870398927
 31
0.0
  0
ARC
  5
33CE
  8
AM_0
 10
353.38397499816108
 20
329.80763870398931
 30
0.0
 40
3.0
 50
0.0
 51
84.999996999998572
  0
ARC
  5
33CF
  8
AM_0
 10
358.38395499816141
 20
328.9433987039892
 30
0.0
 40
2.00000007
 50
179.999989999999
 51
240.00000999999969
  0
LINE
  5
33D0
  8
AM_0
 10
357.38396499816139
 20
327.2113487039893
 30
0.0
 11
358.38398499816111
 21
326.63399870398928
 31
0.0
  0
ARC
  5
33D1
  8
AM_0
 10
338.38397499816102
 20
344.40275870398921
 30
0.0
 40
5.0000001000000003
 50
0.0
 51
88.499997000000747
  0
LINE
  5
33D2
  8
AM_0
 10
638.15426185688239
 20
216.5566547039893
 30
0.0
 11
627.3858458568825
 21
319.18682870398931
 31
0.0
  0
LINE
  5
33D3
  8
AM_0
 10
482.15425285688252
 20
216.5566547039893
 30
0.0
 11
492.92269285688229
 21
319.18682870398931
 31
0.0
  0
LINE
  5
33D4
  8
AM_0
 10
613.15426285688284
 20
314.8091987039893
 30
0.0
 11
613.15426285688284
 21
253.55664170398919
 31
0.0
  0
LINE
  5
33D5
  8
AM_0
 10
507.15430285688228
 20
314.8091987039893
 30
0.0
 11
507.15430285688228
 21
253.55664170398919
 31
0.0
  0
LINE
  5
33D6
  8
AM_0
 10
512.15425285688241
 20
284.55664370398921
 30
0.0
 11
512.15425285688241
 21
221.55665570398929
 31
0.0
  0
LINE
  5
33D7
  8
AM_0
 10
608.15426185688239
 20
284.55664370398921
 30
0.0
 11
608.15426185688239
 21
221.55665570398929
 31
0.0
  0
ARC
  5
33D8
  8
AM_0
 10
560.15426185688227
 20
299.55664370398932
 30
0.0
 40
26.500002599999998
 50
90.00000299999769
 51
270.0
  0
ARC
  5
33D9
  8
AM_0
 10
560.15426185688227
 20
284.55664370398921
 30
0.0
 40
48.0
 50
0.0
 51
180.00001000000091
  0
ARC
  5
33DA
  8
AM_0
 10
560.15426185688227
 20
299.55664370398932
 30
0.0
 40
26.500002599999998
 50
270.0
 51
90.00000299999769
  0
LINE
  5
33DD
  8
ﾁｭｳｼﾝｾﾝ1
 10
560.15426185688227
 20
354.62221604809127
 30
0.0
 11
560.15426185688227
 21
200.32237070398929
 31
0.0
  0
ARC
  5
33DE
  8
AM_0
 10
743.97913462794384
 20
271.53067542876732
 30
0.0
 40
264.99999999999989
 50
173.53019364652329
 51
181.46980635347501
  0
LINE
  5
33E0
  8
AM_0
 10
638.15426185688239
 20
204.55665470398921
 30
0.0
 11
608.15426185688239
 21
204.55665470398921
 31
0.0
  0
LINE
  5
33E1
  8
AM_0
 10
610.15426285688284
 20
216.5566547039893
 30
0.0
 11
636.15427885688246
 21
216.5566547039893
 31
0.0
  0
LINE
  5
33E4
  8
AM_0
 10
482.15425285688252
 20
204.55665470398921
 30
0.0
 11
512.15425285688241
 21
204.55665470398921
 31
0.0
  0
LINE
  5
33E5
  8
AM_0
 10
510.1543028568824
 20
216.5566547039893
 30
0.0
 11
484.15426285688233
 21
216.5566547039893
 31
0.0
  0
LINE
  5
33E7
  8
AM_0
 10
482.15425285688252
 20
204.55665470398921
 30
0.0
 11
482.15425285688252
 21
216.5566547039893
 31
0.0
  0
LINE
  5
33E8
  8
ﾁｭｳｼﾝｾﾝ1
 10
495.15427285688219
 20
221.1021107039893
 30
0.0
 11
495.15427285688219
 21
200.01119870398921
 31
0.0
  0
LINE
  5
33E9
  8
ｶｸﾚｾﾝ2
 10
489.1543028568824
 20
216.5566547039893
 30
0.0
 11
489.1543028568824
 21
204.55665470398921
 31
0.0
  0
ARC
  5
33EA
  8
AM_0
 10
484.15426285688233
 20
214.55667170398931
 30
0.0
 40
2.00000007
 50
90.00000299999769
 51
180.00001000000091
  0
LINE
  5
33EB
  8
AM_0
 10
483.84658266766229
 20
259.86639616979448
 30
0.0
 11
486.68550895815758
 21
259.74244597110368
 31
0.0
  0
ARC
  5
33EC
  8
AM_0
 10
484.0646796044889
 20
264.86163727770372
 30
0.0
 40
5.0
 50
181.46980635347501
 51
267.50000000000148
1001
GENIUS_GENOBJ-N-FIL_13
1002
{
1000
OWNER
1000
GEN
1002
}
1001
GENIUS_GENODEF_13
1002
{
1000
HIER
1070
     0
1002
}
1002
{
1000
MANEDIT
1070
     0
1002
}
1002
{
1000
NOSEL
1070
     0
1002
}
1002
{
1000
BEHIND
1070
     0
1002
}
1002
{
1000
OTHER
1070
     0
1002
}
1002
{
1000
REACTOR
1002
}
  0
LINE
  5
33ED
  8
AM_0
 10
607.15426285688284
 20
205.55667170398931
 30
0.0
 11
513.1543028568824
 21
205.55667170398931
 31
0.0
  0
LINE
  5
33EE
  8
AM_0
 10
526.1542598568825
 20
221.55665570398929
 30
0.0
 11
594.15427585688235
 21
221.55665570398929
 31
0.0
  0
ARC
  5
33EF
  8
AM_0
 10
541.1542598568825
 20
253.55664170398919
 30
0.0
 40
34.000002000000002
 50
179.999989999999
 51
211.4669699999979
  0
LINE
  5
33F0
  8
AM_0
 10
532.78057285688226
 20
205.9274147039892
 30
0.0
 11
537.36101785688265
 21
209.44209170398929
 31
0.0
  0
LINE
  5
33F1
  8
AM_0
 10
536.60744485688235
 20
215.1661847039893
 30
0.0
 11
531.27342985688244
 21
217.37560970398931
 31
0.0
  0
CIRCLE
  5
33F2
  8
AM_0
 10
532.02696985688215
 20
211.65151970398921
 30
0.0
 40
4.9999998000000003
  0
LINE
  5
33F3
  8
AM_0
 10
531.27339985688218
 20
217.37562470398919
 30
0.0
 11
526.69298485688205
 21
213.86093270398931
 31
0.0
  0
LINE
  5
33F4
  8
AM_0
 10
521.15425885688205
 20
216.5566547039893
 30
0.0
 11
521.15425885688205
 21
210.55665470398921
 31
0.0
  0
LINE
  5
33F5
  8
AM_0
 10
512.15425285688241
 20
204.55665470398921
 30
0.0
 11
512.15425285688241
 21
214.55667170398931
 31
0.0
  0
LINE
  5
33F6
  8
ｶｸﾚｾﾝ2
 10
501.1543028568824
 20
216.5566547039893
 30
0.0
 11
501.1543028568824
 21
204.55665470398921
 31
0.0
  0
LINE
  5
33F7
  8
AM_0
 10
518.15425885688228
 20
207.55665470398921
 30
0.0
 11
514.1542598568825
 21
207.55665470398921
 31
0.0
  0
ARC
  5
33F8
  8
AM_0
 10
513.1543028568824
 20
204.55665470398921
 30
0.0
 40
1.0000000199999981
 50
90.00000299999769
 51
180.00001000000091
  0
ARC
  5
33F9
  8
AM_0
 10
514.1542598568825
 20
205.55667170398931
 30
0.0
 40
2.00000007
 50
90.00000299999769
 51
180.00001000000091
  0
ARC
  5
33FA
  8
AM_0
 10
518.15425885688228
 20
210.55665470398921
 30
0.0
 40
3.0
 50
270.0
 51
0.0
  0
LINE
  5
33FB
  8
AM_0
 10
527.44658785688239
 20
208.1368097039892
 30
0.0
 11
532.78060285688252
 21
205.9273817039892
 31
0.0
  0
LINE
  5
33FC
  8
AM_0
 10
526.69295485688235
 20
213.86094770398921
 30
0.0
 11
527.44655785688246
 21
208.1368397039893
 31
0.0
  0
ARC
  5
33FD
  8
AM_0
 10
507.15430285688228
 20
221.55665570398929
 30
0.0
 40
5.0000001000000003
 50
270.0
 51
0.0
  0
ARC
  5
33FE
  8
AM_0
 10
510.1543028568824
 20
214.55667170398931
 30
0.0
 40
2.00000007
 50
0.0
 51
90.00000299999769
  0
ARC
  5
33FF
  8
AM_0
 10
526.1542598568825
 20
216.5566547039893
 30
0.0
 40
5.0000001000000003
 50
90.00000299999769
 51
180.00001000000091
  0
LINE
  5
3400
  8
AM_0
 10
537.36101785688265
 20
209.44210670398931
 30
0.0
 11
536.60741485688254
 21
215.1662147039892
 31
0.0
  0
ARC
  5
3401
  8
AM_0
 10
579.15427585688235
 20
253.55664170398919
 30
0.0
 40
34.000002000000002
 50
328.53301999999962
 51
0.0
  0
ARC
  5
3402
  8
AM_0
 10
602.15426185688227
 20
210.55665470398921
 30
0.0
 40
3.0
 50
179.999989999999
 51
270.0
  0
LINE
  5
3403
  8
AM_0
 10
583.70109085688273
 20
215.16619970398929
 30
0.0
 11
582.94750585688234
 21
209.44209170398929
 31
0.0
  0
LINE
  5
3404
  8
AM_0
 10
593.61556585688209
 20
213.86091470398929
 30
0.0
 11
589.03513585688245
 21
217.37560970398931
 31
0.0
  0
LINE
  5
3405
  8
AM_0
 10
599.15426185688227
 20
216.5566547039893
 30
0.0
 11
599.15426185688227
 21
210.55665470398921
 31
0.0
  0
CIRCLE
  5
3406
  8
AM_0
 10
588.28150285688253
 20
211.65151970398921
 30
0.0
 40
4.9999998000000003
  0
LINE
  5
3407
  8
AM_0
 10
582.94752085688231
 20
209.4420767039893
 30
0.0
 11
587.52794785688195
 21
205.92739970398929
 31
0.0
  0
LINE
  5
3408
  8
AM_0
 10
587.52794785688195
 20
205.9274147039892
 30
0.0
 11
592.86197785688228
 21
208.1368397039893
 31
0.0
  0
LINE
  5
3409
  8
AM_0
 10
592.86194785688235
 20
208.1368247039893
 30
0.0
 11
593.61555085688235
 21
213.86093270398931
 31
0.0
  0
LINE
  5
340A
  8
AM_0
 10
589.03515085688241
 20
217.37562470398919
 30
0.0
 11
583.70112085688231
 21
215.16619970398929
 31
0.0
  0
ARC
  5
340B
  8
AM_0
 10
594.15427585688235
 20
216.5566547039893
 30
0.0
 40
5.0000001000000003
 50
0.0
 51
90.00000299999769
  0
LINE
  5
340C
  8
AM_0
 10
608.15426185688239
 20
204.55665470398921
 30
0.0
 11
608.15426185688239
 21
214.55667170398931
 31
0.0
  0
LINE
  5
340D
  8
ﾁｭｳｼﾝｾﾝ1
 10
625.15427785688246
 20
221.1021107039893
 30
0.0
 11
625.15427785688246
 21
200.01119870398921
 31
0.0
  0
LINE
  5
340E
  8
ｶｸﾚｾﾝ2
 10
631.15427785688235
 20
216.5566547039893
 30
0.0
 11
631.15427785688235
 21
204.55665470398921
 31
0.0
  0
LINE
  5
340F
  8
ｶｸﾚｾﾝ2
 10
619.15426285688284
 20
216.5566547039893
 30
0.0
 11
619.15426285688284
 21
204.55665470398921
 31
0.0
  0
LINE
  5
3410
  8
AM_0
 10
606.15427585688235
 20
207.55665470398921
 30
0.0
 11
602.15426185688227
 21
207.55665470398921
 31
0.0
  0
ARC
  5
3411
  8
AM_0
 10
607.15426285688284
 20
204.55665470398921
 30
0.0
 40
1.0000000199999981
 50
0.0
 51
90.00000299999769
  0
ARC
  5
3412
  8
AM_0
 10
606.15427585688235
 20
205.55667170398931
 30
0.0
 40
2.00000007
 50
0.0
 51
90.00000299999769
  0
ARC
  5
3413
  8
AM_0
 10
613.15426285688284
 20
221.55665570398929
 30
0.0
 40
5.0000001000000003
 50
179.999989999999
 51
270.0
  0
ARC
  5
3414
  8
AM_0
 10
610.15426285688284
 20
214.55667170398931
 30
0.0
 40
2.00000007
 50
90.00000299999769
 51
180.00001000000091
  0
LINE
  5
3416
  8
AM_0
 10
638.15426185688239
 20
204.55665470398921
 30
0.0
 11
638.15426185688239
 21
216.5566547039893
 31
0.0
  0
ARC
  5
3417
  8
AM_0
 10
636.15427885688246
 20
214.55667170398931
 30
0.0
 40
2.00000007
 50
0.0
 51
90.00000299999769
  0
LINE
  5
3418
  8
AM_0
 10
501.08926285688239
 20
330.0247487039893
 30
0.0
 11
496.50880285688248
 21
326.51006870398919
 31
0.0
  0
LINE
  5
3419
  8
AM_0
 10
497.26237285688262
 20
320.78594870398911
 30
0.0
 11
502.59640285688238
 21
318.5765087039893
 31
0.0
  0
CIRCLE
  5
341A
  8
AM_0
 10
501.84280285688209
 20
324.30062870398928
 30
0.0
 40
4.9999998000000003
  0
ARC
  5
341B
  8
AM_0
 10
497.87599285688242
 20
327.3443987039891
 30
0.0
 40
13.9999986
 50
266.80063999999902
 51
25.06296899999742
  0
ARC
  5
341C
  8
AM_0
 10
512.81350285688222
 20
317.0997887039893
 30
0.0
 40
20.000000700000001
 50
121.736169999997
 51
174.01019000000019
  0
LINE
  5
341D
  8
ﾁｭｳｼﾝｾﾝ1
 10
621.8890958568827
 20
279.55664270398933
 30
0.0
 11
498.64975285688251
 21
279.55664270398933
 31
0.0
  0
LINE
  5
3420
  8
AM_0
 10
401.38397499816091
 20
314.55662870398919
 30
0.0
 11
401.38397499816091
 21
287.55664370398932
 31
0.0
  0
LINE
  5
3423
  8
AM_0
 10
496.50880285688248
 20
326.51006870398919
 30
0.0
 11
497.26237285688262
 21
320.78594870398911
 31
0.0
  0
ARC
  5
3424
  8
AM_0
 10
560.15426185688227
 20
279.55664270398933
 30
0.0
 40
71.000000999999983
 50
152.99941999999629
 51
174.01019000000019
  0
ARC
  5
3425
  8
AM_0
 10
485.63497754964101
 20
300.82737325465058
 30
0.0
 40
5.0
 50
87.500000000001435
 51
173.53019364652329
1001
GENIUS_GENODEF_13
1002
{
1000
HIER
1070
     0
1002
}
1002
{
1000
MANEDIT
1070
     0
1002
}
1002
{
1000
NOSEL
1070
     0
1002
}
1002
{
1000
BEHIND
1070
     0
1002
}
1002
{
1000
OTHER
1070
     0
1002
}
1002
{
1000
REACTOR
1002
}
1001
GENIUS_GENOBJ-N-FIL_13
1002
{
1000
OWNER
1000
GEN
1002
}
  0
ARC
  5
3426
  8
AM_0
 10
496.81561285688213
 20
308.37398870398931
 30
0.0
 40
5.0000001000000003
 50
86.800639000002292
 51
174.01019000000019
  0
ARC
  5
3427
  8
AM_0
 10
560.15426185688227
 20
279.55664270398933
 30
0.0
 40
74.0
 50
157.6397176690505
 51
159.39189950030311
  0
LINE
  5
3428
  8
AM_0
 10
485.8530744864679
 20
305.82261436255999
 30
0.0
 11
491.49461219292738
 21
305.57629950684202
 31
0.0
  0
ARC
  5
3429
  8
AM_0
 10
499.5661328568824
 20
310.42862870398932
 30
0.0
 40
3.0
 50
95.70573799999886
 51
152.99941999999629
  0
ARC
  5
342A
  8
AM_0
 10
560.15426185688227
 20
299.55664370398932
 30
0.0
 40
12.0000003
 50
109.4712199999996
 51
70.528788999999293
  0
ARC
  5
342B
  8
AM_0
 10
560.15426185688227
 20
279.55664270398933
 30
0.0
 40
71.000000999999983
 50
47.99935899999911
 51
132.0006499999993
  0
ARC
  5
342C
  8
AM_0
 10
560.15426185688227
 20
240.5566577039892
 30
0.0
 40
110.000004
 50
58.263836000000381
 51
121.736169999997
  0
LINE
  5
342D
  8
ﾁｭｳｼﾝｾﾝ1
 10
522.98568085688248
 20
299.55664370398932
 30
0.0
 11
595.85158885688236
 21
299.55664370398932
 31
0.0
  0
LINE
  5
342E
  8
AM_0
 10
507.1768328568823
 20
322.09121870398928
 30
0.0
 11
506.42323285688229
 21
327.81533870398931
 31
0.0
  0
LINE
  5
342F
  8
AM_0
 10
502.59643285688242
 20
318.57653870398929
 30
0.0
 11
507.1768328568823
 21
322.09124870398932
 31
0.0
  0
ARC
  5
3430
  8
AM_0
 10
512.15425285688241
 20
314.8091987039893
 30
0.0
 40
5.0000001000000003
 50
138.71940999999791
 51
180.00001000000091
  0
CIRCLE
  5
3431
  8
AM_0
 62
     2
 10
560.15426185688227
 20
299.55664370398932
 30
0.0
 40
4.000000199999997
  0
CIRCLE
  5
3432
  8
AM_0
 10
560.15426185688227
 20
299.55664370398932
 30
0.0
 40
3.0
  0
LINE
  5
3433
  8
AM_0
 10
564.15424585688243
 20
314.55662870398919
 30
0.0
 11
564.15424585688243
 21
307.55663870398922
 31
0.0
  0
LINE
  5
3434
  8
AM_0
 10
556.15425985688239
 20
314.55662870398919
 30
0.0
 11
556.15425985688239
 21
307.55663870398922
 31
0.0
  0
LINE
  5
3435
  8
AM_0
 10
556.15425985688239
 20
307.55663870398922
 30
0.0
 11
564.15424585688243
 21
307.55663870398922
 31
0.0
  0
LINE
  5
3436
  8
AM_0
 10
556.15425985688239
 20
314.55662870398919
 30
0.0
 11
564.15424585688243
 21
314.55662870398919
 31
0.0
  0
ARC
  5
3437
  8
AM_0
 10
515.08702885688251
 20
335.39306870398929
 30
0.0
 40
5.0000001000000003
 50
115.4175599999964
 51
205.0629700000004
  0
LINE
  5
3438
  8
AM_0
 10
506.42323285688229
 20
327.81530870398922
 30
0.0
 11
501.08923285688218
 21
330.0247487039893
 31
0.0
  0
ARC
  5
3439
  8
AM_0
 10
514.65282385688238
 20
330.08999870398918
 30
0.0
 40
3.0
 50
132.0006499999993
 51
189.2943400000016
  0
LINE
  5
343A
  8
AM_0
 10
613.88531185688237
 20
327.81524870398931
 30
0.0
 11
613.1317088568826
 21
322.09112870398928
 31
0.0
  0
LINE
  5
343B
  8
AM_0
 10
623.79972385688245
 20
326.51003870398932
 30
0.0
 11
623.04613885688241
 21
320.78594870398911
 31
0.0
  0
CIRCLE
  5
343C
  8
AM_0
 10
618.46573885688235
 20
324.30056870398931
 30
0.0
 40
4.9999998000000003
  0
ARC
  5
343D
  8
AM_0
 10
622.43253685688205
 20
327.3443987039891
 30
0.0
 40
13.9999986
 50
154.93704000000099
 51
273.19937000000078
  0
ARC
  5
343E
  8
AM_0
 10
607.49503585688228
 20
317.0997887039893
 30
0.0
 40
20.000000700000001
 50
5.9898155000000548
 51
58.263836000000381
  0
ARC
  5
343F
  8
AM_0
 10
560.15426185688227
 20
279.55664270398933
 30
0.0
 40
71.000000999999983
 50
5.9898141999996781
 51
27.00057300000061
  0
LINE
  5
3440
  8
AM_0
 10
613.13173885688252
 20
322.09112870398928
 30
0.0
 11
617.71216885688204
 21
318.57644870398917
 31
0.0
  0
ARC
  5
3441
  8
AM_0
 10
608.15426185688239
 20
314.8091987039893
 30
0.0
 40
5.0000001000000003
 50
0.0
 51
41.280591000002673
  0
ARC
  5
3442
  8
AM_0
 10
623.49293185688225
 20
308.37398870398931
 30
0.0
 40
5.0000001000000003
 50
5.9898155000000548
 51
93.199358999997784
  0
LINE
  5
3443
  8
AM_0
 10
617.71216885688204
 20
318.57647870398921
 30
0.0
 11
623.04619885688237
 21
320.7858887039892
 31
0.0
  0
ARC
  5
3444
  8
AM_0
 10
620.74239685688235
 20
310.42862870398932
 30
0.0
 40
3.0
 50
27.00057300000061
 51
84.294261000002294
  0
LINE
  5
3445
  8
AM_0
 10
619.21935685688243
 20
330.02468870398928
 30
0.0
 11
613.88532685688244
 21
327.81527870398918
 31
0.0
  0
ARC
  5
3446
  8
AM_0
 10
605.22150685688246
 20
335.39306870398929
 30
0.0
 40
5.0000001000000003
 50
334.9370299999996
 51
64.582444000001303
  0
ARC
  5
3447
  8
AM_0
 10
605.65572685688221
 20
330.08999870398918
 30
0.0
 40
3.0
 50
350.70567000000091
 51
47.99935899999911
  0
LINE
  5
3448
  8
AM_0
 10
623.79978685688252
 20
326.5099787039893
 30
0.0
 11
619.21935685688243
 21
330.0246587039893
 31
0.0
  0
POINT
  5
3449
  8
0
 10
1066.6580060533411
 20
532.92389261555707
 30
0.0
1001
GENIUS_GENOLIS_13
1002
{
1000
ENT
1005
0
1005
3378
1005
3385
1002
}
1001
GENIUS_GENOENT_13
1002
{
1000
MYREF
1005
3449
1002
}
1002
{
1000
GRP
1005
0
1002
}
1001
GENIUS_GENOBJ-NBEHI-BHB_13
1002
{
1000
OWNER
1000
genbehi
1002
}
1001
GENIUS_GENBH_13
1002
{
1000
FGO
1005
0
1002
}
1001
GENIUS_GENODEF_13
1002
{
1000
HIER
1070
     1
1002
}
1002
{
1000
MANEDIT
1070
     1
1002
}
1002
{
1000
NOSEL
1070
     1
1002
}
1002
{
1000
BEHIND
1070
     0
1002
}
1002
{
1000
OTHER
1070
     1
1002
}
1002
{
1000
REACTOR
1002
}
  0
LINE
  5
35E3
  8
AM_0N
 10
130.38398499816131
 20
439.63551777209182
 30
0.0
 11
146.38398499816131
 21
439.63551777209182
 31
0.0
1001
GENIUS_GENOREF_13
1005
0
  0
LINE
  5
35E4
  8
AM_0
 10
146.38398499816131
 20
443.18730206381082
 30
0.0
 11
130.38398499816131
 21
443.18730206381082
 31
0.0
1001
GENIUS_GENOREF_13
1005
361D
  0
LINE
  5
35E5
  8
AM_0
 10
134.38398499816131
 20
430.32849911058469
 30
0.0
 11
130.38398499816131
 21
430.32849911058469
 31
0.0
  0
LINE
  5
35E6
  8
AM_0
 10
171.88398499816131
 20
418.41809581434131
 30
0.0
 11
117.8839849981613
 21
418.41809581434131
 31
0.0
  0
LINE
  5
35E7
  8
AM_0
 10
171.88398499816131
 20
421.82569681304801
 30
0.0
 11
117.8839849981613
 21
421.82569681304801
 31
0.0
  0
LINE
  5
35E8
  8
AM_0
 10
112.3839849981614
 20
565.07809504327975
 30
0.0
 11
237.88398499816131
 21
565.07809504327975
 31
0.0
  0
LINE
  5
35E9
  8
AM_0
 10
105.8839849981614
 20
552.57996291465895
 30
0.0
 11
105.8839849981613
 21
446.3762271719001
 31
0.0
  0
ARC
  5
35EA
  8
AM_0
 10
1045.0701088079809
 20
499.4780950432795
 30
0.0
 40
940.68612380981915
 50
176.76392470776139
 51
183.2360752922385
  0
LINE
  5
35EB
  8
AM_0
 10
112.8839849981614
 20
565.07809504327975
 30
0.0
 11
112.8839849981613
 21
433.8780950432797
 31
0.0
  0
LINE
  5
35EC
  8
AM_0
 10
110.3839849981614
 20
563.07809504327975
 30
0.0
 11
110.3839849981614
 21
435.87809504327959
 31
0.0
  0
ARC
  5
35ED
  8
AM_0
 10
117.8839849981613
 20
420.41809581434148
 30
0.0
 40
2.0
 50
180.0
 51
270.0
1001
GENIUS_GENOBJ-N-FIL_13
1002
{
1000
OWNER
1000
GEN
1002
}
1001
GENIUS_GENODEF_13
1002
{
1000
HIER
1070
     0
1002
}
1002
{
1000
MANEDIT
1070
     0
1002
}
1002
{
1000
NOSEL
1070
     0
1002
}
1002
{
1000
BEHIND
1070
     0
1002
}
1002
{
1000
OTHER
1070
     0
1002
}
1002
{
1000
REACTOR
1002
}
  0
LINE
  5
35EE
  8
AM_0
 10
130.38398499816131
 20
443.18730206381082
 30
0.0
 11
130.38398499816131
 21
430.32849911058469
 31
0.0
  0
LINE
  5
35EF
  8
AM_0
 10
112.3839849981614
 20
433.8780950432797
 30
0.0
 11
115.8839849981613
 21
433.87809504327959
 31
0.0
  0
ARC
  5
35F0
  8
AM_0
 10
112.3839849981614
 20
435.87809504327959
 30
0.0
 40
2.0
 50
180.0
 51
270.0
1001
GENIUS_GENOBJ-N-FIL_13
1002
{
1000
OWNER
1000
GEN
1002
}
1001
GENIUS_GENODEF_13
1002
{
1000
HIER
1070
     0
1002
}
1002
{
1000
MANEDIT
1070
     0
1002
}
1002
{
1000
NOSEL
1070
     0
1002
}
1002
{
1000
BEHIND
1070
     0
1002
}
1002
{
1000
OTHER
1070
     0
1002
}
1002
{
1000
REACTOR
1002
}
  0
LINE
  5
35F1
  8
AM_0
 10
115.8839849981613
 20
437.21912207010041
 30
0.0
 11
115.8839849981613
 21
420.41809581434148
 31
0.0
  0
ARC
  5
35F2
  8
AM_0
 10
117.8839849981613
 20
423.82569681304818
 30
0.0
 40
2.0
 50
180.0
 51
270.0
1001
GENIUS_GENODEF_13
1002
{
1000
HIER
1070
     0
1002
}
1002
{
1000
MANEDIT
1070
     0
1002
}
1002
{
1000
NOSEL
1070
     0
1002
}
1002
{
1000
BEHIND
1070
     0
1002
}
1002
{
1000
OTHER
1070
     0
1002
}
1002
{
1000
REACTOR
1002
}
1001
GENIUS_GENOBJ-N-FIL_13
1002
{
1000
OWNER
1000
GEN
1002
}
  0
LINE
  5
35F3
  8
AM_0
 10
130.38398499816131
 20
439.2191220701007
 30
0.0
 11
117.8839849981613
 21
439.21912207010058
 31
0.0
  0
ARC
  5
35F4
  8
AM_0
 10
117.8839849981613
 20
437.21912207010041
 30
0.0
 40
2.0
 50
90.0
 51
180.0
1001
GENIUS_GENOBJ-N-FIL_13
1002
{
1000
OWNER
1000
GEN
1002
}
1001
GENIUS_GENODEF_13
1002
{
1000
HIER
1070
     0
1002
}
1002
{
1000
MANEDIT
1070
     0
1002
}
1002
{
1000
NOSEL
1070
     0
1002
}
1002
{
1000
BEHIND
1070
     0
1002
}
1002
{
1000
OTHER
1070
     0
1002
}
1002
{
1000
REACTOR
1002
}
  0
ARC
  5
35F5
  8
AM_0
 10
108.3839849981614
 20
440.57996291465912
 30
0.0
 40
2.0
 50
0.0
 51
48.366460663430352
1001
GENIUS_GENOBJ-N-FIL_13
1002
{
1000
OWNER
1000
GEN
1002
}
1001
GENIUS_GENODEF_13
1002
{
1000
HIER
1070
     0
1002
}
1002
{
1000
MANEDIT
1070
     0
1002
}
1002
{
1000
NOSEL
1070
     0
1002
}
1002
{
1000
BEHIND
1070
     0
1002
}
1002
{
1000
OTHER
1070
     0
1002
}
1002
{
1000
REACTOR
1002
}
  0
LINE
  5
35F6
  8
AM_0
 10
109.71271267582119
 20
442.07478155202648
 30
0.0
 11
106.5552573205015
 21
444.88140853453268
 31
0.0
  0
ARC
  5
35F7
  8
AM_0
 10
107.8839849981613
 20
446.3762271719001
 30
0.0
 40
2.0
 50
180.0
 51
228.3664606634303
1001
GENIUS_GENODEF_13
1002
{
1000
HIER
1070
     0
1002
}
1002
{
1000
MANEDIT
1070
     0
1002
}
1002
{
1000
NOSEL
1070
     0
1002
}
1002
{
1000
BEHIND
1070
     0
1002
}
1002
{
1000
OTHER
1070
     0
1002
}
1002
{
1000
REACTOR
1002
}
1001
GENIUS_GENOBJ-N-FIL_13
1002
{
1000
OWNER
1000
GEN
1002
}
  0
LINE
  5
35F8
  8
AM_0
 10
94.883984998161424
 20
516.47809504327972
 30
0.0
 11
94.88398499816131
 21
482.47809504327961
 31
0.0
  0
ARC
  5
35F9
  8
AM_0
 10
97.883984998161324
 20
482.47809504327961
 30
0.0
 40
3.0
 50
180.0
 51
270.0
1001
GENIUS_GENODEF_13
1002
{
1000
HIER
1070
     0
1002
}
1002
{
1000
MANEDIT
1070
     0
1002
}
1002
{
1000
NOSEL
1070
     0
1002
}
1002
{
1000
BEHIND
1070
     0
1002
}
1002
{
1000
OTHER
1070
     0
1002
}
1002
{
1000
REACTOR
1002
}
1001
GENIUS_GENOBJ-N-FIL_13
1002
{
1000
OWNER
1000
GEN
1002
}
  0
LINE
  5
35FA
  8
AM_0
 10
97.883984998161324
 20
479.47809504327972
 30
0.0
 11
104.59661979920349
 21
479.47809504327972
 31
0.0
  0
ARC
  5
35FB
  8
AM_0
 10
97.883984998161466
 20
516.47809504327972
 30
0.0
 40
3.0
 50
90.0
 51
180.0
1001
GENIUS_GENOBJ-N-FIL_13
1002
{
1000
OWNER
1000
GEN
1002
}
1001
GENIUS_GENODEF_13
1002
{
1000
HIER
1070
     0
1002
}
1002
{
1000
MANEDIT
1070
     0
1002
}
1002
{
1000
NOSEL
1070
     0
1002
}
1002
{
1000
BEHIND
1070
     0
1002
}
1002
{
1000
OTHER
1070
     0
1002
}
1002
{
1000
REACTOR
1002
}
  0
LINE
  5
35FC
  8
AM_0
 10
97.883984998161466
 20
519.47809504327972
 30
0.0
 11
104.59661979920349
 21
519.47809504327972
 31
0.0
  0
ARC
  5
35FD
  8
AM_0
 10
112.3839849981614
 20
563.07809504327975
 30
0.0
 40
2.0
 50
90.0
 51
180.0
1001
GENIUS_GENOBJ-N-FIL_13
1002
{
1000
OWNER
1000
GEN
1002
}
1001
GENIUS_GENODEF_13
1002
{
1000
HIER
1070
     0
1002
}
1002
{
1000
MANEDIT
1070
     0
1002
}
1002
{
1000
NOSEL
1070
     0
1002
}
1002
{
1000
BEHIND
1070
     0
1002
}
1002
{
1000
OTHER
1070
     0
1002
}
1002
{
1000
REACTOR
1002
}
  0
ARC
  5
35FE
  8
AM_0
 10
107.8839849981614
 20
552.57996291465895
 30
0.0
 40
2.0
 50
131.63353933656961
 51
180.0
1001
GENIUS_GENODEF_13
1002
{
1000
HIER
1070
     0
1002
}
1002
{
1000
MANEDIT
1070
     0
1002
}
1002
{
1000
NOSEL
1070
     0
1002
}
1002
{
1000
BEHIND
1070
     0
1002
}
1002
{
1000
OTHER
1070
     0
1002
}
1002
{
1000
REACTOR
1002
}
1001
GENIUS_GENOBJ-N-FIL_13
1002
{
1000
OWNER
1000
GEN
1002
}
  0
LINE
  5
35FF
  8
AM_0
 10
109.71271267582119
 20
556.88140853453285
 30
0.0
 11
106.5552573205015
 21
554.07478155202659
 31
0.0
  0
ARC
  5
3600
  8
AM_0
 10
108.3839849981614
 20
558.37622717190015
 30
0.0
 40
2.0
 50
311.63353933656958
 51
0.0
1001
GENIUS_GENOBJ-N-FIL_13
1002
{
1000
OWNER
1000
GEN
1002
}
1001
GENIUS_GENODEF_13
1002
{
1000
HIER
1070
     0
1002
}
1002
{
1000
MANEDIT
1070
     0
1002
}
1002
{
1000
NOSEL
1070
     0
1002
}
1002
{
1000
BEHIND
1070
     0
1002
}
1002
{
1000
OTHER
1070
     0
1002
}
1002
{
1000
REACTOR
1002
}
  0
LINE
  5
3601
  8
AM_0
 10
237.88398499816131
 20
565.47809504327961
 30
0.0
 11
237.88398499816131
 21
433.47809504327972
 31
0.0
  0
LINE
  5
3602
  8
AM_0
 10
249.38398499816131
 20
565.47809504327961
 30
0.0
 11
249.38398499816131
 21
433.47809504327972
 31
0.0
  0
LINE
  5
3603
  8
AM_0
 10
173.88398499816131
 20
433.87809504327981
 30
0.0
 11
237.88398499816131
 21
433.8780950432797
 31
0.0
  0
ARC
  5
3604
  8
AM_0
 10
171.88398499816131
 20
420.41809581434148
 30
0.0
 40
2.0
 50
270.0
 51
0.0
1001
GENIUS_GENOBJ-N-FIL_13
1002
{
1000
OWNER
1000
GEN
1002
}
1001
GENIUS_GENODEF_13
1002
{
1000
HIER
1070
     0
1002
}
1002
{
1000
MANEDIT
1070
     0
1002
}
1002
{
1000
NOSEL
1070
     0
1002
}
1002
{
1000
BEHIND
1070
     0
1002
}
1002
{
1000
OTHER
1070
     0
1002
}
1002
{
1000
REACTOR
1002
}
  0
LINE
  5
3605
  8
AM_0
 10
171.88398499816131
 20
439.21912207010058
 30
0.0
 11
146.38398499816131
 21
439.21912207010058
 31
0.0
  0
LINE
  5
3606
  8
AM_0
 10
146.38398499816131
 20
443.18730206381042
 30
0.0
 11
146.38398499816131
 21
430.32849911058469
 31
0.0
  0
LINE
  5
3607
  8
AM_3N
  6
AM_ISO02W050X2
 10
139.88398499816131
 20
437.46582176500709
 30
0.0
 11
138.38398499816131
 21
439.35323179356561
 31
0.0
1001
GENIUS_GENOREF_13
1005
0
  0
ARC
  5
3608
  8
AM_0N
 10
138.38398499816131
 20
442.23551777209161
 30
0.0
 40
5.0
 50
246.4528627629231
 51
293.54713723707698
1001
GENIUS_GENOREF_13
1005
0
  0
LINE
  5
3609
  8
AM_0
 10
142.3839849981614
 20
435.604561909094
 30
0.0
 11
134.38398499816131
 21
435.604561909094
 31
0.0
  0
LINE
  5
360A
  8
AM_0
 10
134.38398499816131
 20
439.63551777209148
 30
0.0
 11
134.38398499816131
 21
430.32849911058469
 31
0.0
  0
LINE
  5
360B
  8
AM_3N
  6
AM_ISO02W050X2
 10
138.13148499816131
 20
437.24189746714251
 30
0.0
 11
138.13148499816131
 21
439.03551777209162
 31
0.0
1001
GENIUS_GENOREF_13
1005
0
  0
LINE
  5
360C
  8
AM_3N
  6
AM_ISO02W050X2
 10
138.63648499816131
 20
437.24189746714251
 30
0.0
 11
138.63648499816131
 21
439.03551777209162
 31
0.0
1001
GENIUS_GENOREF_13
1005
0
  0
LINE
  5
360D
  8
AM_3N
  6
AM_ISO02W050X2
 10
136.88398499816131
 20
437.46582176500709
 30
0.0
 11
138.38398499816131
 21
439.35323179356561
 31
0.0
1001
GENIUS_GENOREF_13
1005
0
  0
LINE
  5
360E
  8
AM_3N
  6
AM_ISO02W050X2
 10
138.63648499816131
 20
439.03551777209162
 30
0.0
 11
138.13148499816131
 21
439.03551777209162
 31
0.0
1001
GENIUS_GENOREF_13
1005
0
  0
ARC
  5
360F
  8
AM_0N
 10
136.86587208117101
 20
438.75193726185989
 30
0.0
 40
1.1999999999999991
 50
184.99999999999969
 51
246.4528627629231
1001
GENIUS_GENOREF_13
1005
0
  0
LINE
  5
3610
  8
AM_0N
 10
135.67043844346099
 20
438.64735037056272
 30
0.0
 11
135.5839849981613
 21
439.63551777209182
 31
0.0
1001
GENIUS_GENOREF_13
1005
0
  0
LINE
  5
3611
  8
AM_0
 10
142.3839849981614
 20
439.63551777209182
 30
0.0
 11
142.3839849981614
 21
430.32849911058469
 31
0.0
  0
ARC
  5
3612
  8
AM_0N
 10
139.90209791515159
 20
438.75193726185989
 30
0.0
 40
1.1999999999999991
 50
293.54713723707698
 51
355.00000000000023
1001
GENIUS_GENOREF_13
1005
0
  0
LINE
  5
3613
  8
AM_0N
 10
141.09753155286171
 20
438.64735037056272
 30
0.0
 11
141.18398499816121
 21
439.63551777209182
 31
0.0
1001
GENIUS_GENOREF_13
1005
0
  0
LINE
  5
3614
  8
AM_0
 10
146.38398499816131
 20
430.32849911058469
 30
0.0
 11
142.3839849981614
 21
430.32849911058469
 31
0.0
  0
LINE
  5
3615
  8
AM_0
 10
173.88398499816131
 20
437.21912207010041
 30
0.0
 11
173.88398499816131
 21
420.41809581434148
 31
0.0
  0
ARC
  5
3616
  8
AM_0
 10
171.88398499816131
 20
423.82569681304818
 30
0.0
 40
2.0
 50
270.0
 51
0.0
1001
GENIUS_GENOBJ-N-FIL_13
1002
{
1000
OWNER
1000
GEN
1002
}
1001
GENIUS_GENODEF_13
1002
{
1000
HIER
1070
     0
1002
}
1002
{
1000
MANEDIT
1070
     0
1002
}
1002
{
1000
NOSEL
1070
     0
1002
}
1002
{
1000
BEHIND
1070
     0
1002
}
1002
{
1000
OTHER
1070
     0
1002
}
1002
{
1000
REACTOR
1002
}
  0
ARC
  5
3617
  8
AM_0
 10
171.88398499816131
 20
437.21912207010041
 30
0.0
 40
2.0
 50
0.0
 51
90.0
1001
GENIUS_GENODEF_13
1002
{
1000
HIER
1070
     0
1002
}
1002
{
1000
MANEDIT
1070
     0
1002
}
1002
{
1000
NOSEL
1070
     0
1002
}
1002
{
1000
BEHIND
1070
     0
1002
}
1002
{
1000
OTHER
1070
     0
1002
}
1002
{
1000
REACTOR
1002
}
1001
GENIUS_GENOBJ-N-FIL_13
1002
{
1000
OWNER
1000
GEN
1002
}
  0
LINE
  5
3618
  8
AM_0
 10
237.88398499816131
 20
433.47809504327972
 30
0.0
 11
249.38398499816131
 21
433.47809504327972
 31
0.0
  0
LINE
  5
3619
  8
AM_0
 10
256.38398499816128
 20
436.47809504327972
 30
0.0
 11
249.38398499816131
 21
433.47809504327972
 31
0.0
  0
LINE
  5
361A
  8
AM_0
 10
237.88398499816131
 20
565.47809504327961
 30
0.0
 11
249.38398499816131
 21
565.47809504327961
 31
0.0
  0
LINE
  5
361B
  8
AM_0
 10
249.38398499816131
 20
565.47809504327961
 30
0.0
 11
256.38398499816128
 21
562.47809504327972
 31
0.0
  0
LINE
  5
361C
  8
AM_0
 10
256.38398499816128
 20
562.4780950432795
 30
0.0
 11
256.38398499816128
 21
436.47809504327972
 31
0.0
  0
POINT
  5
361D
  8
0
 10
-29.490253603147089
 20
-2.0647972165338602
 30
0.0
1001
GENIUS_GENOLIS_13
1002
{
1000
ENT
1005
0
1005
0
1005
0
1005
35E4
1002
}
1001
GENIUS_GENOENT_13
1002
{
1000
MYREF
1005
361D
1002
}
1002
{
1000
GRP
1005
0
1002
}
1001
GENIUS_GENOBJ-NBEHI-BHB_13
1002
{
1000
OWNER
1000
genbehi
1002
}
1001
GENIUS_GENBH_13
1002
{
1000
FGO
1005
0
1002
}
1001
GENIUS_GENODEF_13
1002
{
1000
HIER
1070
     1
1002
}
1002
{
1000
MANEDIT
1070
     1
1002
}
1002
{
1000
NOSEL
1070
     1
1002
}
1002
{
1000
BEHIND
1070
     0
1002
}
1002
{
1000
OTHER
1070
     1
1002
}
1002
{
1000
REACTOR
1002
}
  0
TEXT
  5
39A8
  8
AM_0
 10
465.23674025811442
 20
511.10664488518421
 30
0.0
 40
10.0
  1
VX01-060S~VX01-200S
  0
ENDSEC
  0
EOF
