  0
SECTION
  2
HEADER
  9
$ACADVER
  1
AC1009
  9
$INSBASE
 10
0.0
 20
0.0
 30
0.0
  9
$EXTMIN
 10
65.843243754552532
 20
179.24393834176561
 30
-0.0015258207003583
  9
$EXTMAX
 10
712.68533135027974
 20
626.92031153868845
 30
0.0000000349246037
  9
$LIMMIN
 10
0.0
 20
0.0
  9
$LIMMAX
 10
853.5
 20
555.00000000000011
  9
$ORTHOMODE
 70
     0
  9
$REGENMODE
 70
     1
  9
$FILLMODE
 70
     1
  9
$QTEXTMODE
 70
     0
  9
$MIRRTEXT
 70
     1
  9
$DRAGMODE
 70
     2
  9
$LTSCALE
 40
3.0
  9
$OSMODE
 70
   551
  9
$ATTMODE
 70
     1
  9
$TEXTSIZE
 40
2.5
  9
$TRACEWID
 40
1.0
  9
$TEXTSTYLE
  7
STANDARD
  9
$CLAYER
  8
AM_0
  9
$CELTYPE
  6
BYLAYER
  9
$CECOLOR
 62
   256
  9
$DIMSCALE
 40
1.0
  9
$DIMASZ
 40
2.5
  9
$DIMEXO
 40
1.0
  9
$DIMDLI
 40
8.0
  9
$DIMRND
 40
0.0
  9
$DIMDLE
 40
0.0
  9
$DIMEXE
 40
0.6
  9
$DIMTP
 40
0.1
  9
$DIMTM
 40
0.1
  9
$DIMTXT
 40
2.5
  9
$DIMCEN
 40
0.0
  9
$DIMTSZ
 40
0.0
  9
$DIMTOL
 70
     0
  9
$DIMLIM
 70
     0
  9
$DIMTIH
 70
     0
  9
$DIMTOH
 70
     0
  9
$DIMSE1
 70
     0
  9
$DIMSE2
 70
     0
  9
$DIMTAD
 70
     1
  9
$DIMZIN
 70
     8
  9
$DIMBLK
  1

  9
$DIMASO
 70
     1
  9
$DIMSHO
 70
     1
  9
$DIMPOST
  1

  9
$DIMAPOST
  1
"
  9
$DIMALT
 70
     0
  9
$DIMALTD
 70
     2
  9
$DIMALTF
 40
0.0393701
  9
$DIMLFAC
 40
1.0
  9
$DIMTOFL
 70
     1
  9
$DIMTVP
 40
0.0
  9
$DIMTIX
 70
     0
  9
$DIMSOXD
 70
     0
  9
$DIMSAH
 70
     0
  9
$DIMBLK1
  1

  9
$DIMBLK2
  1

  9
$DIMSTYLE
  2
AM_ISO
  9
$DIMCLRD
 70
   256
  9
$DIMCLRE
 70
   256
  9
$DIMCLRT
 70
     4
  9
$DIMTFAC
 40
0.71
  9
$DIMGAP
 40
0.8
  9
$LUNITS
 70
     2
  9
$LUPREC
 70
     2
  9
$SKETCHINC
 40
1.0
  9
$FILLETRAD
 40
15.0
  9
$AUNITS
 70
     0
  9
$AUPREC
 70
     0
  9
$MENU
  1
.
  9
$ELEVATION
 40
0.0
  9
$PELEVATION
 40
0.0
  9
$THICKNESS
 40
0.0
  9
$LIMCHECK
 70
     0
  9
$BLIPMODE
 70
     0
  9
$CHAMFERA
 40
6.0
  9
$CHAMFERB
 40
3.0
  9
$SKPOLY
 70
     0
  9
$TDCREATE
 40
2452065.6260002428
  9
$TDUPDATE
 40
2458541.5654877778
  9
$TDINDWG
 40
0.1310688889
  9
$TDUSRTIMER
 40
0.1310686806
  9
$USRTIMER
 70
     1
  9
$ANGBASE
 50
0.0
  9
$ANGDIR
 70
     0
  9
$PDMODE
 70
     0
  9
$PDSIZE
 40
0.0
  9
$PLINEWID
 40
0.0
  9
$COORDS
 70
     1
  9
$SPLFRAME
 70
     0
  9
$SPLINETYPE
 70
     6
  9
$SPLINESEGS
 70
     8
  9
$ATTDIA
 70
     1
  9
$ATTREQ
 70
     1
  9
$HANDLING
 70
     1
  9
$HANDSEED
  5
3A51
  9
$SURFTAB1
 70
     6
  9
$SURFTAB2
 70
     6
  9
$SURFTYPE
 70
     6
  9
$SURFU
 70
     6
  9
$SURFV
 70
     6
  9
$UCSNAME
  2

  9
$UCSORG
 10
0.0
 20
0.0
 30
0.0
  9
$UCSXDIR
 10
1.0
 20
0.0
 30
0.0
  9
$UCSYDIR
 10
0.0
 20
1.0
 30
0.0
  9
$PUCSNAME
  2

  9
$PUCSORG
 10
0.0
 20
0.0
 30
0.0
  9
$PUCSXDIR
 10
1.0
 20
0.0
 30
0.0
  9
$PUCSYDIR
 10
0.0
 20
1.0
 30
0.0
  9
$USERI1
 70
     0
  9
$USERI2
 70
     0
  9
$USERI3
 70
     0
  9
$USERI4
 70
     0
  9
$USERI5
 70
     0
  9
$USERR1
 40
0.0
  9
$USERR2
 40
0.0
  9
$USERR3
 40
0.0
  9
$USERR4
 40
0.0
  9
$USERR5
 40
0.0
  9
$WORLDVIEW
 70
     1
  9
$SHADEDGE
 70
     3
  9
$SHADEDIF
 70
    70
  9
$TILEMODE
 70
     1
  9
$MAXACTVP
 70
    64
  9
$PLIMCHECK
 70
     0
  9
$PEXTMIN
 10
1.0000000000000000E+020
 20
1.0000000000000000E+020
 30
1.0000000000000000E+020
  9
$PEXTMAX
 10
-1.0000000000000000E+020
 20
-1.0000000000000000E+020
 30
-1.0000000000000000E+020
  9
$PLIMMIN
 10
0.0
 20
0.0
  9
$PLIMMAX
 10
420.0
 20
297.0
  9
$UNITMODE
 70
     0
  9
$VISRETAIN
 70
     1
  9
$PLINEGEN
 70
     0
  9
$PSLTSCALE
 70
     1
  0
ENDSEC
  0
SECTION
  2
TABLES
  0
TABLE
  2
VPORT
 70
     1
  0
VPORT
  2
*ACTIVE
 70
     0
 10
0.0
 20
0.0
 11
1.0
 21
1.0
 12
389.26428755241608
 22
403.082124940227
 13
0.0
 23
0.0
 14
7.5
 24
7.5
 15
30.0
 25
30.0
 16
0.0
 26
0.0
 36
1.0
 17
0.0
 27
0.0
 37
0.0
 40
450.74966637676448
 41
1.7571592210767459
 42
50.0
 43
0.0
 44
0.0
 50
0.0
 51
0.0
 71
     0
 72
   100
 73
     1
 74
     3
 75
     0
 76
     0
 77
     0
 78
     0
  0
ENDTAB
  0
TABLE
  2
LTYPE
 70
    20
  0
LTYPE
  2
CONTINUOUS
 70
     0
  3
Solid line
 72
    65
 73
     0
 40
0.0
  0
LTYPE
  2
AM_ISO02W050
 70
     0
  3
__ __ __ __ __ __ __ __ __ __ __ __ __ __ __
 72
    65
 73
     2
 40
7.5
 49
6.0
 49
-1.5
  0
LTYPE
  2
AM_ISO08W050
 70
     0
  3
____ . ____ . ____ . ____ . ____ . ____ . ____
 72
    65
 73
     4
 40
18.0
 49
12.0
 49
-1.5
 49
3.0
 49
-1.5
  0
LTYPE
  2
AM_ISO09W050
 70
     0
  3
_____ . . _____ . . _____ . . ____ .. ____
 72
    65
 73
     6
 40
22.5
 49
12.0
 49
-1.5
 49
3.0
 49
-1.5
 49
3.0
 49
-1.5
  0
LTYPE
  2
AMCONSTR
 70
     0
  3
_______________________
 72
    65
 73
     2
 40
9999.0
 49
9999.0
 49
0.0
  0
LTYPE
  2
AM_ISO08W050X2
 70
     0
  3
__ . __ . __ . __ . __ . __
 72
    65
 73
     4
 40
9.0
 49
6.0
 49
-0.75
 49
1.5
 49
-0.75
  0
LTYPE
  2
AM_ISO02W050X2
 70
     0
  3
 _ _ _ _ _ _ _ _ _ _ _ _
 72
    65
 73
     2
 40
3.75
 49
3.0
 49
-0.75
  0
LTYPE
  2
AMZIGZAG
 70
     0
  3
/\/-/\/-/\/-/\/-/\/-/\/
 72
    65
 73
     2
 40
11.0001
 49
0.0001
 49
-11.0
  0
LTYPE
  2
CENTER
 70
     0
  3
__ . __
 72
    65
 73
     4
 40
7.0
 49
4.0
 49
-1.0
 49
1.0
 49
-1.0
  0
LTYPE
  2
PHANTOM2
 70
     0
  3
Phantom (.5x) ___ _ _ ___ _ _ ___ _ _ ___ _ _
 72
    65
 73
     6
 40
31.75
 49
15.875
 49
-3.174999999999998
 49
3.174999999999998
 49
-3.174999999999998
 49
3.174999999999998
 49
-3.174999999999998
  0
LTYPE
  2
GEN3B
 70
     0
  3
 - - - - -
 72
    65
 73
     2
 40
1.0
 49
0.5
 49
-0.5
  0
LTYPE
  2
GEN7A
 70
     0
  3
__ . __ . __
 72
    65
 73
     4
 40
7.375
 49
4.75
 49
-0.875
 49
0.875
 49
-0.875
  0
LTYPE
  2
GEN7
 70
     0
  3
____ . ____ . ____ . ____ . ____ . ____ . ____
 72
    65
 73
     4
 40
14.25
 49
9.75
 49
-1.5
 49
1.5
 49
-1.5
  0
LTYPE
  2
HIDDEN
 70
     0
  3
Hidden __ __ __ __ __ __ __ __ __ __ __ __ __ _
 72
    65
 73
     2
 40
9.5249999999999986
 49
6.349999999999997
 49
-3.174999999999998
  0
LTYPE
  2
CENTER2
 70
     0
  3
Center (.5x) ___ _ ___ _ ___ _ ___ _ ___ _ ___
 72
    65
 73
     4
 40
1.125
 49
0.75
 49
-0.125
 49
0.125
 49
-0.125
  0
LTYPE
  2
HIDDEN2
 70
     0
  3
Hidden (.5x) _ _ _ _ _ _ _ _ _ _ _ _ _ _ _ _ _
 72
    65
 73
     2
 40
0.1875
 49
0.125
 49
-0.0625
  0
LTYPE
  2
AMZIGZAG2
 70
     0
  3
/\/-/\/-/\/-/\/-/\/-/\/
 72
    65
 73
     2
 40
0.4401
 49
0.0001
 49
-0.4400000000000001
  0
LTYPE
  2
ACANSTGB
 70
     0
  3
__ . . __ . .
 72
    65
 73
     6
 40
0.35433070866
 49
0.15748031496
 49
-0.03937007874
 49
0.03937007874
 49
-0.03937007874
 49
0.03937007874
 49
-0.03937007874
  0
LTYPE
  2
ACANSTGL
 70
     0
  3
_ _ _ _ _
 72
    65
 73
     2
 40
0.11811023622
 49
0.07874015748
 49
-0.03937007874
  0
ENDTAB
  0
TABLE
  2
LAYER
 70
    10
  0
LAYER
  2
0
 70
     0
 62
     7
  6
CONTINUOUS
  0
LAYER
  2
AM_0
 70
     0
 62
     7
  6
CONTINUOUS
  0
LAYER
  2
DEFPOINTS
 70
     0
 62
     7
  6
CONTINUOUS
  0
LAYER
  2
ｶｸﾚｾﾝ2
 70
     0
 62
     3
  6
GEN3B
  0
LAYER
  2
ﾁｭｳｼﾝｾﾝ1
 70
     0
 62
     1
  6
GEN7A
  0
LAYER
  2
ｽﾝﾎ_ｳｾﾝ
 70
     0
 62
     2
  6
CONTINUOUS
  0
LAYER
  2
ﾁｭｳｼﾝｾﾝ
 70
     0
 62
     1
  6
GEN7
  0
LAYER
  2
AM_0N
 70
     0
 62
     7
  6
CONTINUOUS
  0
LAYER
  2
AM_4
 70
     0
 62
     2
  6
CONTINUOUS
  0
LAYER
  2
AM_3N
 70
     0
 62
     3
  6
AM_ISO02W050
  0
ENDTAB
  0
TABLE
  2
STYLE
 70
     5
  0
STYLE
  2
STANDARD
 70
     0
 40
0.0
 41
0.8299999999999999
 50
0.0
 71
     0
 42
2.5
  3
txt.shx
  4
bigfont.shx
  0
STYLE
  2
ANNOTATIVE
 70
     0
 40
0.0
 41
1.0
 50
0.0
 71
     0
 42
0.2
  3
txt
  4

  0
STYLE
  2

 70
     1
 40
0.0
 41
1.0
 50
0.0
 71
     0
 42
2.5
  3
genltshp.shx
  4

  0
STYLE
  2
ACANSTS
 70
     0
 40
0.0
 41
1.0
 50
0.0
 71
     0
 42
2.5
  3
romans.shx
  4
extfont.shx
  0
STYLE
  2
ACANSGDT
 70
     0
 40
0.0
 41
1.0
 50
0.0
 71
     0
 42
2.5
  3
amgdt.shx
  4

  0
ENDTAB
  0
TABLE
  2
VIEW
 70
     6
  0
VIEW
  2
AM_VIEW1
 70
     0
 40
277.50000000000011
 10
249.64779005524869
 20
416.24999999999989
 41
499.2955801104971
 11
0.0
 21
0.0
 31
1.0
 12
0.0
 22
0.0
 32
0.0
 42
50.0
 43
0.0
 44
0.0
 50
0.0
 71
     0
  0
VIEW
  2
AM_VIEW2
 70
     0
 40
277.50000000000011
 10
603.85220994475117
 20
416.24999999999989
 41
499.2955801104971
 11
0.0
 21
0.0
 31
1.0
 12
0.0
 22
0.0
 32
0.0
 42
50.0
 43
0.0
 44
0.0
 50
0.0
 71
     0
  0
VIEW
  2
AM_VIEW3
 70
     0
 40
277.50000000000011
 10
249.64779005524869
 20
138.75
 41
499.2955801104971
 11
0.0
 21
0.0
 31
1.0
 12
0.0
 22
0.0
 32
0.0
 42
50.0
 43
0.0
 44
0.0
 50
0.0
 71
     0
  0
VIEW
  2
AM_VIEW4
 70
     0
 40
277.50000000000011
 10
603.85220994475117
 20
138.75
 41
499.2955801104971
 11
0.0
 21
0.0
 31
1.0
 12
0.0
 22
0.0
 32
0.0
 42
50.0
 43
0.0
 44
0.0
 50
0.0
 71
     0
  0
VIEW
  2
AM_VIEW5
 70
     0
 40
277.50000000000011
 10
426.75
 20
277.50000000000011
 41
499.2955801104971
 11
0.0
 21
0.0
 31
1.0
 12
0.0
 22
0.0
 32
0.0
 42
50.0
 43
0.0
 44
0.0
 50
0.0
 71
     0
  0
VIEW
  2
AM_VIEW6
 70
     0
 40
554.99445000000014
 10
426.75
 20
277.5
 41
998.5811743093924
 11
0.0
 21
0.0
 31
1.0
 12
0.0
 22
0.0
 32
0.0
 42
50.0
 43
0.0
 44
0.0
 50
0.0
 71
     0
  0
ENDTAB
  0
TABLE
  2
UCS
 70
     0
  0
ENDTAB
  0
TABLE
  2
APPID
 70
    97
  0
APPID
  2
ACAD
 70
     0
  0
APPID
  2
ACADANNOTATIVE
 70
     0
  0
APPID
  2
MCAD_NO_VIS
 70
     0
  0
APPID
  2
ACAD_TEMP_GRAPHIC
 70
     0
  0
APPID
  2
ACATTRIBSERVICES
 70
     0
  0
APPID
  2
GENIUS_GENREC_14
 70
     0
  0
APPID
  2
GENIUS_GENOBJ-N-REC_13
 70
     0
  0
APPID
  2
GENIUS_GENODEF_13
 70
     0
  0
APPID
  2
GENIUS_GENOLIS_13
 70
     0
  0
APPID
  2
GENIUS_GENOBJ-N-TIT_13
 70
     0
  0
APPID
  2
GENIUS_GENOENT_13
 70
     0
  0
APPID
  2
GENIUS_GENTITLE_13
 70
     0
  0
APPID
  2
GENIUS_GENOREF_13
 70
     0
  0
APPID
  2
GENIUS_GENSCREG_15
 70
     0
  0
APPID
  2
GENIUS_GENOBJ-N-SDF_13
 70
     0
  0
APPID
  2
GENIUS_GENFIL_13
 70
     0
  0
APPID
  2
GENIUS_GENOBJ-N-CHA_13
 70
     0
  0
APPID
  2
GENIUS_GENDTOL_13
 70
     0
  0
APPID
  2
GENIUS_GENOBJ-N-FIL_13
 70
     0
  0
APPID
  2
AD_DRAW
 70
     0
  0
APPID
  2
DESIGNERASSEMBLIES
 70
     0
  0
APPID
  2
ASURF_PCURVE_APPNAME
 70
     0
  0
APPID
  2
GENIUS_GE3SECT_13
 70
     0
  0
APPID
  2
GENIUS_GENCFG_13
 70
     0
  0
APPID
  2
GENIUS_GE3CFG0_13
 70
     0
  0
APPID
  2
GENIUS_GENCFG0_13
 70
     0
  0
APPID
  2
GENIUS_GENCFG1_13
 70
     0
  0
APPID
  2
GENIUS_GENCFG2_13
 70
     0
  0
APPID
  2
GENIUS_GENCFG3_13
 70
     0
  0
APPID
  2
GENIUS_GENCFG4_13
 70
     0
  0
APPID
  2
GENIUS_GEVCFG0_13
 70
     0
  0
APPID
  2
GENIUS_GENHINW_13
 70
     0
  0
APPID
  2
GENIUS_FIRSTVISTXT_14
 70
     0
  0
APPID
  2
GENIUS_GENOBJ-N-LEADER_13
 70
     0
  0
APPID
  2
GEV_VCCNULL_SWITCH_OFF
 70
     0
  0
APPID
  2
GENIUS_GEFCFG0_13
 70
     0
  0
APPID
  2
GENIUS_GENZVEED_13
 70
     0
  0
APPID
  2
GENIUS_GENSCREG_13
 70
     0
  0
APPID
  2
GENIUS_DUMCFG0_13
 70
     0
  0
APPID
  2
GEVID936201362
 70
     0
  0
APPID
  2
GEVDC
 70
     0
  0
APPID
  2
GEVCON
 70
     0
  0
APPID
  2
VCC
 70
     0
  0
APPID
  2
GEVPT
 70
     0
  0
APPID
  2
GEVIT
 70
     0
  0
APPID
  2
GENBH
 70
     0
  0
APPID
  2
GEVMK
 70
     0
  0
APPID
  2
GENIUS_GENBH_13
 70
     0
  0
APPID
  2
GENIUS_GENOBJ-NBEHI-BHF_13
 70
     0
  0
APPID
  2
GENIUS_GENOBJ-NBEHI-BHB_13
 70
     0
  0
APPID
  2
GENIUS_GENOBJ-F-DESC_13
 70
     0
  0
APPID
  2
GENIUS_GEFDESC_14
 70
     0
  0
APPID
  2
GENIUS_GENOBJ-F-PART_13
 70
     0
  0
APPID
  2
GENIUS_GEFSTDP_13
 70
     0
  0
APPID
  2
GENIUS_GEFPARTINS_13
 70
     0
  0
APPID
  2
GENIUS_GENTRA_14
 70
     0
  0
APPID
  2
GENIUS_GENINF13_13
 70
     0
  0
APPID
  2
GENIUS_GENOBJ-N-INFOPT_13
 70
     0
  0
APPID
  2
GENIUS_GENOBJ-N-RSSYM_13
 70
     0
  0
APPID
  2
GENIUS_GENSYMENT_13
 70
     0
  0
APPID
  2
GENIUS_GENSCSYM_13
 70
     0
  0
APPID
  2
GENIUS_GEFINFNAM_13
 70
     0
  0
APPID
  2
GENIUS_GENOBJ-N-CEN_13
 70
     0
  0
APPID
  2
GENIUS_GENOBJ-N-CRS_13
 70
     0
  0
APPID
  2
GENIUS_GENOBJ-N-CRC_13
 70
     0
  0
APPID
  2
GENIUS_GENCRC_14
 70
     0
  0
APPID
  2
GEVID942827039
 70
     0
  0
APPID
  2
GEVID942827040
 70
     0
  0
APPID
  2
GEVID942827041
 70
     0
  0
APPID
  2
GENIUS_GENOBJ-F-SCPASSM_13
 70
     0
  0
APPID
  2
GENIUS_GENDIMSH_14
 70
     0
  0
APPID
  2
GEVID942827042
 70
     0
  0
APPID
  2
GEVID946020473
 70
     0
  0
APPID
  2
GEVID946020474
 70
     0
  0
APPID
  2
GEVID946020475
 70
     0
  0
APPID
  2
GENIUS_GENOBJ-N-HTC_13
 70
     0
  0
APPID
  2
GENIUS_GENHATCH_13
 70
     0
  0
APPID
  2
GEVID948854295
 70
     0
  0
APPID
  2
GEVID939402019
 70
     0
  0
APPID
  2
GEVID952919491
 70
     0
  0
APPID
  2
GEVID952919492
 70
     0
  0
APPID
  2
GENIUS_GEFWELD_13
 70
     0
  0
APPID
  2
GENIUS_GENOBJ-F-WELS_13
 70
     0
  0
APPID
  2
GEVID952919493
 70
     0
  0
APPID
  2
GENIUS_GENOBJ-N-RSBK_13
 70
     0
  0
APPID
  2
GENIUS_GENOBJ-N-LIB_13
 70
     0
  0
APPID
  2
GENIUS_GENSCALE_13
 70
     0
  0
APPID
  2
GEVID986376691
 70
     0
  0
APPID
  2
DCO15
 70
     0
  0
APPID
  2
ACADM_DIM_EDIT
 70
     0
  0
APPID
  2
AMDT_DM_ADJ
 70
     0
  0
APPID
  2
ACAD_DSTYLE_DIMJAG
 70
     0
  0
APPID
  2
ACAD_DSTYLE_DIMBREAK
 70
     0
  0
APPID
  2
ACAD_NAV_VCDISPLAY
 70
     0
  0
APPID
  2
ACADANNOPO
 70
     0
  0
APPID
  2
ACAD_EXEMPT_FROM_CAD_STANDARDS
 70
     0
  0
APPID
  2
ACAD_MLEADERVER
 70
     0
  0
ENDTAB
  0
TABLE
  2
DIMSTYLE
 70
     9
  0
DIMSTYLE
  2
STANDARD
 70
     0
  3

  4

  5

  6

  7

 40
1.0
 41
0.18
 42
0.0625
 43
0.38
 44
0.18
 45
0.0
 46
0.0
 47
0.0
 48
0.0
140
0.18
141
0.09
142
0.0
143
25.399999999999999
144
1.0
145
0.0
146
1.0
147
0.09
 71
     0
 72
     0
 73
     1
 74
     1
 75
     0
 76
     0
 77
     0
 78
     0
170
     0
171
     2
172
     0
173
     0
174
     0
175
     0
176
     0
177
     0
178
     0
  0
DIMSTYLE
  2
ANNOTATIVE
 70
     0
  3

  4

  5

  6

  7

 40
1.0
 41
0.18
 42
0.0625
 43
0.38
 44
0.18
 45
0.0
 46
0.0
 47
0.0
 48
0.0
140
0.18
141
0.09
142
0.0
143
25.399999999999999
144
1.0
145
0.0
146
1.0
147
0.09
 71
     0
 72
     0
 73
     1
 74
     1
 75
     0
 76
     0
 77
     0
 78
     0
170
     0
171
     2
172
     0
173
     0
174
     0
175
     0
176
     0
177
     0
178
     0
  0
DIMSTYLE
  2
AM_ISO
 70
     0
  3

  4
"
  5

  6

  7

 40
1.0
 41
2.5
 42
1.0
 43
8.0
 44
0.6
 45
0.0
 46
0.0
 47
0.1
 48
0.1
140
2.5
141
0.0
142
0.0
143
0.0393701
144
1.0
145
0.0
146
0.71
147
0.8
 71
     0
 72
     0
 73
     0
 74
     0
 75
     0
 76
     0
 77
     1
 78
     8
170
     0
171
     2
172
     1
173
     0
174
     0
175
     0
176
   256
177
   256
178
     4
  0
DIMSTYLE
  2
AM_ANSI
 70
     0
  3

  4
mm
  5

  6

  7

 40
1.0
 41
0.12
 42
0.05
 43
0.5
 44
0.1
 45
0.0
 46
0.0
 47
0.1
 48
0.1
140
0.12
141
0.0
142
0.0
143
25.399999999999999
144
1.0
145
0.0
146
0.71
147
0.06
 71
     0
 72
     0
 73
     1
 74
     1
 75
     0
 76
     0
 77
     0
 78
     7
170
     0
171
     2
172
     0
173
     0
174
     0
175
     0
176
   256
177
   256
178
     2
  0
DIMSTYLE
  2
AM_ANSI$3
 70
     0
  3

  4
mm
  5

  6

  7

 40
1.0
 41
0.12
 42
0.05
 43
0.5
 44
0.1
 45
0.0
 46
0.0
 47
0.1
 48
0.1
140
0.12
141
0.0
142
0.0
143
25.399999999999999
144
1.0
145
0.0
146
0.71
147
0.06
 71
     0
 72
     0
 73
     1
 74
     1
 75
     0
 76
     0
 77
     0
 78
     7
170
     0
171
     2
172
     0
173
     0
174
     0
175
     0
176
   256
177
   256
178
     2
  0
DIMSTYLE
  2
AM_ANSI$4
 70
     0
  3

  4
mm
  5

  6

  7

 40
1.0
 41
0.12
 42
0.05
 43
0.5
 44
0.1
 45
0.0
 46
0.0
 47
0.1
 48
0.1
140
0.12
141
0.0
142
0.0
143
25.399999999999999
144
1.0
145
0.0
146
0.71
147
0.06
 71
     0
 72
     0
 73
     1
 74
     1
 75
     0
 76
     0
 77
     0
 78
     7
170
     0
171
     2
172
     0
173
     0
174
     0
175
     0
176
   256
177
   256
178
     2
  0
DIMSTYLE
  2
AM_ANSI$7
 70
     0
  3

  4
mm
  5

  6

  7

 40
1.0
 41
0.12
 42
0.05
 43
0.5
 44
0.1
 45
0.0
 46
0.0
 47
0.1
 48
0.1
140
0.12
141
0.0
142
0.0
143
25.399999999999999
144
1.0
145
0.0
146
0.71
147
0.06
 71
     0
 72
     0
 73
     1
 74
     1
 75
     0
 76
     0
 77
     0
 78
     7
170
     0
171
     2
172
     0
173
     0
174
     0
175
     0
176
   256
177
   256
178
     2
  0
DIMSTYLE
  2
AM_ANSI$SF
 70
     0
  3

  4
mm
  5

  6

  7

 40
1.0
 41
0.12
 42
0.05
 43
0.5
 44
0.1
 45
0.0
 46
0.0
 47
0.1
 48
0.1
140
0.12
141
0.0
142
0.0
143
25.399999999999999
144
1.0
145
0.0
146
0.71
147
0.06
 71
     0
 72
     0
 73
     1
 74
     1
 75
     1
 76
     1
 77
     0
 78
     7
170
     0
171
     2
172
     0
173
     0
174
     0
175
     0
176
   256
177
   256
178
     2
  0
DIMSTYLE
  2
AM_ANSI$SH
 70
     0
  3

  4
mm
  5

  6
GENAXEH
  7

 40
1.0
 41
0.12
 42
0.05
 43
0.5
 44
0.1
 45
0.0
 46
0.0
 47
0.1
 48
0.1
140
0.12
141
0.0
142
0.0
143
25.399999999999999
144
1.0
145
0.0
146
0.71
147
0.06
 71
     0
 72
     0
 73
     1
 74
     1
 75
     1
 76
     1
 77
     0
 78
     7
170
     0
171
     2
172
     0
173
     1
174
     0
175
     0
176
   256
177
   256
178
     2
  0
ENDTAB
  0
ENDSEC
  0
SECTION
  2
BLOCKS
  0
BLOCK
  8
0
  2
$MODEL_SPACE
 70
     0
 10
0.0
 20
0.0
 30
0.0
  3
$MODEL_SPACE
  1

  0
ENDBLK
  5
38E2
  8
0
  0
BLOCK
 67
     1
  8
0
  2
$PAPER_SPACE
 70
     0
 10
0.0
 20
0.0
 30
0.0
  3
$PAPER_SPACE
  1

  0
ENDBLK
  5
38DE
 67
     1
  8
0
  0
BLOCK
  8
0
  2
*U2
 70
     1
 10
0.0
 20
0.0
 30
0.0
  3
*U2
  1

  0
TEXT
  5
3731
  8
AM_0
 10
575.76130531365766
 20
146.74912794658641
 30
0.0
 40
12.0
  1
VX01-600S
 41
0.8299999999999999
  0
ENDBLK
  5
3733
  8
0
  0
BLOCK
  8
0
  2
GENAXEH
 70
     0
 10
0.0
 20
0.0
 30
0.0
  3
GENAXEH
  1

  0
LINE
  5
39B2
  8
0
 10
-1.0
 20
0.0
 30
0.0
 11
1.0
 21
0.0
 31
0.0
  0
ENDBLK
  5
39B4
  8
0
  0
BLOCK
  8
0
  2
_ACMFILLEDHALF
 70
     0
 10
0.0
 20
0.0
 30
0.0
  3
_ACMFILLEDHALF
  1

  0
TRACE
  5
39C2
  8
AM_0
 62
     0
 10
-0.8
 20
0.0
 30
0.0
 11
-1.0
 21
0.166666666
 31
0.0
 12
0.0
 22
0.0
 32
0.0
 13
0.0
 23
0.0
 33
0.0
  0
LINE
  5
39C3
  8
AM_0
 62
     0
 10
-1.0
 20
0.0
 30
0.0
 11
-0.8
 21
0.0
 31
0.0
  0
ENDBLK
  5
39C1
  8
0
  0
ENDSEC
  0
SECTION
  2
ENTITIES
  0
LINE
  5
27BF
  8
AM_0
 10
431.56827667901428
 20
540.88555879884314
 30
0.0
 11
463.56827667901462
 21
540.88555879884314
 31
0.0
  0
LINE
  5
27C0
  8
AM_0
 10
431.56827667901428
 20
532.88555879884314
 30
0.0
 11
463.56827667901462
 21
532.88555879884314
 31
0.0
  0
LINE
  5
27C1
  8
AM_0
 10
421.5683066790146
 20
522.88555879884314
 30
0.0
 11
463.56827667901462
 21
522.88555879884314
 31
0.0
  0
LINE
  5
27C2
  8
AM_0
 10
421.5683066790146
 20
550.88555879884314
 30
0.0
 11
463.56827667901462
 21
550.88555879884314
 31
0.0
  0
LINE
  5
27C3
  8
ﾁｭｳｼﾝｾﾝ1
 10
65.920288067715333
 20
536.88555879884314
 30
0.0
 11
468.27530667901448
 21
536.88555879884314
 31
0.0
  0
ARC
  5
2983
  8
AM_0
 10
287.06824667901452
 20
530.88555879884314
 30
0.0
 40
3.0
 50
0.0
 51
90.000003000000945
  0
ARC
  5
2984
  8
AM_0
 10
253.56827667901459
 20
530.88555879884314
 30
0.0
 40
3.0
 50
90.000003000000945
 51
180.00001000000091
  0
LINE
  5
2986
  8
AM_0
 10
250.56827667901459
 20
484.32927879884278
 30
0.0
 11
250.56827667901459
 21
589.44185879884299
 31
0.0
  0
LINE
  5
2988
  8
AM_0
 10
290.06824667901452
 20
476.38555879884291
 30
0.0
 11
290.06824667901452
 21
597.38555879884302
 31
0.0
  0
LINE
  5
2989
  8
AM_0
 10
299.0683066790146
 20
473.38555879884302
 30
0.0
 11
299.0683066790146
 21
600.38555879884302
 31
0.0
  0
LINE
  5
298A
  8
AM_0
 10
335.56827667901462
 20
465.79540879884303
 30
0.0
 11
335.56827667901462
 21
607.97570879884302
 31
0.0
  0
LINE
  5
298B
  8
AM_0
 10
325.5683066790146
 20
460.056698798843
 30
0.0
 11
325.5683066790146
 21
613.71441879884298
 31
0.0
  0
LINE
  5
298C
  8
AM_0
 10
403.5683066790146
 20
481.71398879884282
 30
0.0
 11
403.5683066790146
 21
592.057128798843
 31
0.0
  0
LINE
  5
298D
  8
AM_0
 10
418.56830667901448
 20
564.91140879884279
 30
0.0
 11
418.56830667901448
 21
508.85970879884292
 31
0.0
  0
LINE
  5
298E
  8
AM_0
 10
415.56830667901431
 20
482.75853879884278
 30
0.0
 11
415.56830667901431
 21
591.01256879884295
 31
0.0
  0
LINE
  5
298F
  8
AM_0
 10
342.5683066790146
 20
454.63460879884281
 30
0.0
 11
342.5683066790146
 21
619.13646879884277
 31
0.0
  0
LINE
  5
2990
  8
AM_0
 10
421.5683066790146
 20
551.88555879884314
 30
0.0
 11
421.5683066790146
 21
521.88555879884279
 31
0.0
  0
LINE
  5
2991
  8
AM_0
 10
325.5683066790146
 20
477.57705879884293
 30
0.0
 11
335.56827667901462
 21
477.57705879884293
 31
0.0
  0
LINE
  5
2992
  8
AM_0
 10
342.5683066790146
 20
454.63460879884281
 30
0.0
 11
330.39380667901457
 21
455.05974879884292
 31
0.0
  0
LINE
  5
2993
  8
AM_0
 10
311.48975667901448
 20
447.777948798843
 30
0.0
 11
345.5682766790145
 21
446.88555879884279
 31
0.0
  0
ARC
  5
2995
  8
AM_0
 10
311.5683066790146
 20
450.77691879884281
 30
0.0
 40
3.0
 50
180.00001000000091
 51
268.50000000000063
  0
LINE
  5
2996
  8
AM_0
 10
230.56827667901459
 20
480.88555879884302
 30
0.0
 11
287.19181667901461
 21
478.90822879884303
 31
0.0
  0
ARC
  5
2997
  8
AM_0
 10
246.56827667901459
 20
484.32927879884278
 30
0.0
 40
4.0
 50
267.99999999999949
 51
0.0000006832495047
  0
LINE
  5
2998
  8
AM_0
 10
230.56827667901459
 20
490.88524879884301
 30
0.0
 11
250.56827667901459
 21
490.88524879884301
 31
0.0
  0
LINE
  5
299B
  8
AM_0
 10
230.56827667901459
 20
504.94561879884282
 30
0.0
 11
250.56827667901459
 21
504.94561879884282
 31
0.0
  0
LINE
  5
299D
  8
AM_0
 10
299.0683066790146
 20
484.84557879884301
 30
0.0
 11
325.56827667901462
 21
484.84557879884301
 31
0.0
  0
LINE
  5
299E
  8
AM_0
 10
299.06833667901452
 20
473.38555879884302
 30
0.0
 11
322.67298667901463
 21
472.561248798843
 31
0.0
  0
ARC
  5
299F
  8
AM_0
 10
293.06824667901452
 20
476.38555879884291
 30
0.0
 40
3.0
 50
180.00001000000091
 51
270.0
  0
LINE
  5
29A0
  8
AM_0
 10
299.0683066790146
 20
484.84557879884301
 30
0.0
 11
290.06824667901452
 21
484.84557879884301
 31
0.0
  0
ARC
  5
29A1
  8
AM_0
 10
287.08713667901458
 20
475.9100287988428
 30
0.0
 40
3.0
 50
4.545488300001014
 51
87.999999999999503
  0
LINE
  5
29A2
  8
AM_0
 10
299.06833667901452
 20
473.38555879884302
 30
0.0
 11
293.06824667901452
 21
473.38555879884302
 31
0.0
  0
ARC
  5
29A3
  8
AM_0
 10
322.5683066790146
 20
469.56307879884281
 30
0.0
 40
3.0
 50
0.0
 51
87.999999999999503
  0
ARC
  5
29A4
  8
AM_0
 10
311.5683066790146
 20
469.66945879884281
 30
0.0
 40
3.0
 50
105.0000000000007
 51
180.00001000000091
  0
ARC
  5
29A5
  8
AM_0
 10
323.5683066790146
 20
461.88555879884308
 30
0.0
 40
6.0
 50
70.528778999998195
 51
302.21188000000109
  0
LINE
  5
29A6
  8
AM_0
 10
308.5683066790146
 20
450.77691879884281
 30
0.0
 11
308.5683066790146
 21
469.66945879884281
 31
0.0
  0
ARC
  5
29A7
  8
ｶｸﾚｾﾝ2
 10
323.5683066790146
 20
461.88555879884308
 30
0.0
 40
6.0
 50
302.21188000000109
 51
70.528778999998195
  0
ARC
  5
29A9
  8
AM_0
 10
330.5683066790146
 20
460.056698798843
 30
0.0
 40
5.0
 50
180.00001000000091
 51
267.99999999999949
  0
LINE
  5
29AA
  8
AM_0
 10
310.79184667901461
 20
472.56722879884279
 30
0.0
 11
312.14200667901463
 21
472.92901879884278
 31
0.0
  0
LINE
  5
29AB
  8
AM_0
 10
299.0683066790146
 20
499.73760879884293
 30
0.0
 11
325.56827667901462
 21
499.73760879884293
 31
0.0
  0
LINE
  5
29AC
  8
AM_0
 10
299.0683066790146
 20
499.73760879884293
 30
0.0
 11
290.06824667901452
 21
499.73760879884293
 31
0.0
  0
POLYLINE
  5
29AD
  8
AM_0
 66
     1
 10
0.0
 20
0.0
 30
0.0
  0
VERTEX
  5
29AE
  8
AM_0
 10
342.5683066790146
 20
498.61046879884282
 30
0.0
 42
-0.05999131
  0
VERTEX
  5
29AF
  8
AM_0
 10
368.15711667901462
 20
482.67824879884301
 30
0.0
 42
-0.30883749
  0
VERTEX
  5
29B0
  8
AM_0
 10
377.56827667901462
 20
466.737488798843
 30
0.0
 42
-0.25905868
  0
VERTEX
  5
29B1
  8
AM_0
 10
343.11860667901448
 20
446.94945879884301
 30
0.0
  0
SEQEND
  5
29B2
  8
AM_0
  0
ARC
  5
29B3
  8
AM_0
 10
340.5683066790146
 20
452.0181887988428
 30
0.0
 40
5.0
 50
268.50000000000063
 51
0.0000006832495047
  0
ARC
  5
29B4
  8
AM_0
 10
390.5683066790146
 20
453.065638798843
 30
0.0
 40
5.0
 50
180.00001000000091
 51
271.49999999999937
  0
ARC
  5
29B5
  8
AM_0
 10
415.56830667901431
 20
451.71959879884281
 30
0.0
 40
3.0
 50
271.49999999999937
 51
0.0
  0
LINE
  5
29B6
  8
AM_0
 10
341.5683066790146
 20
448.0181887988428
 30
0.0
 11
341.5683066790146
 21
451.36132879884281
 31
0.0
  0
LINE
  5
29B7
  8
AM_0
 10
345.5683066790146
 20
446.88555879884279
 30
0.0
 11
415.6468266790144
 21
448.72060879884282
 31
0.0
  0
ARC
  5
29B8
  8
AM_0
 10
340.5683066790146
 20
448.0181887988428
 30
0.0
 40
1.0
 50
270.0
 51
0.0
  0
ARC
  5
29B9
  8
AM_0
 10
393.5683066790146
 20
468.53148879884282
 30
0.0
 40
8.0
 50
91.999998000000545
 51
180.00001000000091
  0
POLYLINE
  5
29BA
  8
AM_0
 66
     1
 10
0.0
 20
0.0
 30
0.0
  0
VERTEX
  5
29BB
  8
AM_0
 10
343.83184667901457
 20
456.95657879884283
 30
0.0
 42
0.021277527
  0
VERTEX
  5
29BC
  8
AM_0
 10
354.66197667901457
 20
459.01309879884292
 30
0.0
 42
0.020622977
  0
VERTEX
  5
29BD
  8
AM_0
 10
364.78675667901462
 20
461.830138798843
 30
0.0
 42
0.022707911
  0
VERTEX
  5
29BE
  8
AM_0
 10
375.59366667901458
 20
465.87566879884281
 30
0.0
  0
SEQEND
  5
29BF
  8
AM_0
  0
LINE
  5
29C0
  8
AM_0
 10
342.5683066790146
 20
454.63460879884281
 30
0.0
 11
345.5683066790146
 21
454.63460879884281
 31
0.0
  0
ARC
  5
29C1
  8
AM_0
 10
342.5683066790146
 20
451.36132879884281
 30
0.0
 40
1.0
 50
109.4712199999996
 51
180.00001000000091
  0
ARC
  5
29C2
  8
AM_0
 10
340.5683066790146
 20
457.01818879884308
 30
0.0
 40
5.0
 50
289.47123000000067
 51
331.5287600000031
  0
LINE
  5
29C3
  8
AM_0
 10
345.5683066790146
 20
452.0181887988428
 30
0.0
 11
345.5683066790146
 21
454.63460879884281
 31
0.0
  0
LINE
  5
29C4
  8
AM_0
 10
385.5683066790146
 20
453.065638798843
 30
0.0
 11
385.5683066790146
 21
468.53148879884282
 31
0.0
  0
ARC
  5
29C5
  8
AM_0
 10
412.5683066790146
 20
485.63454879884313
 30
0.0
 40
3.0
 50
275.0
 51
0.0
  0
CIRCLE
  5
29C6
  8
AM_0
 10
403.5683066790146
 20
461.88555879884308
 30
0.0
 40
6.0
  0
ARC
  5
29C9
  8
AM_0
 10
398.5683066790146
 20
481.71398879884282
 30
0.0
 40
5.0
 50
272.00000000000051
 51
0.0
  0
LINE
  5
29CA
  8
AM_0
 10
398.74280667901462
 20
476.71706879884277
 30
0.0
 11
393.28910667901459
 21
476.5266087988428
 31
0.0
  0
ARC
  5
29CB
  8
AM_0
 10
407.4701366790145
 20
477.15795879884308
 30
0.0
 40
5.0
 50
95.00000199999856
 51
152.89619000000189
  0
LINE
  5
29CC
  8
AM_0
 10
412.8297866790146
 20
482.645968798843
 30
0.0
 11
407.03433667901459
 21
482.13894879884288
 31
0.0
  0
LINE
  5
29CD
  8
AM_0
 10
418.56830667901448
 20
451.71959879884281
 30
0.0
 11
418.56830667901448
 21
478.88555879884308
 31
0.0
  0
ARC
  5
29CE
  8
AM_0
 10
415.56830667901431
 20
478.88555879884308
 30
0.0
 40
3.0
 50
0.0
 51
75.522487999999072
  0
ARC
  5
29CF
  8
AM_0
 10
416.5683066790146
 20
482.75853879884278
 30
0.0
 40
1.0
 50
180.00001000000091
 51
255.5224900000002
  0
ARC
  5
29D0
  8
AM_0
 10
417.5683066790146
 20
508.85970879884292
 30
0.0
 40
1.0
 50
271.49999999999937
 51
0.0
  0
ARC
  5
29D1
  8
AM_0
 10
416.5683066790146
 20
506.83281879884282
 30
0.0
 40
1.0
 50
91.500001000001546
 51
180.00001000000091
  0
LINE
  5
29D2
  8
AM_0
 10
416.54212667901447
 20
507.8324887988428
 30
0.0
 11
417.59448667901432
 21
507.86004879884302
 31
0.0
  0
LINE
  5
29D3
  8
AM_0
 10
418.56830667901448
 20
521.88555879884279
 30
0.0
 11
421.5683066790146
 21
521.88555879884279
 31
0.0
  0
LINE
  5
29D4
  8
AM_0
 10
325.5683066790146
 20
596.19405879884266
 30
0.0
 11
335.56827667901462
 21
596.19405879884266
 31
0.0
  0
LINE
  5
29D5
  8
AM_0
 10
342.5683066790146
 20
619.13653879884305
 30
0.0
 11
330.39380667901457
 21
618.71135879884321
 31
0.0
  0
LINE
  5
29D6
  8
AM_0
 10
311.48978667901463
 20
625.9932187988428
 30
0.0
 11
345.5683066790146
 21
626.88561879884276
 31
0.0
  0
ARC
  5
29D7
  8
ｶｸﾚｾﾝ2
 10
323.5683066790146
 20
611.88555879884302
 30
0.0
 40
6.0
 50
289.47123000000067
 51
57.78807200000049
  0
ARC
  5
29D8
  8
AM_0
 10
330.5683066790146
 20
613.71441879884298
 30
0.0
 40
5.0
 50
91.999998000000545
 51
180.00001000000091
  0
ARC
  5
29D9
  8
AM_0
 10
323.5683066790146
 20
611.88555879884302
 30
0.0
 40
6.0
 50
57.78807200000049
 51
289.47123000000067
  0
LINE
  5
29DB
  8
AM_0
 10
308.5683066790146
 20
622.99419879884272
 30
0.0
 11
308.5683066790146
 21
604.10164879884303
 31
0.0
  0
LINE
  5
29DC
  8
AM_0
 10
253.56827667901459
 20
539.88555879884314
 30
0.0
 11
287.06824667901452
 21
539.88555879884314
 31
0.0
  0
LINE
  5
29DD
  8
AM_0
 10
253.56827667901459
 20
533.88555879884314
 30
0.0
 11
287.06824667901452
 21
533.88555879884314
 31
0.0
  0
LINE
  5
29DE
  8
AM_0
 10
287.19181667901461
 20
594.86290879884302
 30
0.0
 11
230.56827667901459
 21
592.88555879884279
 31
0.0
  0
LINE
  5
29DF
  8
AM_0
 10
230.56827667901459
 20
568.825498798843
 30
0.0
 11
250.56827667901459
 21
568.825498798843
 31
0.0
  0
ARC
  5
29E1
  8
AM_0
 10
253.56827667901459
 20
542.88555879884279
 30
0.0
 40
3.0
 50
180.00001000000091
 51
270.0
  0
ARC
  5
29E2
  8
AM_0
 10
246.56827667901459
 20
589.44185879884299
 30
0.0
 40
4.0
 50
0.0
 51
91.999998000000545
  0
LINE
  5
29E3
  8
AM_0
 10
230.56827667901459
 20
582.88585879884295
 30
0.0
 11
250.56827667901459
 21
582.88585879884295
 31
0.0
  0
ARC
  5
29E6
  8
AM_0
 10
287.06824667901452
 20
542.88555879884279
 30
0.0
 40
3.0
 50
270.0
 51
0.0
  0
LINE
  5
29E7
  8
AM_0
 10
299.06833667901452
 20
600.38555879884302
 30
0.0
 11
322.67301667901472
 21
601.20983879884295
 31
0.0
  0
LINE
  5
29E8
  8
AM_0
 10
299.0683066790146
 20
574.03350879884272
 30
0.0
 11
325.56827667901462
 21
574.03350879884272
 31
0.0
  0
LINE
  5
29E9
  8
AM_0
 10
299.0683066790146
 20
588.92553879884304
 30
0.0
 11
325.56827667901462
 21
588.92553879884304
 31
0.0
  0
LINE
  5
29EA
  8
AM_0
 10
299.0683066790146
 20
588.92553879884304
 30
0.0
 11
290.06824667901452
 21
588.92553879884304
 31
0.0
  0
LINE
  5
29EB
  8
AM_0
 10
299.0683066790146
 20
574.03350879884272
 30
0.0
 11
290.06824667901452
 21
574.03350879884272
 31
0.0
  0
ARC
  5
29EC
  8
AM_0
 10
293.06824667901452
 20
597.38555879884302
 30
0.0
 40
3.0
 50
90.000003000000945
 51
180.00001000000091
  0
ARC
  5
29ED
  8
AM_0
 10
287.08713667901458
 20
597.86107879884275
 30
0.0
 40
3.0
 50
272.00000000000051
 51
355.45443000000142
  0
LINE
  5
29EE
  8
AM_0
 10
299.0683066790146
 20
600.38555879884302
 30
0.0
 11
293.06824667901452
 21
600.38555879884302
 31
0.0
  0
LINE
  5
29F0
  8
AM_0
 10
310.79181667901457
 20
601.20388879884285
 30
0.0
 11
312.14200667901463
 21
600.84209879884304
 31
0.0
  0
ARC
  5
29F1
  8
AM_0
 10
311.5683066790146
 20
604.10164879884303
 30
0.0
 40
3.0
 50
180.00001000000091
 51
254.9999900000019
  0
ARC
  5
29F2
  8
AM_0
 10
322.5683066790146
 20
604.20800879884303
 30
0.0
 40
3.0
 50
272.00000000000051
 51
0.0
  0
ARC
  5
29F3
  8
AM_0
 10
311.5683066790146
 20
622.99419879884272
 30
0.0
 40
3.0
 50
91.500001000001546
 51
180.00001000000091
  0
POLYLINE
  5
29F4
  8
AM_0
 66
     1
 10
0.0
 20
0.0
 30
0.0
  0
VERTEX
  5
29F5
  8
AM_0
 10
343.83184667901457
 20
616.81453879884282
 30
0.0
 42
-0.021277527
  0
VERTEX
  5
29F6
  8
AM_0
 10
354.66197667901457
 20
614.75801879884295
 30
0.0
 42
-0.020622977
  0
VERTEX
  5
29F7
  8
AM_0
 10
364.78675667901462
 20
611.94097879884305
 30
0.0
 42
-0.022707911
  0
VERTEX
  5
29F8
  8
AM_0
 10
375.59366667901458
 20
607.89543879884297
 30
0.0
  0
SEQEND
  5
29F9
  8
AM_0
  0
POLYLINE
  5
29FA
  8
AM_0
 66
     1
 10
0.0
 20
0.0
 30
0.0
  0
VERTEX
  5
29FB
  8
AM_0
 10
342.5683066790146
 20
575.16063879884257
 30
0.0
 42
0.059991292
  0
VERTEX
  5
29FC
  8
AM_0
 10
368.15710667901459
 20
591.0928687988428
 30
0.0
 42
0.3088374
  0
VERTEX
  5
29FD
  8
AM_0
 10
377.56827667901462
 20
607.03362879884276
 30
0.0
 42
0.25905875
  0
VERTEX
  5
29FE
  8
AM_0
 10
343.11862667901482
 20
626.82164879884283
 30
0.0
  0
SEQEND
  5
29FF
  8
AM_0
  0
CIRCLE
  5
2A00
  8
AM_0
 10
403.5683066790146
 20
611.88555879884302
 30
0.0
 40
6.0
  0
LINE
  5
2A01
  8
AM_0
 10
385.5683066790146
 20
605.2396187988428
 30
0.0
 11
385.5683066790146
 21
620.705498798843
 31
0.0
  0
LINE
  5
2A02
  8
ﾁｭｳｼﾝｾﾝ1
 10
403.5683066790146
 20
622.88555879884302
 30
0.0
 11
403.5683066790146
 21
600.88555879884302
 31
0.0
  0
LINE
  5
2A03
  8
AM_0
 10
418.56830667901448
 20
622.0515087988432
 30
0.0
 11
418.56830667901448
 21
594.88555879884302
 31
0.0
  0
ARC
  5
2A04
  8
AM_0
 10
393.5683066790146
 20
605.2396187988428
 30
0.0
 40
8.0
 50
180.00001000000091
 51
267.99999999999949
  0
LINE
  5
2A05
  8
AM_0
 10
418.56830667901448
 20
551.88555879884314
 30
0.0
 11
421.5683066790146
 21
551.88555879884314
 31
0.0
  0
ARC
  5
2A06
  8
AM_0
 10
431.56827667901428
 20
536.88555879884314
 30
0.0
 40
3.9999962
 50
90.000003000000945
 51
270.0
  0
LINE
  5
2A07
  8
AM_0
 10
431.56827667901428
 20
540.88555879884314
 30
0.0
 11
431.56827667901428
 21
532.88555879884314
 31
0.0
  0
ARC
  5
2A08
  8
AM_0
 10
417.5683066790146
 20
564.91140879884279
 30
0.0
 40
1.0
 50
0.0
 51
88.499997000000647
  0
ARC
  5
2A09
  8
AM_0
 10
416.5683066790146
 20
566.93828879884302
 30
0.0
 40
1.0
 50
180.00001000000091
 51
268.50000000000063
  0
LINE
  5
2A0A
  8
AM_0
 10
416.54212667901447
 20
565.93862879884296
 30
0.0
 11
417.59445667901429
 21
565.91106879884285
 31
0.0
  0
ARC
  5
2A0B
  8
AM_0
 10
412.5683066790146
 20
588.13656879884275
 30
0.0
 40
3.0
 50
0.0
 51
85.000004000000885
  0
ARC
  5
2A0C
  8
AM_0
 10
407.4701366790145
 20
596.61315879884285
 30
0.0
 40
5.0
 50
207.10380999999799
 51
265.00001000000037
  0
ARC
  5
2A0D
  8
AM_0
 10
398.5683066790146
 20
592.057128798843
 30
0.0
 40
5.0
 50
0.0
 51
87.999999999999503
  0
LINE
  5
2A0E
  8
AM_0
 10
412.82974667901448
 20
591.12514879884304
 30
0.0
 11
407.03430667901461
 21
591.63216879884271
 31
0.0
  0
LINE
  5
2A0F
  8
ﾁｭｳｼﾝｾﾝ1
 10
392.5683066790146
 20
611.88555879884302
 30
0.0
 11
414.56830667901443
 21
611.88555879884302
 31
0.0
  0
LINE
  5
2A10
  8
AM_0
 10
398.74277667901458
 20
597.05407879884285
 30
0.0
 11
393.28910667901459
 21
597.24450879884319
 31
0.0
  0
ARC
  5
2A11
  8
AM_0
 10
415.56830667901431
 20
594.88555879884302
 30
0.0
 40
3.0
 50
284.47750999999982
 51
0.0
  0
ARC
  5
2A12
  8
AM_0
 10
416.5683066790146
 20
591.01256879884295
 30
0.0
 40
1.0
 50
104.4775099999998
 51
180.00001000000091
  0
ARC
  5
2A13
  8
AM_0
 10
390.5683066790146
 20
620.705498798843
 30
0.0
 40
5.0
 50
88.499997000000647
 51
180.00001000000091
  0
LINE
  5
2A14
  8
AM_0
 10
345.5682766790145
 20
626.88555879884302
 30
0.0
 11
415.64679667901441
 21
625.05047879884285
 31
0.0
  0
ARC
  5
2A15
  8
AM_0
 10
340.5683066790146
 20
621.75292879884285
 30
0.0
 40
5.0
 50
0.0
 51
91.500001000001546
  0
LINE
  5
2A16
  8
AM_0
 10
342.5683066790146
 20
619.13646879884277
 30
0.0
 11
345.5683066790146
 21
619.13646879884277
 31
0.0
  0
LINE
  5
2A17
  8
AM_0
 10
341.5683066790146
 20
625.75292879884285
 30
0.0
 11
341.5683066790146
 21
622.4097887988429
 31
0.0
  0
ARC
  5
2A18
  8
AM_0
 10
342.5683066790146
 20
622.4097887988429
 30
0.0
 40
1.0
 50
180.00001000000091
 51
250.52876999999941
  0
ARC
  5
2A19
  8
AM_0
 10
340.5683066790146
 20
616.75292879884285
 30
0.0
 40
5.0
 50
28.471238999999589
 51
70.528778999998195
  0
ARC
  5
2A1A
  8
AM_0
 10
340.5683066790146
 20
625.75292879884285
 30
0.0
 40
1.0
 50
0.0
 51
90.000003000000945
  0
LINE
  5
2A1B
  8
AM_0
 10
345.5683066790146
 20
621.75292879884285
 30
0.0
 11
345.5683066790146
 21
619.13646879884277
 31
0.0
  0
ARC
  5
2A1C
  8
AM_0
 10
415.56830667901431
 20
622.0515087988432
 30
0.0
 40
3.0
 50
0.0
 51
88.499997000000647
  0
LINE
  5
2A1D
  8
AM_0
 10
463.56827667901462
 20
550.88555879884314
 30
0.0
 11
463.56827667901462
 21
522.88555879884314
 31
0.0
  0
LINE
  5
2A3C
  8
ﾁｭｳｼﾝｾﾝ1
 10
392.5683066790146
 20
461.88555879884308
 30
0.0
 11
414.56830667901443
 21
461.88555879884308
 31
0.0
  0
LINE
  5
2A3D
  8
ﾁｭｳｼﾝｾﾝ1
 10
403.5683066790146
 20
472.88555879884302
 30
0.0
 11
403.5683066790146
 21
450.88555879884302
 31
0.0
  0
LINE
  5
2A44
  8
ﾁｭｳｼﾝｾﾝ1
 10
312.5683066790146
 20
461.88555879884308
 30
0.0
 11
334.5683066790146
 21
461.88555879884308
 31
0.0
  0
LINE
  5
2A45
  8
ﾁｭｳｼﾝｾﾝ1
 10
323.5683066790146
 20
472.88555879884302
 30
0.0
 11
323.5683066790146
 21
450.88555879884302
 31
0.0
  0
LINE
  5
2A4C
  8
ﾁｭｳｼﾝｾﾝ1
 10
312.5683066790146
 20
611.88555879884302
 30
0.0
 11
334.5683066790146
 21
611.88555879884302
 31
0.0
  0
LINE
  5
2A4D
  8
ﾁｭｳｼﾝｾﾝ1
 10
323.5683066790146
 20
622.88555879884302
 30
0.0
 11
323.5683066790146
 21
600.88555879884302
 31
0.0
  0
ARC
  5
32B0
  8
AM_0
 10
416.56823667901477
 20
260.23484712208869
 30
0.0
 40
1.0000000199999981
 50
91.500001000001546
 51
180.00001000000091
  0
ARC
  5
32B1
  8
AM_0
 10
416.56823667901477
 20
320.3402971220886
 30
0.0
 40
1.0000000199999981
 50
179.999989999999
 51
268.50000999999878
  0
ARC
  5
32B2
  8
AM_0
 10
417.56822667901503
 20
201.1605631220886
 30
0.0
 40
2.00000007
 50
179.999989999999
 51
255.52248999999699
  0
ARC
  5
32B3
  8
AM_0
 10
412.5682766790145
 20
326.53859712208867
 30
0.0
 40
3.0
 50
0.0
 51
84.999996999998572
  0
LINE
  5
32B4
  8
AM_0
 10
391.56827667901462
 20
184.2875791220884
 30
0.0
 11
418.5682766790145
 21
184.2875791220884
 31
0.0
  0
LINE
  5
32B5
  8
AM_0
 10
390.56822667901491
 20
199.2875791220886
 30
0.0
 11
416.56823667901477
 21
199.2875791220886
 31
0.0
  0
LINE
  5
32B6
  8
ﾁｭｳｼﾝｾﾝ1
 10
311.29523667901481
 20
290.28758112208868
 30
0.0
 11
468.51602667901471
 21
290.28758112208868
 31
0.0
  0
LINE
  5
32B7
  8
AM_0
 10
139.0682366790148
 20
272.08756912208872
 30
0.0
 11
139.0682366790148
 21
262.44072382392
 31
0.0
  0
LINE
  5
32B8
  8
AM_0
 10
137.0682366790148
 20
272.08756912208872
 30
0.0
 11
137.0682366790148
 21
263.40621586259073
 31
0.0
  0
LINE
  5
32B9
  8
AM_0
 10
134.0682366790148
 20
272.08756912208872
 30
0.0
 11
134.0682366790148
 21
263.0820265391672
 31
0.0
  0
LINE
  5
32BA
  8
AM_0
 10
136.0682366790148
 20
272.08756912208872
 30
0.0
 11
136.0682366790148
 21
263.69061420669158
 31
0.0
  0
LINE
  5
32BB
  8
AM_0
 10
140.0682366790148
 20
272.08756912208872
 30
0.0
 11
140.0682366790148
 21
262.19313637256562
 31
0.0
  0
LINE
  5
32BC
  8
AM_0
 10
142.0682366790148
 20
272.08756912208872
 30
0.0
 11
142.0682366790148
 21
263.1911348766684
 31
0.0
  0
LINE
  5
32BD
  8
AM_0
 10
104.5682366790148
 20
266.08756912208872
 30
0.0
 11
104.5682366790148
 21
272.08756912208872
 31
0.0
  0
LINE
  5
32BE
  8
AM_0
 10
116.5682366790148
 20
264.08756912208872
 30
0.0
 11
116.5682366790148
 21
272.08756912208872
 31
0.0
  0
LINE
  5
32BF
  8
AM_0
 10
108.5682366790148
 20
264.08756912208872
 30
0.0
 11
108.5682366790148
 21
272.08756912208872
 31
0.0
  0
LINE
  5
32C0
  8
AM_0
 10
120.5682366790148
 20
266.08756912208872
 30
0.0
 11
120.5682366790148
 21
272.08756912208872
 31
0.0
  0
LINE
  5
32C1
  8
ﾁｭｳｼﾝｾﾝ
 10
138.0682366790148
 20
273.40794033045557
 30
0.0
 11
138.0682366790148
 21
196.81389189538959
 31
0.0
  0
ARC
  5
32C3
  8
AM_0
 10
72.068236679014831
 20
275.08756912208872
 30
0.0
 40
3.0
 50
180.0
 51
270.0
1001
GENIUS_GENODEF_13
1002
{
1000
HIER
1070
     0
1002
}
1002
{
1000
MANEDIT
1070
     0
1002
}
1002
{
1000
NOSEL
1070
     0
1002
}
1002
{
1000
BEHIND
1070
     0
1002
}
1002
{
1000
OTHER
1070
     0
1002
}
1002
{
1000
REACTOR
1002
}
1001
GENIUS_GENOBJ-N-FIL_13
1002
{
1000
OWNER
1000
GEN
1002
}
  0
LINE
  5
32C4
  8
AM_0
 10
87.068236679014831
 20
357.68756912208869
 30
0.0
 11
87.068236679014831
 21
226.48756912208859
 31
0.0
  0
LINE
  5
32C5
  8
AM_0
 10
84.568236679014831
 20
355.6875691220888
 30
0.0
 11
84.568236679014831
 21
228.48756912208859
 31
0.0
  0
LINE
  5
32C6
  8
AM_0
 10
80.068236679014845
 20
345.18943699346812
 30
0.0
 11
80.068236679014845
 21
238.98570125070921
 31
0.0
  0
ARC
  5
32C7
  8
AM_0
 10
1019.254360488834
 20
292.0875691220885
 30
0.0
 40
940.68612380981915
 50
176.76392470776159
 51
183.2360752922383
  0
LINE
  5
32C8
  8
AM_0
 10
212.0682366790148
 20
358.08756912208878
 30
0.0
 11
212.0682366790148
 21
226.08756912208869
 31
0.0
  0
LINE
  5
32C9
  8
AM_0
 10
223.5682366790148
 20
358.08756912208878
 30
0.0
 11
223.5682366790148
 21
226.08756912208869
 31
0.0
  0
POLYLINE
  5
32CB
  8
AM_0
 66
     1
 10
0.0
 20
0.0
 30
0.0
  0
VERTEX
  5
32CC
  8
AM_0
 10
345.56822667901503
 20
199.28755812208871
 30
0.0
 42
0.12791162
  0
VERTEX
  5
32CD
  8
AM_0
 10
351.6623366790148
 20
200.9529721220888
 30
0.0
 42
0.075873193
  0
VERTEX
  5
32CE
  8
AM_0
 10
356.64371667901491
 20
204.9118741220887
 30
0.0
 42
0.043913396
  0
VERTEX
  5
32CF
  8
AM_0
 10
360.58448667901479
 20
209.92899312208871
 30
0.0
 42
0.028464652
  0
VERTEX
  5
32D0
  8
AM_0
 10
363.77660667901489
 20
215.4556171220886
 30
0.0
 42
0.020370652
  0
VERTEX
  5
32D1
  8
AM_0
 10
366.42335667901477
 20
221.26796712208861
 30
0.0
 42
0.01565624
  0
VERTEX
  5
32D2
  8
AM_0
 10
368.64836667901483
 20
227.25458412208869
 30
0.0
 42
0.012688896
  0
VERTEX
  5
32D3
  8
AM_0
 10
370.53275667901488
 20
233.3576851220887
 30
0.0
 42
0.010707682
  0
VERTEX
  5
32D4
  8
AM_0
 10
372.13106667901502
 20
239.5431121220887
 30
0.0
 42
0.0093245348
  0
VERTEX
  5
32D5
  8
AM_0
 10
373.48100667901502
 20
245.78702712208869
 30
0.0
 42
0.0083349327
  0
VERTEX
  5
32D6
  8
AM_0
 10
374.6103566790149
 20
252.0760291220887
 30
0.0
 42
0.0076121909
  0
VERTEX
  5
32D7
  8
AM_0
 10
375.539036679015
 20
258.39820212208861
 30
0.0
 42
0.0070829483
  0
VERTEX
  5
32D8
  8
AM_0
 10
376.28177667901491
 20
264.74496012208863
 30
0.0
 42
0.0067007639
  0
VERTEX
  5
32D9
  8
AM_0
 10
376.84952667901462
 20
271.11000912208863
 30
0.0
 42
0.0064352899
  0
VERTEX
  5
32DA
  8
AM_0
 10
377.25008667901488
 20
277.48799712208881
 30
0.0
 42
0.0062673447
  0
VERTEX
  5
32DB
  8
AM_0
 10
377.48864667901489
 20
283.87414812208851
 30
0.0
 42
0.0061857091
  0
VERTEX
  5
32DC
  8
AM_0
 10
377.56820667901491
 20
290.26413912208852
 30
0.0
  0
SEQEND
  5
32DD
  8
AM_0
  0
LINE
  5
32DE
  8
AM_0
 10
280.30973667901492
 20
260.15058612208861
 30
0.0
 11
290.06822667901503
 21
279.58756812208861
 31
0.0
  0
LINE
  5
32DF
  8
AM_0
 10
299.06822667901503
 20
203.08756512208851
 30
0.0
 11
299.06822667901503
 21
331.0875571220887
 31
0.0
  0
LINE
  5
32E0
  8
AM_0
 10
290.06822667901503
 20
327.3174271220887
 30
0.0
 11
290.06822667901503
 21
205.8779881220886
 31
0.0
  0
LINE
  5
32E1
  8
AM_0
 10
230.5682366790148
 20
229.08756912208869
 30
0.0
 11
230.5682366790148
 21
355.08756912208861
 31
0.0
  0
LINE
  5
32E2
  8
AM_0
 10
335.56823667901477
 20
298.23680712208852
 30
0.0
 11
335.56823667901477
 21
207.54360612208879
 31
0.0
  0
LINE
  5
32E3
  8
AM_0
 10
325.56830667901488
 20
337.90991712208847
 30
0.0
 11
325.56830667901488
 21
199.2875791220886
 31
0.0
  0
LINE
  5
32E4
  8
AM_0
 10
342.56822667901503
 20
348.0875971220886
 30
0.0
 11
342.56822667901503
 21
220.43044812208879
 31
0.0
  0
LINE
  5
32E5
  8
AM_0
 10
403.56827667901439
 20
216.90089112208869
 30
0.0
 11
403.56827667901439
 21
341.61944712208867
 31
0.0
  0
LINE
  5
32E6
  8
AM_0
 10
345.56822667901503
 20
236.75640612208869
 30
0.0
 11
345.56822667901503
 21
272.07624612208872
 31
0.0
  0
LINE
  5
32E7
  8
AM_0
 10
385.56827667901462
 20
204.28758012208871
 30
0.0
 11
385.56827667901462
 21
311.52089712208868
 31
0.0
  0
LINE
  5
32E8
  8
AM_0
 10
415.56827667901439
 20
201.1605631220886
 30
0.0
 11
415.56827667901439
 21
326.53859712208867
 31
0.0
  0
LINE
  5
32E9
  8
AM_0
 10
86.568236679014817
 20
226.48756912208859
 30
0.0
 11
212.0682366790148
 21
226.48756912208859
 31
0.0
  0
LINE
  5
32EA
  8
AM_0
 10
83.896964356674843
 20
234.68425563083551
 30
0.0
 11
80.739509001355017
 21
237.4908826133418
 31
0.0
  0
ARC
  5
32EB
  8
AM_0
 10
82.068236679014831
 20
238.98570125070921
 30
0.0
 40
2.0
 50
180.0
 51
228.36646066343241
1001
GENIUS_GENODEF_13
1002
{
1000
HIER
1070
     0
1002
}
1002
{
1000
MANEDIT
1070
     0
1002
}
1002
{
1000
NOSEL
1070
     0
1002
}
1002
{
1000
BEHIND
1070
     0
1002
}
1002
{
1000
OTHER
1070
     0
1002
}
1002
{
1000
REACTOR
1002
}
1001
GENIUS_GENOBJ-N-FIL_13
1002
{
1000
OWNER
1000
GEN
1002
}
  0
ARC
  5
32EC
  8
AM_0
 10
86.568236679014817
 20
228.48756912208859
 30
0.0
 40
2.0
 50
180.0
 51
270.0
1001
GENIUS_GENOBJ-N-FIL_13
1002
{
1000
OWNER
1000
GEN
1002
}
1001
GENIUS_GENODEF_13
1002
{
1000
HIER
1070
     0
1002
}
1002
{
1000
MANEDIT
1070
     0
1002
}
1002
{
1000
NOSEL
1070
     0
1002
}
1002
{
1000
BEHIND
1070
     0
1002
}
1002
{
1000
OTHER
1070
     0
1002
}
1002
{
1000
REACTOR
1002
}
  0
LINE
  5
32ED
  8
AM_0
 10
136.35369167901479
 20
205.60039215937709
 30
0.0
 11
136.3476646790146
 21
211.89711405937709
 31
0.0
  0
LINE
  5
32EE
  8
AM_0
 10
136.2300826790148
 20
206.9729510452236
 30
0.0
 11
136.3527791557363
 21
206.5537529213137
 31
0.0
  0
LINE
  5
32EF
  8
AM_0
 10
139.89740267901479
 20
206.9729510452236
 30
0.0
 11
139.77470620229349
 21
206.5537529213137
 31
0.0
  0
LINE
  5
32F0
  8
AM_0
 10
139.7797366790148
 20
211.89967605937699
 30
0.0
 11
139.7857216790149
 21
205.6029247593772
 31
0.0
  0
LINE
  5
32F1
  8
AM_0
 10
133.91859167901481
 20
206.97509934522361
 30
0.0
 11
132.883732679015
 21
203.1700547452235
 31
0.0
  0
LINE
  5
32F2
  8
AM_0
 10
142.20889367901469
 20
206.97509934522361
 30
0.0
 11
143.24375267901479
 21
203.1700547452235
 31
0.0
  0
ARC
  5
32F3
  8
AM_0
 10
135.113176679015
 20
202.5686861452235
 30
0.0
 40
2.3091486599999991
 50
164.90527199999909
 51
290.87219614688911
  0
ARC
  5
32F4
  8
ｽﾝﾎ_ｳｾﾝ
 10
141.05475467901471
 20
202.56862104522361
 30
0.0
 40
1.5050001119999981
 50
241.0912951394732
 51
145.91822575961609
  0
ARC
  5
32F5
  8
AM_0
 10
141.01430867901479
 20
202.5686861452235
 30
0.0
 40
2.3091486599999991
 50
249.12780385311081
 51
15.094728000000879
  0
LINE
  5
32F6
  8
AM_0
 10
136.91409767901479
 20
205.5992182593771
 30
0.0
 11
136.35373367901491
 21
205.60037115937709
 31
0.0
  0
LINE
  5
32F7
  8
AM_0
 10
139.78576367901459
 20
205.60295625937701
 30
0.0
 11
139.2256306790149
 21
205.59711405937719
 31
0.0
  0
LINE
  5
32F8
  8
AM_0
 10
139.4954901942568
 20
205.59979866066951
 30
0.0
 11
139.34918352686719
 21
205.0999352405945
 31
0.0
  0
LINE
  5
32F9
  8
AM_0
 10
136.91409767901479
 20
205.5992182593771
 30
0.0
 11
138.0698536790147
 21
205.5981493593772
 31
0.0
  0
LINE
  5
32FA
  8
AM_0
 10
136.63199516377301
 20
205.59979866066951
 30
0.0
 11
136.77830183116231
 21
205.0999352405945
 31
0.0
  0
LINE
  5
32FB
  8
AM_0
 10
138.0698536790147
 20
205.5981493593772
 30
0.0
 11
139.2256306790149
 21
205.597080459377
 31
0.0
  0
ARC
  5
32FC
  8
AM_0
 10
138.10868267901481
 20
201.1928260593771
 30
0.0
 40
2.3091486599999991
 50
164.90527199999909
 51
16.267320000001838
  0
ARC
  5
32FD
  8
ｽﾝﾎ_ｳｾﾝ
 10
135.0727306790148
 20
202.56862104522361
 30
0.0
 40
1.5050001119999981
 50
34.081774240383801
 51
298.90870486052683
  0
CIRCLE
  5
32FE
  8
ｽﾝﾎ_ｳｾﾝ
 10
138.0682366790148
 20
201.19276095937721
 30
0.0
 40
1.5050001119999981
  0
LINE
  5
32FF
  8
AM_0
 10
139.22558867901481
 20
205.597090959377
 30
0.0
 11
140.32535867901501
 21
201.8396764593771
 31
0.0
  0
LINE
  5
3300
  8
AM_0
 10
136.91409767901479
 20
205.5992392593771
 30
0.0
 11
135.87923867901469
 21
201.79419465937701
 31
0.0
  0
POLYLINE
  5
3301
  8
AM_4
 66
     1
 10
0.0
 20
0.0
 30
0.0
 70
     4
  0
VERTEX
  5
3302
  8
AM_4
 10
134.0682366790148
 20
217.26246875666169
 30
0.0
 70
    16
  0
VERTEX
  5
3303
  8
AM_4
 10
134.0682366790148
 20
217.26246875666169
 30
0.0
 70
     8
  0
VERTEX
  5
3304
  8
AM_4
 10
135.15925190342759
 20
217.8442587327491
 30
0.0
 70
     8
  0
VERTEX
  5
3305
  8
AM_4
 10
136.19278887700111
 20
217.8747283353766
 30
0.0
 70
     8
  0
VERTEX
  5
3306
  8
AM_4
 10
137.18458455023921
 20
217.54837326071711
 30
0.0
 70
     8
  0
VERTEX
  5
3307
  8
AM_4
 10
138.1503758736452
 20
217.0596892049434
 30
0.0
 70
     8
  0
VERTEX
  5
3308
  8
AM_4
 10
139.105899797722
 20
216.6031718642283
 30
0.0
 70
     8
  0
VERTEX
  5
3309
  8
AM_4
 10
140.06689327297391
 20
216.37331693474451
 30
0.0
 70
     8
  0
VERTEX
  5
330A
  8
AM_4
 10
141.04909324990359
 20
216.56462011266521
 30
0.0
 70
     8
  0
VERTEX
  5
330B
  8
AM_4
 10
142.0682366790148
 20
217.371577094163
 30
0.0
 70
     8
  0
VERTEX
  5
330C
  8
AM_4
 10
137.0682366790148
 20
219.7218875874394
 30
0.0
 70
    16
  0
VERTEX
  5
330D
  8
AM_4
 10
139.28727453136241
 20
214.2259350088016
 30
0.0
 70
    16
  0
VERTEX
  5
330E
  8
AM_4
 10
142.0682366790148
 20
217.371577094163
 30
0.0
 70
    16
  0
SEQEND
  5
330F
  8
AM_4
  0
LINE
  5
3310
  8
AM_0
 10
137.0682366790148
 20
217.5866580800851
 30
0.0
 11
137.0682366790148
 21
211.89766022188499
 31
0.0
  0
LINE
  5
3311
  8
AM_0
 10
136.0682366790148
 20
217.87105642418621
 30
0.0
 11
136.0682366790148
 21
213.27399205921051
 31
0.0
  0
LINE
  5
3312
  8
AM_0
 10
142.77532667901491
 20
213.27297414522371
 30
0.0
 11
139.3432534664268
 21
213.27426039522359
 31
0.0
  0
LINE
  5
3313
  8
AM_0
 10
141.05313767901481
 20
206.9740094452236
 30
0.0
 11
139.7751073256737
 21
206.97282748136311
 31
0.0
  0
LINE
  5
3314
  8
AM_0
 10
133.35215867901491
 20
213.27297414522371
 30
0.0
 11
136.78423189160279
 21
213.27426039522359
 31
0.0
  0
LINE
  5
3315
  8
AM_0
 10
136.34770667901481
 20
211.89712455937709
 30
0.0
 11
139.77977867901481
 21
211.89967605937699
 31
0.0
  0
LINE
  5
3316
  8
AM_0
 10
133.35818567901481
 20
206.97625224522361
 30
0.0
 11
133.35215867901491
 21
213.27297414522371
 31
0.0
  0
LINE
  5
3317
  8
AM_0
 10
135.07434767901469
 20
206.9740094452236
 30
0.0
 11
136.35237803235589
 21
206.97282748136311
 31
0.0
  0
LINE
  5
3318
  8
AM_0
 10
133.91859167901481
 20
206.97507834522349
 30
0.0
 11
133.3582276790149
 21
206.9762312452236
 31
0.0
  0
LINE
  5
3319
  8
AM_0
 10
133.91859167901481
 20
206.97507834522349
 30
0.0
 11
135.07434767901469
 21
206.9740094452236
 31
0.0
  0
LINE
  5
331A
  8
AM_0
 10
139.34325467901459
 20
213.27553614522361
 30
0.0
 11
139.34194482178151
 21
211.8974500575271
 31
0.0
  0
LINE
  5
331B
  8
AM_0
 10
136.78423067901491
 20
213.27553614522361
 30
0.0
 11
136.78554053624799
 21
211.8974500575271
 31
0.0
  0
LINE
  5
331C
  8
AM_0
 10
139.0682366790148
 20
216.62116604141431
 30
0.0
 11
139.0682366790148
 21
211.89914707880399
 31
0.0
  0
LINE
  5
331D
  8
AM_0
 10
134.0682366790148
 20
217.26246875666169
 30
0.0
 11
134.0682366790148
 21
213.2732425122631
 31
0.0
  0
LINE
  5
331E
  8
AM_0
 10
140.06689327297391
 20
216.37331693474451
 30
0.0
 11
140.05924867901479
 21
213.27399205921051
 31
0.0
  0
LINE
  5
331F
  8
AM_0
 10
142.76929967901481
 20
206.97625224522361
 30
0.0
 11
142.77532667901491
 21
213.27297414522371
 31
0.0
  0
LINE
  5
3320
  8
AM_0
 10
142.20889367901469
 20
206.97507834522349
 30
0.0
 11
141.05313767901481
 21
206.9740094452236
 31
0.0
  0
LINE
  5
3321
  8
AM_0
 10
142.20889367901469
 20
206.97507834522349
 30
0.0
 11
142.76925767901469
 21
206.9762312452236
 31
0.0
  0
LINE
  5
3322
  8
AM_0
 10
142.05924867901479
 20
217.364460402692
 30
0.0
 11
142.05924867901479
 21
213.2732425122631
 31
0.0
  0
LINE
  5
3323
  8
AM_0
 10
106.5682366790148
 20
264.08756912208872
 30
0.0
 11
118.5682366790148
 21
264.08756912208872
 31
0.0
  0
LINE
  5
3324
  8
AM_0
 10
113.0682366790148
 20
252.58756912208869
 30
0.0
 11
136.0682366790148
 21
252.58756912208869
 31
0.0
  0
LINE
  5
3325
  8
AM_0
 10
113.0682366790148
 20
248.88756912208859
 30
0.0
 11
136.0682366790148
 21
248.88756912208871
 31
0.0
  0
LINE
  5
3326
  8
AM_0
 10
113.0682366790148
 20
258.08756912208872
 30
0.0
 11
136.0682366790148
 21
258.08756912208872
 31
0.0
  0
LINE
  5
3327
  8
AM_0
 10
113.0682366790148
 20
229.78756912208871
 30
0.0
 11
136.0682366790148
 21
229.78756912208871
 31
0.0
  0
LINE
  5
3328
  8
AM_0
 10
113.0682366790148
 20
232.38756912208851
 30
0.0
 11
136.0682366790148
 21
232.38756912208851
 31
0.0
  0
LINE
  5
3329
  8
AM_0
 10
113.0682366790148
 20
243.68756912208869
 30
0.0
 11
136.0682366790148
 21
243.68756912208869
 31
0.0
  0
LINE
  5
332A
  8
AM_0
 10
113.0682366790148
 20
240.18756912208869
 30
0.0
 11
136.0682366790148
 21
240.18756912208869
 31
0.0
  0
LINE
  5
332B
  8
AM_0
 10
113.0682366790148
 20
235.88756912208851
 30
0.0
 11
136.0682366790148
 21
235.88756912208851
 31
0.0
  0
ARC
  5
332C
  8
AM_0
 10
82.568236679014845
 20
233.18943699346809
 30
0.0
 40
2.0
 50
0.0
 51
48.36646066343252
1001
GENIUS_GENOBJ-N-FIL_13
1002
{
1000
OWNER
1000
GEN
1002
}
1001
GENIUS_GENODEF_13
1002
{
1000
HIER
1070
     0
1002
}
1002
{
1000
MANEDIT
1070
     0
1002
}
1002
{
1000
NOSEL
1070
     0
1002
}
1002
{
1000
BEHIND
1070
     0
1002
}
1002
{
1000
OTHER
1070
     0
1002
}
1002
{
1000
REACTOR
1002
}
  0
ARC
  5
332D
  8
AM_0
 10
113.0682366790148
 20
239.18756912208869
 30
0.0
 40
1.0
 50
90.0
 51
180.0
1001
GENIUS_GENODEF_13
1002
{
1000
HIER
1070
     0
1002
}
1002
{
1000
MANEDIT
1070
     0
1002
}
1002
{
1000
NOSEL
1070
     0
1002
}
1002
{
1000
BEHIND
1070
     0
1002
}
1002
{
1000
OTHER
1070
     0
1002
}
1002
{
1000
REACTOR
1002
}
1001
GENIUS_GENOBJ-N-FIL_13
1002
{
1000
OWNER
1000
GEN
1002
}
  0
LINE
  5
332E
  8
AM_0
 10
112.0682366790148
 20
231.38756912208851
 30
0.0
 11
112.0682366790148
 21
230.78756912208871
 31
0.0
  0
ARC
  5
332F
  8
AM_0
 10
113.0682366790148
 20
231.38756912208851
 30
0.0
 40
1.0
 50
90.0
 51
180.0
1001
GENIUS_GENOBJ-N-FIL_13
1002
{
1000
OWNER
1000
GEN
1002
}
1001
GENIUS_GENODEF_13
1002
{
1000
HIER
1070
     0
1002
}
1002
{
1000
MANEDIT
1070
     0
1002
}
1002
{
1000
NOSEL
1070
     0
1002
}
1002
{
1000
BEHIND
1070
     0
1002
}
1002
{
1000
OTHER
1070
     0
1002
}
1002
{
1000
REACTOR
1002
}
  0
ARC
  5
3330
  8
AM_0
 10
113.0682366790148
 20
230.78756912208871
 30
0.0
 40
1.0
 50
180.0
 51
270.0
1001
GENIUS_GENODEF_13
1002
{
1000
HIER
1070
     0
1002
}
1002
{
1000
MANEDIT
1070
     0
1002
}
1002
{
1000
NOSEL
1070
     0
1002
}
1002
{
1000
BEHIND
1070
     0
1002
}
1002
{
1000
OTHER
1070
     0
1002
}
1002
{
1000
REACTOR
1002
}
1001
GENIUS_GENOBJ-N-FIL_13
1002
{
1000
OWNER
1000
GEN
1002
}
  0
ARC
  5
3331
  8
AM_0
 10
113.0682366790148
 20
236.88756912208851
 30
0.0
 40
1.0
 50
180.0
 51
270.0
1001
GENIUS_GENOBJ-N-FIL_13
1002
{
1000
OWNER
1000
GEN
1002
}
1001
GENIUS_GENODEF_13
1002
{
1000
HIER
1070
     0
1002
}
1002
{
1000
MANEDIT
1070
     0
1002
}
1002
{
1000
NOSEL
1070
     0
1002
}
1002
{
1000
BEHIND
1070
     0
1002
}
1002
{
1000
OTHER
1070
     0
1002
}
1002
{
1000
REACTOR
1002
}
  0
LINE
  5
3332
  8
AM_0
 10
112.0682366790148
 20
239.18756912208869
 30
0.0
 11
112.0682366790148
 21
236.88756912208851
 31
0.0
  0
ARC
  5
3333
  8
AM_0
 10
113.0682366790148
 20
244.68756912208869
 30
0.0
 40
1.0
 50
180.0
 51
270.0
1001
GENIUS_GENOBJ-N-FIL_13
1002
{
1000
OWNER
1000
GEN
1002
}
1001
GENIUS_GENODEF_13
1002
{
1000
HIER
1070
     0
1002
}
1002
{
1000
MANEDIT
1070
     0
1002
}
1002
{
1000
NOSEL
1070
     0
1002
}
1002
{
1000
BEHIND
1070
     0
1002
}
1002
{
1000
OTHER
1070
     0
1002
}
1002
{
1000
REACTOR
1002
}
  0
LINE
  5
3334
  8
AM_0
 10
112.0682366790148
 20
247.88756912208851
 30
0.0
 11
112.0682366790148
 21
244.68756912208869
 31
0.0
  0
ARC
  5
3335
  8
AM_0
 10
113.0682366790148
 20
247.88756912208851
 30
0.0
 40
1.0
 50
90.0
 51
180.0
1001
GENIUS_GENODEF_13
1002
{
1000
HIER
1070
     0
1002
}
1002
{
1000
MANEDIT
1070
     0
1002
}
1002
{
1000
NOSEL
1070
     0
1002
}
1002
{
1000
BEHIND
1070
     0
1002
}
1002
{
1000
OTHER
1070
     0
1002
}
1002
{
1000
REACTOR
1002
}
1001
GENIUS_GENOBJ-N-FIL_13
1002
{
1000
OWNER
1000
GEN
1002
}
  0
LINE
  5
3336
  8
AM_0
 10
112.0682366790148
 20
257.08756912208872
 30
0.0
 11
112.0682366790148
 21
253.58756912208869
 31
0.0
  0
ARC
  5
3337
  8
AM_0
 10
113.0682366790148
 20
253.58756912208869
 30
0.0
 40
1.0
 50
180.0
 51
270.0
1001
GENIUS_GENODEF_13
1002
{
1000
HIER
1070
     0
1002
}
1002
{
1000
MANEDIT
1070
     0
1002
}
1002
{
1000
NOSEL
1070
     0
1002
}
1002
{
1000
BEHIND
1070
     0
1002
}
1002
{
1000
OTHER
1070
     0
1002
}
1002
{
1000
REACTOR
1002
}
1001
GENIUS_GENOBJ-N-FIL_13
1002
{
1000
OWNER
1000
GEN
1002
}
  0
ARC
  5
3338
  8
AM_0
 10
113.0682366790148
 20
257.08756912208872
 30
0.0
 40
1.0
 50
90.0
 51
180.0
1001
GENIUS_GENODEF_13
1002
{
1000
HIER
1070
     0
1002
}
1002
{
1000
MANEDIT
1070
     0
1002
}
1002
{
1000
NOSEL
1070
     0
1002
}
1002
{
1000
BEHIND
1070
     0
1002
}
1002
{
1000
OTHER
1070
     0
1002
}
1002
{
1000
REACTOR
1002
}
1001
GENIUS_GENOBJ-N-FIL_13
1002
{
1000
OWNER
1000
GEN
1002
}
  0
ARC
  5
3339
  8
AM_0
 10
106.5682366790148
 20
266.08756912208872
 30
0.0
 40
2.0
 50
180.0
 51
270.0
1001
GENIUS_GENOBJ-N-FIL_13
1002
{
1000
OWNER
1000
GEN
1002
}
1001
GENIUS_GENODEF_13
1002
{
1000
HIER
1070
     0
1002
}
1002
{
1000
MANEDIT
1070
     0
1002
}
1002
{
1000
NOSEL
1070
     0
1002
}
1002
{
1000
BEHIND
1070
     0
1002
}
1002
{
1000
OTHER
1070
     0
1002
}
1002
{
1000
REACTOR
1002
}
  0
LINE
  5
333A
  8
AM_0N
 10
112.31573667901471
 20
267.83506912208861
 30
0.0
 11
111.0896414842438
 21
267.83506912208861
 31
0.0
  0
LINE
  5
333B
  8
AM_0N
 10
112.31573667901471
 20
268.34006912208872
 30
0.0
 11
111.0896414842438
 21
268.34006912208872
 31
0.0
  0
LINE
  5
333C
  8
AM_0N
 10
111.0896414842438
 20
268.34006912208872
 30
0.0
 11
111.0896414842438
 21
267.83506912208861
 31
0.0
  0
LINE
  5
333D
  8
AM_0N
 10
112.31573667901471
 20
269.56616431685973
 30
0.0
 11
112.8207366790149
 21
269.56616431685973
 31
0.0
  0
LINE
  5
333E
  8
AM_0N
 10
114.04683187378591
 20
268.34006912208872
 30
0.0
 11
114.04683187378591
 21
267.83506912208861
 31
0.0
  0
LINE
  5
333F
  8
AM_0N
 10
112.8207366790149
 20
266.60897392731761
 30
0.0
 11
112.8207366790149
 21
267.83506912208861
 31
0.0
  0
LINE
  5
3340
  8
AM_0N
 10
112.31573667901471
 20
266.60897392731761
 30
0.0
 11
112.31573667901471
 21
267.83506912208861
 31
0.0
  0
LINE
  5
3341
  8
AM_0N
 10
112.31573667901471
 20
266.60897392731761
 30
0.0
 11
112.8207366790149
 21
266.60897392731761
 31
0.0
  0
LINE
  5
3342
  8
AM_0N
 10
114.04683187378591
 20
267.83506912208861
 30
0.0
 11
112.8207366790149
 21
267.83506912208861
 31
0.0
  0
LINE
  5
3343
  8
AM_0N
 10
114.04683187378591
 20
268.34006912208872
 30
0.0
 11
112.8207366790149
 21
268.34006912208872
 31
0.0
  0
LINE
  5
3344
  8
AM_0N
 10
112.31573667901471
 20
268.34006912208872
 30
0.0
 11
112.31573667901471
 21
269.56616431685973
 31
0.0
  0
LINE
  5
3345
  8
AM_0N
 10
112.8207366790149
 20
268.34006912208872
 30
0.0
 11
112.8207366790149
 21
269.56616431685973
 31
0.0
  0
CIRCLE
  5
3346
  8
AM_0N
 10
112.5682366790148
 20
268.08756912208872
 30
0.0
 40
2.799999999999998
  0
ARC
  5
3347
  8
AM_0
 10
136.0682366790148
 20
239.18756912208869
 30
0.0
 40
1.0
 50
0.0
 51
90.0
1001
GENIUS_GENODEF_13
1002
{
1000
HIER
1070
     0
1002
}
1002
{
1000
MANEDIT
1070
     0
1002
}
1002
{
1000
NOSEL
1070
     0
1002
}
1002
{
1000
BEHIND
1070
     0
1002
}
1002
{
1000
OTHER
1070
     0
1002
}
1002
{
1000
REACTOR
1002
}
1001
GENIUS_GENOBJ-N-FIL_13
1002
{
1000
OWNER
1000
GEN
1002
}
  0
ARC
  5
3348
  8
AM_0
 10
136.0682366790148
 20
231.38756912208851
 30
0.0
 40
1.0
 50
0.0
 51
90.0
1001
GENIUS_GENODEF_13
1002
{
1000
HIER
1070
     0
1002
}
1002
{
1000
MANEDIT
1070
     0
1002
}
1002
{
1000
NOSEL
1070
     0
1002
}
1002
{
1000
BEHIND
1070
     0
1002
}
1002
{
1000
OTHER
1070
     0
1002
}
1002
{
1000
REACTOR
1002
}
1001
GENIUS_GENOBJ-N-FIL_13
1002
{
1000
OWNER
1000
GEN
1002
}
  0
ARC
  5
3349
  8
AM_0
 10
136.0682366790148
 20
230.78756912208871
 30
0.0
 40
1.0
 50
270.0
 51
0.0
1001
GENIUS_GENOBJ-N-FIL_13
1002
{
1000
OWNER
1000
GEN
1002
}
1001
GENIUS_GENODEF_13
1002
{
1000
HIER
1070
     0
1002
}
1002
{
1000
MANEDIT
1070
     0
1002
}
1002
{
1000
NOSEL
1070
     0
1002
}
1002
{
1000
BEHIND
1070
     0
1002
}
1002
{
1000
OTHER
1070
     0
1002
}
1002
{
1000
REACTOR
1002
}
  0
ARC
  5
334A
  8
AM_0
 10
136.0682366790148
 20
236.88756912208851
 30
0.0
 40
1.0
 50
270.0
 51
0.0
1001
GENIUS_GENODEF_13
1002
{
1000
HIER
1070
     0
1002
}
1002
{
1000
MANEDIT
1070
     0
1002
}
1002
{
1000
NOSEL
1070
     0
1002
}
1002
{
1000
BEHIND
1070
     0
1002
}
1002
{
1000
OTHER
1070
     0
1002
}
1002
{
1000
REACTOR
1002
}
1001
GENIUS_GENOBJ-N-FIL_13
1002
{
1000
OWNER
1000
GEN
1002
}
  0
LINE
  5
334B
  8
AM_0
 10
137.0682366790148
 20
231.38756912208851
 30
0.0
 11
137.0682366790148
 21
230.78756912208871
 31
0.0
  0
LINE
  5
334C
  8
AM_0
 10
137.0682366790148
 20
239.18756912208869
 30
0.0
 11
137.0682366790148
 21
236.88756912208851
 31
0.0
  0
ARC
  5
334D
  8
AM_0
 10
136.0682366790148
 20
244.68756912208869
 30
0.0
 40
1.0
 50
270.0
 51
0.0
1001
GENIUS_GENODEF_13
1002
{
1000
HIER
1070
     0
1002
}
1002
{
1000
MANEDIT
1070
     0
1002
}
1002
{
1000
NOSEL
1070
     0
1002
}
1002
{
1000
BEHIND
1070
     0
1002
}
1002
{
1000
OTHER
1070
     0
1002
}
1002
{
1000
REACTOR
1002
}
1001
GENIUS_GENOBJ-N-FIL_13
1002
{
1000
OWNER
1000
GEN
1002
}
  0
LINE
  5
334E
  8
AM_0
 10
137.0682366790148
 20
247.88756912208879
 30
0.0
 11
137.0682366790148
 21
244.68756912208869
 31
0.0
  0
ARC
  5
334F
  8
AM_0
 10
136.0682366790148
 20
247.88756912208879
 30
0.0
 40
1.0
 50
0.0
 51
90.0
1001
GENIUS_GENODEF_13
1002
{
1000
HIER
1070
     0
1002
}
1002
{
1000
MANEDIT
1070
     0
1002
}
1002
{
1000
NOSEL
1070
     0
1002
}
1002
{
1000
BEHIND
1070
     0
1002
}
1002
{
1000
OTHER
1070
     0
1002
}
1002
{
1000
REACTOR
1002
}
1001
GENIUS_GENOBJ-N-FIL_13
1002
{
1000
OWNER
1000
GEN
1002
}
  0
ARC
  5
3350
  8
AM_0
 10
118.5682366790148
 20
266.08756912208872
 30
0.0
 40
2.0
 50
270.0
 51
0.0
1001
GENIUS_GENOBJ-N-FIL_13
1002
{
1000
OWNER
1000
GEN
1002
}
1001
GENIUS_GENODEF_13
1002
{
1000
HIER
1070
     0
1002
}
1002
{
1000
MANEDIT
1070
     0
1002
}
1002
{
1000
NOSEL
1070
     0
1002
}
1002
{
1000
BEHIND
1070
     0
1002
}
1002
{
1000
OTHER
1070
     0
1002
}
1002
{
1000
REACTOR
1002
}
  0
ARC
  5
3351
  8
AM_0
 10
136.0682366790148
 20
253.58756912208869
 30
0.0
 40
1.0
 50
270.0
 51
0.0
1001
GENIUS_GENODEF_13
1002
{
1000
HIER
1070
     0
1002
}
1002
{
1000
MANEDIT
1070
     0
1002
}
1002
{
1000
NOSEL
1070
     0
1002
}
1002
{
1000
BEHIND
1070
     0
1002
}
1002
{
1000
OTHER
1070
     0
1002
}
1002
{
1000
REACTOR
1002
}
1001
GENIUS_GENOBJ-N-FIL_13
1002
{
1000
OWNER
1000
GEN
1002
}
  0
ARC
  5
3352
  8
AM_0
 10
136.0682366790148
 20
257.08756912208872
 30
0.0
 40
1.0
 50
0.0
 51
90.0
1001
GENIUS_GENOBJ-N-FIL_13
1002
{
1000
OWNER
1000
GEN
1002
}
1001
GENIUS_GENODEF_13
1002
{
1000
HIER
1070
     0
1002
}
1002
{
1000
MANEDIT
1070
     0
1002
}
1002
{
1000
NOSEL
1070
     0
1002
}
1002
{
1000
BEHIND
1070
     0
1002
}
1002
{
1000
OTHER
1070
     0
1002
}
1002
{
1000
REACTOR
1002
}
  0
LINE
  5
3353
  8
AM_0
 10
137.0682366790148
 20
257.08756912208872
 30
0.0
 11
137.0682366790148
 21
253.58756912208869
 31
0.0
  0
POLYLINE
  5
3354
  8
AM_4
 66
     1
 10
0.0
 20
0.0
 30
0.0
 70
     4
  0
VERTEX
  5
3355
  8
AM_4
 10
134.0682366790148
 20
263.0820265391672
 30
0.0
 70
    16
  0
VERTEX
  5
3356
  8
AM_4
 10
134.0682366790148
 20
263.0820265391672
 30
0.0
 70
     8
  0
VERTEX
  5
3357
  8
AM_4
 10
135.15925190342759
 20
263.6638165152545
 30
0.0
 70
     8
  0
VERTEX
  5
3358
  8
AM_4
 10
136.19278887700111
 20
263.69428611788209
 30
0.0
 70
     8
  0
VERTEX
  5
3359
  8
AM_4
 10
137.18458455023949
 20
263.3679310432226
 30
0.0
 70
     8
  0
VERTEX
  5
335A
  8
AM_4
 10
138.1503758736452
 20
262.87924698744888
 30
0.0
 70
     8
  0
VERTEX
  5
335B
  8
AM_4
 10
139.10589979772229
 20
262.42272964673373
 30
0.0
 70
     8
  0
VERTEX
  5
335C
  8
AM_4
 10
140.0668932729742
 20
262.19287471725011
 30
0.0
 70
     8
  0
VERTEX
  5
335D
  8
AM_4
 10
141.0490932499039
 20
262.38417789517081
 30
0.0
 70
     8
  0
VERTEX
  5
335E
  8
AM_4
 10
142.068236679015
 20
263.1911348766684
 30
0.0
 70
     8
  0
VERTEX
  5
335F
  8
AM_4
 10
137.0682366790148
 20
265.54144536994488
 30
0.0
 70
    16
  0
VERTEX
  5
3360
  8
AM_4
 10
139.28727453136261
 20
260.04549279130691
 30
0.0
 70
    16
  0
VERTEX
  5
3361
  8
AM_4
 10
142.0682366790148
 20
263.1911348766684
 30
0.0
 70
    16
  0
SEQEND
  5
3362
  8
AM_4
  0
ARC
  5
3363
  8
AM_0
 10
282.30170667901501
 20
251.08756812208861
 30
0.0
 40
5.0000001000000003
 50
270.0
 51
45.00000100000149
  0
LINE
  5
3364
  8
AM_0
 10
280.30973667901492
 20
260.15058612208861
 30
0.0
 11
285.83720667901491
 21
254.62308912208869
 31
0.0
  0
LINE
  5
3365
  8
AM_0
 10
268.80956667901489
 20
232.90810812208861
 30
0.0
 11
289.18958667901512
 21
212.5281031220886
 31
0.0
  0
LINE
  5
3366
  8
AM_0
 10
263.46356667901478
 20
208.7181511220887
 30
0.0
 11
287.34167667901488
 21
207.8843191220887
 31
0.0
  0
LINE
  5
3367
  8
AM_0
 10
212.0682366790148
 20
226.08756912208869
 30
0.0
 11
223.5682366790148
 21
226.08756912208869
 31
0.0
  0
LINE
  5
3368
  8
AM_0
 10
178.0682366790148
 20
252.58756912208869
 30
0.0
 11
201.06823667901489
 21
252.58756912208869
 31
0.0
  0
LINE
  5
3369
  8
AM_0
 10
178.0682366790148
 20
248.88756912208859
 30
0.0
 11
201.06823667901489
 21
248.88756912208871
 31
0.0
  0
LINE
  5
336A
  8
AM_0
 10
178.0682366790148
 20
270.08756912208872
 30
0.0
 11
201.06823667901489
 21
270.08756912208872
 31
0.0
  0
LINE
  5
336B
  8
AM_0
 10
178.0682366790148
 20
263.58756912208872
 30
0.0
 11
201.06823667901489
 21
263.58756912208872
 31
0.0
  0
LINE
  5
336C
  8
AM_0
 10
178.0682366790148
 20
258.08756912208872
 30
0.0
 11
201.06823667901489
 21
258.08756912208872
 31
0.0
  0
LINE
  5
336D
  8
AM_0
 10
178.0682366790148
 20
232.38756912208851
 30
0.0
 11
201.06823667901489
 21
232.38756912208851
 31
0.0
  0
LINE
  5
336E
  8
AM_0
 10
178.0682366790148
 20
229.78756912208871
 30
0.0
 11
201.06823667901489
 21
229.78756912208871
 31
0.0
  0
LINE
  5
336F
  8
AM_0
 10
178.0682366790148
 20
243.68756912208869
 30
0.0
 11
201.06823667901489
 21
243.68756912208869
 31
0.0
  0
LINE
  5
3370
  8
AM_0
 10
178.0682366790148
 20
240.18756912208869
 30
0.0
 11
201.06823667901489
 21
240.18756912208869
 31
0.0
  0
LINE
  5
3371
  8
AM_0
 10
178.0682366790148
 20
235.88756912208851
 30
0.0
 11
201.06823667901489
 21
235.88756912208851
 31
0.0
  0
ARC
  5
3372
  8
AM_0
 10
178.0682366790148
 20
239.18756912208869
 30
0.0
 40
1.0
 50
90.0
 51
180.0
1001
GENIUS_GENODEF_13
1002
{
1000
HIER
1070
     0
1002
}
1002
{
1000
MANEDIT
1070
     0
1002
}
1002
{
1000
NOSEL
1070
     0
1002
}
1002
{
1000
BEHIND
1070
     0
1002
}
1002
{
1000
OTHER
1070
     0
1002
}
1002
{
1000
REACTOR
1002
}
1001
GENIUS_GENOBJ-N-FIL_13
1002
{
1000
OWNER
1000
GEN
1002
}
  0
ARC
  5
3373
  8
AM_0
 10
178.0682366790148
 20
231.38756912208851
 30
0.0
 40
1.0
 50
90.0
 51
180.0
1001
GENIUS_GENOBJ-N-FIL_13
1002
{
1000
OWNER
1000
GEN
1002
}
1001
GENIUS_GENODEF_13
1002
{
1000
HIER
1070
     0
1002
}
1002
{
1000
MANEDIT
1070
     0
1002
}
1002
{
1000
NOSEL
1070
     0
1002
}
1002
{
1000
BEHIND
1070
     0
1002
}
1002
{
1000
OTHER
1070
     0
1002
}
1002
{
1000
REACTOR
1002
}
  0
LINE
  5
3374
  8
AM_0
 10
177.0682366790148
 20
231.38756912208851
 30
0.0
 11
177.0682366790148
 21
230.78756912208871
 31
0.0
  0
ARC
  5
3375
  8
AM_0
 10
178.0682366790148
 20
230.78756912208871
 30
0.0
 40
1.0
 50
180.0
 51
270.0
1001
GENIUS_GENODEF_13
1002
{
1000
HIER
1070
     0
1002
}
1002
{
1000
MANEDIT
1070
     0
1002
}
1002
{
1000
NOSEL
1070
     0
1002
}
1002
{
1000
BEHIND
1070
     0
1002
}
1002
{
1000
OTHER
1070
     0
1002
}
1002
{
1000
REACTOR
1002
}
1001
GENIUS_GENOBJ-N-FIL_13
1002
{
1000
OWNER
1000
GEN
1002
}
  0
ARC
  5
3376
  8
AM_0
 10
178.0682366790148
 20
236.88756912208851
 30
0.0
 40
1.0
 50
180.0
 51
270.0
1001
GENIUS_GENOBJ-N-FIL_13
1002
{
1000
OWNER
1000
GEN
1002
}
1001
GENIUS_GENODEF_13
1002
{
1000
HIER
1070
     0
1002
}
1002
{
1000
MANEDIT
1070
     0
1002
}
1002
{
1000
NOSEL
1070
     0
1002
}
1002
{
1000
BEHIND
1070
     0
1002
}
1002
{
1000
OTHER
1070
     0
1002
}
1002
{
1000
REACTOR
1002
}
  0
LINE
  5
3377
  8
AM_0
 10
177.0682366790148
 20
239.18756912208869
 30
0.0
 11
177.0682366790148
 21
236.88756912208851
 31
0.0
  0
ARC
  5
3378
  8
AM_0
 10
178.0682366790148
 20
244.68756912208869
 30
0.0
 40
1.0
 50
180.0
 51
270.0
1001
GENIUS_GENOBJ-N-FIL_13
1002
{
1000
OWNER
1000
GEN
1002
}
1001
GENIUS_GENODEF_13
1002
{
1000
HIER
1070
     0
1002
}
1002
{
1000
MANEDIT
1070
     0
1002
}
1002
{
1000
NOSEL
1070
     0
1002
}
1002
{
1000
BEHIND
1070
     0
1002
}
1002
{
1000
OTHER
1070
     0
1002
}
1002
{
1000
REACTOR
1002
}
  0
LINE
  5
3379
  8
AM_0
 10
177.0682366790148
 20
247.88756912208851
 30
0.0
 11
177.0682366790148
 21
244.68756912208869
 31
0.0
  0
ARC
  5
337A
  8
AM_0
 10
178.0682366790148
 20
247.88756912208851
 30
0.0
 40
1.0
 50
90.0
 51
180.0
1001
GENIUS_GENODEF_13
1002
{
1000
HIER
1070
     0
1002
}
1002
{
1000
MANEDIT
1070
     0
1002
}
1002
{
1000
NOSEL
1070
     0
1002
}
1002
{
1000
BEHIND
1070
     0
1002
}
1002
{
1000
OTHER
1070
     0
1002
}
1002
{
1000
REACTOR
1002
}
1001
GENIUS_GENOBJ-N-FIL_13
1002
{
1000
OWNER
1000
GEN
1002
}
  0
LINE
  5
337B
  8
AM_0
 10
177.0682366790148
 20
257.08756912208872
 30
0.0
 11
177.0682366790148
 21
253.58756912208869
 31
0.0
  0
ARC
  5
337C
  8
AM_0
 10
178.0682366790148
 20
253.58756912208869
 30
0.0
 40
1.0
 50
180.0
 51
270.0
1001
GENIUS_GENODEF_13
1002
{
1000
HIER
1070
     0
1002
}
1002
{
1000
MANEDIT
1070
     0
1002
}
1002
{
1000
NOSEL
1070
     0
1002
}
1002
{
1000
BEHIND
1070
     0
1002
}
1002
{
1000
OTHER
1070
     0
1002
}
1002
{
1000
REACTOR
1002
}
1001
GENIUS_GENOBJ-N-FIL_13
1002
{
1000
OWNER
1000
GEN
1002
}
  0
ARC
  5
337D
  8
AM_0
 10
178.0682366790148
 20
257.08756912208872
 30
0.0
 40
1.0
 50
90.0
 51
180.0
1001
GENIUS_GENODEF_13
1002
{
1000
HIER
1070
     0
1002
}
1002
{
1000
MANEDIT
1070
     0
1002
}
1002
{
1000
NOSEL
1070
     0
1002
}
1002
{
1000
BEHIND
1070
     0
1002
}
1002
{
1000
OTHER
1070
     0
1002
}
1002
{
1000
REACTOR
1002
}
1001
GENIUS_GENOBJ-N-FIL_13
1002
{
1000
OWNER
1000
GEN
1002
}
  0
LINE
  5
337E
  8
AM_0
 10
177.0682366790148
 20
269.08756912208872
 30
0.0
 11
177.0682366790148
 21
264.58756912208861
 31
0.0
  0
ARC
  5
337F
  8
AM_0
 10
178.0682366790148
 20
264.58756912208861
 30
0.0
 40
1.0
 50
180.0
 51
270.0
1001
GENIUS_GENODEF_13
1002
{
1000
HIER
1070
     0
1002
}
1002
{
1000
MANEDIT
1070
     0
1002
}
1002
{
1000
NOSEL
1070
     0
1002
}
1002
{
1000
BEHIND
1070
     0
1002
}
1002
{
1000
OTHER
1070
     0
1002
}
1002
{
1000
REACTOR
1002
}
1001
GENIUS_GENOBJ-N-FIL_13
1002
{
1000
OWNER
1000
GEN
1002
}
  0
ARC
  5
3380
  8
AM_0
 10
178.0682366790148
 20
269.08756912208872
 30
0.0
 40
1.0
 50
90.0
 51
180.0
1001
GENIUS_GENOBJ-N-FIL_13
1002
{
1000
OWNER
1000
GEN
1002
}
1001
GENIUS_GENODEF_13
1002
{
1000
HIER
1070
     0
1002
}
1002
{
1000
MANEDIT
1070
     0
1002
}
1002
{
1000
NOSEL
1070
     0
1002
}
1002
{
1000
BEHIND
1070
     0
1002
}
1002
{
1000
OTHER
1070
     0
1002
}
1002
{
1000
REACTOR
1002
}
  0
ARC
  5
3381
  8
AM_0
 10
201.06823667901489
 20
239.18756912208869
 30
0.0
 40
1.0
 50
0.0
 51
90.0
1001
GENIUS_GENODEF_13
1002
{
1000
HIER
1070
     0
1002
}
1002
{
1000
MANEDIT
1070
     0
1002
}
1002
{
1000
NOSEL
1070
     0
1002
}
1002
{
1000
BEHIND
1070
     0
1002
}
1002
{
1000
OTHER
1070
     0
1002
}
1002
{
1000
REACTOR
1002
}
1001
GENIUS_GENOBJ-N-FIL_13
1002
{
1000
OWNER
1000
GEN
1002
}
  0
ARC
  5
3382
  8
AM_0
 10
201.06823667901489
 20
231.38756912208851
 30
0.0
 40
1.0
 50
0.0
 51
90.0
1001
GENIUS_GENODEF_13
1002
{
1000
HIER
1070
     0
1002
}
1002
{
1000
MANEDIT
1070
     0
1002
}
1002
{
1000
NOSEL
1070
     0
1002
}
1002
{
1000
BEHIND
1070
     0
1002
}
1002
{
1000
OTHER
1070
     0
1002
}
1002
{
1000
REACTOR
1002
}
1001
GENIUS_GENOBJ-N-FIL_13
1002
{
1000
OWNER
1000
GEN
1002
}
  0
LINE
  5
3383
  8
AM_0
 10
202.0682366790148
 20
231.38756912208851
 30
0.0
 11
202.0682366790148
 21
230.78756912208871
 31
0.0
  0
ARC
  5
3384
  8
AM_0
 10
201.06823667901489
 20
230.78756912208871
 30
0.0
 40
1.0
 50
270.0
 51
0.0
1001
GENIUS_GENOBJ-N-FIL_13
1002
{
1000
OWNER
1000
GEN
1002
}
1001
GENIUS_GENODEF_13
1002
{
1000
HIER
1070
     0
1002
}
1002
{
1000
MANEDIT
1070
     0
1002
}
1002
{
1000
NOSEL
1070
     0
1002
}
1002
{
1000
BEHIND
1070
     0
1002
}
1002
{
1000
OTHER
1070
     0
1002
}
1002
{
1000
REACTOR
1002
}
  0
ARC
  5
3385
  8
AM_0
 10
201.06823667901489
 20
236.88756912208851
 30
0.0
 40
1.0
 50
270.0
 51
0.0
1001
GENIUS_GENODEF_13
1002
{
1000
HIER
1070
     0
1002
}
1002
{
1000
MANEDIT
1070
     0
1002
}
1002
{
1000
NOSEL
1070
     0
1002
}
1002
{
1000
BEHIND
1070
     0
1002
}
1002
{
1000
OTHER
1070
     0
1002
}
1002
{
1000
REACTOR
1002
}
1001
GENIUS_GENOBJ-N-FIL_13
1002
{
1000
OWNER
1000
GEN
1002
}
  0
LINE
  5
3386
  8
AM_0
 10
202.0682366790148
 20
239.18756912208869
 30
0.0
 11
202.0682366790148
 21
236.88756912208851
 31
0.0
  0
ARC
  5
3387
  8
AM_0
 10
201.06823667901489
 20
244.68756912208869
 30
0.0
 40
1.0
 50
270.0
 51
0.0
1001
GENIUS_GENODEF_13
1002
{
1000
HIER
1070
     0
1002
}
1002
{
1000
MANEDIT
1070
     0
1002
}
1002
{
1000
NOSEL
1070
     0
1002
}
1002
{
1000
BEHIND
1070
     0
1002
}
1002
{
1000
OTHER
1070
     0
1002
}
1002
{
1000
REACTOR
1002
}
1001
GENIUS_GENOBJ-N-FIL_13
1002
{
1000
OWNER
1000
GEN
1002
}
  0
LINE
  5
3388
  8
AM_0
 10
202.0682366790148
 20
247.88756912208879
 30
0.0
 11
202.0682366790148
 21
244.68756912208869
 31
0.0
  0
ARC
  5
3389
  8
AM_0
 10
201.06823667901489
 20
247.88756912208879
 30
0.0
 40
1.0
 50
0.0
 51
90.0
1001
GENIUS_GENODEF_13
1002
{
1000
HIER
1070
     0
1002
}
1002
{
1000
MANEDIT
1070
     0
1002
}
1002
{
1000
NOSEL
1070
     0
1002
}
1002
{
1000
BEHIND
1070
     0
1002
}
1002
{
1000
OTHER
1070
     0
1002
}
1002
{
1000
REACTOR
1002
}
1001
GENIUS_GENOBJ-N-FIL_13
1002
{
1000
OWNER
1000
GEN
1002
}
  0
LINE
  5
338A
  8
AM_0
 10
202.0682366790148
 20
257.08756912208872
 30
0.0
 11
202.0682366790148
 21
253.58756912208869
 31
0.0
  0
ARC
  5
338B
  8
AM_0
 10
201.06823667901489
 20
253.58756912208869
 30
0.0
 40
1.0
 50
270.0
 51
0.0
1001
GENIUS_GENODEF_13
1002
{
1000
HIER
1070
     0
1002
}
1002
{
1000
MANEDIT
1070
     0
1002
}
1002
{
1000
NOSEL
1070
     0
1002
}
1002
{
1000
BEHIND
1070
     0
1002
}
1002
{
1000
OTHER
1070
     0
1002
}
1002
{
1000
REACTOR
1002
}
1001
GENIUS_GENOBJ-N-FIL_13
1002
{
1000
OWNER
1000
GEN
1002
}
  0
ARC
  5
338C
  8
AM_0
 10
201.06823667901489
 20
257.08756912208872
 30
0.0
 40
1.0
 50
0.0
 51
90.0
1001
GENIUS_GENOBJ-N-FIL_13
1002
{
1000
OWNER
1000
GEN
1002
}
1001
GENIUS_GENODEF_13
1002
{
1000
HIER
1070
     0
1002
}
1002
{
1000
MANEDIT
1070
     0
1002
}
1002
{
1000
NOSEL
1070
     0
1002
}
1002
{
1000
BEHIND
1070
     0
1002
}
1002
{
1000
OTHER
1070
     0
1002
}
1002
{
1000
REACTOR
1002
}
  0
LINE
  5
338D
  8
AM_0
 10
202.0682366790148
 20
269.08756912208872
 30
0.0
 11
202.0682366790148
 21
264.58756912208861
 31
0.0
  0
ARC
  5
338E
  8
AM_0
 10
201.06823667901489
 20
264.58756912208861
 30
0.0
 40
1.0
 50
270.0
 51
0.0
1001
GENIUS_GENODEF_13
1002
{
1000
HIER
1070
     0
1002
}
1002
{
1000
MANEDIT
1070
     0
1002
}
1002
{
1000
NOSEL
1070
     0
1002
}
1002
{
1000
BEHIND
1070
     0
1002
}
1002
{
1000
OTHER
1070
     0
1002
}
1002
{
1000
REACTOR
1002
}
1001
GENIUS_GENOBJ-N-FIL_13
1002
{
1000
OWNER
1000
GEN
1002
}
  0
ARC
  5
338F
  8
AM_0
 10
201.06823667901489
 20
269.08756912208872
 30
0.0
 40
1.0
 50
0.0
 51
90.0
1001
GENIUS_GENOBJ-N-FIL_13
1002
{
1000
OWNER
1000
GEN
1002
}
1001
GENIUS_GENODEF_13
1002
{
1000
HIER
1070
     0
1002
}
1002
{
1000
MANEDIT
1070
     0
1002
}
1002
{
1000
NOSEL
1070
     0
1002
}
1002
{
1000
BEHIND
1070
     0
1002
}
1002
{
1000
OTHER
1070
     0
1002
}
1002
{
1000
REACTOR
1002
}
  0
LINE
  5
3390
  8
AM_0
 10
230.5682366790148
 20
229.08756912208861
 30
0.0
 11
223.5682366790148
 21
226.08756912208869
 31
0.0
  0
LINE
  5
3391
  8
AM_0
 10
260.56823667901477
 20
211.71635112208861
 30
0.0
 11
260.56823667901477
 21
231.6428971220887
 31
0.0
  0
ARC
  5
3392
  8
AM_0
 10
263.56823667901489
 20
211.71635112208861
 30
0.0
 40
3.0
 50
179.999989999999
 51
268.00000999999861
  0
LINE
  5
3393
  8
AM_0
 10
230.5682366790148
 20
260.15058612208861
 30
0.0
 11
280.30973667901492
 21
260.15058612208861
 31
0.0
  0
LINE
  5
3394
  8
AM_0
 10
230.5682366790148
 20
246.08758212208869
 30
0.0
 11
282.30170667901501
 21
246.08758212208869
 31
0.0
  0
LINE
  5
3395
  8
AM_0
 10
230.5682366790148
 20
235.58758212208869
 30
0.0
 11
257.67296667901468
 21
234.64106412208861
 31
0.0
  0
ARC
  5
3396
  8
AM_0
 10
265.27403667901473
 20
229.3725871220887
 30
0.0
 40
5.0000001000000003
 50
45.00000100000149
 51
88.000000000002899
  0
ARC
  5
3397
  8
AM_0
 10
257.56823667901477
 20
231.6428971220887
 30
0.0
 40
3.0
 50
0.0
 51
88.000000000002899
  0
LINE
  5
3398
  8
AM_0
 10
257.67296667901468
 20
234.64106412208861
 30
0.0
 11
265.44854667901473
 21
234.3695341220886
 31
0.0
  0
LINE
  5
3399
  8
AM_0
 10
267.41687667901482
 20
234.47042712208869
 30
0.0
 11
273.24932667901493
 21
246.08758212208869
 31
0.0
  0
ARC
  5
339A
  8
AM_0
 10
390.56822667901491
 20
184.2875791220884
 30
0.0
 40
1.0000000199999981
 50
0.0
 51
90.00000299999769
  0
ARC
  5
339B
  8
AM_0
 10
336.56822667901503
 20
184.2875791220884
 30
0.0
 40
1.0000000199999981
 50
90.00000299999769
 51
180.00001000000091
  0
LINE
  5
339C
  8
ﾁｭｳｼﾝｾﾝ1
 10
323.56823667901477
 20
204.2875951220885
 30
0.0
 11
323.56823667901477
 21
179.28757812208869
 31
0.0
  0
LINE
  5
339D
  8
ﾁｭｳｼﾝｾﾝ1
 10
403.56821667901471
 20
204.2875951220885
 30
0.0
 11
403.56821667901471
 21
179.28757812208869
 31
0.0
  0
LINE
  5
339E
  8
AM_0
 10
308.56823667901477
 20
197.28759312208871
 30
0.0
 11
308.56823667901477
 21
184.2875791220884
 31
0.0
  0
LINE
  5
339F
  8
ｶｸﾚｾﾝ2
 10
397.5682766790145
 20
199.2875791220886
 30
0.0
 11
397.5682766790145
 21
184.2875791220884
 31
0.0
  0
LINE
  5
33A0
  8
ｶｸﾚｾﾝ2
 10
329.56823667901477
 20
199.2875791220886
 30
0.0
 11
329.56823667901477
 21
184.2875791220884
 31
0.0
  0
LINE
  5
33A1
  8
ｶｸﾚｾﾝ2
 10
317.56823667901489
 20
199.2875791220886
 30
0.0
 11
317.56823667901489
 21
184.2875791220884
 31
0.0
  0
LINE
  5
33A2
  8
ｶｸﾚｾﾝ2
 10
409.56827667901462
 20
199.2875791220886
 30
0.0
 11
409.56827667901462
 21
184.2875791220884
 31
0.0
  0
LINE
  5
33A4
  8
AM_0
 10
308.56823667901477
 20
184.2875791220884
 30
0.0
 11
335.56823667901477
 21
184.2875791220884
 31
0.0
  0
LINE
  5
33A5
  8
AM_0
 10
335.56823667901477
 20
184.2875791220884
 30
0.0
 11
335.56823667901477
 21
184.2875791220884
 31
0.0
  0
LINE
  5
33A6
  8
AM_0
 10
391.56827667901462
 20
184.2875791220884
 30
0.0
 11
391.56827667901462
 21
184.2875791220884
 31
0.0
  0
LINE
  5
33A7
  8
AM_0
 10
336.56822667901503
 20
185.28757812208869
 30
0.0
 11
390.56822667901491
 21
185.28757812208869
 31
0.0
  0
LINE
  5
33A8
  8
AM_0
 10
345.481106679015
 20
235.82693112208881
 30
0.0
 11
339.03032667901488
 21
201.72990012208871
 31
0.0
  0
LINE
  5
33A9
  8
AM_0
 10
299.06822667901503
 20
215.58758112208861
 30
0.0
 11
325.56830667901488
 21
215.58758112208861
 31
0.0
  0
LINE
  5
33AA
  8
AM_0
 10
299.06822667901503
 20
203.5875961220888
 30
0.0
 11
321.29510667901491
 21
202.81141212208871
 31
0.0
  0
LINE
  5
33AB
  8
AM_0
 10
310.56830667901488
 20
199.2875791220886
 30
0.0
 11
336.08258667901492
 21
199.2875791220886
 31
0.0
  0
ARC
  5
33AC
  8
AM_0
 10
287.23700667901483
 20
204.8861491220888
 30
0.0
 40
3.0
 50
13.61892500000102
 51
88.000000000002899
  0
ARC
  5
33AD
  8
AM_0
 10
293.06822667901491
 20
206.2989451220887
 30
0.0
 40
3.0
 50
193.61892999999921
 51
268.0000000000029
  0
LINE
  5
33AE
  8
AM_0
 10
292.96355667901491
 20
203.30076312208851
 30
0.0
 11
299.06822667901503
 21
203.0875831220886
 31
0.0
  0
ARC
  5
33AF
  8
AM_0
 10
310.56830667901488
 20
197.28759312208871
 30
0.0
 40
2.00000007
 50
90.00000299999769
 51
180.00001000000091
  0
LINE
  5
33B0
  8
AM_0
 10
290.06822667901503
 20
215.58758112208861
 30
0.0
 11
299.06822667901503
 21
215.58758112208861
 31
0.0
  0
ARC
  5
33B1
  8
AM_0
 10
287.06822667901503
 20
210.4067971220887
 30
0.0
 40
3.0
 50
0.0
 51
45.00000100000149
  0
ARC
  5
33B2
  8
AM_0
 10
333.56822667901503
 20
207.54360612208879
 30
0.0
 40
2.00000007
 50
270.0
 51
0.0
  0
LINE
  5
33B3
  8
AM_0
 10
327.56822667901503
 20
205.54360512208871
 30
0.0
 11
333.56822667901503
 21
205.54360512208871
 31
0.0
  0
ARC
  5
33B4
  8
AM_0
 10
322.56830667901488
 20
199.57029312208871
 30
0.0
 40
3.0
 50
0.0
 51
79.999998000001099
  0
ARC
  5
33B5
  8
AM_0
 10
321.19043667901491
 20
199.81326012208851
 30
0.0
 40
3.0
 50
79.999998000001099
 51
88.000000000002899
  0
LINE
  5
33B6
  8
AM_0
 10
321.71129667901488
 20
202.7676811220885
 30
0.0
 11
323.08922667901481
 21
202.52471412208871
 31
0.0
  0
ARC
  5
33B7
  8
AM_0
 10
327.56822667901503
 20
203.54362212208861
 30
0.0
 40
2.00000007
 50
90.00000299999769
 51
180.00001000000091
  0
ARC
  5
33B8
  8
AM_0
 10
336.08258667901492
 20
202.2875791220886
 30
0.0
 40
3.0
 50
270.0
 51
349.28687999999892
  0
LINE
  5
33B9
  8
AM_0
 10
299.06822667901503
 20
229.9396651220886
 30
0.0
 11
325.56830667901488
 21
229.9396651220886
 31
0.0
  0
LINE
  5
33BA
  8
AM_0
 10
290.06822667901503
 20
229.9392361220886
 30
0.0
 11
299.06822667901503
 21
229.9392361220886
 31
0.0
  0
ARC
  5
33BB
  8
AM_0
 10
340.56827667901462
 20
236.75640612208869
 30
0.0
 40
5.0000001000000003
 50
349.28687999999892
 51
0.0
  0
ARC
  5
33BC
  8
AM_0
 10
390.56822667901491
 20
204.28758012208871
 30
0.0
 40
5.0000001000000003
 50
179.999989999999
 51
270.0
  0
ARC
  5
33BD
  8
AM_0
 10
398.56823667901477
 20
216.90089112208869
 30
0.0
 40
5.0000001000000003
 50
270.0
 51
0.0
  0
LINE
  5
33BE
  8
AM_0
 10
385.56827667901462
 20
211.90087512208851
 30
0.0
 11
398.56823667901477
 21
211.90087512208851
 31
0.0
  0
LINE
  5
33C0
  8
AM_0
 10
86.568236679014817
 20
357.6875691220888
 30
0.0
 11
212.0682366790148
 21
357.68756912208869
 31
0.0
  0
LINE
  5
33C1
  8
ﾁｭｳｼﾝｾﾝ1
 10
324.08141667901492
 20
292.08756912208872
 30
0.0
 11
65.920288067715319
 21
292.08756912208872
 31
0.0
  0
LINE
  5
33C2
  8
AM_0
 10
83.896964356674843
 20
349.49088261334191
 30
0.0
 11
80.739509001355017
 21
346.68425563083559
 31
0.0
  0
LINE
  5
33C3
  8
AM_0
 10
69.068236679014831
 20
309.08756912208872
 30
0.0
 11
69.068236679014831
 21
275.08756912208872
 31
0.0
  0
LINE
  5
33C4
  8
AM_0
 10
72.068236679014831
 20
272.08756912208872
 30
0.0
 11
78.780871480057044
 21
272.08756912208872
 31
0.0
  0
LINE
  5
33C5
  8
AM_0
 10
72.068236679014831
 20
312.08756912208872
 30
0.0
 11
78.780871480057044
 21
312.08756912208872
 31
0.0
  0
ARC
  5
33C6
  8
AM_0
 10
72.068236679014831
 20
309.08756912208872
 30
0.0
 40
3.0
 50
90.0
 51
180.0
1001
GENIUS_GENOBJ-N-FIL_13
1002
{
1000
OWNER
1000
GEN
1002
}
1001
GENIUS_GENODEF_13
1002
{
1000
HIER
1070
     0
1002
}
1002
{
1000
MANEDIT
1070
     0
1002
}
1002
{
1000
NOSEL
1070
     0
1002
}
1002
{
1000
BEHIND
1070
     0
1002
}
1002
{
1000
OTHER
1070
     0
1002
}
1002
{
1000
REACTOR
1002
}
  0
ARC
  5
33C7
  8
AM_0
 10
82.068236679014831
 20
345.18943699346812
 30
0.0
 40
2.0
 50
131.63353933656751
 51
180.0
1001
GENIUS_GENODEF_13
1002
{
1000
HIER
1070
     0
1002
}
1002
{
1000
MANEDIT
1070
     0
1002
}
1002
{
1000
NOSEL
1070
     0
1002
}
1002
{
1000
BEHIND
1070
     0
1002
}
1002
{
1000
OTHER
1070
     0
1002
}
1002
{
1000
REACTOR
1002
}
1001
GENIUS_GENOBJ-N-FIL_13
1002
{
1000
OWNER
1000
GEN
1002
}
  0
LINE
  5
33C8
  8
AM_0
 10
90.068236679014845
 20
317.08756912208872
 30
0.0
 11
90.068236679014845
 21
273.08756912208872
 31
0.0
  0
LINE
  5
33C9
  8
AM_0
 10
148.0682366790148
 20
317.08756912208872
 30
0.0
 11
148.0682366790148
 21
273.08756912208872
 31
0.0
  0
LINE
  5
33CA
  8
AM_0
 10
91.068236679014831
 20
272.08756912208872
 30
0.0
 11
147.0682366790148
 21
272.08756912208872
 31
0.0
  0
ARC
  5
33CB
  8
AM_0
 10
91.068236679014831
 20
273.08756912208872
 30
0.0
 40
1.0
 50
180.0
 51
270.0
1001
GENIUS_GENOBJ-N-FIL_13
1002
{
1000
OWNER
1000
GEN
1002
}
1001
GENIUS_GENODEF_13
1002
{
1000
HIER
1070
     0
1002
}
1002
{
1000
MANEDIT
1070
     0
1002
}
1002
{
1000
NOSEL
1070
     0
1002
}
1002
{
1000
BEHIND
1070
     0
1002
}
1002
{
1000
OTHER
1070
     0
1002
}
1002
{
1000
REACTOR
1002
}
  0
ARC
  5
33CC
  8
AM_0
 10
147.0682366790148
 20
273.08756912208872
 30
0.0
 40
1.0
 50
270.0
 51
0.0
1001
GENIUS_GENOBJ-N-FIL_13
1002
{
1000
OWNER
1000
GEN
1002
}
1001
GENIUS_GENODEF_13
1002
{
1000
HIER
1070
     0
1002
}
1002
{
1000
MANEDIT
1070
     0
1002
}
1002
{
1000
NOSEL
1070
     0
1002
}
1002
{
1000
BEHIND
1070
     0
1002
}
1002
{
1000
OTHER
1070
     0
1002
}
1002
{
1000
REACTOR
1002
}
  0
LINE
  5
33CD
  8
AM_0
 10
106.5682366790148
 20
326.08756912208872
 30
0.0
 11
118.5682366790148
 21
326.08756912208872
 31
0.0
1001
GENIUS_GENOREF_13
1005
3492
  0
LINE
  5
33CE
  8
AM_0
 10
91.068236679014831
 20
318.08756912208872
 30
0.0
 11
147.0682366790148
 21
318.08756912208872
 31
0.0
1001
GENIUS_GENOREF_13
1005
3492
  0
ARC
  5
33CF
  8
AM_0
 10
91.068236679014831
 20
317.08756912208872
 30
0.0
 40
1.0
 50
90.0
 51
180.0
1001
GENIUS_GENODEF_13
1002
{
1000
HIER
1070
     0
1002
}
1002
{
1000
MANEDIT
1070
     0
1002
}
1002
{
1000
NOSEL
1070
     0
1002
}
1002
{
1000
BEHIND
1070
     0
1002
}
1002
{
1000
OTHER
1070
     0
1002
}
1002
{
1000
REACTOR
1002
}
1001
GENIUS_GENOBJ-N-FIL_13
1002
{
1000
OWNER
1000
GEN
1002
}
  0
ARC
  5
33D0
  8
AM_0
 10
106.5682366790148
 20
324.08756912208872
 30
0.0
 40
2.0
 50
90.0
 51
180.0
1001
GENIUS_GENOBJ-N-FIL_13
1002
{
1000
OWNER
1000
GEN
1002
}
1001
GENIUS_GENODEF_13
1002
{
1000
HIER
1070
     0
1002
}
1002
{
1000
MANEDIT
1070
     0
1002
}
1002
{
1000
NOSEL
1070
     0
1002
}
1002
{
1000
BEHIND
1070
     0
1002
}
1002
{
1000
OTHER
1070
     0
1002
}
1002
{
1000
REACTOR
1002
}
  0
LINE
  5
33D1
  8
AM_0
 10
108.5682366790148
 20
326.08756912208872
 30
0.0
 11
108.5682366790148
 21
318.08756912208872
 31
0.0
  0
LINE
  5
33D2
  8
AM_0
 10
104.5682366790148
 20
324.08756912208872
 30
0.0
 11
104.5682366790148
 21
318.08756912208872
 31
0.0
  0
LINE
  5
33D3
  8
AM_0N
 10
112.31573667901471
 20
321.83506912208861
 30
0.0
 11
111.0896414842438
 21
321.83506912208861
 31
0.0
1001
GENIUS_GENOREF_13
1005
0
  0
LINE
  5
33D4
  8
AM_0N
 10
112.31573667901471
 20
322.34006912208872
 30
0.0
 11
111.0896414842438
 21
322.34006912208872
 31
0.0
1001
GENIUS_GENOREF_13
1005
0
  0
LINE
  5
33D5
  8
AM_0N
 10
111.0896414842438
 20
321.83506912208861
 30
0.0
 11
111.0896414842438
 21
322.34006912208872
 31
0.0
1001
GENIUS_GENOREF_13
1005
0
  0
LINE
  5
33D6
  8
AM_0N
 10
112.31573667901471
 20
323.56616431685973
 30
0.0
 11
112.8207366790149
 21
323.56616431685973
 31
0.0
1001
GENIUS_GENOREF_13
1005
0
  0
LINE
  5
33D7
  8
AM_0N
 10
114.04683187378591
 20
321.83506912208861
 30
0.0
 11
114.04683187378591
 21
322.34006912208872
 31
0.0
1001
GENIUS_GENOREF_13
1005
0
  0
LINE
  5
33D8
  8
AM_0N
 10
112.31573667901471
 20
320.60897392731761
 30
0.0
 11
112.8207366790149
 21
320.60897392731761
 31
0.0
1001
GENIUS_GENOREF_13
1005
0
  0
LINE
  5
33D9
  8
AM_0N
 10
112.8207366790149
 20
321.83506912208861
 30
0.0
 11
112.8207366790149
 21
320.60897392731761
 31
0.0
1001
GENIUS_GENOREF_13
1005
0
  0
LINE
  5
33DA
  8
AM_0N
 10
112.31573667901471
 20
321.83506912208861
 30
0.0
 11
112.31573667901471
 21
320.60897392731761
 31
0.0
1001
GENIUS_GENOREF_13
1005
0
  0
LINE
  5
33DB
  8
AM_0N
 10
114.04683187378591
 20
321.83506912208861
 30
0.0
 11
112.8207366790149
 21
321.83506912208861
 31
0.0
1001
GENIUS_GENOREF_13
1005
0
  0
LINE
  5
33DC
  8
AM_0N
 10
114.04683187378591
 20
322.34006912208872
 30
0.0
 11
112.8207366790149
 21
322.34006912208872
 31
0.0
1001
GENIUS_GENOREF_13
1005
0
  0
LINE
  5
33DD
  8
AM_0N
 10
112.31573667901471
 20
323.56616431685973
 30
0.0
 11
112.31573667901471
 21
322.34006912208872
 31
0.0
1001
GENIUS_GENOREF_13
1005
0
  0
LINE
  5
33DE
  8
AM_0N
 10
112.8207366790149
 20
323.56616431685973
 30
0.0
 11
112.8207366790149
 21
322.34006912208872
 31
0.0
1001
GENIUS_GENOREF_13
1005
0
  0
CIRCLE
  5
33DF
  8
AM_0N
 10
112.5682366790148
 20
322.08756912208872
 30
0.0
 40
2.799999999999998
1001
GENIUS_GENOREF_13
1005
0
  0
ARC
  5
33E0
  8
AM_0
 10
82.568236679014845
 20
350.98570125070921
 30
0.0
 40
2.0
 50
311.63353933656748
 51
0.0
1001
GENIUS_GENOBJ-N-FIL_13
1002
{
1000
OWNER
1000
GEN
1002
}
1001
GENIUS_GENODEF_13
1002
{
1000
HIER
1070
     0
1002
}
1002
{
1000
MANEDIT
1070
     0
1002
}
1002
{
1000
NOSEL
1070
     0
1002
}
1002
{
1000
BEHIND
1070
     0
1002
}
1002
{
1000
OTHER
1070
     0
1002
}
1002
{
1000
REACTOR
1002
}
  0
ARC
  5
33E1
  8
AM_0
 10
86.568236679014817
 20
355.6875691220888
 30
0.0
 40
2.0
 50
90.0
 51
180.0
1001
GENIUS_GENOBJ-N-FIL_13
1002
{
1000
OWNER
1000
GEN
1002
}
1001
GENIUS_GENODEF_13
1002
{
1000
HIER
1070
     0
1002
}
1002
{
1000
MANEDIT
1070
     0
1002
}
1002
{
1000
NOSEL
1070
     0
1002
}
1002
{
1000
BEHIND
1070
     0
1002
}
1002
{
1000
OTHER
1070
     0
1002
}
1002
{
1000
REACTOR
1002
}
  0
LINE
  5
33E2
  8
AM_0
 10
116.5682366790148
 20
326.08756912208872
 30
0.0
 11
116.5682366790148
 21
318.08756912208872
 31
0.0
  0
ARC
  5
33E3
  8
AM_0
 10
118.5682366790148
 20
324.08756912208872
 30
0.0
 40
2.0
 50
0.0
 51
90.0
1001
GENIUS_GENOBJ-N-FIL_13
1002
{
1000
OWNER
1000
GEN
1002
}
1001
GENIUS_GENODEF_13
1002
{
1000
HIER
1070
     0
1002
}
1002
{
1000
MANEDIT
1070
     0
1002
}
1002
{
1000
NOSEL
1070
     0
1002
}
1002
{
1000
BEHIND
1070
     0
1002
}
1002
{
1000
OTHER
1070
     0
1002
}
1002
{
1000
REACTOR
1002
}
  0
LINE
  5
33E4
  8
AM_0
 10
120.5682366790148
 20
324.08756912208872
 30
0.0
 11
120.5682366790148
 21
318.08756912208872
 31
0.0
  0
ARC
  5
33E5
  8
AM_0
 10
147.0682366790148
 20
317.08756912208872
 30
0.0
 40
1.0
 50
0.0
 51
90.0
1001
GENIUS_GENODEF_13
1002
{
1000
HIER
1070
     0
1002
}
1002
{
1000
MANEDIT
1070
     0
1002
}
1002
{
1000
NOSEL
1070
     0
1002
}
1002
{
1000
BEHIND
1070
     0
1002
}
1002
{
1000
OTHER
1070
     0
1002
}
1002
{
1000
REACTOR
1002
}
1001
GENIUS_GENOBJ-N-FIL_13
1002
{
1000
OWNER
1000
GEN
1002
}
  0
LINE
  5
33E6
  8
AM_0
 10
255.56822667901491
 20
284.14756512208862
 30
0.0
 11
290.06822667901503
 21
284.14756512208862
 31
0.0
  0
LINE
  5
33E7
  8
AM_0
 10
252.7513466790148
 20
343.16198712208848
 30
0.0
 11
289.92314667901491
 21
330.8214571220887
 31
0.0
  0
LINE
  5
33E8
  8
AM_0
 10
254.7078866790149
 20
324.15122712208853
 30
0.0
 11
288.13805667901482
 21
325.31864712208852
 31
0.0
  0
LINE
  5
33E9
  8
AM_0
 10
212.0682366790148
 20
358.08756912208878
 30
0.0
 11
223.5682366790148
 21
358.08756912208878
 31
0.0
  0
LINE
  5
33EA
  8
AM_0
 10
250.56830667901491
 20
344.0264071220887
 30
0.0
 11
250.56830667901491
 21
289.14756612208862
 31
0.0
  0
ARC
  5
33EB
  8
AM_0
 10
255.56822667901491
 20
289.14756612208862
 30
0.0
 40
5.0000001000000003
 50
179.999989999999
 51
270.0
  0
ARC
  5
33EC
  8
AM_0
 10
246.568226679015
 20
344.0264071220887
 30
0.0
 40
4.000000199999997
 50
0.0
 51
88.000000000002899
  0
LINE
  5
33ED
  8
AM_0
 10
230.5682366790148
 20
338.08760712208868
 30
0.0
 11
250.56830667901491
 21
338.08760712208868
 31
0.0
  0
LINE
  5
33EE
  8
AM_0
 10
230.5682366790148
 20
324.02456712208868
 30
0.0
 11
250.56830667901491
 21
324.02456712208868
 31
0.0
  0
LINE
  5
33EF
  8
AM_0
 10
230.5682366790148
 20
348.58760712208868
 30
0.0
 11
246.70781667901491
 21
348.02396712208861
 31
0.0
  0
LINE
  5
33F0
  8
AM_0
 10
223.5682366790148
 20
358.08756912208878
 30
0.0
 11
230.5682366790148
 21
355.08756912208878
 31
0.0
  0
ARC
  5
33F1
  8
AM_0
 10
254.5682366790148
 20
328.1488171220887
 30
0.0
 40
4.000000199999997
 50
179.999989999999
 51
271.99999000000139
  0
ARC
  5
33F2
  8
AM_0
 10
254.01164667901489
 20
346.95824712208878
 30
0.0
 40
4.000000199999997
 50
201.498549999998
 51
251.63458000000199
  0
POLYLINE
  5
33F3
  8
AM_0
 66
     1
 10
0.0
 20
0.0
 30
0.0
  0
VERTEX
  5
33F4
  8
AM_0
 10
375.64724667901498
 20
309.46631712208853
 30
0.0
 42
0.032705835
  0
VERTEX
  5
33F5
  8
AM_0
 10
373.70111667901477
 20
310.21481712208868
 30
0.0
 42
0.01681415
  0
VERTEX
  5
33F6
  8
AM_0
 10
371.69030667901512
 20
310.77701712208852
 30
0.0
 42
0.010836085
  0
VERTEX
  5
33F7
  8
AM_0
 10
369.65087667901503
 20
311.22986712208848
 30
0.0
 42
0.0078631803
  0
VERTEX
  5
33F8
  8
AM_0
 10
367.59650667901502
 20
311.60699712208873
 30
0.0
 42
0.0061455578
  0
VERTEX
  5
33F9
  8
AM_0
 10
365.53223667901489
 20
311.92685712208862
 30
0.0
 42
0.0050541122
  0
VERTEX
  5
33FA
  8
AM_0
 10
363.46061667901489
 20
312.20078712208868
 30
0.0
 42
0.0043145918
  0
VERTEX
  5
33FB
  8
AM_0
 10
361.38287667901483
 20
312.43610712208869
 30
0.0
 42
0.0037843028
  0
VERTEX
  5
33FC
  8
AM_0
 10
359.30369667901488
 20
312.63764712208882
 30
0.0
 42
0.0034034912
  0
VERTEX
  5
33FD
  8
AM_0
 10
357.21968667901501
 20
312.80951712208861
 30
0.0
 42
0.0031173967
  0
VERTEX
  5
33FE
  8
AM_0
 10
355.1331866790149
 20
312.95426712208882
 30
0.0
 42
0.0029018773
  0
VERTEX
  5
33FF
  8
AM_0
 10
353.0450966790147
 20
313.07390712208871
 30
0.0
 42
0.0027404573
  0
VERTEX
  5
3400
  8
AM_0
 10
350.95577667901489
 20
313.1700271220887
 30
0.0
 42
0.0026217022
  0
VERTEX
  5
3401
  8
AM_0
 10
348.86546667901479
 20
313.24373712208848
 30
0.0
 42
0.0025380412
  0
VERTEX
  5
3402
  8
AM_0
 10
346.77449667901482
 20
313.29590712208869
 30
0.0
 42
0.0024845591
  0
VERTEX
  5
3403
  8
AM_0
 10
344.68307667901479
 20
313.3270471220888
 30
0.0
 42
0.0024584448
  0
VERTEX
  5
3404
  8
AM_0
 10
342.59138667901482
 20
313.33757712208848
 30
0.0
  0
SEQEND
  5
3405
  8
AM_0
  0
POLYLINE
  5
3406
  8
AM_0
 66
     1
 10
0.0
 20
0.0
 30
0.0
  0
VERTEX
  5
3407
  8
AM_0
 10
377.56820667901491
 20
307.58756712208873
 30
0.0
 42
0.029628627
  0
VERTEX
  5
3408
  8
AM_0
 10
377.37656667901479
 20
310.81685712208861
 30
0.0
 42
0.029327445
  0
VERTEX
  5
3409
  8
AM_0
 10
376.80686667901489
 20
313.99781712208869
 30
0.0
 42
0.028837102
  0
VERTEX
  5
340A
  8
AM_0
 10
375.87101667901482
 20
317.09354712208869
 30
0.0
 42
0.028139415
  0
VERTEX
  5
340B
  8
AM_0
 10
374.58863667901483
 20
320.06408712208861
 30
0.0
 42
0.027280574
  0
VERTEX
  5
340C
  8
AM_0
 10
372.98615667901498
 20
322.87346712208853
 30
0.0
 42
0.026363447
  0
VERTEX
  5
340D
  8
AM_0
 10
371.09153667901478
 20
325.49588712208862
 30
0.0
 42
0.025439162
  0
VERTEX
  5
340E
  8
AM_0
 10
368.93399667901502
 20
327.91052712208869
 30
0.0
 42
0.024503445
  0
VERTEX
  5
340F
  8
AM_0
 10
366.5475866790149
 20
330.09704712208872
 30
0.0
 42
0.023638826
  0
VERTEX
  5
3410
  8
AM_0
 10
363.96203667901489
 20
332.04416712208871
 30
0.0
 42
0.022857729
  0
VERTEX
  5
3411
  8
AM_0
 10
361.20677667901458
 20
333.74297712208852
 30
0.0
 42
0.02217551
  0
VERTEX
  5
3412
  8
AM_0
 10
358.30970667901482
 20
335.18729712208869
 30
0.0
 42
0.021601182
  0
VERTEX
  5
3413
  8
AM_0
 10
355.29728667901497
 20
336.3729871220886
 30
0.0
 42
0.02113939
  0
VERTEX
  5
3414
  8
AM_0
 10
352.19444667901507
 20
337.29734712208869
 30
0.0
 42
0.020792027
  0
VERTEX
  5
3415
  8
AM_0
 10
349.02503667901482
 20
337.95869712208861
 30
0.0
 42
0.02055944
  0
VERTEX
  5
3416
  8
AM_0
 10
345.81191667901498
 20
338.35610712208847
 30
0.0
 42
0.020441781
  0
VERTEX
  5
3417
  8
AM_0
 10
342.577286679015
 20
338.48909712208882
 30
0.0
  0
SEQEND
  5
3418
  8
AM_0
  0
LINE
  5
3419
  8
AM_0
 10
342.56822667901503
 20
348.08756712208879
 30
0.0
 11
398.69915667901478
 21
346.61774712208847
 31
0.0
  0
LINE
  5
341B
  8
AM_0
 10
299.06822667901503
 20
304.23551712208882
 30
0.0
 11
325.56830667901488
 21
304.23551712208882
 31
0.0
  0
LINE
  5
341C
  8
AM_0
 10
290.06822667901503
 20
304.23590712208852
 30
0.0
 11
299.06822667901503
 21
304.23590712208852
 31
0.0
  0
ARC
  5
341D
  8
AM_0
 10
333.56822667901503
 20
291.75968712208862
 30
0.0
 40
2.00000007
 50
0.0
 51
90.00000299999769
  0
LINE
  5
341E
  8
AM_0
 10
326.48369667901483
 20
293.75968812208862
 30
0.0
 11
333.56822667901503
 21
293.75968812208862
 31
0.0
  0
LINE
  5
341F
  8
AM_0
 10
327.56822667901503
 20
300.23678712208869
 30
0.0
 11
333.56822667901503
 21
300.23678712208869
 31
0.0
  0
ARC
  5
3420
  8
AM_0
 10
327.56822667901503
 20
302.23679712208872
 30
0.0
 40
2.00000007
 50
179.999989999999
 51
270.0
  0
ARC
  5
3421
  8
AM_0
 10
333.56822667901503
 20
298.23680712208852
 30
0.0
 40
2.00000007
 50
0.0
 51
90.00000299999769
  0
LINE
  5
3422
  8
AM_0
 10
299.06822667901503
 20
318.58760712208868
 30
0.0
 11
325.56830667901488
 21
318.58760712208868
 31
0.0
  0
LINE
  5
3423
  8
AM_0
 10
299.06822667901503
 20
330.58757712208848
 30
0.0
 11
321.15539667901493
 21
331.3588771220887
 31
0.0
  0
ARC
  5
3424
  8
AM_0
 10
288.06830667901488
 20
327.3174271220887
 30
0.0
 40
2.00000007
 50
271.9999999999971
 51
0.0
  0
LINE
  5
3425
  8
AM_0
 10
290.06822667901503
 20
318.58760712208868
 30
0.0
 11
299.06822667901503
 21
318.58760712208868
 31
0.0
  0
ARC
  5
3426
  8
AM_0
 10
291.18347667901492
 20
334.61771712208872
 30
0.0
 40
4.000000199999997
 50
251.63458000000199
 51
285.61970000000002
  0
ARC
  5
3427
  8
AM_0
 10
293.06822667901491
 20
327.87623712208853
 30
0.0
 40
3.0
 50
91.999998000000545
 51
180.00001000000091
  0
LINE
  5
3428
  8
AM_0
 10
290.06822667901503
 20
327.87623712208853
 30
0.0
 11
290.06822667901503
 21
327.3174271220887
 31
0.0
  0
LINE
  5
3429
  8
AM_0
 10
292.96355667901491
 20
330.8744071220886
 30
0.0
 11
299.06822667901503
 21
331.0875571220887
 31
0.0
  0
LINE
  5
342A
  8
AM_0
 10
335.56823667901477
 20
345.91178712208853
 30
0.0
 11
335.56823667901477
 21
323.4216871220886
 31
0.0
  0
LINE
  5
342B
  8
AM_0
 10
327.56822667901503
 20
321.42167712208862
 30
0.0
 11
333.56822667901503
 21
321.42167712208862
 31
0.0
  0
ARC
  5
342C
  8
AM_0
 10
327.56822667901503
 20
319.42166712208882
 30
0.0
 40
2.00000007
 50
90.00000299999769
 51
180.00001000000091
  0
ARC
  5
342D
  8
AM_0
 10
322.56830667901488
 20
334.6049071220886
 30
0.0
 40
3.0
 50
279.99999999999852
 51
0.0
  0
ARC
  5
342E
  8
AM_0
 10
320.98088667901487
 20
336.35585712208882
 30
0.0
 40
5.0000001000000003
 50
271.9999999999971
 51
279.99999999999852
  0
LINE
  5
342F
  8
AM_0
 10
321.84911667901491
 20
331.43180712208868
 30
0.0
 11
323.08916667901462
 21
331.65047712208872
 31
0.0
  0
ARC
  5
3430
  8
AM_0
 10
333.56822667901503
 20
323.4216871220886
 30
0.0
 40
2.00000007
 50
270.0
 51
0.0
  0
ARC
  5
3431
  8
AM_0
 10
330.86444667901469
 20
347.92637712208852
 30
0.0
 40
5.0000001000000003
 50
271.9999999999971
 51
343.27365999999847
  0
ARC
  5
3432
  8
AM_0
 10
330.56822667901503
 20
337.90991712208847
 30
0.0
 40
5.0000001000000003
 50
91.999998000000545
 51
180.00001000000091
  0
LINE
  5
3433
  8
AM_0
 10
330.39380667901469
 20
342.90686712208873
 30
0.0
 11
331.03892667901482
 21
342.92942712208873
 31
0.0
  0
ARC
  5
3434
  8
AM_0
 10
337.56830667901488
 20
345.91178712208853
 30
0.0
 40
2.00000007
 50
91.999998000000545
 51
163.27364999999961
  0
LINE
  5
3435
  8
AM_0
 10
342.56822667901503
 20
348.0875971220886
 30
0.0
 11
337.49840667901492
 21
347.91053712208861
 31
0.0
  0
ARC
  5
3436
  8
AM_0
 10
395.56823667901477
 20
311.52089712208868
 30
0.0
 40
10.000000200000001
 50
90.00000299999769
 51
180.00001000000091
  0
LINE
  5
3437
  8
AM_0
 10
377.56820667901491
 20
307.58756712208873
 30
0.0
 11
377.56820667901491
 21
290.28755112208847
 31
0.0
  0
LINE
  5
3438
  8
AM_0
 10
395.56823667901477
 20
321.52085712208873
 30
0.0
 11
403.56827667901439
 21
321.52085712208873
 31
0.0
  0
ARC
  5
3439
  8
AM_0
 10
408.56822667901491
 20
334.91912712208853
 30
0.0
 40
5.0000001000000003
 50
179.999989999999
 51
265.00000000000028
  0
LINE
  5
343A
  8
AM_0
 10
408.13247667901493
 20
329.93813712208862
 30
0.0
 11
412.82972667901481
 21
329.52716712208871
 31
0.0
  0
ARC
  5
343B
  8
AM_0
 10
398.56823667901477
 20
341.61944712208867
 30
0.0
 40
5.0000001000000003
 50
0.0
 51
88.499997000000747
  0
CIRCLE
  5
343E
  8
AM_0
 10
616.4313053136575
 20
290.28758112208868
 30
0.0
 40
29.000001000000001
  0
ARC
  5
343F
  8
AM_0
 10
616.4313053136575
 20
275.28758112208868
 30
0.0
 40
54.000003000000007
 50
0.0
 51
180.00001000000091
  0
LINE
  5
3440
  8
AM_0
 10
556.43133531365743
 20
319.53758712208872
 30
0.0
 11
556.4313053136575
 21
238.0875841220886
 31
0.0
  0
LINE
  5
3441
  8
AM_0
 10
706.43132331365723
 20
199.2875791220886
 30
0.0
 11
698.64017031365745
 21
306.4972771220888
 31
0.0
  0
LINE
  5
3442
  8
AM_0
 10
526.43131131365749
 20
199.2875791220886
 30
0.0
 11
534.22243131365758
 21
306.49730712208873
 31
0.0
  0
LINE
  5
3443
  8
AM_0
 10
418.5682766790145
 20
262.2617311220888
 30
0.0
 11
418.5682766790145
 21
318.31343712208871
 31
0.0
  0
LINE
  5
3444
  8
ﾁｭｳｼﾝｾﾝ1
 10
616.4313053136575
 20
180.7528501220884
 30
0.0
 11
616.4313053136575
 21
354.08753712208852
 31
0.0
  0
LINE
  5
3445
  8
AM_0
 10
562.4313053136575
 20
204.2875951220885
 30
0.0
 11
562.4313053136575
 21
275.28758112208868
 31
0.0
  0
LINE
  5
3446
  8
AM_0
 10
676.43132331365723
 20
238.0875841220886
 30
0.0
 11
676.43132331365723
 21
319.53755712208857
 31
0.0
  0
LINE
  5
3447
  8
AM_0
 10
670.43132331365723
 20
204.2875951220885
 30
0.0
 11
670.43132331365723
 21
275.28758112208868
 31
0.0
  0
LINE
  5
3448
  8
AM_0
 10
526.43134131365741
 20
199.2875791220886
 30
0.0
 11
536.04348531365758
 21
277.0272061220885
 31
0.0
  0
LINE
  5
3449
  8
AM_0
 10
706.43132331365723
 20
199.28759412208839
 30
0.0
 11
696.81915531365735
 21
277.0272061220885
 31
0.0
  0
LINE
  5
344C
  8
AM_0
 10
669.43132431365723
 20
186.28757712208869
 30
0.0
 11
563.43133431365754
 21
186.28757712208869
 31
0.0
  0
LINE
  5
344D
  8
AM_0
 10
559.43130531365728
 20
199.2875791220886
 30
0.0
 11
528.43132131365735
 21
199.2875791220886
 31
0.0
  0
LINE
  5
344E
  8
AM_0
 10
561.4313363136572
 20
184.28759412208851
 30
0.0
 11
526.43131131365749
 21
184.28759412208851
 31
0.0
  0
LINE
  5
344F
  8
AM_0
 10
418.5682766790145
 20
197.28759312208871
 30
0.0
 11
418.5682766790145
 21
184.2875791220884
 31
0.0
  0
LINE
  5
3450
  8
AM_0
 10
526.43131131365749
 20
184.28759412208851
 30
0.0
 11
526.43131131365749
 21
199.2875791220886
 31
0.0
  0
ARC
  5
3451
  8
AM_0
 10
416.56823667901477
 20
197.28759312208871
 30
0.0
 40
2.00000007
 50
0.0
 51
90.00000299999769
  0
ARC
  5
3452
  8
AM_0
 10
417.56822667901503
 20
262.2617311220888
 30
0.0
 40
1.0000000199999981
 50
271.50000000000267
 51
0.0
  0
LINE
  5
3453
  8
AM_0
 10
416.5420466790145
 20
261.23451012208852
 30
0.0
 11
417.59441667901501
 21
261.26206812208852
 31
0.0
  0
ARC
  5
3454
  8
AM_0
 10
528.43132131365735
 20
197.28759312208871
 30
0.0
 40
2.00000007
 50
90.00000299999769
 51
180.00001000000091
  0
ARC
  5
3455
  8
AM_0
 10
563.43133431365754
 20
184.28759412208851
 30
0.0
 40
2.00000007
 50
90.00000299999769
 51
180.00001000000091
  0
LINE
  5
3456
  8
AM_0
 10
561.4313363136572
 20
184.28759412208851
 30
0.0
 11
561.4313363136572
 21
197.28759312208871
 31
0.0
  0
LINE
  5
3457
  8
ﾁｭｳｼﾝｾﾝ1
 10
541.43130231365751
 20
179.28757812208869
 30
0.0
 11
541.43130231365751
 21
204.2875951220885
 31
0.0
  0
LINE
  5
3458
  8
ｶｸﾚｾﾝ2
 10
535.43130231365751
 20
199.2875791220886
 30
0.0
 11
535.43130231365751
 21
184.28759412208851
 31
0.0
  0
LINE
  5
3459
  8
ｶｸﾚｾﾝ2
 10
547.4313053136575
 20
199.2875791220886
 30
0.0
 11
547.4313053136575
 21
184.28759412208851
 31
0.0
  0
LINE
  5
345A
  8
AM_0
 10
579.43132131365735
 20
197.28759312208871
 30
0.0
 11
653.43132231365746
 21
197.28759312208871
 31
0.0
  0
ARC
  5
345B
  8
AM_0
 10
616.4313053136575
 20
238.0875841220886
 30
0.0
 40
60.000002999999992
 50
180.00001000000091
 51
205.8419300000003
  0
ARC
  5
345C
  8
AM_0
 10
557.43133431365766
 20
204.2875951220885
 30
0.0
 40
5.0000001000000003
 50
270.0
 51
0.0
  0
ARC
  5
345D
  8
AM_0
 10
559.43130531365728
 20
197.28759312208871
 30
0.0
 40
2.00000007
 50
0.0
 51
90.00000299999769
  0
ARC
  5
345E
  8
AM_0
 10
579.43132131365735
 20
192.2875951220885
 30
0.0
 40
5.0000001000000003
 50
90.00000299999769
 51
180.00001000000091
  0
ARC
  5
345F
  8
AM_0
 10
569.43133431365766
 20
191.28759312208871
 30
0.0
 40
5.0000001000000003
 50
270.0
 51
0.0
  0
LINE
  5
3460
  8
AM_0
 10
574.4313053136575
 20
191.28759312208871
 30
0.0
 11
574.4313053136575
 21
192.2875951220885
 31
0.0
  0
ARC
  5
3461
  8
AM_0
 10
616.4313053136575
 20
267.08756712208873
 30
0.0
 40
81.000003000000007
 50
265.9727499999974
 51
274.0272500000026
  0
ARC
  5
3462
  8
AM_0
 10
653.43132231365746
 20
192.2875951220885
 30
0.0
 40
5.0000001000000003
 50
0.0
 51
90.00000299999769
  0
ARC
  5
3463
  8
AM_0
 10
663.43132131365735
 20
191.28759312208871
 30
0.0
 40
5.0000001000000003
 50
179.999989999999
 51
270.0
  0
LINE
  5
3464
  8
AM_0
 10
658.43132331365723
 20
191.28759312208871
 30
0.0
 11
658.43132331365723
 21
192.2875951220885
 31
0.0
  0
ARC
  5
3466
  8
AM_0
 10
669.43132431365723
 20
184.28759412208851
 30
0.0
 40
2.00000007
 50
0.0
 51
90.00000299999769
  0
LINE
  5
3467
  8
AM_0
 10
706.43132331365723
 20
184.28759412208851
 30
0.0
 11
706.43132331365723
 21
199.2875791220886
 31
0.0
  0
LINE
  5
3468
  8
AM_0
 10
671.43132231365746
 20
184.28759412208851
 30
0.0
 11
671.43132231365746
 21
197.28759312208871
 31
0.0
  0
LINE
  5
3469
  8
ｶｸﾚｾﾝ2
 10
697.43132331365723
 20
199.2875791220886
 30
0.0
 11
697.43132331365723
 21
184.28759412208851
 31
0.0
  0
LINE
  5
346A
  8
ｶｸﾚｾﾝ2
 10
685.43132331365723
 20
199.2875791220886
 30
0.0
 11
685.43132331365723
 21
184.28759412208851
 31
0.0
  0
LINE
  5
346B
  8
ﾁｭｳｼﾝｾﾝ1
 10
691.43130831365738
 20
179.28757812208869
 30
0.0
 11
691.43130831365738
 21
204.2875951220885
 31
0.0
  0
LINE
  5
346D
  8
AM_0
 10
671.43132231365746
 20
184.28759412208851
 30
0.0
 11
706.43132331365723
 21
184.28759412208851
 31
0.0
  0
ARC
  5
346E
  8
AM_0
 10
616.4313053136575
 20
238.0875841220886
 30
0.0
 40
60.000002999999992
 50
334.15806999999973
 51
0.0
  0
LINE
  5
346F
  8
AM_0
 10
673.43132331365757
 20
199.2875791220886
 30
0.0
 11
704.43132531365745
 21
199.2875791220886
 31
0.0
  0
ARC
  5
3470
  8
AM_0
 10
675.43132431365711
 20
204.2875951220885
 30
0.0
 40
5.0000001000000003
 50
179.999989999999
 51
270.0
  0
ARC
  5
3471
  8
AM_0
 10
673.43132331365757
 20
197.28759312208871
 30
0.0
 40
2.00000007
 50
90.00000299999769
 51
180.00001000000091
  0
ARC
  5
3472
  8
AM_0
 10
704.43132531365745
 20
197.28759312208871
 30
0.0
 40
2.00000007
 50
0.0
 51
90.00000299999769
  0
ARC
  5
3473
  8
AM_0
 10
616.4313053136575
 20
267.08760012208847
 30
0.0
 40
81.000003000000007
 50
7.0485986000011911
 51
172.9514000000006
  0
LINE
  5
3474
  8
AM_0
 10
690.23720031365735
 20
319.4416171220887
 30
0.0
 11
654.67819431365751
 21
338.48909712208882
 31
0.0
  0
LINE
  5
3475
  8
ﾁｭｳｼﾝｾﾝ1
 10
565.27271600328845
 20
290.28758112208868
 30
0.0
 11
667.5898946240261
 21
290.28758112208868
 31
0.0
  0
ARC
  5
3476
  8
AM_0
 10
550.1803883136572
 20
305.33756712208873
 30
0.0
 40
16.000000499999999
 50
118.1761400000037
 51
175.84351000000129
  0
LINE
  5
347A
  8
AM_0
 10
431.56823667901477
 20
307.28762712208868
 30
0.0
 11
463.56827667901462
 21
307.28762712208868
 31
0.0
  0
LINE
  5
347B
  8
AM_0
 10
421.5682766790145
 20
276.28758012208868
 30
0.0
 11
463.56827667901462
 21
276.28758012208868
 31
0.0
  0
LINE
  5
347C
  8
AM_0
 10
421.5682766790145
 20
304.28762712208868
 30
0.0
 11
463.56827667901462
 21
304.28762712208868
 31
0.0
  0
LINE
  5
347D
  8
AM_0
 10
421.5682766790145
 20
305.28758712208872
 30
0.0
 11
421.5682766790145
 21
275.28758112208868
 31
0.0
  0
LINE
  5
347E
  8
AM_0
 10
418.5682766790145
 20
275.28758112208868
 30
0.0
 11
421.5682766790145
 21
275.28758112208868
 31
0.0
  0
LINE
  5
347F
  8
AM_0
 10
431.56823667901477
 20
307.28762712208868
 30
0.0
 11
431.56823667901477
 21
304.28762712208868
 31
0.0
  0
LINE
  5
3480
  8
AM_0
 10
418.5682766790145
 20
305.28758712208872
 30
0.0
 11
421.5682766790145
 21
305.28758712208872
 31
0.0
  0
LINE
  5
3481
  8
AM_0
 10
463.56827667901462
 20
307.28762712208868
 30
0.0
 11
463.56827667901462
 21
276.28758012208868
 31
0.0
  0
ARC
  5
3482
  8
AM_0
 10
417.56822667901503
 20
318.31343712208871
 30
0.0
 40
1.0000000199999981
 50
0.0
 51
88.499997000000747
  0
LINE
  5
3483
  8
AM_0
 10
416.5420466790145
 20
319.34060712208861
 30
0.0
 11
417.59441667901501
 21
319.31306712208868
 31
0.0
  0
LINE
  5
3487
  8
AM_0
 10
542.62545531365765
 20
319.44158712208861
 30
0.0
 11
578.18444931365718
 21
338.4890671220885
 31
0.0
  0
ARC
  5
3488
  8
AM_0
 10
561.4313363136572
 20
319.53755712208857
 30
0.0
 40
5.0000001000000003
 50
136.35948999999979
 51
180.00001000000091
  0
CIRCLE
  5
3489
  8
AM_0
 62
     2
 10
616.4313053136575
 20
290.28758112208868
 30
0.0
 40
4.000000199999997
  0
ARC
  5
348A
  8
AM_0
 10
616.4313053136575
 20
290.28758112208868
 30
0.0
 40
14.000001299999999
 50
106.6015400000023
 51
73.398451999997818
  0
CIRCLE
  5
348B
  8
AM_0
 10
616.4313053136575
 20
290.28758112208868
 30
0.0
 40
3.0
  0
LINE
  5
348C
  8
AM_0
 10
612.43130631365739
 20
300.28757712208869
 30
0.0
 11
620.4312923136572
 21
300.28757712208869
 31
0.0
  0
LINE
  5
348D
  8
AM_0
 10
612.43130631365739
 20
307.28762712208868
 30
0.0
 11
620.4312923136572
 21
307.28762712208868
 31
0.0
  0
LINE
  5
348E
  8
AM_0
 10
612.43130631365739
 20
300.28757712208869
 30
0.0
 11
612.43130631365739
 21
307.28762712208868
 31
0.0
  0
LINE
  5
348F
  8
AM_0
 10
620.4312923136572
 20
300.28757712208869
 30
0.0
 11
620.4312923136572
 21
307.28762712208868
 31
0.0
  0
ARC
  5
3490
  8
AM_0
 10
682.68225531365761
 20
305.33756712208873
 30
0.0
 40
16.000000499999999
 50
4.1564916000008019
 51
61.82385999999628
  0
ARC
  5
3491
  8
AM_0
 10
671.43132231365746
 20
319.53755712208857
 30
0.0
 40
5.0000001000000003
 50
0.0
 51
43.64050000000065
  0
POINT
  5
3492
  8
0
 10
1048.494144510116
 20
545.45481903365635
 30
0.0
1001
GENIUS_GENOLIS_13
1002
{
1000
ENT
1005
0
1005
33CE
1005
33CD
1002
}
1001
GENIUS_GENOENT_13
1002
{
1000
MYREF
1005
3492
1002
}
1002
{
1000
GRP
1005
0
1002
}
1001
GENIUS_GENOBJ-NBEHI-BHB_13
1002
{
1000
OWNER
1000
genbehi
1002
}
1001
GENIUS_GENBH_13
1002
{
1000
FGO
1005
0
1002
}
1001
GENIUS_GENODEF_13
1002
{
1000
HIER
1070
     1
1002
}
1002
{
1000
MANEDIT
1070
     1
1002
}
1002
{
1000
NOSEL
1070
     1
1002
}
1002
{
1000
BEHIND
1070
     0
1002
}
1002
{
1000
OTHER
1070
     1
1002
}
1002
{
1000
REACTOR
1002
}
  0
LINE
  5
3627
  8
AM_0N
 10
104.5682766790145
 20
477.04301602765509
 30
0.0
 11
120.5682766790145
 21
477.04301602765509
 31
0.0
1001
GENIUS_GENOREF_13
1005
0
  0
LINE
  5
3628
  8
AM_0
 10
120.5682766790146
 20
480.59480031937409
 30
0.0
 11
104.5682766790145
 21
480.59480031937409
 31
0.0
1001
GENIUS_GENOREF_13
1005
3661
  0
LINE
  5
3629
  8
AM_0
 10
108.5682766790145
 20
467.73599736614818
 30
0.0
 11
104.5682766790145
 21
467.73599736614818
 31
0.0
  0
LINE
  5
362A
  8
AM_0
 10
146.0682766790145
 20
455.8255940699047
 30
0.0
 11
92.068276679014517
 21
455.82559406990481
 31
0.0
  0
LINE
  5
362B
  8
AM_0
 10
146.0682766790145
 20
459.23319506861151
 30
0.0
 11
92.068276679014517
 21
459.23319506861139
 31
0.0
  0
LINE
  5
362C
  8
AM_0
 10
86.568276679014645
 20
602.48559329884313
 30
0.0
 11
212.06827667901459
 21
602.48559329884301
 31
0.0
  0
LINE
  5
362D
  8
AM_0
 10
80.068276679014659
 20
589.98746117022245
 30
0.0
 11
80.068276679014559
 21
483.78372542746331
 31
0.0
  0
ARC
  5
362E
  8
AM_0
 10
1019.254400488834
 20
536.88559329884265
 30
0.0
 40
940.68612380981915
 50
176.76392470776139
 51
183.2360752922385
  0
LINE
  5
362F
  8
AM_0
 10
87.068276679014659
 20
602.48559329884301
 30
0.0
 11
87.068276679014545
 21
471.2855932988428
 31
0.0
  0
LINE
  5
3630
  8
AM_0
 10
84.568276679014673
 20
600.48559329884313
 30
0.0
 11
84.568276679014673
 21
473.2855932988428
 31
0.0
  0
ARC
  5
3631
  8
AM_0
 10
92.068276679014517
 20
457.8255940699047
 30
0.0
 40
2.0
 50
180.0
 51
270.0
1001
GENIUS_GENOBJ-N-FIL_13
1002
{
1000
OWNER
1000
GEN
1002
}
1001
GENIUS_GENODEF_13
1002
{
1000
HIER
1070
     0
1002
}
1002
{
1000
MANEDIT
1070
     0
1002
}
1002
{
1000
NOSEL
1070
     0
1002
}
1002
{
1000
BEHIND
1070
     0
1002
}
1002
{
1000
OTHER
1070
     0
1002
}
1002
{
1000
REACTOR
1002
}
  0
LINE
  5
3632
  8
AM_0
 10
104.5682766790145
 20
480.59480031937409
 30
0.0
 11
104.5682766790145
 21
467.73599736614818
 31
0.0
  0
LINE
  5
3633
  8
AM_0
 10
86.568276679014645
 20
471.2855932988428
 30
0.0
 11
90.068276679014517
 21
471.2855932988428
 31
0.0
  0
ARC
  5
3634
  8
AM_0
 10
86.568276679014645
 20
473.2855932988428
 30
0.0
 40
2.0
 50
180.0
 51
270.0
1001
GENIUS_GENOBJ-N-FIL_13
1002
{
1000
OWNER
1000
GEN
1002
}
1001
GENIUS_GENODEF_13
1002
{
1000
HIER
1070
     0
1002
}
1002
{
1000
MANEDIT
1070
     0
1002
}
1002
{
1000
NOSEL
1070
     0
1002
}
1002
{
1000
BEHIND
1070
     0
1002
}
1002
{
1000
OTHER
1070
     0
1002
}
1002
{
1000
REACTOR
1002
}
  0
LINE
  5
3635
  8
AM_0
 10
90.068276679014517
 20
474.62662032566391
 30
0.0
 11
90.068276679014517
 21
457.8255940699047
 31
0.0
  0
ARC
  5
3636
  8
AM_0
 10
92.068276679014517
 20
461.23319506861139
 30
0.0
 40
2.0
 50
180.0
 51
270.0
1001
GENIUS_GENODEF_13
1002
{
1000
HIER
1070
     0
1002
}
1002
{
1000
MANEDIT
1070
     0
1002
}
1002
{
1000
NOSEL
1070
     0
1002
}
1002
{
1000
BEHIND
1070
     0
1002
}
1002
{
1000
OTHER
1070
     0
1002
}
1002
{
1000
REACTOR
1002
}
1001
GENIUS_GENOBJ-N-FIL_13
1002
{
1000
OWNER
1000
GEN
1002
}
  0
LINE
  5
3637
  8
AM_0
 10
104.5682766790145
 20
476.62662032566368
 30
0.0
 11
92.068276679014517
 21
476.62662032566368
 31
0.0
  0
ARC
  5
3638
  8
AM_0
 10
92.068276679014517
 20
474.62662032566391
 30
0.0
 40
2.0
 50
90.0
 51
180.0
1001
GENIUS_GENOBJ-N-FIL_13
1002
{
1000
OWNER
1000
GEN
1002
}
1001
GENIUS_GENODEF_13
1002
{
1000
HIER
1070
     0
1002
}
1002
{
1000
MANEDIT
1070
     0
1002
}
1002
{
1000
NOSEL
1070
     0
1002
}
1002
{
1000
BEHIND
1070
     0
1002
}
1002
{
1000
OTHER
1070
     0
1002
}
1002
{
1000
REACTOR
1002
}
  0
ARC
  5
3639
  8
AM_0
 10
82.568276679014659
 20
477.98746117022239
 30
0.0
 40
2.0
 50
0.0
 51
48.36646066343252
1001
GENIUS_GENOBJ-N-FIL_13
1002
{
1000
OWNER
1000
GEN
1002
}
1001
GENIUS_GENODEF_13
1002
{
1000
HIER
1070
     0
1002
}
1002
{
1000
MANEDIT
1070
     0
1002
}
1002
{
1000
NOSEL
1070
     0
1002
}
1002
{
1000
BEHIND
1070
     0
1002
}
1002
{
1000
OTHER
1070
     0
1002
}
1002
{
1000
REACTOR
1002
}
  0
LINE
  5
363A
  8
AM_0
 10
83.897004356674486
 20
479.48227980758969
 30
0.0
 11
80.73954900135476
 21
482.28890679009589
 31
0.0
  0
ARC
  5
363B
  8
AM_0
 10
82.068276679014545
 20
483.78372542746331
 30
0.0
 40
2.0
 50
180.0
 51
228.36646066343241
1001
GENIUS_GENODEF_13
1002
{
1000
HIER
1070
     0
1002
}
1002
{
1000
MANEDIT
1070
     0
1002
}
1002
{
1000
NOSEL
1070
     0
1002
}
1002
{
1000
BEHIND
1070
     0
1002
}
1002
{
1000
OTHER
1070
     0
1002
}
1002
{
1000
REACTOR
1002
}
1001
GENIUS_GENOBJ-N-FIL_13
1002
{
1000
OWNER
1000
GEN
1002
}
  0
LINE
  5
363C
  8
AM_0
 10
69.068276679014673
 20
553.88559329884276
 30
0.0
 11
69.068276679014559
 21
519.88559329884276
 31
0.0
  0
ARC
  5
363D
  8
AM_0
 10
72.068276679014559
 20
519.88559329884276
 30
0.0
 40
3.0
 50
180.0
 51
270.0
1001
GENIUS_GENODEF_13
1002
{
1000
HIER
1070
     0
1002
}
1002
{
1000
MANEDIT
1070
     0
1002
}
1002
{
1000
NOSEL
1070
     0
1002
}
1002
{
1000
BEHIND
1070
     0
1002
}
1002
{
1000
OTHER
1070
     0
1002
}
1002
{
1000
REACTOR
1002
}
1001
GENIUS_GENOBJ-N-FIL_13
1002
{
1000
OWNER
1000
GEN
1002
}
  0
LINE
  5
363E
  8
AM_0
 10
72.068276679014559
 20
516.88559329884276
 30
0.0
 11
78.780911480056758
 21
516.88559329884276
 31
0.0
  0
ARC
  5
363F
  8
AM_0
 10
72.068276679014673
 20
553.88559329884276
 30
0.0
 40
3.0
 50
90.0
 51
180.0
1001
GENIUS_GENOBJ-N-FIL_13
1002
{
1000
OWNER
1000
GEN
1002
}
1001
GENIUS_GENODEF_13
1002
{
1000
HIER
1070
     0
1002
}
1002
{
1000
MANEDIT
1070
     0
1002
}
1002
{
1000
NOSEL
1070
     0
1002
}
1002
{
1000
BEHIND
1070
     0
1002
}
1002
{
1000
OTHER
1070
     0
1002
}
1002
{
1000
REACTOR
1002
}
  0
LINE
  5
3640
  8
AM_0
 10
72.068276679014673
 20
556.88559329884276
 30
0.0
 11
78.780911480056758
 21
556.88559329884276
 31
0.0
  0
ARC
  5
3641
  8
AM_0
 10
86.568276679014645
 20
600.48559329884313
 30
0.0
 40
2.0
 50
90.0
 51
180.0
1001
GENIUS_GENOBJ-N-FIL_13
1002
{
1000
OWNER
1000
GEN
1002
}
1001
GENIUS_GENODEF_13
1002
{
1000
HIER
1070
     0
1002
}
1002
{
1000
MANEDIT
1070
     0
1002
}
1002
{
1000
NOSEL
1070
     0
1002
}
1002
{
1000
BEHIND
1070
     0
1002
}
1002
{
1000
OTHER
1070
     0
1002
}
1002
{
1000
REACTOR
1002
}
  0
ARC
  5
3642
  8
AM_0
 10
82.068276679014673
 20
589.98746117022245
 30
0.0
 40
2.0
 50
131.63353933656751
 51
180.0
1001
GENIUS_GENODEF_13
1002
{
1000
HIER
1070
     0
1002
}
1002
{
1000
MANEDIT
1070
     0
1002
}
1002
{
1000
NOSEL
1070
     0
1002
}
1002
{
1000
BEHIND
1070
     0
1002
}
1002
{
1000
OTHER
1070
     0
1002
}
1002
{
1000
REACTOR
1002
}
1001
GENIUS_GENOBJ-N-FIL_13
1002
{
1000
OWNER
1000
GEN
1002
}
  0
LINE
  5
3643
  8
AM_0
 10
83.897004356674486
 20
594.28890679009612
 30
0.0
 11
80.73954900135476
 21
591.48227980758975
 31
0.0
  0
ARC
  5
3644
  8
AM_0
 10
82.568276679014659
 20
595.78372542746354
 30
0.0
 40
2.0
 50
311.63353933656748
 51
0.0
1001
GENIUS_GENOBJ-N-FIL_13
1002
{
1000
OWNER
1000
GEN
1002
}
1001
GENIUS_GENODEF_13
1002
{
1000
HIER
1070
     0
1002
}
1002
{
1000
MANEDIT
1070
     0
1002
}
1002
{
1000
NOSEL
1070
     0
1002
}
1002
{
1000
BEHIND
1070
     0
1002
}
1002
{
1000
OTHER
1070
     0
1002
}
1002
{
1000
REACTOR
1002
}
  0
LINE
  5
3645
  8
AM_0
 10
212.06827667901459
 20
602.88559329884265
 30
0.0
 11
212.06827667901459
 21
470.88559329884282
 31
0.0
  0
LINE
  5
3646
  8
AM_0
 10
223.56827667901459
 20
602.88559329884265
 30
0.0
 11
223.56827667901459
 21
470.88559329884282
 31
0.0
  0
LINE
  5
3647
  8
AM_0
 10
148.0682766790145
 20
471.28559329884303
 30
0.0
 11
212.06827667901459
 21
471.2855932988428
 31
0.0
  0
ARC
  5
3648
  8
AM_0
 10
146.0682766790145
 20
457.8255940699047
 30
0.0
 40
2.0
 50
270.0
 51
0.0
1001
GENIUS_GENOBJ-N-FIL_13
1002
{
1000
OWNER
1000
GEN
1002
}
1001
GENIUS_GENODEF_13
1002
{
1000
HIER
1070
     0
1002
}
1002
{
1000
MANEDIT
1070
     0
1002
}
1002
{
1000
NOSEL
1070
     0
1002
}
1002
{
1000
BEHIND
1070
     0
1002
}
1002
{
1000
OTHER
1070
     0
1002
}
1002
{
1000
REACTOR
1002
}
  0
LINE
  5
3649
  8
AM_0
 10
146.0682766790145
 20
476.62662032566368
 30
0.0
 11
120.5682766790145
 21
476.62662032566368
 31
0.0
  0
LINE
  5
364A
  8
AM_0
 10
120.5682766790145
 20
480.59480031937397
 30
0.0
 11
120.5682766790146
 21
467.73599736614818
 31
0.0
  0
LINE
  5
364B
  8
AM_3N
  6
AM_ISO02W050X2
 10
114.0682766790145
 20
474.87332002057042
 30
0.0
 11
112.5682766790145
 21
476.76073004912911
 31
0.0
1001
GENIUS_GENOREF_13
1005
0
  0
ARC
  5
364C
  8
AM_0N
 10
112.5682766790145
 20
479.64301602765511
 30
0.0
 40
5.0
 50
246.4528627629243
 51
293.54713723707567
1001
GENIUS_GENOREF_13
1005
0
  0
LINE
  5
364D
  8
AM_0
 10
116.5682766790147
 20
473.0120601646571
 30
0.0
 11
108.5682766790145
 21
473.0120601646571
 31
0.0
  0
LINE
  5
364E
  8
AM_0
 10
108.5682766790145
 20
477.04301602765503
 30
0.0
 11
108.5682766790145
 21
467.73599736614818
 31
0.0
  0
LINE
  5
364F
  8
AM_3N
  6
AM_ISO02W050X2
 10
112.3157766790145
 20
474.649395722706
 30
0.0
 11
112.3157766790145
 21
476.44301602765512
 31
0.0
1001
GENIUS_GENOREF_13
1005
0
  0
LINE
  5
3650
  8
AM_3N
  6
AM_ISO02W050X2
 10
112.8207766790145
 20
474.649395722706
 30
0.0
 11
112.8207766790145
 21
476.44301602765512
 31
0.0
1001
GENIUS_GENOREF_13
1005
0
  0
LINE
  5
3651
  8
AM_3N
  6
AM_ISO02W050X2
 10
111.0682766790145
 20
474.87332002057042
 30
0.0
 11
112.5682766790145
 21
476.76073004912911
 31
0.0
1001
GENIUS_GENOREF_13
1005
0
  0
LINE
  5
3652
  8
AM_3N
  6
AM_ISO02W050X2
 10
112.8207766790145
 20
476.44301602765512
 30
0.0
 11
112.3157766790145
 21
476.44301602765512
 31
0.0
1001
GENIUS_GENOREF_13
1005
0
  0
ARC
  5
3653
  8
AM_0N
 10
111.0501637620243
 20
476.15943551742311
 30
0.0
 40
1.1999999999999991
 50
184.99999999999969
 51
246.4528627629243
1001
GENIUS_GENOREF_13
1005
0
  0
LINE
  5
3654
  8
AM_0N
 10
109.8547301243142
 20
476.05484862612599
 30
0.0
 11
109.76827667901451
 21
477.04301602765509
 31
0.0
1001
GENIUS_GENOREF_13
1005
0
  0
LINE
  5
3655
  8
AM_0
 10
116.5682766790147
 20
477.04301602765509
 30
0.0
 11
116.5682766790147
 21
467.73599736614818
 31
0.0
  0
ARC
  5
3656
  8
AM_0N
 10
114.08638959600481
 20
476.15943551742311
 30
0.0
 40
1.1999999999999991
 50
293.54713723707567
 51
355.00000000000023
1001
GENIUS_GENOREF_13
1005
0
  0
LINE
  5
3657
  8
AM_0N
 10
115.2818232337149
 20
476.05484862612599
 30
0.0
 11
115.3682766790145
 21
477.04301602765509
 31
0.0
1001
GENIUS_GENOREF_13
1005
0
  0
LINE
  5
3658
  8
AM_0
 10
120.5682766790146
 20
467.73599736614818
 30
0.0
 11
116.5682766790147
 21
467.73599736614818
 31
0.0
  0
LINE
  5
3659
  8
AM_0
 10
148.0682766790145
 20
474.62662032566391
 30
0.0
 11
148.0682766790145
 21
457.8255940699047
 31
0.0
  0
ARC
  5
365A
  8
AM_0
 10
146.0682766790145
 20
461.23319506861139
 30
0.0
 40
2.0
 50
270.0
 51
0.0
1001
GENIUS_GENOBJ-N-FIL_13
1002
{
1000
OWNER
1000
GEN
1002
}
1001
GENIUS_GENODEF_13
1002
{
1000
HIER
1070
     0
1002
}
1002
{
1000
MANEDIT
1070
     0
1002
}
1002
{
1000
NOSEL
1070
     0
1002
}
1002
{
1000
BEHIND
1070
     0
1002
}
1002
{
1000
OTHER
1070
     0
1002
}
1002
{
1000
REACTOR
1002
}
  0
ARC
  5
365B
  8
AM_0
 10
146.0682766790145
 20
474.62662032566391
 30
0.0
 40
2.0
 50
0.0
 51
90.0
1001
GENIUS_GENODEF_13
1002
{
1000
HIER
1070
     0
1002
}
1002
{
1000
MANEDIT
1070
     0
1002
}
1002
{
1000
NOSEL
1070
     0
1002
}
1002
{
1000
BEHIND
1070
     0
1002
}
1002
{
1000
OTHER
1070
     0
1002
}
1002
{
1000
REACTOR
1002
}
1001
GENIUS_GENOBJ-N-FIL_13
1002
{
1000
OWNER
1000
GEN
1002
}
  0
LINE
  5
365C
  8
AM_0
 10
212.06827667901459
 20
470.88559329884282
 30
0.0
 11
223.56827667901459
 21
470.88559329884282
 31
0.0
  0
LINE
  5
365D
  8
AM_0
 10
230.56827667901459
 20
473.88559329884282
 30
0.0
 11
223.56827667901459
 21
470.88559329884282
 31
0.0
  0
LINE
  5
365E
  8
AM_0
 10
212.06827667901459
 20
602.88559329884265
 30
0.0
 11
223.56827667901459
 21
602.88559329884265
 31
0.0
  0
LINE
  5
365F
  8
AM_0
 10
223.56827667901459
 20
602.88559329884265
 30
0.0
 11
230.56827667901459
 21
599.88559329884299
 31
0.0
  0
LINE
  5
3660
  8
AM_0
 10
230.56827667901459
 20
599.88559329884265
 30
0.0
 11
230.56827667901459
 21
473.88559329884282
 31
0.0
  0
POINT
  5
3661
  8
0
 10
-55.305961922293882
 20
35.342701039029407
 30
0.0
1001
GENIUS_GENOLIS_13
1002
{
1000
ENT
1005
0
1005
0
1005
0
1005
3628
1002
}
1001
GENIUS_GENOENT_13
1002
{
1000
MYREF
1005
3661
1002
}
1002
{
1000
GRP
1005
0
1002
}
1001
GENIUS_GENOBJ-NBEHI-BHB_13
1002
{
1000
OWNER
1000
genbehi
1002
}
1001
GENIUS_GENBH_13
1002
{
1000
FGO
1005
0
1002
}
1001
GENIUS_GENODEF_13
1002
{
1000
HIER
1070
     1
1002
}
1002
{
1000
MANEDIT
1070
     1
1002
}
1002
{
1000
NOSEL
1070
     1
1002
}
1002
{
1000
BEHIND
1070
     0
1002
}
1002
{
1000
OTHER
1070
     1
1002
}
1002
{
1000
REACTOR
1002
}
  0
TEXT
  5
39EC
  8
AM_0
 10
534.33344182497365
 20
553.58946975196409
 30
0.0
 40
10.0
  1
VX01-240S~VX01-600S
  0
ENDSEC
  0
EOF
