  0
SECTION
  2
HEADER
  9
$ACADVER
  1
AC1009
  9
$INSBASE
 10
0.0
 20
0.0
 30
0.0
  9
$EXTMIN
 10
-36.872412437256571
 20
169.1846671443422
 30
-0.0015258207003583
  9
$EXTMAX
 10
802.5149130688086
 20
731.17965969031252
 30
0.0000000349246037
  9
$LIMMIN
 10
0.0
 20
0.0
  9
$LIMMAX
 10
853.5
 20
555.00000000000011
  9
$ORTHOMODE
 70
     0
  9
$REGENMODE
 70
     1
  9
$FILLMODE
 70
     1
  9
$QTEXTMODE
 70
     0
  9
$MIRRTEXT
 70
     1
  9
$DRAGMODE
 70
     2
  9
$LTSCALE
 40
3.0
  9
$OSMODE
 70
   551
  9
$ATTMODE
 70
     1
  9
$TEXTSIZE
 40
2.5
  9
$TRACEWID
 40
1.0
  9
$TEXTSTYLE
  7
STANDARD
  9
$CLAYER
  8
AM_0
  9
$CELTYPE
  6
BYLAYER
  9
$CECOLOR
 62
   256
  9
$DIMSCALE
 40
1.0
  9
$DIMASZ
 40
2.5
  9
$DIMEXO
 40
1.0
  9
$DIMDLI
 40
8.0
  9
$DIMRND
 40
0.0
  9
$DIMDLE
 40
0.0
  9
$DIMEXE
 40
0.6
  9
$DIMTP
 40
0.1
  9
$DIMTM
 40
0.1
  9
$DIMTXT
 40
2.5
  9
$DIMCEN
 40
0.0
  9
$DIMTSZ
 40
0.0
  9
$DIMTOL
 70
     0
  9
$DIMLIM
 70
     0
  9
$DIMTIH
 70
     0
  9
$DIMTOH
 70
     0
  9
$DIMSE1
 70
     0
  9
$DIMSE2
 70
     0
  9
$DIMTAD
 70
     1
  9
$DIMZIN
 70
     8
  9
$DIMBLK
  1

  9
$DIMASO
 70
     1
  9
$DIMSHO
 70
     1
  9
$DIMPOST
  1

  9
$DIMAPOST
  1
"
  9
$DIMALT
 70
     0
  9
$DIMALTD
 70
     2
  9
$DIMALTF
 40
0.0393701
  9
$DIMLFAC
 40
1.0
  9
$DIMTOFL
 70
     1
  9
$DIMTVP
 40
0.0
  9
$DIMTIX
 70
     0
  9
$DIMSOXD
 70
     0
  9
$DIMSAH
 70
     0
  9
$DIMBLK1
  1

  9
$DIMBLK2
  1

  9
$DIMSTYLE
  2
AM_ISO
  9
$DIMCLRD
 70
   256
  9
$DIMCLRE
 70
   256
  9
$DIMCLRT
 70
     4
  9
$DIMTFAC
 40
0.71
  9
$DIMGAP
 40
0.8
  9
$LUNITS
 70
     2
  9
$LUPREC
 70
     2
  9
$SKETCHINC
 40
1.0
  9
$FILLETRAD
 40
15.0
  9
$AUNITS
 70
     0
  9
$AUPREC
 70
     0
  9
$MENU
  1
.
  9
$ELEVATION
 40
0.0
  9
$PELEVATION
 40
0.0
  9
$THICKNESS
 40
0.0
  9
$LIMCHECK
 70
     0
  9
$BLIPMODE
 70
     0
  9
$CHAMFERA
 40
6.0
  9
$CHAMFERB
 40
3.0
  9
$SKPOLY
 70
     0
  9
$TDCREATE
 40
2452065.666821829
  9
$TDUPDATE
 40
2458541.5658481019
  9
$TDINDWG
 40
0.1419703588
  9
$TDUSRTIMER
 40
0.141970162
  9
$USRTIMER
 70
     1
  9
$ANGBASE
 50
0.0
  9
$ANGDIR
 70
     0
  9
$PDMODE
 70
     0
  9
$PDSIZE
 40
0.0
  9
$PLINEWID
 40
0.0
  9
$COORDS
 70
     1
  9
$SPLFRAME
 70
     0
  9
$SPLINETYPE
 70
     6
  9
$SPLINESEGS
 70
     8
  9
$ATTDIA
 70
     1
  9
$ATTREQ
 70
     1
  9
$HANDLING
 70
     1
  9
$HANDSEED
  5
3BC2
  9
$SURFTAB1
 70
     6
  9
$SURFTAB2
 70
     6
  9
$SURFTYPE
 70
     6
  9
$SURFU
 70
     6
  9
$SURFV
 70
     6
  9
$UCSNAME
  2

  9
$UCSORG
 10
0.0
 20
0.0
 30
0.0
  9
$UCSXDIR
 10
1.0
 20
0.0
 30
0.0
  9
$UCSYDIR
 10
0.0
 20
1.0
 30
0.0
  9
$PUCSNAME
  2

  9
$PUCSORG
 10
0.0
 20
0.0
 30
0.0
  9
$PUCSXDIR
 10
1.0
 20
0.0
 30
0.0
  9
$PUCSYDIR
 10
0.0
 20
1.0
 30
0.0
  9
$USERI1
 70
     0
  9
$USERI2
 70
     0
  9
$USERI3
 70
     0
  9
$USERI4
 70
     0
  9
$USERI5
 70
     0
  9
$USERR1
 40
0.0
  9
$USERR2
 40
0.0
  9
$USERR3
 40
0.0
  9
$USERR4
 40
0.0
  9
$USERR5
 40
0.0
  9
$WORLDVIEW
 70
     1
  9
$SHADEDGE
 70
     3
  9
$SHADEDIF
 70
    70
  9
$TILEMODE
 70
     1
  9
$MAXACTVP
 70
    64
  9
$PLIMCHECK
 70
     0
  9
$PEXTMIN
 10
1.0000000000000000E+020
 20
1.0000000000000000E+020
 30
1.0000000000000000E+020
  9
$PEXTMAX
 10
-1.0000000000000000E+020
 20
-1.0000000000000000E+020
 30
-1.0000000000000000E+020
  9
$PLIMMIN
 10
0.0
 20
0.0
  9
$PLIMMAX
 10
420.0
 20
297.0
  9
$UNITMODE
 70
     0
  9
$VISRETAIN
 70
     1
  9
$PLINEGEN
 70
     0
  9
$PSLTSCALE
 70
     1
  0
ENDSEC
  0
SECTION
  2
TABLES
  0
TABLE
  2
VPORT
 70
     1
  0
VPORT
  2
*ACTIVE
 70
     0
 10
0.0
 20
0.0
 11
1.0
 21
1.0
 12
382.82125031577613
 22
450.18216341732739
 13
0.0
 23
0.0
 14
7.5
 24
7.5
 15
30.0
 25
30.0
 16
0.0
 26
0.0
 36
1.0
 17
0.0
 27
0.0
 37
0.0
 40
565.85308173964961
 41
1.7571592210767459
 42
50.0
 43
0.0
 44
0.0
 50
0.0
 51
0.0
 71
     0
 72
   100
 73
     1
 74
     3
 75
     0
 76
     0
 77
     0
 78
     0
  0
ENDTAB
  0
TABLE
  2
LTYPE
 70
    20
  0
LTYPE
  2
CONTINUOUS
 70
     0
  3
Solid line
 72
    65
 73
     0
 40
0.0
  0
LTYPE
  2
AM_ISO02W050
 70
     0
  3
__ __ __ __ __ __ __ __ __ __ __ __ __ __ __
 72
    65
 73
     2
 40
7.5
 49
6.0
 49
-1.5
  0
LTYPE
  2
AM_ISO08W050
 70
     0
  3
____ . ____ . ____ . ____ . ____ . ____ . ____
 72
    65
 73
     4
 40
18.0
 49
12.0
 49
-1.5
 49
3.0
 49
-1.5
  0
LTYPE
  2
AM_ISO09W050
 70
     0
  3
_____ . . _____ . . _____ . . ____ .. ____
 72
    65
 73
     6
 40
22.5
 49
12.0
 49
-1.5
 49
3.0
 49
-1.5
 49
3.0
 49
-1.5
  0
LTYPE
  2
AMCONSTR
 70
     0
  3
_______________________
 72
    65
 73
     2
 40
9999.0
 49
9999.0
 49
0.0
  0
LTYPE
  2
AM_ISO08W050X2
 70
     0
  3
__ . __ . __ . __ . __ . __
 72
    65
 73
     4
 40
9.0
 49
6.0
 49
-0.75
 49
1.5
 49
-0.75
  0
LTYPE
  2
AM_ISO02W050X2
 70
     0
  3
 _ _ _ _ _ _ _ _ _ _ _ _
 72
    65
 73
     2
 40
3.75
 49
3.0
 49
-0.75
  0
LTYPE
  2
AMZIGZAG
 70
     0
  3
/\/-/\/-/\/-/\/-/\/-/\/
 72
    65
 73
     2
 40
11.0001
 49
0.0001
 49
-11.0
  0
LTYPE
  2
CENTER
 70
     0
  3
__ . __
 72
    65
 73
     4
 40
7.0
 49
4.0
 49
-1.0
 49
1.0
 49
-1.0
  0
LTYPE
  2
PHANTOM2
 70
     0
  3
Phantom (.5x) ___ _ _ ___ _ _ ___ _ _ ___ _ _
 72
    65
 73
     6
 40
31.75
 49
15.875
 49
-3.174999999999998
 49
3.174999999999998
 49
-3.174999999999998
 49
3.174999999999998
 49
-3.174999999999998
  0
LTYPE
  2
GEN3B
 70
     0
  3
 - - - - -
 72
    65
 73
     2
 40
1.0
 49
0.5
 49
-0.5
  0
LTYPE
  2
GEN7A
 70
     0
  3
__ . __ . __
 72
    65
 73
     4
 40
7.375
 49
4.75
 49
-0.875
 49
0.875
 49
-0.875
  0
LTYPE
  2
GEN7
 70
     0
  3
____ . ____ . ____ . ____ . ____ . ____ . ____
 72
    65
 73
     4
 40
14.25
 49
9.75
 49
-1.5
 49
1.5
 49
-1.5
  0
LTYPE
  2
HIDDEN
 70
     0
  3
Hidden __ __ __ __ __ __ __ __ __ __ __ __ __ _
 72
    65
 73
     2
 40
9.5249999999999986
 49
6.349999999999997
 49
-3.174999999999998
  0
LTYPE
  2
CENTER2
 70
     0
  3
Center (.5x) ___ _ ___ _ ___ _ ___ _ ___ _ ___
 72
    65
 73
     4
 40
1.125
 49
0.75
 49
-0.125
 49
0.125
 49
-0.125
  0
LTYPE
  2
HIDDEN2
 70
     0
  3
Hidden (.5x) _ _ _ _ _ _ _ _ _ _ _ _ _ _ _ _ _
 72
    65
 73
     2
 40
0.1875
 49
0.125
 49
-0.0625
  0
LTYPE
  2
AMZIGZAG2
 70
     0
  3
/\/-/\/-/\/-/\/-/\/-/\/
 72
    65
 73
     2
 40
0.4401
 49
0.0001
 49
-0.4400000000000001
  0
LTYPE
  2
ACANSTGB
 70
     0
  3
__ . . __ . .
 72
    65
 73
     6
 40
0.35433070866
 49
0.15748031496
 49
-0.03937007874
 49
0.03937007874
 49
-0.03937007874
 49
0.03937007874
 49
-0.03937007874
  0
LTYPE
  2
ACANSTGL
 70
     0
  3
_ _ _ _ _
 72
    65
 73
     2
 40
0.11811023622
 49
0.07874015748
 49
-0.03937007874
  0
ENDTAB
  0
TABLE
  2
LAYER
 70
    10
  0
LAYER
  2
0
 70
     0
 62
     7
  6
CONTINUOUS
  0
LAYER
  2
AM_0
 70
     0
 62
     7
  6
CONTINUOUS
  0
LAYER
  2
DEFPOINTS
 70
     0
 62
     7
  6
CONTINUOUS
  0
LAYER
  2
ｶｸﾚｾﾝ2
 70
     0
 62
     3
  6
GEN3B
  0
LAYER
  2
ﾁｭｳｼﾝｾﾝ1
 70
     0
 62
     1
  6
GEN7A
  0
LAYER
  2
ｽﾝﾎ_ｳｾﾝ
 70
     0
 62
     2
  6
CONTINUOUS
  0
LAYER
  2
ﾁｭｳｼﾝｾﾝ
 70
     0
 62
     1
  6
GEN7
  0
LAYER
  2
AM_0N
 70
     0
 62
     7
  6
CONTINUOUS
  0
LAYER
  2
AM_4
 70
     0
 62
     2
  6
CONTINUOUS
  0
LAYER
  2
AM_3N
 70
     0
 62
     3
  6
AM_ISO02W050
  0
ENDTAB
  0
TABLE
  2
STYLE
 70
     5
  0
STYLE
  2
STANDARD
 70
     0
 40
0.0
 41
0.8299999999999999
 50
0.0
 71
     0
 42
2.5
  3
txt.shx
  4
bigfont.shx
  0
STYLE
  2
ANNOTATIVE
 70
     0
 40
0.0
 41
1.0
 50
0.0
 71
     0
 42
0.2
  3
txt
  4

  0
STYLE
  2

 70
     1
 40
0.0
 41
1.0
 50
0.0
 71
     0
 42
2.5
  3
genltshp.shx
  4

  0
STYLE
  2
ACANSTS
 70
     0
 40
0.0
 41
1.0
 50
0.0
 71
     0
 42
2.5
  3
romans.shx
  4
extfont.shx
  0
STYLE
  2
ACANSGDT
 70
     0
 40
0.0
 41
1.0
 50
0.0
 71
     0
 42
2.5
  3
amgdt.shx
  4

  0
ENDTAB
  0
TABLE
  2
VIEW
 70
     6
  0
VIEW
  2
AM_VIEW1
 70
     0
 40
277.50000000000011
 10
249.64779005524869
 20
416.24999999999989
 41
499.2955801104971
 11
0.0
 21
0.0
 31
1.0
 12
0.0
 22
0.0
 32
0.0
 42
50.0
 43
0.0
 44
0.0
 50
0.0
 71
     0
  0
VIEW
  2
AM_VIEW2
 70
     0
 40
277.50000000000011
 10
603.85220994475117
 20
416.24999999999989
 41
499.2955801104971
 11
0.0
 21
0.0
 31
1.0
 12
0.0
 22
0.0
 32
0.0
 42
50.0
 43
0.0
 44
0.0
 50
0.0
 71
     0
  0
VIEW
  2
AM_VIEW3
 70
     0
 40
277.50000000000011
 10
249.64779005524869
 20
138.75
 41
499.2955801104971
 11
0.0
 21
0.0
 31
1.0
 12
0.0
 22
0.0
 32
0.0
 42
50.0
 43
0.0
 44
0.0
 50
0.0
 71
     0
  0
VIEW
  2
AM_VIEW4
 70
     0
 40
277.50000000000011
 10
603.85220994475117
 20
138.75
 41
499.2955801104971
 11
0.0
 21
0.0
 31
1.0
 12
0.0
 22
0.0
 32
0.0
 42
50.0
 43
0.0
 44
0.0
 50
0.0
 71
     0
  0
VIEW
  2
AM_VIEW5
 70
     0
 40
277.50000000000011
 10
426.75
 20
277.50000000000011
 41
499.2955801104971
 11
0.0
 21
0.0
 31
1.0
 12
0.0
 22
0.0
 32
0.0
 42
50.0
 43
0.0
 44
0.0
 50
0.0
 71
     0
  0
VIEW
  2
AM_VIEW6
 70
     0
 40
554.99445000000014
 10
426.75
 20
277.5
 41
998.5811743093924
 11
0.0
 21
0.0
 31
1.0
 12
0.0
 22
0.0
 32
0.0
 42
50.0
 43
0.0
 44
0.0
 50
0.0
 71
     0
  0
ENDTAB
  0
TABLE
  2
UCS
 70
     0
  0
ENDTAB
  0
TABLE
  2
APPID
 70
    97
  0
APPID
  2
ACAD
 70
     0
  0
APPID
  2
ACADANNOTATIVE
 70
     0
  0
APPID
  2
MCAD_NO_VIS
 70
     0
  0
APPID
  2
ACAD_TEMP_GRAPHIC
 70
     0
  0
APPID
  2
ACATTRIBSERVICES
 70
     0
  0
APPID
  2
GENIUS_GENREC_14
 70
     0
  0
APPID
  2
GENIUS_GENOBJ-N-REC_13
 70
     0
  0
APPID
  2
GENIUS_GENODEF_13
 70
     0
  0
APPID
  2
GENIUS_GENOLIS_13
 70
     0
  0
APPID
  2
GENIUS_GENOBJ-N-TIT_13
 70
     0
  0
APPID
  2
GENIUS_GENOENT_13
 70
     0
  0
APPID
  2
GENIUS_GENTITLE_13
 70
     0
  0
APPID
  2
GENIUS_GENOREF_13
 70
     0
  0
APPID
  2
GENIUS_GENSCREG_15
 70
     0
  0
APPID
  2
GENIUS_GENOBJ-N-SDF_13
 70
     0
  0
APPID
  2
GENIUS_GENFIL_13
 70
     0
  0
APPID
  2
GENIUS_GENOBJ-N-CHA_13
 70
     0
  0
APPID
  2
GENIUS_GENDTOL_13
 70
     0
  0
APPID
  2
GENIUS_GENOBJ-N-FIL_13
 70
     0
  0
APPID
  2
AD_DRAW
 70
     0
  0
APPID
  2
DESIGNERASSEMBLIES
 70
     0
  0
APPID
  2
ASURF_PCURVE_APPNAME
 70
     0
  0
APPID
  2
GENIUS_GE3SECT_13
 70
     0
  0
APPID
  2
GENIUS_GENCFG_13
 70
     0
  0
APPID
  2
GENIUS_GE3CFG0_13
 70
     0
  0
APPID
  2
GENIUS_GENCFG0_13
 70
     0
  0
APPID
  2
GENIUS_GENCFG1_13
 70
     0
  0
APPID
  2
GENIUS_GENCFG2_13
 70
     0
  0
APPID
  2
GENIUS_GENCFG3_13
 70
     0
  0
APPID
  2
GENIUS_GENCFG4_13
 70
     0
  0
APPID
  2
GENIUS_GEVCFG0_13
 70
     0
  0
APPID
  2
GENIUS_GENHINW_13
 70
     0
  0
APPID
  2
GENIUS_FIRSTVISTXT_14
 70
     0
  0
APPID
  2
GENIUS_GENOBJ-N-LEADER_13
 70
     0
  0
APPID
  2
GEV_VCCNULL_SWITCH_OFF
 70
     0
  0
APPID
  2
GENIUS_GEFCFG0_13
 70
     0
  0
APPID
  2
GENIUS_GENZVEED_13
 70
     0
  0
APPID
  2
GENIUS_GENSCREG_13
 70
     0
  0
APPID
  2
GENIUS_DUMCFG0_13
 70
     0
  0
APPID
  2
GEVID936201362
 70
     0
  0
APPID
  2
GEVDC
 70
     0
  0
APPID
  2
GEVCON
 70
     0
  0
APPID
  2
VCC
 70
     0
  0
APPID
  2
GEVPT
 70
     0
  0
APPID
  2
GEVIT
 70
     0
  0
APPID
  2
GENBH
 70
     0
  0
APPID
  2
GEVMK
 70
     0
  0
APPID
  2
GENIUS_GENBH_13
 70
     0
  0
APPID
  2
GENIUS_GENOBJ-NBEHI-BHF_13
 70
     0
  0
APPID
  2
GENIUS_GENOBJ-NBEHI-BHB_13
 70
     0
  0
APPID
  2
GENIUS_GENOBJ-F-DESC_13
 70
     0
  0
APPID
  2
GENIUS_GEFDESC_14
 70
     0
  0
APPID
  2
GENIUS_GENOBJ-F-PART_13
 70
     0
  0
APPID
  2
GENIUS_GEFSTDP_13
 70
     0
  0
APPID
  2
GENIUS_GEFPARTINS_13
 70
     0
  0
APPID
  2
GENIUS_GENTRA_14
 70
     0
  0
APPID
  2
GENIUS_GENINF13_13
 70
     0
  0
APPID
  2
GENIUS_GENOBJ-N-INFOPT_13
 70
     0
  0
APPID
  2
GENIUS_GENOBJ-N-RSSYM_13
 70
     0
  0
APPID
  2
GENIUS_GENSYMENT_13
 70
     0
  0
APPID
  2
GENIUS_GENSCSYM_13
 70
     0
  0
APPID
  2
GENIUS_GEFINFNAM_13
 70
     0
  0
APPID
  2
GENIUS_GENOBJ-N-CEN_13
 70
     0
  0
APPID
  2
GENIUS_GENOBJ-N-CRS_13
 70
     0
  0
APPID
  2
GENIUS_GENOBJ-N-CRC_13
 70
     0
  0
APPID
  2
GENIUS_GENCRC_14
 70
     0
  0
APPID
  2
GEVID942827039
 70
     0
  0
APPID
  2
GEVID942827040
 70
     0
  0
APPID
  2
GEVID942827041
 70
     0
  0
APPID
  2
GENIUS_GENOBJ-F-SCPASSM_13
 70
     0
  0
APPID
  2
GENIUS_GENDIMSH_14
 70
     0
  0
APPID
  2
GEVID942827042
 70
     0
  0
APPID
  2
GEVID946020473
 70
     0
  0
APPID
  2
GEVID946020474
 70
     0
  0
APPID
  2
GEVID946020475
 70
     0
  0
APPID
  2
GENIUS_GENOBJ-N-HTC_13
 70
     0
  0
APPID
  2
GENIUS_GENHATCH_13
 70
     0
  0
APPID
  2
GEVID948854295
 70
     0
  0
APPID
  2
GEVID939402019
 70
     0
  0
APPID
  2
GEVID952919491
 70
     0
  0
APPID
  2
GEVID952919492
 70
     0
  0
APPID
  2
GENIUS_GEFWELD_13
 70
     0
  0
APPID
  2
GENIUS_GENOBJ-F-WELS_13
 70
     0
  0
APPID
  2
GEVID952919493
 70
     0
  0
APPID
  2
GENIUS_GENOBJ-N-RSBK_13
 70
     0
  0
APPID
  2
GENIUS_GENOBJ-N-LIB_13
 70
     0
  0
APPID
  2
GENIUS_GENSCALE_13
 70
     0
  0
APPID
  2
GEVID986376691
 70
     0
  0
APPID
  2
DCO15
 70
     0
  0
APPID
  2
ACADM_DIM_EDIT
 70
     0
  0
APPID
  2
AMDT_DM_ADJ
 70
     0
  0
APPID
  2
ACAD_DSTYLE_DIMJAG
 70
     0
  0
APPID
  2
ACAD_DSTYLE_DIMBREAK
 70
     0
  0
APPID
  2
ACAD_NAV_VCDISPLAY
 70
     0
  0
APPID
  2
ACADANNOPO
 70
     0
  0
APPID
  2
ACAD_EXEMPT_FROM_CAD_STANDARDS
 70
     0
  0
APPID
  2
ACAD_MLEADERVER
 70
     0
  0
ENDTAB
  0
TABLE
  2
DIMSTYLE
 70
     9
  0
DIMSTYLE
  2
STANDARD
 70
     0
  3

  4

  5

  6

  7

 40
1.0
 41
0.18
 42
0.0625
 43
0.38
 44
0.18
 45
0.0
 46
0.0
 47
0.0
 48
0.0
140
0.18
141
0.09
142
0.0
143
25.399999999999999
144
1.0
145
0.0
146
1.0
147
0.09
 71
     0
 72
     0
 73
     1
 74
     1
 75
     0
 76
     0
 77
     0
 78
     0
170
     0
171
     2
172
     0
173
     0
174
     0
175
     0
176
     0
177
     0
178
     0
  0
DIMSTYLE
  2
ANNOTATIVE
 70
     0
  3

  4

  5

  6

  7

 40
1.0
 41
0.18
 42
0.0625
 43
0.38
 44
0.18
 45
0.0
 46
0.0
 47
0.0
 48
0.0
140
0.18
141
0.09
142
0.0
143
25.399999999999999
144
1.0
145
0.0
146
1.0
147
0.09
 71
     0
 72
     0
 73
     1
 74
     1
 75
     0
 76
     0
 77
     0
 78
     0
170
     0
171
     2
172
     0
173
     0
174
     0
175
     0
176
     0
177
     0
178
     0
  0
DIMSTYLE
  2
AM_ISO
 70
     0
  3

  4
"
  5

  6

  7

 40
1.0
 41
2.5
 42
1.0
 43
8.0
 44
0.6
 45
0.0
 46
0.0
 47
0.1
 48
0.1
140
2.5
141
0.0
142
0.0
143
0.0393701
144
1.0
145
0.0
146
0.71
147
0.8
 71
     0
 72
     0
 73
     0
 74
     0
 75
     0
 76
     0
 77
     1
 78
     8
170
     0
171
     2
172
     1
173
     0
174
     0
175
     0
176
   256
177
   256
178
     4
  0
DIMSTYLE
  2
AM_ANSI
 70
     0
  3

  4
mm
  5

  6

  7

 40
1.0
 41
0.12
 42
0.05
 43
0.5
 44
0.1
 45
0.0
 46
0.0
 47
0.1
 48
0.1
140
0.12
141
0.0
142
0.0
143
25.399999999999999
144
1.0
145
0.0
146
0.71
147
0.06
 71
     0
 72
     0
 73
     1
 74
     1
 75
     0
 76
     0
 77
     0
 78
     7
170
     0
171
     2
172
     0
173
     0
174
     0
175
     0
176
   256
177
   256
178
     2
  0
DIMSTYLE
  2
AM_ANSI$3
 70
     0
  3

  4
mm
  5

  6

  7

 40
1.0
 41
0.12
 42
0.05
 43
0.5
 44
0.1
 45
0.0
 46
0.0
 47
0.1
 48
0.1
140
0.12
141
0.0
142
0.0
143
25.399999999999999
144
1.0
145
0.0
146
0.71
147
0.06
 71
     0
 72
     0
 73
     1
 74
     1
 75
     0
 76
     0
 77
     0
 78
     7
170
     0
171
     2
172
     0
173
     0
174
     0
175
     0
176
   256
177
   256
178
     2
  0
DIMSTYLE
  2
AM_ANSI$4
 70
     0
  3

  4
mm
  5

  6

  7

 40
1.0
 41
0.12
 42
0.05
 43
0.5
 44
0.1
 45
0.0
 46
0.0
 47
0.1
 48
0.1
140
0.12
141
0.0
142
0.0
143
25.399999999999999
144
1.0
145
0.0
146
0.71
147
0.06
 71
     0
 72
     0
 73
     1
 74
     1
 75
     0
 76
     0
 77
     0
 78
     7
170
     0
171
     2
172
     0
173
     0
174
     0
175
     0
176
   256
177
   256
178
     2
  0
DIMSTYLE
  2
AM_ANSI$7
 70
     0
  3

  4
mm
  5

  6

  7

 40
1.0
 41
0.12
 42
0.05
 43
0.5
 44
0.1
 45
0.0
 46
0.0
 47
0.1
 48
0.1
140
0.12
141
0.0
142
0.0
143
25.399999999999999
144
1.0
145
0.0
146
0.71
147
0.06
 71
     0
 72
     0
 73
     1
 74
     1
 75
     0
 76
     0
 77
     0
 78
     7
170
     0
171
     2
172
     0
173
     0
174
     0
175
     0
176
   256
177
   256
178
     2
  0
DIMSTYLE
  2
AM_ANSI$SF
 70
     0
  3

  4
mm
  5

  6

  7

 40
1.0
 41
0.12
 42
0.05
 43
0.5
 44
0.1
 45
0.0
 46
0.0
 47
0.1
 48
0.1
140
0.12
141
0.0
142
0.0
143
25.399999999999999
144
1.0
145
0.0
146
0.71
147
0.06
 71
     0
 72
     0
 73
     1
 74
     1
 75
     1
 76
     1
 77
     0
 78
     7
170
     0
171
     2
172
     0
173
     0
174
     0
175
     0
176
   256
177
   256
178
     2
  0
DIMSTYLE
  2
AM_ANSI$SH
 70
     0
  3

  4
mm
  5

  6
GENAXEH
  7

 40
1.0
 41
0.12
 42
0.05
 43
0.5
 44
0.1
 45
0.0
 46
0.0
 47
0.1
 48
0.1
140
0.12
141
0.0
142
0.0
143
25.399999999999999
144
1.0
145
0.0
146
0.71
147
0.06
 71
     0
 72
     0
 73
     1
 74
     1
 75
     1
 76
     1
 77
     0
 78
     7
170
     0
171
     2
172
     0
173
     1
174
     0
175
     0
176
   256
177
   256
178
     2
  0
ENDTAB
  0
ENDSEC
  0
SECTION
  2
BLOCKS
  0
BLOCK
  8
0
  2
$MODEL_SPACE
 70
     0
 10
0.0
 20
0.0
 30
0.0
  3
$MODEL_SPACE
  1

  0
ENDBLK
  5
3A53
  8
0
  0
BLOCK
 67
     1
  8
0
  2
$PAPER_SPACE
 70
     0
 10
0.0
 20
0.0
 30
0.0
  3
$PAPER_SPACE
  1

  0
ENDBLK
  5
3A4F
 67
     1
  8
0
  0
BLOCK
  8
0
  2
*U2
 70
     1
 10
0.0
 20
0.0
 30
0.0
  3
*U2
  1

  0
TEXT
  5
38A2
  8
AM_0
 10
581.34497256136251
 20
130.69888333701621
 30
0.0
 40
14.0
  1
VX01-K20S
 41
0.8299999999999999
  0
ENDBLK
  5
38A4
  8
0
  0
BLOCK
  8
0
  2
GENAXEH
 70
     0
 10
0.0
 20
0.0
 30
0.0
  3
GENAXEH
  1

  0
LINE
  5
3B23
  8
0
 10
-1.0
 20
0.0
 30
0.0
 11
1.0
 21
0.0
 31
0.0
  0
ENDBLK
  5
3B25
  8
0
  0
BLOCK
  8
0
  2
_ACMFILLEDHALF
 70
     0
 10
0.0
 20
0.0
 30
0.0
  3
_ACMFILLEDHALF
  1

  0
TRACE
  5
3B33
  8
AM_0
 62
     0
 10
-0.8
 20
0.0
 30
0.0
 11
-1.0
 21
0.166666666
 31
0.0
 12
0.0
 22
0.0
 32
0.0
 13
0.0
 23
0.0
 33
0.0
  0
LINE
  5
3B34
  8
AM_0
 62
     0
 10
-1.0
 20
0.0
 30
0.0
 11
-0.8
 21
0.0
 31
0.0
  0
ENDBLK
  5
3B32
  8
0
  0
ENDSEC
  0
SECTION
  2
ENTITIES
  0
LINE
  5
2980
  8
0
 10
365.54889912194358
 20
621.17017900553947
 30
0.0
 11
410.54889912194352
 21
621.17017900553947
 31
0.0
  0
LINE
  5
2981
  8
0
 10
365.54889912194358
 20
611.17023900553943
 30
0.0
 11
410.54889912194352
 21
611.17023900553943
 31
0.0
  0
LINE
  5
2982
  8
0
 10
410.54889912194352
 20
600.17023900553943
 30
0.0
 11
352.5489291219435
 21
600.17023900553943
 31
0.0
  0
LINE
  5
2983
  8
0
 10
410.54889912194352
 20
632.17017900553935
 30
0.0
 11
352.5489291219435
 21
632.17017900553935
 31
0.0
  0
LINE
  5
2984
  8
ﾁｭｳｼﾝｾﾝ1
 10
-36.867861884214548
 20
616.1702090055395
 30
0.0
 11
418.46173912194331
 21
616.1702090055395
 31
0.0
  0
LINE
  5
2985
  8
0
 10
129.5488691219436
 20
648.13184900553961
 30
0.0
 11
175.3678391219436
 21
648.13184900553961
 31
0.0
  0
LINE
  5
2986
  8
0
 10
129.5488691219436
 20
662.17053900553935
 30
0.0
 11
179.8379291219436
 21
662.17053900553935
 31
0.0
  0
LINE
  5
2987
  8
0
 10
186.17246912194349
 20
674.14758900553943
 30
0.0
 11
129.5488691219436
 21
672.17023900553943
 31
0.0
  0
LINE
  5
2988
  8
0
 10
129.5488691219436
 20
560.1702090055395
 30
0.0
 11
186.17240912194359
 21
558.19284900553953
 31
0.0
  0
LINE
  5
2989
  8
0
 10
129.5488691219436
 20
570.16989900553949
 30
0.0
 11
179.8379291219436
 21
570.16989900553949
 31
0.0
  0
LINE
  5
298A
  8
0
 10
129.5488691219436
 20
584.20853900553948
 30
0.0
 11
175.3678391219436
 21
584.20853900553948
 31
0.0
  0
ARC
  5
2B52
  8
0
 10
365.54889912194358
 20
616.1702090055395
 30
0.0
 40
4.9999924
 50
90.000003000000945
 51
270.0
  0
LINE
  5
2B53
  8
0
 10
159.5488691219436
 20
606.1702090055395
 30
0.0
 11
159.5488691219436
 21
626.17020900553928
 31
0.0
  0
LINE
  5
2B54
  8
0
 10
189.0488691219436
 20
555.67020900553916
 30
0.0
 11
189.0488691219436
 21
676.67017900553935
 31
0.0
  0
LINE
  5
2B55
  8
0
 10
198.0488691219436
 20
552.6702090055395
 30
0.0
 11
198.0488691219436
 21
679.67017900553935
 31
0.0
  0
LINE
  5
2B56
  8
0
 10
320.54892912194362
 20
546.96344900553959
 30
0.0
 11
320.54892912194362
 21
685.37695900553945
 31
0.0
  0
LINE
  5
2B57
  8
0
 10
365.5489291219435
 20
611.17023900553943
 30
0.0
 11
365.5489291219435
 21
621.17017900553947
 31
0.0
  0
LINE
  5
2B58
  8
0
 10
352.5489291219435
 20
598.67023900553943
 30
0.0
 11
352.5489291219435
 21
633.67023900553943
 31
0.0
  0
LINE
  5
2B59
  8
0
 10
348.54889912194358
 20
616.1702090055395
 30
0.0
 11
348.54889912194358
 21
643.4381790055395
 31
0.0
  0
LINE
  5
2B5A
  8
0
 10
198.0488691219436
 20
679.67017900553935
 30
0.0
 11
198.0488691219436
 21
552.67014900553943
 31
0.0
  0
LINE
  5
2B5B
  8
0
 10
225.5488691219436
 20
518.95081900553953
 30
0.0
 11
225.5488691219436
 21
713.38959900553948
 31
0.0
  0
LINE
  5
2B5C
  8
0
 10
210.54886912194371
 20
544.24127900553958
 30
0.0
 11
210.54886912194371
 21
688.09912900553945
 31
0.0
  0
LINE
  5
2B5D
  8
0
 10
341.54892912194362
 20
555.06683900553946
 30
0.0
 11
341.54892912194362
 21
677.27356900553934
 31
0.0
  0
LINE
  5
2B5E
  8
0
 10
235.54886912194371
 20
516.6702090055395
 30
0.0
 11
235.54886912194371
 21
715.67017900553935
 31
0.0
  0
POLYLINE
  5
2B5F
  8
0
 66
     1
 10
0.0
 20
0.0
 30
0.0
  0
VERTEX
  5
2B60
  8
0
 10
235.54886912194371
 20
538.75342900553949
 30
0.0
 42
0.040442845
  0
VERTEX
  5
2B61
  8
0
 10
247.07705912194351
 20
538.9767690055395
 30
0.0
 42
0.04246989
  0
VERTEX
  5
2B62
  8
0
 10
258.41076912194359
 20
541.09024900553959
 30
0.0
 42
0.022672802
  0
VERTEX
  5
2B63
  8
0
 10
263.89526912194361
 20
542.88119900553943
 30
0.0
  0
VERTEX
  5
2B64
  8
0
 10
269.20087912194361
 20
545.15005900553945
 30
0.0
 42
-1.0
  0
SEQEND
  5
2B65
  8
0
  0
POLYLINE
  5
2B66
  8
0
 66
     1
 10
0.0
 20
0.0
 30
0.0
  0
VERTEX
  5
2B67
  8
0
 10
235.54886912194371
 20
585.8937790055395
 30
0.0
 42
-0.070055462
  0
VERTEX
  5
2B68
  8
0
 10
261.90953912194362
 20
565.69643900553945
 30
0.0
 42
-0.27110597
  0
VERTEX
  5
2B69
  8
0
 10
270.54889912194358
 20
545.8130890055395
 30
0.0
 42
-0.2130317
  0
VERTEX
  5
2B6A
  8
0
 10
250.9584391219436
 20
527.67827900553948
 30
0.0
  0
VERTEX
  5
2B6B
  8
0
 10
235.54886912194371
 20
521.38001900553945
 30
0.0
 42
-1.0
  0
SEQEND
  5
2B6C
  8
0
  0
LINE
  5
2B6D
  8
0
 10
241.54892912194359
 20
501.17020900553962
 30
0.0
 11
344.68851912194361
 21
504.77191900553947
 31
0.0
  0
CIRCLE
  5
2B6E
  8
0
 10
205.54886912194371
 20
521.17020900553939
 30
0.0
 40
7.5
  0
LINE
  5
2B6F
  8
0
 10
187.5488691219436
 20
533.63165900553952
 30
0.0
 11
187.5488691219436
 21
509.55991900553931
 31
0.0
  0
LINE
  5
2B70
  8
ﾁｭｳｼﾝｾﾝ1
 10
205.54886912194371
 20
534.67020900553962
 30
0.0
 11
205.54886912194371
 21
507.67020900553962
 31
0.0
  0
LINE
  5
2B71
  8
0
 10
191.20029912194349
 20
505.5751490055394
 30
0.0
 11
241.54892912194359
 21
501.17020900553962
 31
0.0
  0
ARC
  5
2B72
  8
0
 10
191.5488691219436
 20
509.55991900553931
 30
0.0
 40
4.0
 50
180.00001000000091
 51
265.00001000000037
  0
LINE
  5
2B73
  8
0
 10
227.4790491219436
 20
516.95200900553959
 30
0.0
 11
235.54886912194371
 21
516.6702090055395
 31
0.0
  0
LINE
  5
2B74
  8
0
 10
226.81040912194351
 20
508.48258900553952
 30
0.0
 11
235.20035912194351
 21
507.74857900553928
 31
0.0
  0
ARC
  5
2B75
  8
0
 10
226.54886912194371
 20
505.49399900553948
 30
0.0
 40
3.0
 50
85.000004000000885
 51
265.0
  0
ARC
  5
2B76
  8
0
 10
227.5488691219436
 20
518.95081900553953
 30
0.0
 40
2.0
 50
179.999989999999
 51
268.00000999999861
  0
ARC
  5
2B77
  8
0
 10
235.54886912194371
 20
511.73334900553931
 30
0.0
 40
4.0
 50
265.00001000000037
 51
0.0000006832495047
  0
LINE
  5
2B78
  8
0
 10
239.54886912194371
 20
516.6702090055395
 30
0.0
 11
239.54886912194371
 21
506.80170900553958
 31
0.0
  0
ARC
  5
2B79
  8
0
 10
234.5488691219436
 20
506.80170900553958
 30
0.0
 40
5.0
 50
265.00001000000037
 51
0.0000006832495047
  0
LINE
  5
2B7A
  8
0
 10
235.54886912194371
 20
516.6702090055395
 30
0.0
 11
239.54886912194371
 21
516.6702090055395
 31
0.0
  0
LINE
  5
2B7B
  8
0
 10
198.04892912194359
 20
552.67014900553943
 30
0.0
 11
205.72336912194359
 21
552.4021990055395
 31
0.0
  0
LINE
  5
2B7C
  8
0
 10
198.0488691219436
 20
564.13019900553945
 30
0.0
 11
210.54886912194371
 21
564.13019900553945
 31
0.0
  0
LINE
  5
2B7D
  8
0
 10
198.0488691219436
 20
579.02020900553941
 30
0.0
 11
210.54886912194371
 21
579.02020900553941
 31
0.0
  0
LINE
  5
2B7E
  8
ﾁｭｳｼﾝｾﾝ1
 10
192.0488691219436
 20
521.17020900553939
 30
0.0
 11
219.04886912194371
 21
521.17020900553939
 31
0.0
  0
LINE
  5
2B7F
  8
0
 10
190.51371912194361
 20
537.49530900553953
 30
0.0
 11
210.72885912194349
 21
542.9119690055395
 31
0.0
  0
POLYLINE
  5
2B80
  8
0
 66
     1
 10
0.0
 20
0.0
 30
0.0
  0
VERTEX
  5
2B81
  8
0
 10
186.98019912194351
 20
562.78957900553939
 30
0.0
  0
VERTEX
  5
2B82
  8
0
 10
181.4367691219436
 20
570.63178900553953
 30
0.0
 42
-1.0
  0
SEQEND
  5
2B83
  8
0
  0
ARC
  5
2B84
  8
0
 10
191.5488691219436
 20
533.63165900553952
 30
0.0
 40
4.0
 50
105.0000000000007
 51
180.00001000000091
  0
ARC
  5
2B85
  8
0
 10
179.0488691219436
 20
556.69910900553941
 30
0.0
 40
10.0
 50
0.0
 51
37.523535999997527
  0
ARC
  5
2B86
  8
0
 10
186.0676691219436
 20
555.19470900553949
 30
0.0
 40
3.0
 50
4.545488300001014
 51
87.999999999999503
  0
LINE
  5
2B87
  8
0
 10
198.0488691219436
 20
552.6702090055395
 30
0.0
 11
192.0488691219436
 21
552.6702090055395
 31
0.0
  0
ARC
  5
2B88
  8
0
 10
192.0488691219436
 20
555.67020900553916
 30
0.0
 40
3.0
 50
180.00001000000091
 51
270.0
  0
LINE
  5
2B89
  8
0
 10
198.0488691219436
 20
564.13019900553945
 30
0.0
 11
189.0488691219436
 21
564.13019900553945
 31
0.0
  0
POLYLINE
  5
2B8A
  8
0
 66
     1
 10
0.0
 20
0.0
 30
0.0
  0
VERTEX
  5
2B8B
  8
0
 10
173.92577912194361
 20
584.20773900553945
 30
0.0
  0
VERTEX
  5
2B8C
  8
0
 10
167.6382291219436
 20
603.16967900553925
 30
0.0
 42
-1.0
  0
SEQEND
  5
2B8D
  8
0
  0
LINE
  5
2B8E
  8
0
 10
162.5488691219436
 20
603.1702090055395
 30
0.0
 11
186.0488691219436
 21
603.1702090055395
 31
0.0
  0
ARC
  5
2B8F
  8
0
 10
162.5488691219436
 20
606.1702090055395
 30
0.0
 40
3.0
 50
180.00001000000091
 51
270.0
  0
POLYLINE
  5
2B90
  8
0
 66
     1
 10
0.0
 20
0.0
 30
0.0
  0
VERTEX
  5
2B91
  8
0
 10
182.3969791219435
 20
574.73561900553966
 30
0.0
 42
-0.0050917014
  0
VERTEX
  5
2B92
  8
0
 10
181.2490591219435
 20
576.65526900553937
 30
0.0
 42
-0.0052112711
  0
VERTEX
  5
2B93
  8
0
 10
180.1409191219436
 20
578.59815900553951
 30
0.0
 42
-0.0053447966
  0
VERTEX
  5
2B94
  8
0
 10
179.0740391219436
 20
580.56400900553945
 30
0.0
 42
-0.0054924736
  0
VERTEX
  5
2B95
  8
0
 10
178.0499991219435
 20
582.55252900553955
 30
0.0
  0
SEQEND
  5
2B96
  8
0
  0
ARC
  5
2B97
  8
0
 10
179.8379291219436
 20
573.16989900553915
 30
0.0
 40
3.0
 50
270.0
 51
31.46020299999925
  0
ARC
  5
2B98
  8
0
 10
175.3678391219436
 20
581.20853900553925
 30
0.0
 40
3.0
 50
26.61499800000183
 51
90.000003000000945
  0
LINE
  5
2B99
  8
0
 10
198.0488691219436
 20
579.02228900553951
 30
0.0
 11
189.0488691219436
 21
579.02228900553951
 31
0.0
  0
ARC
  5
2B9A
  8
0
 10
186.0488691219436
 20
600.1702090055395
 30
0.0
 40
3.0
 50
0.0
 51
90.000003000000945
  0
LINE
  5
2B9B
  8
0
 10
235.54886912194371
 20
538.75342900553949
 30
0.0
 11
225.5488691219436
 21
538.75342900553949
 31
0.0
  0
LINE
  5
2B9C
  8
0
 10
235.54886912194371
 20
521.38001900553945
 30
0.0
 11
225.5488691219436
 21
521.38001900553945
 31
0.0
  0
LINE
  5
2B9D
  8
0
 10
212.01334912194361
 20
540.70575900553945
 30
0.0
 11
224.6702091219436
 21
528.04889900553951
 31
0.0
  0
ARC
  5
2B9E
  8
0
 10
215.5488691219436
 20
544.24127900553958
 30
0.0
 40
5.0
 50
179.999989999999
 51
225.0
  0
ARC
  5
2B9F
  8
0
 10
222.54886912194371
 20
525.92755900553925
 30
0.0
 40
3.0
 50
0.0
 51
44.999998000001611
  0
ARC
  5
2BA0
  8
0
 10
205.54886912194371
 20
547.40524900553953
 30
0.0
 40
5.0
 50
0.0
 51
87.999999999999503
  0
LINE
  5
2BA1
  8
0
 10
235.54886912194371
 20
585.8937790055395
 30
0.0
 11
225.5488691219436
 21
585.8937790055395
 31
0.0
  0
CIRCLE
  5
2BA2
  8
0
 10
330.54892912194362
 20
521.17020900553939
 30
0.0
 40
7.5
  0
LINE
  5
2BA3
  8
0
 10
300.54889912194358
 20
511.51477900553942
 30
0.0
 11
300.54889912194358
 21
526.95661900553955
 31
0.0
  0
LINE
  5
2BA4
  8
0
 10
348.5489291219435
 20
547.17020900553916
 30
0.0
 11
348.5489291219435
 21
508.76947900553949
 31
0.0
  0
LINE
  5
2BA5
  8
ﾁｭｳｼﾝｾﾝ1
 10
330.54892912194362
 20
534.67020900553962
 30
0.0
 11
330.54892912194362
 21
507.67020900553962
 31
0.0
  0
ARC
  5
2BA6
  8
0
 10
308.54889912194358
 20
511.51477900553942
 30
0.0
 40
8.0
 50
180.00001000000091
 51
271.99999000000139
  0
ARC
  5
2BA7
  8
0
 10
344.5489291219435
 20
508.76947900553949
 30
0.0
 40
4.0
 50
272.00000000000051
 51
0.0
  0
ARC
  5
2BA8
  8
0
 10
328.0011391219436
 20
542.8126890055396
 30
0.0
 40
8.0
 50
91.500001000001546
 51
164.96420000000299
  0
LINE
  5
2BA9
  8
ﾁｭｳｼﾝｾﾝ1
 10
317.04892912194362
 20
521.17020900553939
 30
0.0
 11
344.04892912194362
 21
521.17020900553939
 31
0.0
  0
ARC
  5
2BAA
  8
0
 10
312.54892912194362
 20
546.96344900553959
 30
0.0
 40
8.0
 50
271.49999999999937
 51
0.0
  0
ARC
  5
2BAB
  8
0
 10
312.54889912194369
 20
526.95661900553955
 30
0.0
 40
12.0
 50
91.500001000001546
 51
180.00001000000091
  0
LINE
  5
2BAC
  8
0
 10
312.75833912194361
 20
538.9662290055395
 30
0.0
 11
312.23477912194357
 21
538.95252900553942
 31
0.0
  0
ARC
  5
2BAD
  8
0
 10
337.54892912194362
 20
555.06683900553946
 30
0.0
 40
4.0
 50
271.49999999999937
 51
0.0
  0
LINE
  5
2BAE
  8
0
 10
337.65363912194363
 20
551.0682190055395
 30
0.0
 11
327.79175912194353
 21
550.80997900553939
 31
0.0
  0
ARC
  5
2BAF
  8
0
 10
344.5489291219435
 20
547.17020900553916
 30
0.0
 40
4.0
 50
0.0
 51
82.819247000000175
  0
ARC
  5
2BB0
  8
0
 10
345.54892912194362
 20
555.10745900553945
 30
0.0
 40
4.0
 50
180.00001000000091
 51
262.81924999999973
  0
LINE
  5
2BB1
  8
0
 10
348.54889912194358
 20
588.90228900553961
 30
0.0
 11
348.54889912194358
 21
616.1702090055395
 31
0.0
  0
LINE
  5
2BB2
  8
0
 10
343.04886912194371
 20
583.99484900553955
 30
0.0
 11
347.0488691219436
 21
586.30423900553956
 31
0.0
  0
ARC
  5
2BB3
  8
0
 10
344.5489291219435
 20
581.39673900553942
 30
0.0
 40
3.0
 50
120.0000000000005
 51
180.00001000000091
  0
ARC
  5
2BB4
  8
0
 10
345.54889912194358
 20
588.90228900553961
 30
0.0
 40
3.0
 50
300.00001000000083
 51
0.0
  0
LINE
  5
2BB5
  8
0
 10
352.5489291219435
 20
598.67023900553943
 30
0.0
 11
348.54889912194358
 21
598.67023900553943
 31
0.0
  0
POLYLINE
  5
2BB6
  8
0
 66
     1
 10
0.0
 20
0.0
 30
0.0
  0
VERTEX
  5
2BB7
  8
0
 10
235.54886912194371
 20
646.44666900553943
 30
0.0
 42
0.070055443
  0
VERTEX
  5
2BB8
  8
0
 10
261.90953912194362
 20
666.64400900553926
 30
0.0
 42
0.27110593
  0
VERTEX
  5
2BB9
  8
0
 10
270.54889912194358
 20
686.52734900553935
 30
0.0
 42
0.21303199
  0
VERTEX
  5
2BBA
  8
0
 10
250.9584391219436
 20
704.66213900553953
 30
0.0
  0
VERTEX
  5
2BBB
  8
0
 10
235.54886912194371
 20
710.96039900553944
 30
0.0
 42
-1.0
  0
SEQEND
  5
2BBC
  8
0
  0
POLYLINE
  5
2BBD
  8
0
 66
     1
 10
0.0
 20
0.0
 30
0.0
  0
VERTEX
  5
2BBE
  8
0
 10
235.54886912194371
 20
693.58698900553952
 30
0.0
 42
-0.040442832
  0
VERTEX
  5
2BBF
  8
0
 10
247.07704912194359
 20
693.36363900553954
 30
0.0
 42
-0.042469875
  0
VERTEX
  5
2BC0
  8
0
 10
258.41076912194359
 20
691.25015900553944
 30
0.0
 42
-0.022671837
  0
VERTEX
  5
2BC1
  8
0
 10
263.89525912194352
 20
689.45921900553947
 30
0.0
  0
VERTEX
  5
2BC2
  8
0
 10
269.20087912194361
 20
687.1903890055396
 30
0.0
 42
-1.0
  0
SEQEND
  5
2BC3
  8
0
  0
LINE
  5
2BC4
  8
0
 10
241.54892912194359
 20
731.17017900553935
 30
0.0
 11
344.68851912194361
 21
727.56848900553939
 31
0.0
  0
CIRCLE
  5
2BC5
  8
0
 10
205.54886912194371
 20
711.17017900553935
 30
0.0
 40
7.5
  0
LINE
  5
2BC6
  8
ﾁｭｳｼﾝｾﾝ1
 10
205.54886912194371
 20
697.67017900553935
 30
0.0
 11
205.54886912194371
 21
724.67017900553935
 31
0.0
  0
LINE
  5
2BC7
  8
0
 10
187.5488691219436
 20
698.70874900553952
 30
0.0
 11
187.5488691219436
 21
722.78046900553954
 31
0.0
  0
LINE
  5
2BC8
  8
0
 10
198.0488691219436
 20
679.67023900553943
 30
0.0
 11
205.72336912194359
 21
679.93817900553927
 31
0.0
  0
LINE
  5
2BC9
  8
0
 10
198.0488691219436
 20
653.32019900553951
 30
0.0
 11
210.54886912194371
 21
653.32019900553951
 31
0.0
  0
LINE
  5
2BCA
  8
0
 10
198.0488691219436
 20
668.21021900553956
 30
0.0
 11
210.54886912194371
 21
668.21021900553956
 31
0.0
  0
LINE
  5
2BCB
  8
0
 10
190.5136491219435
 20
694.84503900553955
 30
0.0
 11
210.72879912194361
 21
689.42841900553958
 31
0.0
  0
LINE
  5
2BCC
  8
ﾁｭｳｼﾝｾﾝ1
 10
192.0488691219436
 20
711.17017900553935
 30
0.0
 11
219.04886912194371
 21
711.17017900553935
 31
0.0
  0
POLYLINE
  5
2BCD
  8
0
 66
     1
 10
0.0
 20
0.0
 30
0.0
  0
VERTEX
  5
2BCE
  8
0
 10
186.98019912194351
 20
669.55080900553958
 30
0.0
  0
VERTEX
  5
2BCF
  8
0
 10
181.4367691219436
 20
661.70858900553947
 30
0.0
 42
-1.0
  0
SEQEND
  5
2BD0
  8
0
  0
POLYLINE
  5
2BD1
  8
0
 66
     1
 10
0.0
 20
0.0
 30
0.0
  0
VERTEX
  5
2BD2
  8
0
 10
173.92577912194361
 20
648.13264900553963
 30
0.0
  0
VERTEX
  5
2BD3
  8
0
 10
167.6382291219436
 20
629.17072900553944
 30
0.0
 42
-1.0
  0
SEQEND
  5
2BD4
  8
0
  0
LINE
  5
2BD5
  8
0
 10
162.5488691219436
 20
629.1702090055395
 30
0.0
 11
186.0488691219436
 21
629.1702090055395
 31
0.0
  0
ARC
  5
2BD6
  8
0
 10
162.5488691219436
 20
626.17020900553928
 30
0.0
 40
3.0
 50
90.000003000000945
 51
180.00001000000091
  0
ARC
  5
2BD7
  8
0
 10
186.0488691219436
 20
632.17017900553935
 30
0.0
 40
3.0
 50
270.0
 51
0.0
  0
POLYLINE
  5
2BD8
  8
0
 66
     1
 10
0.0
 20
0.0
 30
0.0
  0
VERTEX
  5
2BD9
  8
0
 10
182.3969791219435
 20
657.60476900553942
 30
0.0
 42
0.0050916976
  0
VERTEX
  5
2BDA
  8
0
 10
181.2490591219435
 20
655.68511900553949
 30
0.0
 42
0.005211269
  0
VERTEX
  5
2BDB
  8
0
 10
180.1409191219436
 20
653.74222900553946
 30
0.0
 42
0.005344796
  0
VERTEX
  5
2BDC
  8
0
 10
179.0740391219436
 20
651.7763790055393
 30
0.0
 42
0.0054924746
  0
VERTEX
  5
2BDD
  8
0
 10
178.0499991219435
 20
649.78786900553951
 30
0.0
  0
SEQEND
  5
2BDE
  8
0
  0
ARC
  5
2BDF
  8
0
 10
175.3678391219436
 20
651.13184900553961
 30
0.0
 40
3.0
 50
270.0
 51
333.3850000000013
  0
ARC
  5
2BE0
  8
0
 10
179.8379291219436
 20
659.17053900553947
 30
0.0
 40
3.0
 50
328.53980000000109
 51
90.000003000000945
  0
LINE
  5
2BE1
  8
0
 10
198.0488691219436
 20
653.3181290055395
 30
0.0
 11
189.0488691219436
 21
653.3181290055395
 31
0.0
  0
ARC
  5
2BE2
  8
0
 10
186.0676691219436
 20
677.14569900553943
 30
0.0
 40
3.0
 50
272.00000000000051
 51
355.45443000000142
  0
LINE
  5
2BE3
  8
0
 10
198.0488691219436
 20
668.21021900553956
 30
0.0
 11
189.0488691219436
 21
668.21021900553956
 31
0.0
  0
ARC
  5
2BE4
  8
0
 10
179.0488691219436
 20
675.6413090055396
 30
0.0
 40
10.0
 50
322.47645999999781
 51
0.0
  0
LINE
  5
2BE5
  8
0
 10
198.0488691219436
 20
679.67017900553935
 30
0.0
 11
192.0488691219436
 21
679.67017900553935
 31
0.0
  0
ARC
  5
2BE6
  8
0
 10
192.0488691219436
 20
676.67017900553935
 30
0.0
 40
3.0
 50
90.000003000000945
 51
180.00001000000091
  0
ARC
  5
2BE7
  8
0
 10
191.5488691219436
 20
698.70874900553952
 30
0.0
 40
4.0
 50
180.00001000000091
 51
254.9999900000019
  0
LINE
  5
2BE8
  8
0
 10
235.54886912194371
 20
646.44666900553943
 30
0.0
 11
225.5488691219436
 21
646.44666900553943
 31
0.0
  0
LINE
  5
2BE9
  8
0
 10
235.54886912194371
 20
710.96039900553944
 30
0.0
 11
225.5488691219436
 21
710.96039900553944
 31
0.0
  0
LINE
  5
2BEA
  8
0
 10
235.54886912194371
 20
693.58698900553952
 30
0.0
 11
225.5488691219436
 21
693.58698900553952
 31
0.0
  0
ARC
  5
2BEB
  8
0
 10
215.5488691219436
 20
688.09912900553945
 30
0.0
 40
5.0
 50
135.0
 51
180.00001000000091
  0
ARC
  5
2BEC
  8
0
 10
205.54886912194371
 20
684.93518900553943
 30
0.0
 40
5.0
 50
272.00000000000051
 51
0.0
  0
LINE
  5
2BED
  8
0
 10
212.01334912194361
 20
691.63464900553959
 30
0.0
 11
224.6702091219436
 21
704.2915190055395
 31
0.0
  0
ARC
  5
2BEE
  8
0
 10
222.54886912194371
 20
706.41284900553956
 30
0.0
 40
3.0
 50
315.0
 51
0.0
  0
LINE
  5
2BEF
  8
0
 10
191.20029912194349
 20
726.76526900553949
 30
0.0
 11
241.54892912194359
 21
731.17023900553954
 31
0.0
  0
ARC
  5
2BF0
  8
0
 10
191.5488691219436
 20
722.78046900553954
 30
0.0
 40
4.0
 50
95.00000199999856
 51
180.00001000000091
  0
LINE
  5
2BF1
  8
0
 10
227.47910912194359
 20
715.38837900553926
 30
0.0
 11
235.54886912194371
 21
715.67017900553935
 31
0.0
  0
LINE
  5
2BF2
  8
0
 10
226.81040912194351
 20
723.85785900553935
 30
0.0
 11
235.2002991219436
 21
724.59186900553959
 31
0.0
  0
ARC
  5
2BF3
  8
0
 10
226.54886912194371
 20
726.84644900553951
 30
0.0
 40
3.0
 50
95.00000199999856
 51
275.0
  0
ARC
  5
2BF4
  8
0
 10
227.5488691219436
 20
713.38959900553948
 30
0.0
 40
2.0
 50
91.999998000000545
 51
180.00001000000091
  0
ARC
  5
2BF5
  8
0
 10
235.54886912194371
 20
720.60706900553953
 30
0.0
 40
4.0
 50
0.0
 51
95.00000199999856
  0
LINE
  5
2BF6
  8
0
 10
239.54886912194371
 20
715.67017900553935
 30
0.0
 11
239.54886912194371
 21
725.53870900553943
 31
0.0
  0
LINE
  5
2BF7
  8
0
 10
235.54886912194371
 20
715.67017900553935
 30
0.0
 11
239.54886912194371
 21
715.67017900553935
 31
0.0
  0
ARC
  5
2BF8
  8
0
 10
234.5488691219436
 20
725.53870900553943
 30
0.0
 40
5.0
 50
0.0
 51
95.00000199999856
  0
CIRCLE
  5
2BF9
  8
0
 10
330.54892912194362
 20
711.17017900553935
 30
0.0
 40
7.5
  0
LINE
  5
2BFA
  8
0
 10
300.54889912194358
 20
705.38379900553934
 30
0.0
 11
300.54889912194358
 21
720.82562900553944
 31
0.0
  0
LINE
  5
2BFB
  8
ﾁｭｳｼﾝｾﾝ1
 10
330.54892912194362
 20
697.67017900553935
 30
0.0
 11
330.54892912194362
 21
724.67017900553935
 31
0.0
  0
LINE
  5
2BFC
  8
0
 10
348.5489291219435
 20
685.17017900553935
 30
0.0
 11
348.5489291219435
 21
723.57092900553926
 31
0.0
  0
ARC
  5
2BFD
  8
0
 10
328.0011391219436
 20
689.52771900553944
 30
0.0
 40
8.0
 50
195.0357999999969
 51
268.50000000000063
  0
LINE
  5
2BFE
  8
ﾁｭｳｼﾝｾﾝ1
 10
317.04892912194362
 20
711.17017900553935
 30
0.0
 11
344.04892912194362
 21
711.17017900553935
 31
0.0
  0
ARC
  5
2BFF
  8
0
 10
312.54892912194362
 20
685.37695900553945
 30
0.0
 40
8.0
 50
0.0
 51
88.499997000000647
  0
ARC
  5
2C00
  8
0
 10
312.54889912194369
 20
705.38379900553934
 30
0.0
 40
12.0
 50
180.00001000000091
 51
268.50000000000063
  0
LINE
  5
2C01
  8
0
 10
312.75833912194361
 20
693.37421900553954
 30
0.0
 11
312.23480912194361
 21
693.38794900553944
 31
0.0
  0
LINE
  5
2C02
  8
0
 10
352.5489291219435
 20
633.67023900553943
 30
0.0
 11
348.54889912194358
 21
633.67023900553943
 31
0.0
  0
LINE
  5
2C03
  8
0
 10
343.04889912194358
 20
648.34564900553926
 30
0.0
 11
347.04889912194358
 21
646.03626900553945
 31
0.0
  0
ARC
  5
2C04
  8
0
 10
344.5489291219435
 20
650.94373900553967
 30
0.0
 40
3.0
 50
179.999989999999
 51
240.00000999999969
  0
ARC
  5
2C05
  8
0
 10
345.54889912194358
 20
643.4381790055395
 30
0.0
 40
3.0
 50
0.0
 51
60.000002000001302
  0
ARC
  5
2C06
  8
0
 10
337.54892912194362
 20
677.27356900553934
 30
0.0
 40
4.0
 50
0.0
 51
88.499997000000647
  0
LINE
  5
2C07
  8
0
 10
337.65363912194363
 20
681.27222900553943
 30
0.0
 11
327.7917291219436
 21
681.53046900553943
 31
0.0
  0
ARC
  5
2C08
  8
0
 10
344.5489291219435
 20
685.17017900553935
 30
0.0
 40
4.0
 50
277.18075000000027
 51
0.0
  0
ARC
  5
2C09
  8
0
 10
345.54892912194362
 20
677.23291900553943
 30
0.0
 40
4.0
 50
97.180758000000822
 51
180.00001000000091
  0
ARC
  5
2C0A
  8
0
 10
308.54889912194358
 20
720.82562900553944
 30
0.0
 40
8.0
 50
87.999999999999503
 51
180.00001000000091
  0
ARC
  5
2C0B
  8
0
 10
344.5489291219435
 20
723.57092900553926
 30
0.0
 40
4.0
 50
0.0
 51
87.999999999999503
  0
LINE
  5
2C0C
  8
0
 10
410.54889912194352
 20
600.17023900553943
 30
0.0
 11
410.54889912194352
 21
632.17017900553935
 31
0.0
  0
LINE
  5
3433
  8
0
 10
410.54889912194352
 20
333.47452883890958
 30
0.0
 11
352.5489391219437
 21
333.47452883890958
 31
0.0
  0
LINE
  5
3434
  8
0
 10
410.54889912194352
 20
301.47457283890969
 30
0.0
 11
352.5489391219437
 21
301.47457283890969
 31
0.0
  0
LINE
  5
3435
  8
ﾁｭｳｼﾝｾﾝ1
 10
170.02320912194361
 20
317.47453883890972
 30
0.0
 11
413.32809912194352
 21
317.47453883890972
 31
0.0
  0
LINE
  5
3436
  8
AM_0
 10
47.048919121943612
 20
289.4745408389096
 30
0.0
 11
47.048919121943612
 21
245.4745408389096
 31
0.0
  0
LINE
  5
3437
  8
AM_0
 10
-10.951080878056359
 20
289.4745408389096
 30
0.0
 11
-10.951080878056359
 21
245.4745408389096
 31
0.0
  0
ARC
  5
3438
  8
AM_0
 10
-28.951080878056359
 20
281.4745408389096
 30
0.0
 40
3.0
 50
90.0
 51
180.0
1001
GENIUS_GENOBJ-N-FIL_13
1002
{
1000
OWNER
1000
GEN
1002
}
1001
GENIUS_GENODEF_13
1002
{
1000
HIER
1070
     0
1002
}
1002
{
1000
MANEDIT
1070
     0
1002
}
1002
{
1000
NOSEL
1070
     0
1002
}
1002
{
1000
BEHIND
1070
     0
1002
}
1002
{
1000
OTHER
1070
     0
1002
}
1002
{
1000
REACTOR
1002
}
  0
LINE
  5
343A
  8
AM_0
 10
122.5489191219436
 20
330.4745408389096
 30
0.0
 11
122.5489191219436
 21
198.4745408389096
 31
0.0
  0
LINE
  5
343B
  8
AM_0
 10
111.0489191219436
 20
330.4745408389096
 30
0.0
 11
111.0489191219436
 21
198.4745408389096
 31
0.0
  0
ARC
  5
343C
  8
AM_0
 10
918.23504293176291
 20
264.47454083890938
 30
0.0
 40
940.68612380981915
 50
176.76392470776159
 51
183.2360752922383
  0
LINE
  5
343D
  8
AM_0
 10
-20.951080878056359
 20
317.57640871028912
 30
0.0
 11
-20.951080878056359
 21
211.37267296753021
 31
0.0
  0
LINE
  5
343E
  8
AM_0
 10
-16.451080878056359
 20
328.0745408389098
 30
0.0
 11
-16.451080878056359
 21
200.87454083890961
 31
0.0
  0
LINE
  5
343F
  8
AM_0
 10
-13.951080878056359
 20
330.07454083890963
 30
0.0
 11
-13.951080878056359
 21
198.87454083890961
 31
0.0
  0
LINE
  5
3442
  8
0
 10
179.2904191219437
 20
296.41158383890968
 30
0.0
 11
189.04890912194361
 21
276.97454183890972
 31
0.0
  0
LINE
  5
3443
  8
0
 10
129.54891912194361
 20
201.4745408389096
 30
0.0
 11
129.54891912194361
 21
327.47454083890972
 31
0.0
  0
LINE
  5
3444
  8
0
 10
189.0489691219436
 20
229.2446978389097
 30
0.0
 11
189.0489691219436
 21
350.68414883890961
 31
0.0
  0
LINE
  5
3445
  8
0
 10
198.0489691219436
 20
225.47455583890959
 30
0.0
 11
198.0489691219436
 21
353.47453883890972
 31
0.0
  0
LINE
  5
3446
  8
0
 10
210.54891912194361
 20
217.5456308389096
 30
0.0
 11
210.54891912194361
 21
361.40350883890972
 31
0.0
  0
LINE
  5
3447
  8
0
 10
225.5489191219437
 20
201.72456983890959
 30
0.0
 11
225.5489191219437
 21
386.69395883890962
 31
0.0
  0
LINE
  5
3448
  8
0
 10
239.54889912194361
 20
246.09896183890959
 30
0.0
 11
239.54889912194361
 21
304.1223098389097
 31
0.0
  0
LINE
  5
3449
  8
0
 10
320.54889912194358
 20
217.9322888389097
 30
0.0
 11
320.54889912194358
 21
378.95548883890967
 31
0.0
  0
LINE
  5
344A
  8
0
 10
300.5489191219437
 20
210.47455583890959
 30
0.0
 11
300.5489191219437
 21
348.91729883890957
 31
0.0
  0
LINE
  5
344B
  8
0
 10
341.54889912194369
 20
203.01395183890941
 30
0.0
 11
341.54889912194369
 21
361.47457883890962
 31
0.0
  0
LINE
  5
344C
  8
0
 10
235.5489691219436
 20
232.97455583890959
 30
0.0
 11
235.5489691219436
 21
388.9745888389096
 31
0.0
  0
LINE
  5
344D
  8
AM_0
 10
77.048919121943655
 20
208.2745408389095
 30
0.0
 11
100.0489191219436
 21
208.2745408389095
 31
0.0
  0
LINE
  5
344E
  8
AM_0
 10
77.048919121943655
 20
212.5745408389096
 30
0.0
 11
100.0489191219436
 21
212.5745408389096
 31
0.0
  0
LINE
  5
344F
  8
AM_0
 10
77.048919121943655
 20
216.0745408389096
 30
0.0
 11
100.0489191219436
 21
216.0745408389096
 31
0.0
  0
LINE
  5
3450
  8
AM_0
 10
77.048919121943655
 20
202.17454083890959
 30
0.0
 11
100.0489191219436
 21
202.17454083890959
 31
0.0
  0
LINE
  5
3451
  8
AM_0
 10
77.048919121943655
 20
204.77454083890959
 30
0.0
 11
100.0489191219436
 21
204.77454083890959
 31
0.0
  0
LINE
  5
3452
  8
AM_0
 10
77.048919121943655
 20
230.4745408389096
 30
0.0
 11
100.0489191219436
 21
230.4745408389096
 31
0.0
  0
LINE
  5
3453
  8
AM_0
 10
77.048919121943655
 20
235.9745408389096
 30
0.0
 11
100.0489191219436
 21
235.9745408389096
 31
0.0
  0
LINE
  5
3454
  8
AM_0
 10
77.048919121943655
 20
242.4745408389096
 30
0.0
 11
100.0489191219436
 21
242.4745408389096
 31
0.0
  0
LINE
  5
3455
  8
AM_0
 10
77.048919121943655
 20
221.27454083890959
 30
0.0
 11
100.0489191219436
 21
221.2745408389097
 31
0.0
  0
LINE
  5
3456
  8
AM_0
 10
77.048919121943655
 20
224.9745408389096
 30
0.0
 11
100.0489191219436
 21
224.9745408389096
 31
0.0
  0
LINE
  5
3457
  8
AM_0
 10
-14.451080878056359
 20
198.87454083890961
 30
0.0
 11
111.0489191219436
 21
198.87454083890961
 31
0.0
  0
LINE
  5
3458
  8
ﾁｭｳｼﾝｾﾝ1
 10
188.16939912194371
 20
264.4745408389096
 30
0.0
 11
-36.867861884214562
 21
264.4745408389096
 31
0.0
  0
LINE
  5
345A
  8
ﾁｭｳｼﾝｾﾝ
 10
37.048919121943641
 20
245.7949120472766
 30
0.0
 11
37.048919121943641
 21
169.20086361221061
 31
0.0
  0
CIRCLE
  5
345B
  8
ｽﾝﾎ_ｳｾﾝ
 10
37.048919121943641
 20
173.57973267619809
 30
0.0
 40
1.5050001119999981
  0
ARC
  5
345C
  8
AM_0
 10
37.089365121943622
 20
173.57979777619801
 30
0.0
 40
2.3091486599999991
 50
164.90527199999909
 51
16.267320000001838
  0
ARC
  5
345D
  8
AM_0
 10
39.994991121943599
 20
174.9556578620444
 30
0.0
 40
2.3091486599999991
 50
249.12780385311081
 51
15.094728000000879
  0
ARC
  5
345E
  8
AM_0
 10
34.093859121943872
 20
174.9556578620444
 30
0.0
 40
2.3091486599999991
 50
164.90527199999909
 51
290.87219614688911
  0
LINE
  5
345F
  8
AM_0
 10
35.328389121943587
 20
184.284096276198
 30
0.0
 11
38.760461121943649
 21
184.28664777619801
 31
0.0
  0
POLYLINE
  5
3460
  8
AM_4
 66
     1
 10
0.0
 20
0.0
 30
0.0
 70
     4
  0
VERTEX
  5
3461
  8
AM_4
 10
33.048919121943641
 20
189.64944047348271
 30
0.0
 70
    16
  0
VERTEX
  5
3462
  8
AM_4
 10
33.048919121943641
 20
189.64944047348271
 30
0.0
 70
     8
  0
VERTEX
  5
3463
  8
AM_4
 10
34.139934346356434
 20
190.23123044957009
 30
0.0
 70
     8
  0
VERTEX
  5
3464
  8
AM_4
 10
35.173471319929952
 20
190.2617000521976
 30
0.0
 70
     8
  0
VERTEX
  5
3465
  8
AM_4
 10
36.165266993168068
 20
189.93534497753799
 30
0.0
 70
     8
  0
VERTEX
  5
3466
  8
AM_4
 10
37.131058316574013
 20
189.44666092176431
 30
0.0
 70
     8
  0
VERTEX
  5
3467
  8
AM_4
 10
38.086582240650962
 20
188.99014358104901
 30
0.0
 70
     8
  0
VERTEX
  5
3468
  8
AM_4
 10
39.047575715902781
 20
188.7602886515655
 30
0.0
 70
     8
  0
VERTEX
  5
3469
  8
AM_4
 10
40.029775692832438
 20
188.95159182948609
 30
0.0
 70
     8
  0
VERTEX
  5
346A
  8
AM_4
 10
41.048919121943626
 20
189.75854881098391
 30
0.0
 70
     8
  0
VERTEX
  5
346B
  8
AM_4
 10
36.048919121943641
 20
192.10885930426031
 30
0.0
 70
    16
  0
VERTEX
  5
346C
  8
AM_4
 10
38.267956974291231
 20
186.61290672562239
 30
0.0
 70
    16
  0
VERTEX
  5
346D
  8
AM_4
 10
41.048919121943626
 20
189.75854881098391
 30
0.0
 70
    16
  0
SEQEND
  5
346E
  8
AM_4
  0
LINE
  5
346F
  8
AM_0
 10
35.894780121943661
 20
177.98618997619809
 30
0.0
 11
37.05053612194353
 21
177.98512107619811
 31
0.0
  0
LINE
  5
3470
  8
AM_0
 10
32.338868121943619
 20
179.36322396204449
 30
0.0
 11
32.33284112194373
 21
185.65994586204451
 31
0.0
  0
LINE
  5
3471
  8
AM_0
 10
35.334374121943611
 20
177.987363876198
 30
0.0
 11
35.32834712194348
 21
184.28408577619811
 31
0.0
  0
LINE
  5
3472
  8
AM_0
 10
32.899274121943677
 20
179.36205006204449
 30
0.0
 11
34.05503012194356
 21
179.36098116204451
 31
0.0
  0
LINE
  5
3473
  8
AM_0
 10
32.899274121943677
 20
179.36205006204449
 30
0.0
 11
32.338910121943726
 21
179.3632029620446
 31
0.0
  0
LINE
  5
3474
  8
AM_0
 10
34.05503012194356
 20
179.36098116204451
 30
0.0
 11
35.333060475284697
 21
179.35979919818399
 31
0.0
  0
LINE
  5
3475
  8
AM_0
 10
35.894780121943661
 20
177.98621097619801
 30
0.0
 11
34.859921121943557
 21
174.18116637619789
 31
0.0
  0
ARC
  5
3476
  8
ｽﾝﾎ_ｳｾﾝ
 10
34.053413121943663
 20
174.95559276204449
 30
0.0
 40
1.5050001119999981
 50
34.081774240383801
 51
298.90870486052683
  0
LINE
  5
3477
  8
AM_0
 10
35.61267760670183
 20
177.98677037749039
 30
0.0
 11
35.758984274091183
 21
177.48690695741541
 31
0.0
  0
LINE
  5
3478
  8
AM_0
 10
35.894780121943661
 20
177.98618997619809
 30
0.0
 11
35.334416121943718
 21
177.987342876198
 31
0.0
  0
LINE
  5
3479
  8
AM_0
 10
32.899274121943677
 20
179.36207106204449
 30
0.0
 11
31.864415121943811
 21
175.55702646204449
 31
0.0
  0
LINE
  5
347A
  8
AM_0
 10
35.210765121943609
 20
179.3599227620445
 30
0.0
 11
35.333461598665181
 21
178.94072463813461
 31
0.0
  0
LINE
  5
347B
  8
AM_0
 10
33.048919121943641
 20
189.64944047348271
 30
0.0
 11
33.048919121943641
 21
185.660214229084
 31
0.0
  0
LINE
  5
347C
  8
AM_0
 10
35.764913121943778
 20
185.66250786204449
 30
0.0
 11
35.76622297917686
 21
184.284421774348
 31
0.0
  0
LINE
  5
347D
  8
AM_0
 10
32.33284112194373
 20
185.65994586204451
 30
0.0
 11
35.764914334531682
 21
185.6612321120445
 31
0.0
  0
LINE
  5
347E
  8
AM_0
 10
35.048919121943641
 20
190.2580281410072
 30
0.0
 11
35.048919121943641
 21
185.6609637760312
 31
0.0
  0
LINE
  5
347F
  8
AM_0
 10
36.048919121943641
 20
189.9736297969061
 30
0.0
 11
36.048919121943641
 21
184.2846319387059
 31
0.0
  0
LINE
  5
3480
  8
AM_0
 10
41.749982121943617
 20
179.36322396204449
 30
0.0
 11
41.756009121943748
 21
185.65994586204451
 31
0.0
  0
LINE
  5
3481
  8
AM_0
 10
38.760419121943762
 20
184.28664777619801
 30
0.0
 11
38.766404121943758
 21
177.98989647619811
 31
0.0
  0
LINE
  5
3482
  8
AM_0
 10
41.18957612194356
 20
179.36205006204449
 30
0.0
 11
41.749940121943489
 21
179.3632029620446
 31
0.0
  0
LINE
  5
3483
  8
AM_0
 10
41.18957612194356
 20
179.36205006204449
 30
0.0
 11
40.03382012194367
 21
179.36098116204451
 31
0.0
  0
LINE
  5
3484
  8
AM_0
 10
40.03382012194367
 20
179.36098116204451
 30
0.0
 11
38.75578976860254
 21
179.35979919818399
 31
0.0
  0
LINE
  5
3485
  8
AM_0
 10
38.206271121943601
 20
177.98406267619799
 30
0.0
 11
39.306041121943849
 21
174.22664817619801
 31
0.0
  0
LINE
  5
3486
  8
AM_0
 10
37.05053612194353
 20
177.98512107619811
 30
0.0
 11
38.206313121943701
 21
177.98405217619791
 31
0.0
  0
LINE
  5
3487
  8
AM_0
 10
38.476172637185641
 20
177.98677037749039
 30
0.0
 11
38.32986596979606
 21
177.48690695741541
 31
0.0
  0
LINE
  5
3488
  8
AM_0
 10
38.766446121943432
 20
177.98992797619789
 30
0.0
 11
38.206313121943701
 21
177.98408577619799
 31
0.0
  0
ARC
  5
3489
  8
ｽﾝﾎ_ｳｾﾝ
 10
40.035437121943559
 20
174.95559276204449
 30
0.0
 40
1.5050001119999981
 50
241.0912951394732
 51
145.91822575961609
  0
LINE
  5
348A
  8
AM_0
 10
41.18957612194356
 20
179.36207106204449
 30
0.0
 11
42.224435121943657
 21
175.55702646204449
 31
0.0
  0
LINE
  5
348B
  8
AM_0
 10
38.878085121943627
 20
179.3599227620445
 30
0.0
 11
38.755388645222297
 21
178.94072463813461
 31
0.0
  0
LINE
  5
348C
  8
AM_0
 10
41.039931121943589
 20
189.7514321195128
 30
0.0
 11
41.039931121943589
 21
185.660214229084
 31
0.0
  0
LINE
  5
348D
  8
AM_0
 10
39.047575715902781
 20
188.7602886515655
 30
0.0
 11
39.039931121943603
 21
185.6609637760312
 31
0.0
  0
LINE
  5
348E
  8
AM_0
 10
38.048919121943641
 20
189.00813775823511
 30
0.0
 11
38.048919121943641
 21
184.2861187956249
 31
0.0
  0
LINE
  5
348F
  8
AM_0
 10
38.323937121943452
 20
185.66250786204449
 30
0.0
 11
38.322627264710377
 21
184.284421774348
 31
0.0
  0
LINE
  5
3490
  8
AM_0
 10
41.756009121943748
 20
185.65994586204451
 30
0.0
 11
38.323935909355768
 21
185.6612321120445
 31
0.0
  0
LINE
  5
3491
  8
AM_0
 10
-9.9510808780563593
 20
244.4745408389096
 30
0.0
 11
46.048919121943619
 21
244.4745408389096
 31
0.0
  0
ARC
  5
3492
  8
AM_0
 10
17.548919121943641
 20
238.4745408389096
 30
0.0
 40
2.0
 50
270.0
 51
0.0
1001
GENIUS_GENOBJ-N-FIL_13
1002
{
1000
OWNER
1000
GEN
1002
}
1001
GENIUS_GENODEF_13
1002
{
1000
HIER
1070
     0
1002
}
1002
{
1000
MANEDIT
1070
     0
1002
}
1002
{
1000
NOSEL
1070
     0
1002
}
1002
{
1000
BEHIND
1070
     0
1002
}
1002
{
1000
OTHER
1070
     0
1002
}
1002
{
1000
REACTOR
1002
}
  0
LINE
  5
3493
  8
AM_0
 10
12.048919121943641
 20
208.2745408389095
 30
0.0
 11
35.048919121943641
 21
208.2745408389095
 31
0.0
  0
LINE
  5
3494
  8
AM_0
 10
12.048919121943641
 20
212.5745408389096
 30
0.0
 11
35.048919121943641
 21
212.5745408389096
 31
0.0
  0
LINE
  5
3495
  8
AM_0
 10
12.048919121943641
 20
216.0745408389096
 30
0.0
 11
35.048919121943641
 21
216.0745408389096
 31
0.0
  0
LINE
  5
3496
  8
AM_0
 10
12.048919121943641
 20
204.77454083890959
 30
0.0
 11
35.048919121943641
 21
204.77454083890959
 31
0.0
  0
LINE
  5
3497
  8
AM_0
 10
12.048919121943641
 20
202.17454083890959
 30
0.0
 11
35.048919121943641
 21
202.17454083890959
 31
0.0
  0
LINE
  5
3498
  8
AM_0
 10
12.048919121943641
 20
230.4745408389096
 30
0.0
 11
35.048919121943641
 21
230.4745408389096
 31
0.0
  0
LINE
  5
3499
  8
AM_0
 10
12.048919121943641
 20
221.27454083890959
 30
0.0
 11
35.048919121943641
 21
221.2745408389097
 31
0.0
  0
LINE
  5
349A
  8
AM_0
 10
12.048919121943641
 20
224.9745408389096
 30
0.0
 11
35.048919121943641
 21
224.9745408389096
 31
0.0
  0
CIRCLE
  5
349B
  8
AM_0N
 10
11.548919121943641
 20
240.4745408389096
 30
0.0
 40
2.799999999999998
  0
ARC
  5
349C
  8
AM_0
 10
5.548919121943638
 20
238.4745408389096
 30
0.0
 40
2.0
 50
180.0
 51
270.0
1001
GENIUS_GENOBJ-N-FIL_13
1002
{
1000
OWNER
1000
GEN
1002
}
1001
GENIUS_GENODEF_13
1002
{
1000
HIER
1070
     0
1002
}
1002
{
1000
MANEDIT
1070
     0
1002
}
1002
{
1000
NOSEL
1070
     0
1002
}
1002
{
1000
BEHIND
1070
     0
1002
}
1002
{
1000
OTHER
1070
     0
1002
}
1002
{
1000
REACTOR
1002
}
  0
LINE
  5
349D
  8
AM_0
 10
7.5489191219436371
 20
236.4745408389096
 30
0.0
 11
7.5489191219436371
 21
244.4745408389096
 31
0.0
  0
LINE
  5
349E
  8
AM_0
 10
15.548919121943641
 20
236.4745408389096
 30
0.0
 11
15.548919121943641
 21
244.4745408389096
 31
0.0
  0
ARC
  5
349F
  8
AM_0
 10
-18.451080878056359
 20
205.57640871028909
 30
0.0
 40
2.0
 50
0.0
 51
48.36646066343252
1001
GENIUS_GENOBJ-N-FIL_13
1002
{
1000
OWNER
1000
GEN
1002
}
1001
GENIUS_GENODEF_13
1002
{
1000
HIER
1070
     0
1002
}
1002
{
1000
MANEDIT
1070
     0
1002
}
1002
{
1000
NOSEL
1070
     0
1002
}
1002
{
1000
BEHIND
1070
     0
1002
}
1002
{
1000
OTHER
1070
     0
1002
}
1002
{
1000
REACTOR
1002
}
  0
ARC
  5
34A0
  8
AM_0
 10
-14.451080878056359
 20
200.87454083890961
 30
0.0
 40
2.0
 50
180.0
 51
270.0
1001
GENIUS_GENOBJ-N-FIL_13
1002
{
1000
OWNER
1000
GEN
1002
}
1001
GENIUS_GENODEF_13
1002
{
1000
HIER
1070
     0
1002
}
1002
{
1000
MANEDIT
1070
     0
1002
}
1002
{
1000
NOSEL
1070
     0
1002
}
1002
{
1000
BEHIND
1070
     0
1002
}
1002
{
1000
OTHER
1070
     0
1002
}
1002
{
1000
REACTOR
1002
}
  0
ARC
  5
34A1
  8
AM_0
 10
-18.951080878056359
 20
211.37267296753021
 30
0.0
 40
2.0
 50
180.0
 51
228.36646066343241
1001
GENIUS_GENODEF_13
1002
{
1000
HIER
1070
     0
1002
}
1002
{
1000
MANEDIT
1070
     0
1002
}
1002
{
1000
NOSEL
1070
     0
1002
}
1002
{
1000
BEHIND
1070
     0
1002
}
1002
{
1000
OTHER
1070
     0
1002
}
1002
{
1000
REACTOR
1002
}
1001
GENIUS_GENOBJ-N-FIL_13
1002
{
1000
OWNER
1000
GEN
1002
}
  0
LINE
  5
34A2
  8
AM_0
 10
-17.122353200396329
 20
207.0712273476565
 30
0.0
 11
-20.279808555716158
 21
209.87785433016271
 31
0.0
  0
ARC
  5
34A3
  8
AM_0
 10
12.048919121943641
 20
217.0745408389096
 30
0.0
 40
1.0
 50
180.0
 51
270.0
1001
GENIUS_GENOBJ-N-FIL_13
1002
{
1000
OWNER
1000
GEN
1002
}
1001
GENIUS_GENODEF_13
1002
{
1000
HIER
1070
     0
1002
}
1002
{
1000
MANEDIT
1070
     0
1002
}
1002
{
1000
NOSEL
1070
     0
1002
}
1002
{
1000
BEHIND
1070
     0
1002
}
1002
{
1000
OTHER
1070
     0
1002
}
1002
{
1000
REACTOR
1002
}
  0
ARC
  5
34A4
  8
AM_0
 10
12.048919121943641
 20
203.17454083890971
 30
0.0
 40
1.0
 50
180.0
 51
270.0
1001
GENIUS_GENODEF_13
1002
{
1000
HIER
1070
     0
1002
}
1002
{
1000
MANEDIT
1070
     0
1002
}
1002
{
1000
NOSEL
1070
     0
1002
}
1002
{
1000
BEHIND
1070
     0
1002
}
1002
{
1000
OTHER
1070
     0
1002
}
1002
{
1000
REACTOR
1002
}
1001
GENIUS_GENOBJ-N-FIL_13
1002
{
1000
OWNER
1000
GEN
1002
}
  0
ARC
  5
34A5
  8
AM_0
 10
12.048919121943641
 20
203.77454083890959
 30
0.0
 40
1.0
 50
90.0
 51
180.0
1001
GENIUS_GENOBJ-N-FIL_13
1002
{
1000
OWNER
1000
GEN
1002
}
1001
GENIUS_GENODEF_13
1002
{
1000
HIER
1070
     0
1002
}
1002
{
1000
MANEDIT
1070
     0
1002
}
1002
{
1000
NOSEL
1070
     0
1002
}
1002
{
1000
BEHIND
1070
     0
1002
}
1002
{
1000
OTHER
1070
     0
1002
}
1002
{
1000
REACTOR
1002
}
  0
LINE
  5
34A6
  8
AM_0
 10
11.048919121943641
 20
203.77454083890959
 30
0.0
 11
11.048919121943641
 21
203.17454083890971
 31
0.0
  0
ARC
  5
34A7
  8
AM_0
 10
12.048919121943641
 20
209.27454083890959
 30
0.0
 40
1.0
 50
180.0
 51
270.0
1001
GENIUS_GENOBJ-N-FIL_13
1002
{
1000
OWNER
1000
GEN
1002
}
1001
GENIUS_GENODEF_13
1002
{
1000
HIER
1070
     0
1002
}
1002
{
1000
MANEDIT
1070
     0
1002
}
1002
{
1000
NOSEL
1070
     0
1002
}
1002
{
1000
BEHIND
1070
     0
1002
}
1002
{
1000
OTHER
1070
     0
1002
}
1002
{
1000
REACTOR
1002
}
  0
ARC
  5
34A8
  8
AM_0
 10
12.048919121943641
 20
211.5745408389096
 30
0.0
 40
1.0
 50
90.0
 51
180.0
1001
GENIUS_GENODEF_13
1002
{
1000
HIER
1070
     0
1002
}
1002
{
1000
MANEDIT
1070
     0
1002
}
1002
{
1000
NOSEL
1070
     0
1002
}
1002
{
1000
BEHIND
1070
     0
1002
}
1002
{
1000
OTHER
1070
     0
1002
}
1002
{
1000
REACTOR
1002
}
1001
GENIUS_GENOBJ-N-FIL_13
1002
{
1000
OWNER
1000
GEN
1002
}
  0
LINE
  5
34A9
  8
AM_0
 10
11.048919121943641
 20
211.5745408389096
 30
0.0
 11
11.048919121943641
 21
209.27454083890959
 31
0.0
  0
LINE
  5
34AA
  8
AM_0
 10
11.048919121943641
 20
229.4745408389096
 30
0.0
 11
11.048919121943641
 21
225.9745408389096
 31
0.0
  0
ARC
  5
34AB
  8
AM_0
 10
12.048919121943641
 20
225.9745408389096
 30
0.0
 40
1.0
 50
180.0
 51
270.0
1001
GENIUS_GENODEF_13
1002
{
1000
HIER
1070
     0
1002
}
1002
{
1000
MANEDIT
1070
     0
1002
}
1002
{
1000
NOSEL
1070
     0
1002
}
1002
{
1000
BEHIND
1070
     0
1002
}
1002
{
1000
OTHER
1070
     0
1002
}
1002
{
1000
REACTOR
1002
}
1001
GENIUS_GENOBJ-N-FIL_13
1002
{
1000
OWNER
1000
GEN
1002
}
  0
ARC
  5
34AC
  8
AM_0
 10
12.048919121943641
 20
220.27454083890959
 30
0.0
 40
1.0
 50
90.0
 51
180.0
1001
GENIUS_GENODEF_13
1002
{
1000
HIER
1070
     0
1002
}
1002
{
1000
MANEDIT
1070
     0
1002
}
1002
{
1000
NOSEL
1070
     0
1002
}
1002
{
1000
BEHIND
1070
     0
1002
}
1002
{
1000
OTHER
1070
     0
1002
}
1002
{
1000
REACTOR
1002
}
1001
GENIUS_GENOBJ-N-FIL_13
1002
{
1000
OWNER
1000
GEN
1002
}
  0
LINE
  5
34AD
  8
AM_0
 10
11.048919121943641
 20
220.27454083890959
 30
0.0
 11
11.048919121943641
 21
217.0745408389096
 31
0.0
  0
ARC
  5
34AE
  8
AM_0
 10
12.048919121943641
 20
229.4745408389096
 30
0.0
 40
1.0
 50
90.0
 51
180.0
1001
GENIUS_GENODEF_13
1002
{
1000
HIER
1070
     0
1002
}
1002
{
1000
MANEDIT
1070
     0
1002
}
1002
{
1000
NOSEL
1070
     0
1002
}
1002
{
1000
BEHIND
1070
     0
1002
}
1002
{
1000
OTHER
1070
     0
1002
}
1002
{
1000
REACTOR
1002
}
1001
GENIUS_GENOBJ-N-FIL_13
1002
{
1000
OWNER
1000
GEN
1002
}
  0
LINE
  5
34AF
  8
AM_0
 10
5.548919121943638
 20
236.4745408389096
 30
0.0
 11
17.548919121943641
 21
236.4745408389096
 31
0.0
  0
LINE
  5
34B0
  8
AM_0
 10
-31.951080878056359
 20
281.4745408389096
 30
0.0
 11
-31.951080878056359
 21
247.4745408389096
 31
0.0
  0
ARC
  5
34B1
  8
AM_0
 10
-28.951080878056359
 20
247.4745408389096
 30
0.0
 40
3.0
 50
180.0
 51
270.0
1001
GENIUS_GENODEF_13
1002
{
1000
HIER
1070
     0
1002
}
1002
{
1000
MANEDIT
1070
     0
1002
}
1002
{
1000
NOSEL
1070
     0
1002
}
1002
{
1000
BEHIND
1070
     0
1002
}
1002
{
1000
OTHER
1070
     0
1002
}
1002
{
1000
REACTOR
1002
}
1001
GENIUS_GENOBJ-N-FIL_13
1002
{
1000
OWNER
1000
GEN
1002
}
  0
LINE
  5
34B2
  8
AM_0
 10
-28.951080878056359
 20
244.4745408389096
 30
0.0
 11
-22.238446077014149
 21
244.4745408389096
 31
0.0
  0
ARC
  5
34B3
  8
AM_0
 10
-9.9510808780563593
 20
245.4745408389096
 30
0.0
 40
1.0
 50
180.0
 51
270.0
1001
GENIUS_GENOBJ-N-FIL_13
1002
{
1000
OWNER
1000
GEN
1002
}
1001
GENIUS_GENODEF_13
1002
{
1000
HIER
1070
     0
1002
}
1002
{
1000
MANEDIT
1070
     0
1002
}
1002
{
1000
NOSEL
1070
     0
1002
}
1002
{
1000
BEHIND
1070
     0
1002
}
1002
{
1000
OTHER
1070
     0
1002
}
1002
{
1000
REACTOR
1002
}
  0
LINE
  5
34B4
  8
AM_0N
 10
11.296419121943581
 20
238.99594564413849
 30
0.0
 11
11.80141912194369
 21
238.99594564413849
 31
0.0
  0
LINE
  5
34B5
  8
AM_0N
 10
11.296419121943581
 20
241.95313603368069
 30
0.0
 11
11.80141912194369
 21
241.95313603368069
 31
0.0
  0
LINE
  5
34B6
  8
AM_0N
 10
11.296419121943581
 20
240.72704083890969
 30
0.0
 11
11.296419121943581
 21
241.95313603368069
 31
0.0
  0
LINE
  5
34B7
  8
AM_0N
 10
11.296419121943581
 20
238.99594564413849
 30
0.0
 11
11.296419121943581
 21
240.22204083890961
 31
0.0
  0
LINE
  5
34B8
  8
AM_0N
 10
10.070323927172581
 20
240.72704083890969
 30
0.0
 11
10.070323927172581
 21
240.22204083890961
 31
0.0
  0
LINE
  5
34B9
  8
AM_0N
 10
11.296419121943581
 20
240.72704083890969
 30
0.0
 11
10.070323927172581
 21
240.72704083890969
 31
0.0
  0
LINE
  5
34BA
  8
AM_0N
 10
11.296419121943581
 20
240.22204083890961
 30
0.0
 11
10.070323927172581
 21
240.22204083890961
 31
0.0
  0
LINE
  5
34BB
  8
AM_0
 10
3.548919121943638
 20
238.4745408389096
 30
0.0
 11
3.548919121943638
 21
244.4745408389096
 31
0.0
  0
LINE
  5
34BC
  8
AM_0N
 10
11.80141912194369
 20
240.72704083890969
 30
0.0
 11
11.80141912194369
 21
241.95313603368069
 31
0.0
  0
LINE
  5
34BD
  8
AM_0N
 10
13.027514316714701
 20
240.72704083890969
 30
0.0
 11
11.80141912194369
 21
240.72704083890969
 31
0.0
  0
LINE
  5
34BE
  8
AM_0N
 10
13.027514316714701
 20
240.22204083890961
 30
0.0
 11
11.80141912194369
 21
240.22204083890961
 31
0.0
  0
LINE
  5
34BF
  8
AM_0N
 10
11.80141912194369
 20
238.99594564413849
 30
0.0
 11
11.80141912194369
 21
240.22204083890961
 31
0.0
  0
LINE
  5
34C0
  8
AM_0N
 10
13.027514316714701
 20
240.72704083890969
 30
0.0
 11
13.027514316714701
 21
240.22204083890961
 31
0.0
  0
LINE
  5
34C1
  8
AM_0
 10
19.548919121943641
 20
238.4745408389096
 30
0.0
 11
19.548919121943641
 21
244.4745408389096
 31
0.0
  0
LINE
  5
34C2
  8
AM_0
 10
76.048919121943655
 20
241.4745408389096
 30
0.0
 11
76.048919121943655
 21
236.9745408389096
 31
0.0
  0
LINE
  5
34C3
  8
AM_0
 10
41.048919121943626
 20
244.4745408389096
 30
0.0
 11
41.048919121943626
 21
235.57810659348931
 31
0.0
  0
LINE
  5
34C4
  8
AM_0
 10
39.048919121943641
 20
244.4745408389096
 30
0.0
 11
39.048919121943641
 21
234.58010808938661
 31
0.0
  0
LINE
  5
34C5
  8
AM_0
 10
35.048919121943641
 20
244.4745408389096
 30
0.0
 11
35.048919121943641
 21
236.0775859235126
 31
0.0
  0
LINE
  5
34C6
  8
AM_0
 10
33.048919121943641
 20
244.4745408389096
 30
0.0
 11
33.048919121943641
 21
235.46899825598811
 31
0.0
  0
LINE
  5
34C7
  8
AM_0
 10
36.048919121943641
 20
244.4745408389096
 30
0.0
 11
36.048919121943641
 21
235.79318757941161
 31
0.0
  0
LINE
  5
34C8
  8
AM_0
 10
38.048919121943641
 20
244.4745408389096
 30
0.0
 11
38.048919121943641
 21
234.8276955407409
 31
0.0
  0
ARC
  5
34C9
  8
AM_0
 10
35.048919121943641
 20
217.0745408389096
 30
0.0
 40
1.0
 50
270.0
 51
0.0
1001
GENIUS_GENODEF_13
1002
{
1000
HIER
1070
     0
1002
}
1002
{
1000
MANEDIT
1070
     0
1002
}
1002
{
1000
NOSEL
1070
     0
1002
}
1002
{
1000
BEHIND
1070
     0
1002
}
1002
{
1000
OTHER
1070
     0
1002
}
1002
{
1000
REACTOR
1002
}
1001
GENIUS_GENOBJ-N-FIL_13
1002
{
1000
OWNER
1000
GEN
1002
}
  0
LINE
  5
34CA
  8
AM_0
 10
36.048919121943641
 20
203.77454083890959
 30
0.0
 11
36.048919121943641
 21
203.17454083890971
 31
0.0
  0
ARC
  5
34CB
  8
AM_0
 10
35.048919121943641
 20
203.17454083890971
 30
0.0
 40
1.0
 50
270.0
 51
0.0
1001
GENIUS_GENOBJ-N-FIL_13
1002
{
1000
OWNER
1000
GEN
1002
}
1001
GENIUS_GENODEF_13
1002
{
1000
HIER
1070
     0
1002
}
1002
{
1000
MANEDIT
1070
     0
1002
}
1002
{
1000
NOSEL
1070
     0
1002
}
1002
{
1000
BEHIND
1070
     0
1002
}
1002
{
1000
OTHER
1070
     0
1002
}
1002
{
1000
REACTOR
1002
}
  0
ARC
  5
34CC
  8
AM_0
 10
35.048919121943641
 20
203.77454083890959
 30
0.0
 40
1.0
 50
0.0
 51
90.0
1001
GENIUS_GENODEF_13
1002
{
1000
HIER
1070
     0
1002
}
1002
{
1000
MANEDIT
1070
     0
1002
}
1002
{
1000
NOSEL
1070
     0
1002
}
1002
{
1000
BEHIND
1070
     0
1002
}
1002
{
1000
OTHER
1070
     0
1002
}
1002
{
1000
REACTOR
1002
}
1001
GENIUS_GENOBJ-N-FIL_13
1002
{
1000
OWNER
1000
GEN
1002
}
  0
LINE
  5
34CD
  8
AM_0
 10
36.048919121943641
 20
211.5745408389096
 30
0.0
 11
36.048919121943641
 21
209.27454083890959
 31
0.0
  0
ARC
  5
34CE
  8
AM_0
 10
35.048919121943641
 20
209.27454083890959
 30
0.0
 40
1.0
 50
270.0
 51
0.0
1001
GENIUS_GENODEF_13
1002
{
1000
HIER
1070
     0
1002
}
1002
{
1000
MANEDIT
1070
     0
1002
}
1002
{
1000
NOSEL
1070
     0
1002
}
1002
{
1000
BEHIND
1070
     0
1002
}
1002
{
1000
OTHER
1070
     0
1002
}
1002
{
1000
REACTOR
1002
}
1001
GENIUS_GENOBJ-N-FIL_13
1002
{
1000
OWNER
1000
GEN
1002
}
  0
ARC
  5
34CF
  8
AM_0
 10
35.048919121943641
 20
211.5745408389096
 30
0.0
 40
1.0
 50
0.0
 51
90.0
1001
GENIUS_GENODEF_13
1002
{
1000
HIER
1070
     0
1002
}
1002
{
1000
MANEDIT
1070
     0
1002
}
1002
{
1000
NOSEL
1070
     0
1002
}
1002
{
1000
BEHIND
1070
     0
1002
}
1002
{
1000
OTHER
1070
     0
1002
}
1002
{
1000
REACTOR
1002
}
1001
GENIUS_GENOBJ-N-FIL_13
1002
{
1000
OWNER
1000
GEN
1002
}
  0
POLYLINE
  5
34D0
  8
AM_4
 66
     1
 10
0.0
 20
0.0
 30
0.0
 70
     4
  0
VERTEX
  5
34D1
  8
AM_4
 10
33.048919121943641
 20
235.46899825598811
 30
0.0
 70
    16
  0
VERTEX
  5
34D2
  8
AM_4
 10
33.048919121943641
 20
235.46899825598811
 30
0.0
 70
     8
  0
VERTEX
  5
34D3
  8
AM_4
 10
34.139934346356434
 20
236.05078823207549
 30
0.0
 70
     8
  0
VERTEX
  5
34D4
  8
AM_4
 10
35.173471319929952
 20
236.08125783470311
 30
0.0
 70
     8
  0
VERTEX
  5
34D5
  8
AM_4
 10
36.165266993168309
 20
235.75490276004351
 30
0.0
 70
     8
  0
VERTEX
  5
34D6
  8
AM_4
 10
37.131058316574013
 20
235.2662187042699
 30
0.0
 70
     8
  0
VERTEX
  5
34D7
  8
AM_4
 10
38.08658224065119
 20
234.80970136355469
 30
0.0
 70
     8
  0
VERTEX
  5
34D8
  8
AM_4
 10
39.047575715903008
 20
234.5798464340711
 30
0.0
 70
     8
  0
VERTEX
  5
34D9
  8
AM_4
 10
40.029775692832679
 20
234.77114961199169
 30
0.0
 70
     8
  0
VERTEX
  5
34DA
  8
AM_4
 10
41.048919121943847
 20
235.57810659348939
 30
0.0
 70
     8
  0
VERTEX
  5
34DB
  8
AM_4
 10
36.048919121943641
 20
237.92841708676571
 30
0.0
 70
    16
  0
VERTEX
  5
34DC
  8
AM_4
 10
38.267956974291451
 20
232.43246450812791
 30
0.0
 70
    16
  0
VERTEX
  5
34DD
  8
AM_4
 10
41.048919121943626
 20
235.57810659348939
 30
0.0
 70
    16
  0
SEQEND
  5
34DE
  8
AM_4
  0
LINE
  5
34DF
  8
AM_0
 10
36.048919121943641
 20
229.4745408389096
 30
0.0
 11
36.048919121943641
 21
225.9745408389096
 31
0.0
  0
ARC
  5
34E0
  8
AM_0
 10
35.048919121943641
 20
225.9745408389096
 30
0.0
 40
1.0
 50
270.0
 51
0.0
1001
GENIUS_GENODEF_13
1002
{
1000
HIER
1070
     0
1002
}
1002
{
1000
MANEDIT
1070
     0
1002
}
1002
{
1000
NOSEL
1070
     0
1002
}
1002
{
1000
BEHIND
1070
     0
1002
}
1002
{
1000
OTHER
1070
     0
1002
}
1002
{
1000
REACTOR
1002
}
1001
GENIUS_GENOBJ-N-FIL_13
1002
{
1000
OWNER
1000
GEN
1002
}
  0
ARC
  5
34E1
  8
AM_0
 10
35.048919121943641
 20
220.2745408389097
 30
0.0
 40
1.0
 50
0.0
 51
90.0
1001
GENIUS_GENODEF_13
1002
{
1000
HIER
1070
     0
1002
}
1002
{
1000
MANEDIT
1070
     0
1002
}
1002
{
1000
NOSEL
1070
     0
1002
}
1002
{
1000
BEHIND
1070
     0
1002
}
1002
{
1000
OTHER
1070
     0
1002
}
1002
{
1000
REACTOR
1002
}
1001
GENIUS_GENOBJ-N-FIL_13
1002
{
1000
OWNER
1000
GEN
1002
}
  0
LINE
  5
34E2
  8
AM_0
 10
36.048919121943641
 20
220.2745408389097
 30
0.0
 11
36.048919121943641
 21
217.0745408389096
 31
0.0
  0
ARC
  5
34E3
  8
AM_0
 10
35.048919121943641
 20
229.4745408389096
 30
0.0
 40
1.0
 50
0.0
 51
90.0
1001
GENIUS_GENOBJ-N-FIL_13
1002
{
1000
OWNER
1000
GEN
1002
}
1001
GENIUS_GENODEF_13
1002
{
1000
HIER
1070
     0
1002
}
1002
{
1000
MANEDIT
1070
     0
1002
}
1002
{
1000
NOSEL
1070
     0
1002
}
1002
{
1000
BEHIND
1070
     0
1002
}
1002
{
1000
OTHER
1070
     0
1002
}
1002
{
1000
REACTOR
1002
}
  0
ARC
  5
34E4
  8
AM_0
 10
77.048919121943655
 20
217.0745408389096
 30
0.0
 40
1.0
 50
180.0
 51
270.0
1001
GENIUS_GENOBJ-N-FIL_13
1002
{
1000
OWNER
1000
GEN
1002
}
1001
GENIUS_GENODEF_13
1002
{
1000
HIER
1070
     0
1002
}
1002
{
1000
MANEDIT
1070
     0
1002
}
1002
{
1000
NOSEL
1070
     0
1002
}
1002
{
1000
BEHIND
1070
     0
1002
}
1002
{
1000
OTHER
1070
     0
1002
}
1002
{
1000
REACTOR
1002
}
  0
ARC
  5
34E5
  8
AM_0
 10
77.048919121943655
 20
203.17454083890971
 30
0.0
 40
1.0
 50
180.0
 51
270.0
1001
GENIUS_GENODEF_13
1002
{
1000
HIER
1070
     0
1002
}
1002
{
1000
MANEDIT
1070
     0
1002
}
1002
{
1000
NOSEL
1070
     0
1002
}
1002
{
1000
BEHIND
1070
     0
1002
}
1002
{
1000
OTHER
1070
     0
1002
}
1002
{
1000
REACTOR
1002
}
1001
GENIUS_GENOBJ-N-FIL_13
1002
{
1000
OWNER
1000
GEN
1002
}
  0
LINE
  5
34E6
  8
AM_0
 10
76.048919121943655
 20
203.77454083890959
 30
0.0
 11
76.048919121943655
 21
203.17454083890971
 31
0.0
  0
ARC
  5
34E7
  8
AM_0
 10
77.048919121943655
 20
203.77454083890959
 30
0.0
 40
1.0
 50
90.0
 51
180.0
1001
GENIUS_GENOBJ-N-FIL_13
1002
{
1000
OWNER
1000
GEN
1002
}
1001
GENIUS_GENODEF_13
1002
{
1000
HIER
1070
     0
1002
}
1002
{
1000
MANEDIT
1070
     0
1002
}
1002
{
1000
NOSEL
1070
     0
1002
}
1002
{
1000
BEHIND
1070
     0
1002
}
1002
{
1000
OTHER
1070
     0
1002
}
1002
{
1000
REACTOR
1002
}
  0
LINE
  5
34E8
  8
AM_0
 10
76.048919121943655
 20
211.5745408389096
 30
0.0
 11
76.048919121943655
 21
209.27454083890959
 31
0.0
  0
ARC
  5
34E9
  8
AM_0
 10
77.048919121943655
 20
209.27454083890959
 30
0.0
 40
1.0
 50
180.0
 51
270.0
1001
GENIUS_GENOBJ-N-FIL_13
1002
{
1000
OWNER
1000
GEN
1002
}
1001
GENIUS_GENODEF_13
1002
{
1000
HIER
1070
     0
1002
}
1002
{
1000
MANEDIT
1070
     0
1002
}
1002
{
1000
NOSEL
1070
     0
1002
}
1002
{
1000
BEHIND
1070
     0
1002
}
1002
{
1000
OTHER
1070
     0
1002
}
1002
{
1000
REACTOR
1002
}
  0
ARC
  5
34EA
  8
AM_0
 10
77.048919121943655
 20
211.5745408389096
 30
0.0
 40
1.0
 50
90.0
 51
180.0
1001
GENIUS_GENODEF_13
1002
{
1000
HIER
1070
     0
1002
}
1002
{
1000
MANEDIT
1070
     0
1002
}
1002
{
1000
NOSEL
1070
     0
1002
}
1002
{
1000
BEHIND
1070
     0
1002
}
1002
{
1000
OTHER
1070
     0
1002
}
1002
{
1000
REACTOR
1002
}
1001
GENIUS_GENOBJ-N-FIL_13
1002
{
1000
OWNER
1000
GEN
1002
}
  0
LINE
  5
34EB
  8
AM_0
 10
76.048919121943655
 20
229.4745408389096
 30
0.0
 11
76.048919121943655
 21
225.9745408389096
 31
0.0
  0
ARC
  5
34EC
  8
AM_0
 10
77.048919121943655
 20
225.9745408389096
 30
0.0
 40
1.0
 50
180.0
 51
270.0
1001
GENIUS_GENODEF_13
1002
{
1000
HIER
1070
     0
1002
}
1002
{
1000
MANEDIT
1070
     0
1002
}
1002
{
1000
NOSEL
1070
     0
1002
}
1002
{
1000
BEHIND
1070
     0
1002
}
1002
{
1000
OTHER
1070
     0
1002
}
1002
{
1000
REACTOR
1002
}
1001
GENIUS_GENOBJ-N-FIL_13
1002
{
1000
OWNER
1000
GEN
1002
}
  0
ARC
  5
34ED
  8
AM_0
 10
77.048919121943655
 20
220.27454083890959
 30
0.0
 40
1.0
 50
90.0
 51
180.0
1001
GENIUS_GENODEF_13
1002
{
1000
HIER
1070
     0
1002
}
1002
{
1000
MANEDIT
1070
     0
1002
}
1002
{
1000
NOSEL
1070
     0
1002
}
1002
{
1000
BEHIND
1070
     0
1002
}
1002
{
1000
OTHER
1070
     0
1002
}
1002
{
1000
REACTOR
1002
}
1001
GENIUS_GENOBJ-N-FIL_13
1002
{
1000
OWNER
1000
GEN
1002
}
  0
LINE
  5
34EE
  8
AM_0
 10
76.048919121943655
 20
220.27454083890959
 30
0.0
 11
76.048919121943655
 21
217.0745408389096
 31
0.0
  0
ARC
  5
34EF
  8
AM_0
 10
77.048919121943655
 20
236.9745408389096
 30
0.0
 40
1.0
 50
180.0
 51
270.0
1001
GENIUS_GENODEF_13
1002
{
1000
HIER
1070
     0
1002
}
1002
{
1000
MANEDIT
1070
     0
1002
}
1002
{
1000
NOSEL
1070
     0
1002
}
1002
{
1000
BEHIND
1070
     0
1002
}
1002
{
1000
OTHER
1070
     0
1002
}
1002
{
1000
REACTOR
1002
}
1001
GENIUS_GENOBJ-N-FIL_13
1002
{
1000
OWNER
1000
GEN
1002
}
  0
ARC
  5
34F0
  8
AM_0
 10
77.048919121943655
 20
229.4745408389096
 30
0.0
 40
1.0
 50
90.0
 51
180.0
1001
GENIUS_GENODEF_13
1002
{
1000
HIER
1070
     0
1002
}
1002
{
1000
MANEDIT
1070
     0
1002
}
1002
{
1000
NOSEL
1070
     0
1002
}
1002
{
1000
BEHIND
1070
     0
1002
}
1002
{
1000
OTHER
1070
     0
1002
}
1002
{
1000
REACTOR
1002
}
1001
GENIUS_GENOBJ-N-FIL_13
1002
{
1000
OWNER
1000
GEN
1002
}
  0
ARC
  5
34F1
  8
AM_0
 10
46.048919121943619
 20
245.4745408389096
 30
0.0
 40
1.0
 50
270.0
 51
0.0
1001
GENIUS_GENOBJ-N-FIL_13
1002
{
1000
OWNER
1000
GEN
1002
}
1001
GENIUS_GENODEF_13
1002
{
1000
HIER
1070
     0
1002
}
1002
{
1000
MANEDIT
1070
     0
1002
}
1002
{
1000
NOSEL
1070
     0
1002
}
1002
{
1000
BEHIND
1070
     0
1002
}
1002
{
1000
OTHER
1070
     0
1002
}
1002
{
1000
REACTOR
1002
}
  0
ARC
  5
34F2
  8
AM_0
 10
77.048919121943655
 20
241.4745408389096
 30
0.0
 40
1.0
 50
90.0
 51
180.0
1001
GENIUS_GENOBJ-N-FIL_13
1002
{
1000
OWNER
1000
GEN
1002
}
1001
GENIUS_GENODEF_13
1002
{
1000
HIER
1070
     0
1002
}
1002
{
1000
MANEDIT
1070
     0
1002
}
1002
{
1000
NOSEL
1070
     0
1002
}
1002
{
1000
BEHIND
1070
     0
1002
}
1002
{
1000
OTHER
1070
     0
1002
}
1002
{
1000
REACTOR
1002
}
  0
LINE
  5
34F5
  8
0
 10
212.01339912194359
 20
214.01010683890959
 30
0.0
 11
224.6702491219437
 21
201.35323283890961
 31
0.0
  0
LINE
  5
34F6
  8
0
 10
187.5489691219436
 20
177.4745528389096
 30
0.0
 11
223.5489691219436
 21
177.4745528389096
 31
0.0
  0
LINE
  5
34F7
  8
0
 10
189.54891912194361
 20
195.47455583890951
 30
0.0
 11
220.6290991219436
 21
195.47455583890951
 31
0.0
  0
ARC
  5
34F8
  8
0
 10
189.54891912194361
 20
193.47456983890959
 30
0.0
 40
2.00000007
 50
90.00000299999769
 51
180.00001000000091
  0
LINE
  5
34F9
  8
ｶｸﾚｾﾝ2
 10
198.0489691219436
 20
195.47455583890951
 30
0.0
 11
198.0489691219436
 21
177.4745528389096
 31
0.0
  0
LINE
  5
34FA
  8
ｶｸﾚｾﾝ2
 10
213.0489691219436
 20
195.47455583890951
 30
0.0
 11
213.0489691219436
 21
177.4745528389096
 31
0.0
  0
LINE
  5
34FB
  8
ﾁｭｳｼﾝｾﾝ1
 10
205.5489691219436
 20
174.10388446704721
 30
0.0
 11
205.5489691219436
 21
199.00298183890959
 31
0.0
  0
LINE
  5
34FC
  8
0
 10
187.5489691219436
 20
177.4745528389096
 30
0.0
 11
187.5489691219436
 21
193.47456983890959
 31
0.0
  0
ARC
  5
34FD
  8
0
 10
154.5489691219436
 20
267.41454383890959
 30
0.0
 40
5.0000001000000003
 50
90.00000299999769
 51
180.00001000000091
  0
ARC
  5
34FE
  8
0
 10
153.54891912194361
 20
228.4133378389096
 30
0.0
 40
4.000000199999997
 50
88.000000000002899
 51
180.00001000000091
  0
LINE
  5
34FF
  8
0
 10
151.7319991219436
 20
213.4001378389097
 30
0.0
 11
188.9038291219436
 21
225.74063783890961
 31
0.0
  0
LINE
  5
3500
  8
AM_0
 10
101.0489191219436
 20
241.4745408389096
 30
0.0
 11
101.0489191219436
 21
236.9745408389096
 31
0.0
  0
LINE
  5
3501
  8
0
 10
149.54889912194361
 20
212.53571183890961
 30
0.0
 11
149.54889912194361
 21
267.41454383890959
 31
0.0
  0
LINE
  5
3502
  8
AM_0
 10
111.0489191219436
 20
198.4745408389096
 30
0.0
 11
122.5489191219436
 21
198.4745408389096
 31
0.0
  0
ARC
  5
3503
  8
AM_0
 10
100.0489191219436
 20
217.0745408389096
 30
0.0
 40
1.0
 50
270.0
 51
0.0
1001
GENIUS_GENODEF_13
1002
{
1000
HIER
1070
     0
1002
}
1002
{
1000
MANEDIT
1070
     0
1002
}
1002
{
1000
NOSEL
1070
     0
1002
}
1002
{
1000
BEHIND
1070
     0
1002
}
1002
{
1000
OTHER
1070
     0
1002
}
1002
{
1000
REACTOR
1002
}
1001
GENIUS_GENOBJ-N-FIL_13
1002
{
1000
OWNER
1000
GEN
1002
}
  0
ARC
  5
3504
  8
AM_0
 10
100.0489191219436
 20
203.17454083890971
 30
0.0
 40
1.0
 50
270.0
 51
0.0
1001
GENIUS_GENOBJ-N-FIL_13
1002
{
1000
OWNER
1000
GEN
1002
}
1001
GENIUS_GENODEF_13
1002
{
1000
HIER
1070
     0
1002
}
1002
{
1000
MANEDIT
1070
     0
1002
}
1002
{
1000
NOSEL
1070
     0
1002
}
1002
{
1000
BEHIND
1070
     0
1002
}
1002
{
1000
OTHER
1070
     0
1002
}
1002
{
1000
REACTOR
1002
}
  0
LINE
  5
3505
  8
AM_0
 10
101.0489191219436
 20
203.77454083890959
 30
0.0
 11
101.0489191219436
 21
203.17454083890971
 31
0.0
  0
ARC
  5
3506
  8
AM_0
 10
100.0489191219436
 20
203.77454083890959
 30
0.0
 40
1.0
 50
0.0
 51
90.0
1001
GENIUS_GENODEF_13
1002
{
1000
HIER
1070
     0
1002
}
1002
{
1000
MANEDIT
1070
     0
1002
}
1002
{
1000
NOSEL
1070
     0
1002
}
1002
{
1000
BEHIND
1070
     0
1002
}
1002
{
1000
OTHER
1070
     0
1002
}
1002
{
1000
REACTOR
1002
}
1001
GENIUS_GENOBJ-N-FIL_13
1002
{
1000
OWNER
1000
GEN
1002
}
  0
LINE
  5
3507
  8
AM_0
 10
101.0489191219436
 20
211.5745408389096
 30
0.0
 11
101.0489191219436
 21
209.27454083890959
 31
0.0
  0
ARC
  5
3508
  8
AM_0
 10
100.0489191219436
 20
209.27454083890959
 30
0.0
 40
1.0
 50
270.0
 51
0.0
1001
GENIUS_GENODEF_13
1002
{
1000
HIER
1070
     0
1002
}
1002
{
1000
MANEDIT
1070
     0
1002
}
1002
{
1000
NOSEL
1070
     0
1002
}
1002
{
1000
BEHIND
1070
     0
1002
}
1002
{
1000
OTHER
1070
     0
1002
}
1002
{
1000
REACTOR
1002
}
1001
GENIUS_GENOBJ-N-FIL_13
1002
{
1000
OWNER
1000
GEN
1002
}
  0
ARC
  5
3509
  8
AM_0
 10
100.0489191219436
 20
211.5745408389096
 30
0.0
 40
1.0
 50
0.0
 51
90.0
1001
GENIUS_GENODEF_13
1002
{
1000
HIER
1070
     0
1002
}
1002
{
1000
MANEDIT
1070
     0
1002
}
1002
{
1000
NOSEL
1070
     0
1002
}
1002
{
1000
BEHIND
1070
     0
1002
}
1002
{
1000
OTHER
1070
     0
1002
}
1002
{
1000
REACTOR
1002
}
1001
GENIUS_GENOBJ-N-FIL_13
1002
{
1000
OWNER
1000
GEN
1002
}
  0
LINE
  5
350A
  8
AM_0
 10
101.0489191219436
 20
229.4745408389096
 30
0.0
 11
101.0489191219436
 21
225.9745408389096
 31
0.0
  0
ARC
  5
350B
  8
AM_0
 10
100.0489191219436
 20
225.9745408389096
 30
0.0
 40
1.0
 50
270.0
 51
0.0
1001
GENIUS_GENODEF_13
1002
{
1000
HIER
1070
     0
1002
}
1002
{
1000
MANEDIT
1070
     0
1002
}
1002
{
1000
NOSEL
1070
     0
1002
}
1002
{
1000
BEHIND
1070
     0
1002
}
1002
{
1000
OTHER
1070
     0
1002
}
1002
{
1000
REACTOR
1002
}
1001
GENIUS_GENOBJ-N-FIL_13
1002
{
1000
OWNER
1000
GEN
1002
}
  0
ARC
  5
350C
  8
AM_0
 10
100.0489191219436
 20
220.2745408389097
 30
0.0
 40
1.0
 50
0.0
 51
90.0
1001
GENIUS_GENODEF_13
1002
{
1000
HIER
1070
     0
1002
}
1002
{
1000
MANEDIT
1070
     0
1002
}
1002
{
1000
NOSEL
1070
     0
1002
}
1002
{
1000
BEHIND
1070
     0
1002
}
1002
{
1000
OTHER
1070
     0
1002
}
1002
{
1000
REACTOR
1002
}
1001
GENIUS_GENOBJ-N-FIL_13
1002
{
1000
OWNER
1000
GEN
1002
}
  0
LINE
  5
350D
  8
AM_0
 10
101.0489191219436
 20
220.2745408389097
 30
0.0
 11
101.0489191219436
 21
217.0745408389096
 31
0.0
  0
ARC
  5
350E
  8
AM_0
 10
100.0489191219436
 20
236.9745408389096
 30
0.0
 40
1.0
 50
270.0
 51
0.0
1001
GENIUS_GENODEF_13
1002
{
1000
HIER
1070
     0
1002
}
1002
{
1000
MANEDIT
1070
     0
1002
}
1002
{
1000
NOSEL
1070
     0
1002
}
1002
{
1000
BEHIND
1070
     0
1002
}
1002
{
1000
OTHER
1070
     0
1002
}
1002
{
1000
REACTOR
1002
}
1001
GENIUS_GENOBJ-N-FIL_13
1002
{
1000
OWNER
1000
GEN
1002
}
  0
ARC
  5
350F
  8
AM_0
 10
100.0489191219436
 20
229.4745408389096
 30
0.0
 40
1.0
 50
0.0
 51
90.0
1001
GENIUS_GENOBJ-N-FIL_13
1002
{
1000
OWNER
1000
GEN
1002
}
1001
GENIUS_GENODEF_13
1002
{
1000
HIER
1070
     0
1002
}
1002
{
1000
MANEDIT
1070
     0
1002
}
1002
{
1000
NOSEL
1070
     0
1002
}
1002
{
1000
BEHIND
1070
     0
1002
}
1002
{
1000
OTHER
1070
     0
1002
}
1002
{
1000
REACTOR
1002
}
  0
LINE
  5
3510
  8
0
 10
129.54891912194361
 20
207.9745538389096
 30
0.0
 11
145.68849912194341
 21
208.53815483890961
 31
0.0
  0
LINE
  5
3511
  8
AM_0
 10
129.54891912194361
 20
201.4745408389096
 30
0.0
 11
122.5489191219436
 21
198.4745408389096
 31
0.0
  0
ARC
  5
3512
  8
0
 10
145.5489691219436
 20
212.53571183890961
 30
0.0
 40
4.000000199999997
 50
271.9999999999971
 51
0.0
  0
ARC
  5
3513
  8
0
 10
152.9923291219435
 20
209.60388983890959
 30
0.0
 40
4.000000199999997
 50
108.365419999998
 51
158.501450000002
  0
LINE
  5
3514
  8
0
 10
129.54891912194361
 20
218.4745538389096
 30
0.0
 11
149.54889912194361
 21
218.4745538389096
 31
0.0
  0
LINE
  5
3515
  8
0
 10
129.54891912194361
 20
232.5375278389096
 30
0.0
 11
149.54889912194361
 21
232.5375278389096
 31
0.0
  0
ARC
  5
3516
  8
AM_0
 10
100.0489191219436
 20
241.4745408389096
 30
0.0
 40
1.0
 50
0.0
 51
90.0
1001
GENIUS_GENOBJ-N-FIL_13
1002
{
1000
OWNER
1000
GEN
1002
}
1001
GENIUS_GENODEF_13
1002
{
1000
HIER
1070
     0
1002
}
1002
{
1000
MANEDIT
1070
     0
1002
}
1002
{
1000
NOSEL
1070
     0
1002
}
1002
{
1000
BEHIND
1070
     0
1002
}
1002
{
1000
OTHER
1070
     0
1002
}
1002
{
1000
REACTOR
1002
}
  0
POINT
  5
3517
  8
0
 10
129.54891912194361
 20
264.4745408389096
 30
0.0
  0
LINE
  5
3518
  8
0
 10
153.68853912194359
 20
232.4108648389097
 30
0.0
 11
187.11873912194361
 21
231.2434598389097
 31
0.0
  0
ARC
  5
3519
  8
0
 10
215.54889912194361
 20
217.5456308389096
 30
0.0
 40
5.0000001000000003
 50
179.999989999999
 51
225.0
  0
LINE
  5
351A
  8
0
 10
198.0489691219436
 20
237.97455683890959
 30
0.0
 11
210.54891912194361
 21
237.97455683890959
 31
0.0
  0
LINE
  5
351B
  8
0
 10
198.04890912194361
 20
225.97453883890961
 30
0.0
 11
205.72341912194349
 21
225.70654883890961
 31
0.0
  0
ARC
  5
351C
  8
0
 10
192.0489691219436
 20
228.68590583890949
 30
0.0
 40
3.0
 50
179.999989999999
 51
268.00000999999861
  0
LINE
  5
351D
  8
0
 10
191.9442391219437
 20
225.6877208389096
 30
0.0
 11
198.04890912194361
 21
225.4745408389096
 31
0.0
  0
ARC
  5
351E
  8
0
 10
190.1641291219434
 20
221.94440483890961
 30
0.0
 40
4.000000199999997
 50
74.380296000000413
 51
108.365419999998
  0
LINE
  5
351F
  8
0
 10
189.0489691219436
 20
237.97455683890959
 30
0.0
 11
198.0489691219436
 21
237.97455683890959
 31
0.0
  0
ARC
  5
3520
  8
0
 10
187.04889912194361
 20
229.2446978389097
 30
0.0
 40
2.00000007
 50
0.0
 51
88.000000000002899
  0
LINE
  5
3521
  8
0
 10
189.0489691219436
 20
228.68590583890949
 30
0.0
 11
189.0489691219436
 21
229.2446978389097
 31
0.0
  0
ARC
  5
3522
  8
0
 10
205.5489691219436
 20
220.70960183890949
 30
0.0
 40
5.0000001000000003
 50
0.0
 51
88.000000000002899
  0
LINE
  5
3523
  8
0
 10
154.5489691219436
 20
272.41454483890971
 30
0.0
 11
189.0489691219436
 21
272.41454483890971
 31
0.0
  0
LINE
  5
3524
  8
0
 10
198.0489691219436
 20
252.32663783890959
 30
0.0
 11
210.54891912194361
 21
252.32663783890959
 31
0.0
  0
LINE
  5
3525
  8
0
 10
189.0489691219436
 20
252.32619383890969
 30
0.0
 11
198.0489691219436
 21
252.32619383890969
 31
0.0
  0
ARC
  5
3526
  8
0
 10
349.54893912194359
 20
203.01395183890941
 30
0.0
 40
8.0000000999999976
 50
179.999989999999
 51
252.54238999999831
  0
ARC
  5
3527
  8
0
 10
346.5489391219437
 20
193.47456983890959
 30
0.0
 40
2.00000007
 50
0.0
 51
90.00000299999769
  0
ARC
  5
3528
  8
0
 10
315.54891912194358
 20
210.47455583890959
 30
0.0
 40
15.000000299999989
 50
179.999989999999
 51
270.0
  0
ARC
  5
3529
  8
0
 10
220.6290991219436
 20
199.47456983890959
 30
0.0
 40
4.000000199999997
 50
270.0
 51
342.25533000000138
  0
LINE
  5
352A
  8
ｶｸﾚｾﾝ2
 10
323.0489191219437
 20
195.47455583890951
 30
0.0
 11
323.0489191219437
 21
177.4745528389096
 31
0.0
  0
LINE
  5
352B
  8
ｶｸﾚｾﾝ2
 10
338.0489191219437
 20
195.47455583890951
 30
0.0
 11
338.0489191219437
 21
177.4745528389096
 31
0.0
  0
LINE
  5
352C
  8
ﾁｭｳｼﾝｾﾝ1
 10
330.54891912194358
 20
172.95859600756231
 30
0.0
 11
330.54891912194358
 21
199.00298183890959
 31
0.0
  0
LINE
  5
352D
  8
0
 10
225.5489191219437
 20
179.4745538389096
 30
0.0
 11
310.5489391219437
 21
179.4745538389096
 31
0.0
  0
ARC
  5
352E
  8
0
 10
225.5489191219437
 20
177.4745528389096
 30
0.0
 40
2.00000007
 50
90.00000299999769
 51
180.00001000000091
  0
LINE
  5
352F
  8
0
 10
312.5489191219437
 20
177.4745528389096
 30
0.0
 11
348.5489191219437
 21
177.4745528389096
 31
0.0
  0
ARC
  5
3530
  8
0
 10
310.5489391219437
 20
177.4745528389096
 30
0.0
 40
2.00000007
 50
0.0
 51
90.00000299999769
  0
LINE
  5
3531
  8
0
 10
312.5489191219437
 20
177.4745528389096
 30
0.0
 11
312.5489191219437
 21
177.4745528389096
 31
0.0
  0
LINE
  5
3532
  8
0
 10
348.5489191219437
 20
177.4745528389096
 30
0.0
 11
348.5489191219437
 21
193.47456983890959
 31
0.0
  0
LINE
  5
3533
  8
0
 10
224.43879912194359
 20
198.25543883890961
 30
0.0
 11
239.3586091219436
 21
244.8798458389096
 31
0.0
  0
ARC
  5
3534
  8
0
 10
222.54891912194361
 20
199.23192383890941
 30
0.0
 40
3.0
 50
27.893113000001161
 51
45.00000100000149
  0
LINE
  5
3535
  8
0
 10
225.5489191219437
 20
209.0567708389095
 30
0.0
 11
227.89521912194371
 21
209.0567708389095
 31
0.0
  0
LINE
  5
3536
  8
0
 10
225.5489191219437
 20
226.40953883890961
 30
0.0
 11
233.44812912194359
 21
226.40953883890961
 31
0.0
  0
ARC
  5
3537
  8
0
 10
235.5489691219436
 20
246.09896183890959
 30
0.0
 40
4.000000199999997
 50
342.25533000000138
 51
0.0
  0
ARC
  5
3538
  8
0
 10
312.5489191219437
 20
217.9322888389097
 30
0.0
 40
8.0000000999999976
 50
270.0
 51
0.0
  0
LINE
  5
3539
  8
0
 10
315.54891912194358
 20
195.47455583890951
 30
0.0
 11
346.5489391219437
 21
195.47455583890951
 31
0.0
  0
LINE
  5
353A
  8
0
 10
305.62389912194351
 20
209.93228783890959
 30
0.0
 11
312.5489191219437
 21
209.93228783890959
 31
0.0
  0
LINE
  5
353B
  8
AM_0
 10
-14.451080878056359
 20
330.0745408389098
 30
0.0
 11
111.0489191219436
 21
330.07454083890963
 31
0.0
  0
ARC
  5
353C
  8
AM_0
 10
17.548919121943641
 20
296.4745408389096
 30
0.0
 40
2.0
 50
0.0
 51
90.0
1001
GENIUS_GENOBJ-N-FIL_13
1002
{
1000
OWNER
1000
GEN
1002
}
1001
GENIUS_GENODEF_13
1002
{
1000
HIER
1070
     0
1002
}
1002
{
1000
MANEDIT
1070
     0
1002
}
1002
{
1000
NOSEL
1070
     0
1002
}
1002
{
1000
BEHIND
1070
     0
1002
}
1002
{
1000
OTHER
1070
     0
1002
}
1002
{
1000
REACTOR
1002
}
  0
LINE
  5
353D
  8
AM_0
 10
-9.9510808780563593
 20
290.4745408389096
 30
0.0
 11
46.048919121943619
 21
290.4745408389096
 31
0.0
1001
GENIUS_GENOREF_13
1005
35F1
  0
LINE
  5
353E
  8
AM_0
 10
-28.951080878056359
 20
284.4745408389096
 30
0.0
 11
-22.238446077014149
 21
284.4745408389096
 31
0.0
  0
ARC
  5
353F
  8
AM_0
 10
-18.451080878056359
 20
323.37267296752998
 30
0.0
 40
2.0
 50
311.63353933656748
 51
0.0
1001
GENIUS_GENOBJ-N-FIL_13
1002
{
1000
OWNER
1000
GEN
1002
}
1001
GENIUS_GENODEF_13
1002
{
1000
HIER
1070
     0
1002
}
1002
{
1000
MANEDIT
1070
     0
1002
}
1002
{
1000
NOSEL
1070
     0
1002
}
1002
{
1000
BEHIND
1070
     0
1002
}
1002
{
1000
OTHER
1070
     0
1002
}
1002
{
1000
REACTOR
1002
}
  0
ARC
  5
3540
  8
AM_0
 10
-18.951080878056359
 20
317.57640871028912
 30
0.0
 40
2.0
 50
131.63353933656751
 51
180.0
1001
GENIUS_GENODEF_13
1002
{
1000
HIER
1070
     0
1002
}
1002
{
1000
MANEDIT
1070
     0
1002
}
1002
{
1000
NOSEL
1070
     0
1002
}
1002
{
1000
BEHIND
1070
     0
1002
}
1002
{
1000
OTHER
1070
     0
1002
}
1002
{
1000
REACTOR
1002
}
1001
GENIUS_GENOBJ-N-FIL_13
1002
{
1000
OWNER
1000
GEN
1002
}
  0
LINE
  5
3541
  8
AM_0
 10
-17.122353200396329
 20
321.87785433016279
 30
0.0
 11
-20.279808555716158
 21
319.07122734765647
 31
0.0
  0
ARC
  5
3542
  8
AM_0
 10
-9.9510808780563593
 20
289.4745408389096
 30
0.0
 40
1.0
 50
90.0
 51
180.0
1001
GENIUS_GENODEF_13
1002
{
1000
HIER
1070
     0
1002
}
1002
{
1000
MANEDIT
1070
     0
1002
}
1002
{
1000
NOSEL
1070
     0
1002
}
1002
{
1000
BEHIND
1070
     0
1002
}
1002
{
1000
OTHER
1070
     0
1002
}
1002
{
1000
REACTOR
1002
}
1001
GENIUS_GENOBJ-N-FIL_13
1002
{
1000
OWNER
1000
GEN
1002
}
  0
LINE
  5
3543
  8
AM_0
 10
19.548919121943641
 20
296.4745408389096
 30
0.0
 11
19.548919121943641
 21
290.4745408389096
 31
0.0
  0
LINE
  5
3544
  8
AM_0
 10
15.548919121943641
 20
298.4745408389096
 30
0.0
 11
15.548919121943641
 21
290.4745408389096
 31
0.0
  0
CIRCLE
  5
3545
  8
AM_0N
 10
11.548919121943641
 20
294.4745408389096
 30
0.0
 40
2.799999999999998
1001
GENIUS_GENOREF_13
1005
0
  0
LINE
  5
3546
  8
AM_0
 10
3.548919121943638
 20
296.4745408389096
 30
0.0
 11
3.548919121943638
 21
290.4745408389096
 31
0.0
  0
LINE
  5
3547
  8
AM_0
 10
7.5489191219436371
 20
298.4745408389096
 30
0.0
 11
7.5489191219436371
 21
290.4745408389096
 31
0.0
  0
LINE
  5
3548
  8
AM_0N
 10
11.296419121943581
 20
292.99594564413849
 30
0.0
 11
11.80141912194369
 21
292.99594564413849
 31
0.0
1001
GENIUS_GENOREF_13
1005
0
  0
LINE
  5
3549
  8
AM_0N
 10
11.296419121943581
 20
295.95313603368072
 30
0.0
 11
11.80141912194369
 21
295.95313603368072
 31
0.0
1001
GENIUS_GENOREF_13
1005
0
  0
LINE
  5
354A
  8
AM_0
 10
5.548919121943638
 20
298.4745408389096
 30
0.0
 11
17.548919121943641
 21
298.4745408389096
 31
0.0
1001
GENIUS_GENOREF_13
1005
35F1
  0
LINE
  5
354B
  8
AM_0N
 10
11.296419121943581
 20
295.95313603368072
 30
0.0
 11
11.296419121943581
 21
294.72704083890972
 31
0.0
1001
GENIUS_GENOREF_13
1005
0
  0
LINE
  5
354C
  8
AM_0N
 10
11.296419121943581
 20
294.22204083890961
 30
0.0
 11
11.296419121943581
 21
292.99594564413849
 31
0.0
1001
GENIUS_GENOREF_13
1005
0
  0
LINE
  5
354D
  8
AM_0N
 10
10.070323927172581
 20
294.22204083890961
 30
0.0
 11
10.070323927172581
 21
294.72704083890972
 31
0.0
1001
GENIUS_GENOREF_13
1005
0
  0
LINE
  5
354E
  8
AM_0N
 10
11.296419121943581
 20
294.72704083890972
 30
0.0
 11
10.070323927172581
 21
294.72704083890972
 31
0.0
1001
GENIUS_GENOREF_13
1005
0
  0
LINE
  5
354F
  8
AM_0N
 10
11.296419121943581
 20
294.22204083890961
 30
0.0
 11
10.070323927172581
 21
294.22204083890961
 31
0.0
1001
GENIUS_GENOREF_13
1005
0
  0
ARC
  5
3550
  8
AM_0
 10
5.548919121943638
 20
296.4745408389096
 30
0.0
 40
2.0
 50
90.0
 51
180.0
1001
GENIUS_GENOBJ-N-FIL_13
1002
{
1000
OWNER
1000
GEN
1002
}
1001
GENIUS_GENODEF_13
1002
{
1000
HIER
1070
     0
1002
}
1002
{
1000
MANEDIT
1070
     0
1002
}
1002
{
1000
NOSEL
1070
     0
1002
}
1002
{
1000
BEHIND
1070
     0
1002
}
1002
{
1000
OTHER
1070
     0
1002
}
1002
{
1000
REACTOR
1002
}
  0
LINE
  5
3551
  8
AM_0N
 10
11.80141912194369
 20
295.95313603368072
 30
0.0
 11
11.80141912194369
 21
294.72704083890972
 31
0.0
1001
GENIUS_GENOREF_13
1005
0
  0
LINE
  5
3552
  8
AM_0N
 10
13.027514316714701
 20
294.72704083890972
 30
0.0
 11
11.80141912194369
 21
294.72704083890972
 31
0.0
1001
GENIUS_GENOREF_13
1005
0
  0
LINE
  5
3553
  8
AM_0N
 10
13.027514316714701
 20
294.22204083890961
 30
0.0
 11
11.80141912194369
 21
294.22204083890961
 31
0.0
1001
GENIUS_GENOREF_13
1005
0
  0
LINE
  5
3554
  8
AM_0N
 10
11.80141912194369
 20
294.22204083890961
 30
0.0
 11
11.80141912194369
 21
292.99594564413849
 31
0.0
1001
GENIUS_GENOREF_13
1005
0
  0
LINE
  5
3555
  8
AM_0N
 10
13.027514316714701
 20
294.22204083890961
 30
0.0
 11
13.027514316714701
 21
294.72704083890972
 31
0.0
1001
GENIUS_GENOREF_13
1005
0
  0
ARC
  5
3556
  8
AM_0
 10
-14.451080878056359
 20
328.0745408389098
 30
0.0
 40
2.0
 50
90.0
 51
180.0
1001
GENIUS_GENOBJ-N-FIL_13
1002
{
1000
OWNER
1000
GEN
1002
}
1001
GENIUS_GENODEF_13
1002
{
1000
HIER
1070
     0
1002
}
1002
{
1000
MANEDIT
1070
     0
1002
}
1002
{
1000
NOSEL
1070
     0
1002
}
1002
{
1000
BEHIND
1070
     0
1002
}
1002
{
1000
OTHER
1070
     0
1002
}
1002
{
1000
REACTOR
1002
}
  0
ARC
  5
3557
  8
AM_0
 10
46.048919121943619
 20
289.4745408389096
 30
0.0
 40
1.0
 50
0.0
 51
90.0
1001
GENIUS_GENODEF_13
1002
{
1000
HIER
1070
     0
1002
}
1002
{
1000
MANEDIT
1070
     0
1002
}
1002
{
1000
NOSEL
1070
     0
1002
}
1002
{
1000
BEHIND
1070
     0
1002
}
1002
{
1000
OTHER
1070
     0
1002
}
1002
{
1000
REACTOR
1002
}
1001
GENIUS_GENOBJ-N-FIL_13
1002
{
1000
OWNER
1000
GEN
1002
}
  0
LINE
  5
3558
  8
0
 10
212.01339912194359
 20
364.93900883890961
 30
0.0
 11
224.6702491219437
 21
377.59588883890962
 31
0.0
  0
LINE
  5
3559
  8
0
 10
129.54891912194361
 20
296.41155383890958
 30
0.0
 11
179.2904191219437
 21
296.41155383890958
 31
0.0
  0
LINE
  5
355A
  8
0
 10
129.54891912194361
 20
310.47454883890958
 30
0.0
 11
181.2823591219435
 21
310.47454883890958
 31
0.0
  0
LINE
  5
355B
  8
0
 10
129.54891912194361
 20
320.97457883890962
 30
0.0
 11
156.65364912194349
 21
321.92107883890958
 31
0.0
  0
LINE
  5
355C
  8
AM_0
 10
111.0489191219436
 20
330.4745408389096
 30
0.0
 11
122.5489191219436
 21
330.4745408389096
 31
0.0
  0
LINE
  5
355D
  8
AM_0
 10
122.5489191219436
 20
330.4745408389096
 30
0.0
 11
129.54891912194361
 21
327.4745408389096
 31
0.0
  0
LINE
  5
355E
  8
0
 10
159.5489191219435
 20
344.84578883890958
 30
0.0
 11
159.5489191219435
 21
324.91921883890979
 31
0.0
  0
LINE
  5
355F
  8
0
 10
167.79024912194359
 20
323.6540288389096
 30
0.0
 11
188.17023912194361
 21
344.03401883890967
 31
0.0
  0
ARC
  5
3560
  8
0
 10
181.2823591219435
 20
305.47453883890972
 30
0.0
 40
5.0000001000000003
 50
315.0
 51
90.00000299999769
  0
LINE
  5
3561
  8
0
 10
179.2904191219437
 20
296.4115238389096
 30
0.0
 11
184.81788912194369
 21
301.93899083890972
 31
0.0
  0
LINE
  5
3562
  8
0
 10
166.39752912194359
 20
322.09171883890969
 30
0.0
 11
172.23000912194371
 21
310.47457883890962
 31
0.0
  0
LINE
  5
3563
  8
0
 10
156.65364912194349
 20
321.92107883890958
 30
0.0
 11
164.42922912194351
 21
322.19257883890958
 31
0.0
  0
ARC
  5
3564
  8
0
 10
156.54891912194361
 20
324.91921883890979
 30
0.0
 40
3.0
 50
271.9999999999971
 51
0.0
  0
ARC
  5
3565
  8
0
 10
164.25471912194351
 20
327.1895288389095
 30
0.0
 40
5.0000001000000003
 50
271.9999999999971
 51
315.0
  0
ARC
  5
3566
  8
0
 10
186.21759912194341
 20
351.67594883890962
 30
0.0
 40
3.0
 50
271.9999999999971
 51
346.38107000000082
  0
ARC
  5
3567
  8
0
 10
162.5489191219435
 20
344.84578883890958
 30
0.0
 40
3.0
 50
91.999998000000545
 51
180.00001000000091
  0
LINE
  5
3568
  8
0
 10
162.4442191219436
 20
347.8439588389096
 30
0.0
 11
186.3223291219436
 21
348.6778088389097
 31
0.0
  0
LINE
  5
3569
  8
0
 10
198.0489691219436
 20
326.62249883890962
 30
0.0
 11
210.54891912194361
 21
326.62249883890962
 31
0.0
  0
LINE
  5
356A
  8
0
 10
198.0489691219436
 20
340.97452883890969
 30
0.0
 11
210.54891912194361
 21
340.97452883890969
 31
0.0
  0
LINE
  5
356B
  8
0
 10
189.0489691219436
 20
326.62291883890958
 30
0.0
 11
198.0489691219436
 21
326.62291883890958
 31
0.0
  0
LINE
  5
356C
  8
0
 10
189.0489691219436
 20
340.97452883890969
 30
0.0
 11
198.0489691219436
 21
340.97452883890969
 31
0.0
  0
ARC
  5
356D
  8
0
 10
186.0489691219436
 20
346.15531883890958
 30
0.0
 40
3.0
 50
315.0
 51
0.0
  0
LINE
  5
356E
  8
0
 10
198.04890912194361
 20
352.97455883890979
 30
0.0
 11
205.72341912194349
 21
353.24254883890961
 31
0.0
  0
LINE
  5
356F
  8
0
 10
191.9442391219437
 20
353.26138883890962
 30
0.0
 11
198.04890912194361
 21
353.47453883890972
 31
0.0
  0
ARC
  5
3570
  8
0
 10
192.0489691219436
 20
350.26321883890961
 30
0.0
 40
3.0
 50
91.999998000000545
 51
166.3810700000007
  0
ARC
  5
3571
  8
0
 10
205.5489691219436
 20
358.23952883890962
 30
0.0
 40
5.0000001000000003
 50
271.9999999999971
 51
0.0
  0
ARC
  5
3572
  8
0
 10
215.54889912194361
 20
361.40350883890972
 30
0.0
 40
5.0000001000000003
 50
135.0
 51
180.00001000000091
  0
POLYLINE
  5
3573
  8
0
 66
     1
 10
0.0
 20
0.0
 30
0.0
  0
VERTEX
  5
3574
  8
0
 10
263.31810912194368
 20
344.94688883890962
 30
0.0
 42
0.038759451
  0
VERTEX
  5
3575
  8
0
 10
266.06592912194373
 20
347.85772883890962
 30
0.0
 42
0.045306413
  0
VERTEX
  5
3576
  8
0
 10
268.28811912194362
 20
351.18544883890962
 30
0.0
 42
0.052171431
  0
VERTEX
  5
3577
  8
0
 10
269.82480912194359
 20
354.88324883890959
 30
0.0
 42
0.057266618
  0
VERTEX
  5
3578
  8
0
 10
270.51906912194357
 20
358.82200883890971
 30
0.0
 42
0.058402263
  0
VERTEX
  5
3579
  8
0
 10
270.28830912194371
 20
362.81020883890972
 30
0.0
 42
0.055045302
  0
VERTEX
  5
357A
  8
0
 10
269.16279912194358
 20
366.64537883890949
 30
0.0
 42
0.048778173
  0
VERTEX
  5
357B
  8
0
 10
267.26994912194368
 20
370.16587883890952
 30
0.0
 42
0.041944207
  0
VERTEX
  5
357C
  8
0
 10
264.77241912194359
 20
373.28890883890961
 30
0.0
 42
0.035908261
  0
VERTEX
  5
357D
  8
0
 10
261.81984912194361
 20
375.98971883890948
 30
0.0
 42
0.031063208
  0
VERTEX
  5
357E
  8
0
 10
258.5331691219435
 20
378.27364883890948
 30
0.0
 42
0.027381869
  0
VERTEX
  5
357F
  8
0
 10
255.00123912194371
 20
380.16076883890969
 30
0.0
 42
0.024647405
  0
VERTEX
  5
3580
  8
0
 10
251.29224912194351
 20
381.67189883890961
 30
0.0
 42
0.022677562
  0
VERTEX
  5
3581
  8
0
 10
247.4568391219436
 20
382.82656883890951
 30
0.0
 42
0.021321502
  0
VERTEX
  5
3582
  8
0
 10
243.53442912194359
 20
383.64040883890971
 30
0.0
 42
0.020471074
  0
VERTEX
  5
3583
  8
0
 10
239.55753912194359
 20
384.12445883890962
 30
0.0
 42
0.020088488
  0
VERTEX
  5
3584
  8
0
 10
235.5489391219437
 20
384.28537883890959
 30
0.0
  0
SEQEND
  5
3585
  8
0
  0
ARC
  5
3586
  8
0
 10
328.5489391219437
 20
373.47457883890962
 30
0.0
 40
8.0000000999999976
 50
179.999989999999
 51
270.0
  0
LINE
  5
3587
  8
0
 10
235.54890912194361
 20
319.65988883890952
 30
0.0
 11
263.31756912194351
 21
344.94634883890961
 31
0.0
  0
LINE
  5
3588
  8
0
 10
235.5489691219436
 20
304.1223098389097
 30
0.0
 11
239.54889912194361
 21
304.1223098389097
 31
0.0
  0
LINE
  5
3589
  8
0
 10
235.54890912194361
 20
319.65988883890952
 30
0.0
 11
235.5504391219437
 21
319.65988883890952
 31
0.0
  0
POLYLINE
  5
358A
  8
0
 66
     1
 10
0.0
 20
0.0
 30
0.0
  0
VERTEX
  5
358B
  8
0
 10
269.00559912194348
 20
362.1159488389095
 30
0.0
 42
0.046334034
  0
VERTEX
  5
358C
  8
0
 10
267.15375912194372
 20
363.17359883890953
 30
0.0
 42
0.024113349
  0
VERTEX
  5
358D
  8
0
 10
265.17429912194359
 20
363.97345883890972
 30
0.0
 42
0.015482213
  0
VERTEX
  5
358E
  8
0
 10
263.13735912194369
 20
364.61812883890963
 30
0.0
 42
0.011170747
  0
VERTEX
  5
358F
  8
0
 10
261.0696091219437
 20
365.15461883890958
 30
0.0
 42
0.0086851837
  0
VERTEX
  5
3590
  8
0
 10
258.98205912194362
 20
365.60929883890958
 30
0.0
 42
0.0071112966
  0
VERTEX
  5
3591
  8
0
 10
256.8803491219436
 20
365.99830883890962
 30
0.0
 42
0.0060487861
  0
VERTEX
  5
3592
  8
0
 10
254.76765912194361
 20
366.33232883890969
 30
0.0
 42
0.0052886795
  0
VERTEX
  5
3593
  8
0
 10
252.6502891219437
 20
366.6181688389097
 30
0.0
 42
0.004745088
  0
VERTEX
  5
3594
  8
0
 10
250.52517912194361
 20
366.86182883890962
 30
0.0
 42
0.0043374779
  0
VERTEX
  5
3595
  8
0
 10
248.39547912194351
 20
367.06696883890959
 30
0.0
 42
0.0040309373
  0
VERTEX
  5
3596
  8
0
 10
246.26268912194359
 20
367.23646883890967
 30
0.0
 42
0.0038017218
  0
VERTEX
  5
3597
  8
0
 10
244.1274691219437
 20
367.3726088389098
 30
0.0
 42
0.0036333144
  0
VERTEX
  5
3598
  8
0
 10
241.99038912194371
 20
367.47697883890947
 30
0.0
 42
0.0035147919
  0
VERTEX
  5
3599
  8
0
 10
239.85198912194369
 20
367.55083883890961
 30
0.0
 42
0.003439074
  0
VERTEX
  5
359A
  8
0
 10
237.71277912194361
 20
367.59496883890961
 30
0.0
 42
0.0034021156
  0
VERTEX
  5
359B
  8
0
 10
235.57308912194361
 20
367.60984883890973
 30
0.0
  0
SEQEND
  5
359C
  8
0
  0
LINE
  5
359D
  8
0
 10
225.5489191219437
 20
367.60984883890973
 30
0.0
 11
235.5489691219436
 21
367.60984883890973
 31
0.0
  0
LINE
  5
359E
  8
0
 10
348.5489191219437
 20
317.47453883890972
 30
0.0
 11
348.5489191219437
 21
344.74249883890963
 31
0.0
  0
LINE
  5
359F
  8
0
 10
352.5489391219437
 20
299.97457283890969
 30
0.0
 11
352.5489391219437
 21
334.97452883890969
 31
0.0
  0
LINE
  5
35A0
  8
0
 10
348.5489191219437
 20
290.20662983890969
 30
0.0
 11
348.5489191219437
 21
317.47453883890972
 31
0.0
  0
LINE
  5
35A1
  8
0
 10
343.04889912194358
 20
285.29912783890961
 30
0.0
 11
347.04894912194351
 21
287.60851283890958
 31
0.0
  0
ARC
  5
35A2
  8
0
 10
344.54889912194358
 20
282.70104383890958
 30
0.0
 40
3.0
 50
120.0000000000005
 51
180.00001000000091
  0
ARC
  5
35A3
  8
0
 10
345.54891912194358
 20
290.20662983890969
 30
0.0
 40
3.0
 50
300.00000000000051
 51
0.0
  0
LINE
  5
35A4
  8
0
 10
352.5489391219437
 20
299.97457283890969
 30
0.0
 11
348.5489191219437
 21
299.97457283890969
 31
0.0
  0
ARC
  5
35A5
  8
0
 10
308.54889912194358
 20
348.91729883890957
 30
0.0
 40
8.0000000999999976
 50
90.00000299999769
 51
180.00001000000091
  0
LINE
  5
35A6
  8
0
 10
308.54889912194358
 20
356.91724883890959
 30
0.0
 11
316.94841912194357
 21
356.91724883890959
 31
0.0
  0
ARC
  5
35A7
  8
0
 10
345.54891912194358
 20
344.74249883890963
 30
0.0
 40
3.0
 50
0.0
 51
60.000002000001302
  0
LINE
  5
35A8
  8
0
 10
352.5489391219437
 20
334.97452883890969
 30
0.0
 11
348.5489191219437
 21
334.97452883890969
 31
0.0
  0
LINE
  5
35A9
  8
0
 10
328.5489391219437
 20
365.47456883890959
 30
0.0
 11
337.5489391219437
 21
365.47456883890959
 31
0.0
  0
LINE
  5
35AA
  8
0
 10
343.0489291219435
 20
349.64998883890962
 30
0.0
 11
347.04891912194358
 21
347.34058883890953
 31
0.0
  0
ARC
  5
35AB
  8
0
 10
344.54889912194358
 20
352.24807883890969
 30
0.0
 40
3.0
 50
179.999989999999
 51
240.00000999999969
  0
ARC
  5
35AC
  8
0
 10
337.5489391219437
 20
361.47457883890962
 30
0.0
 40
4.000000199999997
 50
0.0
 51
90.00000299999769
  0
LINE
  5
35AD
  8
0
 10
235.54890912194361
 20
388.9745888389096
 30
0.0
 11
312.7583191219436
 21
386.95279883890947
 31
0.0
  0
ARC
  5
35AE
  8
0
 10
222.54891912194361
 20
379.71721883890962
 30
0.0
 40
3.0
 50
315.0
 51
0.0
  0
LINE
  5
35AF
  8
0
 10
227.4790891219437
 20
388.69276883890973
 30
0.0
 11
235.54890912194361
 21
388.9745888389096
 31
0.0
  0
ARC
  5
35B0
  8
0
 10
227.54889912194361
 20
386.69395883890962
 30
0.0
 40
2.00000007
 50
91.999998000000545
 51
180.00001000000091
  0
ARC
  5
35B1
  8
0
 10
312.5489191219437
 20
378.95548883890967
 30
0.0
 40
8.0000000999999976
 50
0.0
 51
88.499997000000747
  0
ARC
  5
35B4
  8
0
 10
629.76163922802914
 20
300.47454383890971
 30
0.0
 40
65.000000999999997
 50
0.0
 51
180.00001000000091
  0
LINE
  5
35B5
  8
0
 10
514.79430722802886
 20
192.9161888389097
 30
0.0
 11
531.34574222802917
 21
304.12230983890981
 31
0.0
  0
LINE
  5
35B6
  8
0
 10
744.72895022802913
 20
192.9161888389097
 30
0.0
 11
728.17755122802896
 21
304.12233983890968
 31
0.0
  0
LINE
  5
35B7
  8
0
 10
552.76163822802926
 20
349.56823883890968
 30
0.0
 11
552.76163822802926
 21
251.21181383890971
 31
0.0
  0
LINE
  5
35B8
  8
0
 10
706.76164022802902
 20
349.56823883890968
 30
0.0
 11
706.76164022802902
 21
251.21181383890971
 31
0.0
  0
LINE
  5
35B9
  8
0
 10
694.76164022802891
 20
300.47454383890971
 30
0.0
 11
694.76164022802891
 21
210.47455583890959
 31
0.0
  0
LINE
  5
35BA
  8
0
 10
564.76163822802926
 20
300.47454383890971
 30
0.0
 11
564.76163822802926
 21
210.47455583890959
 31
0.0
  0
LINE
  5
35BB
  8
ﾁｭｳｼﾝｾﾝ1
 10
629.76163922802914
 20
170.84729193237729
 30
0.0
 11
629.76163922802914
 21
394.42746466348052
 31
0.0
  0
LINE
  5
35BC
  8
ﾁｭｳｼﾝｾﾝ1
 10
526.18422398828375
 20
264.47454083890972
 30
0.0
 11
733.33905446777408
 21
264.47454083890972
 31
0.0
  0
LINE
  5
35BF
  8
0
 10
566.76160622802922
 20
179.47455383890971
 30
0.0
 11
692.76164222802913
 21
179.47455383890971
 31
0.0
  0
LINE
  5
35C0
  8
0
 10
560.76160622802922
 20
195.47455583890959
 30
0.0
 11
517.76163722802892
 21
195.47455583890959
 31
0.0
  0
LINE
  5
35C1
  8
0
 10
514.76163722802892
 20
177.4745528389096
 30
0.0
 11
564.76163822802926
 21
177.4745528389096
 31
0.0
  0
ARC
  5
35C2
  8
0
 10
517.76163722802892
 20
192.47455583890959
 30
0.0
 40
3.0
 50
90.00000299999769
 51
180.00001000000091
  0
LINE
  5
35C3
  8
ｶｸﾚｾﾝ2
 10
527.26164722802912
 20
195.47455583890959
 30
0.0
 11
527.26164722802912
 21
177.4745528389096
 31
0.0
  0
LINE
  5
35C4
  8
ﾁｭｳｼﾝｾﾝ1
 10
534.76163522802892
 20
200.4864578389097
 30
0.0
 11
534.76163522802892
 21
174.1432538389096
 31
0.0
  0
LINE
  5
35C5
  8
0
 10
514.76163722802892
 20
192.47455583890959
 30
0.0
 11
514.76163722802892
 21
177.4745528389096
 31
0.0
  0
ARC
  5
35C6
  8
0
 10
549.76163822802926
 20
210.47455583890959
 30
0.0
 40
15.000000299999989
 50
270.0
 51
0.0
  0
ARC
  5
35C7
  8
0
 10
560.76160622802922
 20
191.4745538389096
 30
0.0
 40
4.000000199999997
 50
0.0
 51
90.00000299999769
  0
LINE
  5
35C8
  8
ｶｸﾚｾﾝ2
 10
542.26163522802892
 20
195.47455583890959
 30
0.0
 11
542.26163522802892
 21
177.4745528389096
 31
0.0
  0
LINE
  5
35C9
  8
0
 10
564.76163822802926
 20
191.4745538389096
 30
0.0
 11
564.76163822802926
 21
177.4745528389096
 31
0.0
  0
ARC
  5
35CA
  8
0
 10
566.76160622802922
 20
177.4745528389096
 30
0.0
 40
2.00000007
 50
90.00000299999769
 51
180.00001000000091
  0
ARC
  5
35CB
  8
0
 10
629.76163922802914
 20
251.21181383890971
 30
0.0
 40
77.000000999999983
 50
179.999989999999
 51
212.41839000000169
  0
ARC
  5
35CD
  8
0
 10
709.76164022802902
 20
210.47455583890959
 30
0.0
 40
15.000000299999989
 50
179.999989999999
 51
270.0
  0
ARC
  5
35CE
  8
0
 10
698.76164222802913
 20
191.4745538389096
 30
0.0
 40
4.000000199999997
 50
90.00000299999769
 51
180.00001000000091
  0
ARC
  5
35CF
  8
0
 10
741.76163522802904
 20
192.47455583890959
 30
0.0
 40
3.0
 50
0.0
 51
90.00000299999769
  0
LINE
  5
35D0
  8
ｶｸﾚｾﾝ2
 10
732.26162822802905
 20
195.47455583890959
 30
0.0
 11
732.26162822802905
 21
177.4745528389096
 31
0.0
  0
LINE
  5
35D1
  8
ｶｸﾚｾﾝ2
 10
717.26164322802902
 20
195.47455583890959
 30
0.0
 11
717.26164322802902
 21
177.4745528389096
 31
0.0
  0
LINE
  5
35D2
  8
ﾁｭｳｼﾝｾﾝ1
 10
724.76162822802905
 20
199.7238848389097
 30
0.0
 11
724.76162822802905
 21
174.1432538389096
 31
0.0
  0
LINE
  5
35D4
  8
0
 10
694.76164022802891
 20
177.4745528389096
 30
0.0
 11
744.76163522802904
 21
177.4745528389096
 31
0.0
  0
LINE
  5
35D5
  8
0
 10
694.76164022802891
 20
191.4745538389096
 30
0.0
 11
694.76164022802891
 21
177.4745528389096
 31
0.0
  0
ARC
  5
35D6
  8
0
 10
692.76164222802913
 20
177.4745528389096
 30
0.0
 40
2.00000007
 50
0.0
 51
90.00000299999769
  0
LINE
  5
35D7
  8
0
 10
744.76163522802904
 20
192.47455583890959
 30
0.0
 11
744.76163522802904
 21
177.4745528389096
 31
0.0
  0
LINE
  5
35D8
  8
0
 10
698.76164222802913
 20
195.47455583890959
 30
0.0
 11
741.76163522802904
 21
195.47455583890959
 31
0.0
  0
ARC
  5
35D9
  8
0
 10
629.76163922802914
 20
251.21181383890971
 30
0.0
 40
77.000000999999983
 50
327.5816000000014
 51
0.0
  0
ARC
  5
35DA
  8
0
 10
629.76163922802914
 20
289.47457283890969
 30
0.0
 40
99.500004000000004
 50
8.4654901000001566
 51
171.53449999999941
  0
LINE
  5
35DB
  8
0
 10
701.28236222802923
 20
371.5905188389097
 30
0.0
 11
658.984540228029
 21
384.58645883890972
 31
0.0
  0
LINE
  5
35DC
  8
ﾁｭｳｼﾝｾﾝ1
 10
569.42760747814725
 20
317.47453883890972
 30
0.0
 11
690.0956709779108
 21
317.47453883890972
 31
0.0
  0
LINE
  5
35DD
  8
0
 10
548.0476182280288
 20
360.79654883890959
 30
0.0
 11
534.95078522802885
 21
319.65991883890968
 31
0.0
  0
LINE
  5
35E0
  8
0
 10
410.54889912194352
 20
301.47457283890969
 30
0.0
 11
410.54889912194352
 21
336.47452883890958
 31
0.0
  0
LINE
  5
35E1
  8
0
 10
410.54889912194352
 20
336.47452883890958
 30
0.0
 11
365.54889912194358
 21
336.47452883890958
 31
0.0
  0
LINE
  5
35E2
  8
0
 10
365.54889912194358
 20
333.47452883890958
 30
0.0
 11
365.54889912194358
 21
336.47452883890958
 31
0.0
  0
ARC
  5
35E3
  8
0
 10
563.29358822802885
 20
355.9425788389097
 30
0.0
 40
16.000000499999999
 50
107.0794599999992
 51
162.9205300000007
  0
CIRCLE
  5
35E4
  8
0
 10
629.76163922802914
 20
317.47453883890972
 30
0.0
 40
29.000001000000001
  0
ARC
  5
35E5
  8
0
 10
560.76160622802922
 20
349.56823883890968
 30
0.0
 40
8.0000000999999976
 50
138.94665000000089
 51
180.00001000000091
  0
ARC
  5
35E6
  8
0
 10
629.76163922802914
 20
317.47453883890972
 30
0.0
 40
16.000000499999999
 50
108.2099599999986
 51
71.790051999998809
  0
CIRCLE
  5
35E7
  8
0
 62
     2
 10
629.76163922802914
 20
317.47453883890972
 30
0.0
 40
4.000000199999997
  0
CIRCLE
  5
35E8
  8
0
 10
629.76163922802914
 20
317.47453883890972
 30
0.0
 40
2.75000007
  0
LINE
  5
35E9
  8
0
 10
624.76162322802895
 20
328.47457883890968
 30
0.0
 11
624.76162322802895
 21
336.47452883890969
 31
0.0
  0
LINE
  5
35EA
  8
0
 10
634.76162522802895
 20
328.47457883890968
 30
0.0
 11
634.76162522802895
 21
336.47452883890969
 31
0.0
  0
LINE
  5
35EB
  8
0
 10
624.76162322802895
 20
328.47457883890968
 30
0.0
 11
634.76162522802895
 21
328.47457883890968
 31
0.0
  0
LINE
  5
35EC
  8
0
 10
624.76162322802895
 20
336.47452883890969
 30
0.0
 11
634.76162522802895
 21
336.47452883890969
 31
0.0
  0
LINE
  5
35ED
  8
0
 10
558.43967522802905
 20
371.18857883890968
 30
0.0
 11
599.57630522802913
 21
384.28540883890969
 31
0.0
  0
ARC
  5
35EE
  8
0
 10
696.58323422802914
 20
356.29615883890972
 30
0.0
 40
16.000000499999999
 50
17.07946300000124
 51
72.920533999997687
  0
LINE
  5
35EF
  8
0
 10
711.87760022802911
 20
360.9953288389097
 30
0.0
 11
724.87351922802907
 21
318.69748883890969
 31
0.0
  0
ARC
  5
35F0
  8
0
 10
698.76164222802913
 20
349.56823883890968
 30
0.0
 40
8.0000000999999976
 50
0.0
 51
41.053350999999701
  0
POINT
  5
35F1
  8
0
 10
989.36009938940981
 20
517.84179075047723
 30
0.0
1001
GENIUS_GENOLIS_13
1002
{
1000
ENT
1005
0
1005
353D
1005
354A
1002
}
1001
GENIUS_GENOENT_13
1002
{
1000
MYREF
1005
35F1
1002
}
1002
{
1000
GRP
1005
0
1002
}
1001
GENIUS_GENOBJ-NBEHI-BHB_13
1002
{
1000
OWNER
1000
genbehi
1002
}
1001
GENIUS_GENBH_13
1002
{
1000
FGO
1005
0
1002
}
1001
GENIUS_GENODEF_13
1002
{
1000
HIER
1070
     1
1002
}
1002
{
1000
MANEDIT
1070
     1
1002
}
1002
{
1000
NOSEL
1070
     1
1002
}
1002
{
1000
BEHIND
1070
     0
1002
}
1002
{
1000
OTHER
1070
     1
1002
}
1002
{
1000
REACTOR
1002
}
  0
LINE
  5
3798
  8
AM_0N
 10
3.5488691219435951
 20
556.32766623435168
 30
0.0
 11
19.548869121943572
 21
556.32766623435168
 31
0.0
1001
GENIUS_GENOREF_13
1005
0
  0
LINE
  5
3799
  8
AM_0
 10
19.548869121943621
 20
559.87945052607051
 30
0.0
 11
3.5488691219435951
 21
559.87945052607051
 31
0.0
1001
GENIUS_GENOREF_13
1005
37D2
  0
LINE
  5
379A
  8
AM_0
 10
7.5488691219435964
 20
547.02064757284461
 30
0.0
 11
3.5488691219435951
 21
547.02064757284461
 31
0.0
  0
LINE
  5
379B
  8
AM_0
 10
45.048869121943532
 20
535.11024427660118
 30
0.0
 11
-8.951130878056432
 21
535.11024427660129
 31
0.0
  0
LINE
  5
379C
  8
AM_0
 10
45.048869121943568
 20
538.51784527530799
 30
0.0
 11
-8.951130878056432
 21
538.51784527530799
 31
0.0
  0
LINE
  5
379D
  8
AM_0
 10
-14.45113087805629
 20
681.77024350553938
 30
0.0
 11
111.0488691219436
 21
681.77024350553938
 31
0.0
  0
LINE
  5
379E
  8
AM_0
 10
-20.95113087805629
 20
669.2721113769187
 30
0.0
 11
-20.9511308780564
 21
563.06837563416002
 31
0.0
  0
ARC
  5
379F
  8
AM_0
 10
918.23499293176314
 20
616.17024350553925
 30
0.0
 40
940.68612380981915
 50
176.76392470776139
 51
183.2360752922385
  0
LINE
  5
37A0
  8
AM_0
 10
-13.95113087805629
 20
681.77024350553938
 30
0.0
 11
-13.9511308780564
 21
550.57024350553945
 31
0.0
  0
LINE
  5
37A1
  8
AM_0
 10
-16.45113087805629
 20
679.77024350553961
 30
0.0
 11
-16.45113087805629
 21
552.57024350553945
 31
0.0
  0
ARC
  5
37A2
  8
AM_0
 10
-8.951130878056432
 20
537.11024427660107
 30
0.0
 40
2.0
 50
180.0
 51
270.0
1001
GENIUS_GENOBJ-N-FIL_13
1002
{
1000
OWNER
1000
GEN
1002
}
1001
GENIUS_GENODEF_13
1002
{
1000
HIER
1070
     0
1002
}
1002
{
1000
MANEDIT
1070
     0
1002
}
1002
{
1000
NOSEL
1070
     0
1002
}
1002
{
1000
BEHIND
1070
     0
1002
}
1002
{
1000
OTHER
1070
     0
1002
}
1002
{
1000
REACTOR
1002
}
  0
LINE
  5
37A3
  8
AM_0
 10
3.5488691219435951
 20
559.87945052607051
 30
0.0
 11
3.5488691219435951
 21
547.02064757284461
 31
0.0
  0
LINE
  5
37A4
  8
AM_0
 10
-14.45113087805629
 20
550.57024350553945
 30
0.0
 11
-10.95113087805643
 21
550.57024350553945
 31
0.0
  0
ARC
  5
37A5
  8
AM_0
 10
-14.45113087805629
 20
552.57024350553945
 30
0.0
 40
2.0
 50
180.0
 51
270.0
1001
GENIUS_GENOBJ-N-FIL_13
1002
{
1000
OWNER
1000
GEN
1002
}
1001
GENIUS_GENODEF_13
1002
{
1000
HIER
1070
     0
1002
}
1002
{
1000
MANEDIT
1070
     0
1002
}
1002
{
1000
NOSEL
1070
     0
1002
}
1002
{
1000
BEHIND
1070
     0
1002
}
1002
{
1000
OTHER
1070
     0
1002
}
1002
{
1000
REACTOR
1002
}
  0
LINE
  5
37A6
  8
AM_0
 10
-10.95113087805643
 20
553.91127053236039
 30
0.0
 11
-10.95113087805643
 21
537.11024427660107
 31
0.0
  0
ARC
  5
37A7
  8
AM_0
 10
-8.951130878056432
 20
540.51784527530765
 30
0.0
 40
2.0
 50
180.0
 51
270.0
1001
GENIUS_GENODEF_13
1002
{
1000
HIER
1070
     0
1002
}
1002
{
1000
MANEDIT
1070
     0
1002
}
1002
{
1000
NOSEL
1070
     0
1002
}
1002
{
1000
BEHIND
1070
     0
1002
}
1002
{
1000
OTHER
1070
     0
1002
}
1002
{
1000
REACTOR
1002
}
1001
GENIUS_GENOBJ-N-FIL_13
1002
{
1000
OWNER
1000
GEN
1002
}
  0
LINE
  5
37A8
  8
AM_0
 10
3.5488691219435951
 20
555.9112705323605
 30
0.0
 11
-8.951130878056432
 21
555.91127053236016
 31
0.0
  0
ARC
  5
37A9
  8
AM_0
 10
-8.951130878056432
 20
553.91127053236039
 30
0.0
 40
2.0
 50
90.0
 51
180.0
1001
GENIUS_GENOBJ-N-FIL_13
1002
{
1000
OWNER
1000
GEN
1002
}
1001
GENIUS_GENODEF_13
1002
{
1000
HIER
1070
     0
1002
}
1002
{
1000
MANEDIT
1070
     0
1002
}
1002
{
1000
NOSEL
1070
     0
1002
}
1002
{
1000
BEHIND
1070
     0
1002
}
1002
{
1000
OTHER
1070
     0
1002
}
1002
{
1000
REACTOR
1002
}
  0
ARC
  5
37AA
  8
AM_0
 10
-18.45113087805629
 20
557.27211137691882
 30
0.0
 40
2.0
 50
0.0
 51
48.36646066343252
1001
GENIUS_GENOBJ-N-FIL_13
1002
{
1000
OWNER
1000
GEN
1002
}
1001
GENIUS_GENODEF_13
1002
{
1000
HIER
1070
     0
1002
}
1002
{
1000
MANEDIT
1070
     0
1002
}
1002
{
1000
NOSEL
1070
     0
1002
}
1002
{
1000
BEHIND
1070
     0
1002
}
1002
{
1000
OTHER
1070
     0
1002
}
1002
{
1000
REACTOR
1002
}
  0
LINE
  5
37AB
  8
AM_0
 10
-17.122403200396491
 20
558.76693001428634
 30
0.0
 11
-20.279858555716199
 21
561.5735569967926
 31
0.0
  0
ARC
  5
37AC
  8
AM_0
 10
-18.9511308780564
 20
563.06837563416002
 30
0.0
 40
2.0
 50
180.0
 51
228.36646066343241
1001
GENIUS_GENODEF_13
1002
{
1000
HIER
1070
     0
1002
}
1002
{
1000
MANEDIT
1070
     0
1002
}
1002
{
1000
NOSEL
1070
     0
1002
}
1002
{
1000
BEHIND
1070
     0
1002
}
1002
{
1000
OTHER
1070
     0
1002
}
1002
{
1000
REACTOR
1002
}
1001
GENIUS_GENOBJ-N-FIL_13
1002
{
1000
OWNER
1000
GEN
1002
}
  0
LINE
  5
37AD
  8
AM_0
 10
-31.95113087805629
 20
633.17024350553947
 30
0.0
 11
-31.951130878056411
 21
599.17024350553925
 31
0.0
  0
ARC
  5
37AE
  8
AM_0
 10
-28.9511308780564
 20
599.17024350553925
 30
0.0
 40
3.0
 50
180.0
 51
270.0
1001
GENIUS_GENODEF_13
1002
{
1000
HIER
1070
     0
1002
}
1002
{
1000
MANEDIT
1070
     0
1002
}
1002
{
1000
NOSEL
1070
     0
1002
}
1002
{
1000
BEHIND
1070
     0
1002
}
1002
{
1000
OTHER
1070
     0
1002
}
1002
{
1000
REACTOR
1002
}
1001
GENIUS_GENOBJ-N-FIL_13
1002
{
1000
OWNER
1000
GEN
1002
}
  0
LINE
  5
37AF
  8
AM_0
 10
-28.9511308780564
 20
596.17024350553947
 30
0.0
 11
-22.23849607701419
 21
596.17024350553947
 31
0.0
  0
ARC
  5
37B0
  8
AM_0
 10
-28.95113087805629
 20
633.17024350553947
 30
0.0
 40
3.0
 50
90.0
 51
180.0
1001
GENIUS_GENOBJ-N-FIL_13
1002
{
1000
OWNER
1000
GEN
1002
}
1001
GENIUS_GENODEF_13
1002
{
1000
HIER
1070
     0
1002
}
1002
{
1000
MANEDIT
1070
     0
1002
}
1002
{
1000
NOSEL
1070
     0
1002
}
1002
{
1000
BEHIND
1070
     0
1002
}
1002
{
1000
OTHER
1070
     0
1002
}
1002
{
1000
REACTOR
1002
}
  0
LINE
  5
37B1
  8
AM_0
 10
-28.95113087805629
 20
636.17024350553925
 30
0.0
 11
-22.23849607701419
 21
636.17024350553925
 31
0.0
  0
ARC
  5
37B2
  8
AM_0
 10
-14.45113087805629
 20
679.77024350553961
 30
0.0
 40
2.0
 50
90.0
 51
180.0
1001
GENIUS_GENOBJ-N-FIL_13
1002
{
1000
OWNER
1000
GEN
1002
}
1001
GENIUS_GENODEF_13
1002
{
1000
HIER
1070
     0
1002
}
1002
{
1000
MANEDIT
1070
     0
1002
}
1002
{
1000
NOSEL
1070
     0
1002
}
1002
{
1000
BEHIND
1070
     0
1002
}
1002
{
1000
OTHER
1070
     0
1002
}
1002
{
1000
REACTOR
1002
}
  0
ARC
  5
37B3
  8
AM_0
 10
-18.95113087805629
 20
669.2721113769187
 30
0.0
 40
2.0
 50
131.63353933656751
 51
180.0
1001
GENIUS_GENODEF_13
1002
{
1000
HIER
1070
     0
1002
}
1002
{
1000
MANEDIT
1070
     0
1002
}
1002
{
1000
NOSEL
1070
     0
1002
}
1002
{
1000
BEHIND
1070
     0
1002
}
1002
{
1000
OTHER
1070
     0
1002
}
1002
{
1000
REACTOR
1002
}
1001
GENIUS_GENOBJ-N-FIL_13
1002
{
1000
OWNER
1000
GEN
1002
}
  0
LINE
  5
37B4
  8
AM_0
 10
-17.122403200396491
 20
673.5735569967926
 30
0.0
 11
-20.279858555716199
 21
670.76693001428634
 31
0.0
  0
ARC
  5
37B5
  8
AM_0
 10
-18.45113087805629
 20
675.06837563416002
 30
0.0
 40
2.0
 50
311.63353933656748
 51
0.0
1001
GENIUS_GENOBJ-N-FIL_13
1002
{
1000
OWNER
1000
GEN
1002
}
1001
GENIUS_GENODEF_13
1002
{
1000
HIER
1070
     0
1002
}
1002
{
1000
MANEDIT
1070
     0
1002
}
1002
{
1000
NOSEL
1070
     0
1002
}
1002
{
1000
BEHIND
1070
     0
1002
}
1002
{
1000
OTHER
1070
     0
1002
}
1002
{
1000
REACTOR
1002
}
  0
LINE
  5
37B6
  8
AM_0
 10
111.0488691219436
 20
682.17024350553925
 30
0.0
 11
111.0488691219436
 21
550.17024350553947
 31
0.0
  0
LINE
  5
37B7
  8
AM_0
 10
122.5488691219436
 20
682.17024350553925
 30
0.0
 11
122.5488691219436
 21
550.17024350553947
 31
0.0
  0
LINE
  5
37B8
  8
AM_0
 10
47.048869121943603
 20
550.57024350553945
 30
0.0
 11
111.0488691219436
 21
550.57024350553945
 31
0.0
  0
ARC
  5
37B9
  8
AM_0
 10
45.048869121943532
 20
537.11024427660107
 30
0.0
 40
2.0
 50
270.0
 51
0.0
1001
GENIUS_GENOBJ-N-FIL_13
1002
{
1000
OWNER
1000
GEN
1002
}
1001
GENIUS_GENODEF_13
1002
{
1000
HIER
1070
     0
1002
}
1002
{
1000
MANEDIT
1070
     0
1002
}
1002
{
1000
NOSEL
1070
     0
1002
}
1002
{
1000
BEHIND
1070
     0
1002
}
1002
{
1000
OTHER
1070
     0
1002
}
1002
{
1000
REACTOR
1002
}
  0
LINE
  5
37BA
  8
AM_0
 10
45.048869121943568
 20
555.91127053236016
 30
0.0
 11
19.548869121943572
 21
555.91127053236016
 31
0.0
  0
LINE
  5
37BB
  8
AM_0
 10
19.548869121943572
 20
559.87945052607051
 30
0.0
 11
19.548869121943621
 21
547.02064757284461
 31
0.0
  0
LINE
  5
37BC
  8
AM_3N
  6
AM_ISO02W050X2
 10
13.0488691219436
 20
554.15797022726679
 30
0.0
 11
11.548869121943589
 21
556.04538025582565
 31
0.0
1001
GENIUS_GENOREF_13
1005
0
  0
ARC
  5
37BD
  8
AM_0N
 10
11.548869121943589
 20
558.92766623435148
 30
0.0
 40
5.0
 50
246.4528627629243
 51
293.54713723707567
1001
GENIUS_GENOREF_13
1005
0
  0
LINE
  5
37BE
  8
AM_0
 10
15.54886912194371
 20
552.29671037135381
 30
0.0
 11
7.5488691219435662
 21
552.29671037135381
 31
0.0
  0
LINE
  5
37BF
  8
AM_0
 10
7.5488691219435662
 20
556.32766623435145
 30
0.0
 11
7.5488691219435964
 21
547.02064757284461
 31
0.0
  0
LINE
  5
37C0
  8
AM_3N
  6
AM_ISO02W050X2
 10
11.2963691219436
 20
553.93404592940249
 30
0.0
 11
11.2963691219436
 21
555.72766623435155
 31
0.0
1001
GENIUS_GENOREF_13
1005
0
  0
LINE
  5
37C1
  8
AM_3N
  6
AM_ISO02W050X2
 10
11.801369121943591
 20
553.93404592940249
 30
0.0
 11
11.801369121943591
 21
555.72766623435155
 31
0.0
1001
GENIUS_GENOREF_13
1005
0
  0
LINE
  5
37C2
  8
AM_3N
  6
AM_ISO02W050X2
 10
10.048869121943589
 20
554.15797022726679
 30
0.0
 11
11.548869121943589
 21
556.04538025582565
 31
0.0
1001
GENIUS_GENOREF_13
1005
0
  0
LINE
  5
37C3
  8
AM_3N
  6
AM_ISO02W050X2
 10
11.801369121943591
 20
555.72766623435155
 30
0.0
 11
11.2963691219436
 21
555.72766623435155
 31
0.0
1001
GENIUS_GENOREF_13
1005
0
  0
ARC
  5
37C4
  8
AM_0N
 10
10.030756204953351
 20
555.44408572411965
 30
0.0
 40
1.1999999999999991
 50
184.99999999999969
 51
246.4528627629243
1001
GENIUS_GENOREF_13
1005
0
  0
LINE
  5
37C5
  8
AM_0N
 10
8.8353225672432512
 20
555.33949883282253
 30
0.0
 11
8.748869121943585
 21
556.32766623435168
 31
0.0
1001
GENIUS_GENOREF_13
1005
0
  0
LINE
  5
37C6
  8
AM_0
 10
15.54886912194371
 20
556.32766623435168
 30
0.0
 11
15.54886912194371
 21
547.02064757284461
 31
0.0
  0
ARC
  5
37C7
  8
AM_0N
 10
13.06698203893384
 20
555.44408572411965
 30
0.0
 40
1.1999999999999991
 50
293.54713723707567
 51
355.00000000000023
1001
GENIUS_GENOREF_13
1005
0
  0
LINE
  5
37C8
  8
AM_0N
 10
14.26241567664394
 20
555.33949883282253
 30
0.0
 11
14.34886912194361
 21
556.32766623435168
 31
0.0
1001
GENIUS_GENOREF_13
1005
0
  0
LINE
  5
37C9
  8
AM_0
 10
19.548869121943621
 20
547.02064757284461
 30
0.0
 11
15.54886912194371
 21
547.02064757284461
 31
0.0
  0
LINE
  5
37CA
  8
AM_0
 10
47.048869121943561
 20
553.91127053236039
 30
0.0
 11
47.048869121943532
 21
537.11024427660107
 31
0.0
  0
ARC
  5
37CB
  8
AM_0
 10
45.048869121943568
 20
540.51784527530765
 30
0.0
 40
2.0
 50
270.0
 51
0.0
1001
GENIUS_GENOBJ-N-FIL_13
1002
{
1000
OWNER
1000
GEN
1002
}
1001
GENIUS_GENODEF_13
1002
{
1000
HIER
1070
     0
1002
}
1002
{
1000
MANEDIT
1070
     0
1002
}
1002
{
1000
NOSEL
1070
     0
1002
}
1002
{
1000
BEHIND
1070
     0
1002
}
1002
{
1000
OTHER
1070
     0
1002
}
1002
{
1000
REACTOR
1002
}
  0
ARC
  5
37CC
  8
AM_0
 10
45.048869121943568
 20
553.91127053236039
 30
0.0
 40
2.0
 50
0.0
 51
90.0
1001
GENIUS_GENODEF_13
1002
{
1000
HIER
1070
     0
1002
}
1002
{
1000
MANEDIT
1070
     0
1002
}
1002
{
1000
NOSEL
1070
     0
1002
}
1002
{
1000
BEHIND
1070
     0
1002
}
1002
{
1000
OTHER
1070
     0
1002
}
1002
{
1000
REACTOR
1002
}
1001
GENIUS_GENOBJ-N-FIL_13
1002
{
1000
OWNER
1000
GEN
1002
}
  0
LINE
  5
37CD
  8
AM_0
 10
111.0488691219436
 20
550.17024350553947
 30
0.0
 11
122.5488691219436
 21
550.17024350553947
 31
0.0
  0
LINE
  5
37CE
  8
AM_0
 10
129.5488691219436
 20
553.17024350553925
 30
0.0
 11
122.5488691219436
 21
550.17024350553947
 31
0.0
  0
LINE
  5
37CF
  8
AM_0
 10
111.0488691219436
 20
682.17024350553925
 30
0.0
 11
122.5488691219436
 21
682.17024350553925
 31
0.0
  0
LINE
  5
37D0
  8
AM_0
 10
122.5488691219436
 20
682.17024350553925
 30
0.0
 11
129.5488691219436
 21
679.17024350553947
 31
0.0
  0
LINE
  5
37D1
  8
AM_0
 10
129.5488691219436
 20
679.17024350553925
 30
0.0
 11
129.5488691219436
 21
553.17024350553925
 31
0.0
  0
POINT
  5
37D2
  8
0
 10
-156.32536947936481
 20
114.6273512457259
 30
0.0
1001
GENIUS_GENOLIS_13
1002
{
1000
ENT
1005
0
1005
0
1005
0
1005
3799
1002
}
1001
GENIUS_GENOENT_13
1002
{
1000
MYREF
1005
37D2
1002
}
1002
{
1000
GRP
1005
0
1002
}
1001
GENIUS_GENOBJ-NBEHI-BHB_13
1002
{
1000
OWNER
1000
genbehi
1002
}
1001
GENIUS_GENBH_13
1002
{
1000
FGO
1005
0
1002
}
1001
GENIUS_GENODEF_13
1002
{
1000
HIER
1070
     1
1002
}
1002
{
1000
MANEDIT
1070
     1
1002
}
1002
{
1000
NOSEL
1070
     1
1002
}
1002
{
1000
BEHIND
1070
     0
1002
}
1002
{
1000
OTHER
1070
     1
1002
}
1002
{
1000
REACTOR
1002
}
  0
TEXT
  5
3B5D
  8
AM_0
 10
535.01132578002125
 20
655.46241753254822
 30
0.0
 40
15.0
  1
VX01-800S~VX01-K20S
  0
ENDSEC
  0
EOF
