  0
SECTION
  2
HEADER
  9
$ACADVER
  1
AC1009
  9
$INSBASE
 10
0.0
 20
0.0
 30
0.0
  9
$EXTMIN
 10
100.9051229542879
 20
179.85672147229391
 30
-0.0000000349181948
  9
$EXTMAX
 10
630.30537587288472
 20
549.5970166667795
 30
0.0000000814935747
  9
$LIMMIN
 10
0.0
 20
0.0
  9
$LIMMAX
 10
853.5
 20
555.00000000000011
  9
$ORTHOMODE
 70
     0
  9
$REGENMODE
 70
     1
  9
$FILLMODE
 70
     1
  9
$QTEXTMODE
 70
     0
  9
$MIRRTEXT
 70
     1
  9
$DRAGMODE
 70
     2
  9
$LTSCALE
 40
3.0
  9
$OSMODE
 70
   551
  9
$ATTMODE
 70
     1
  9
$TEXTSIZE
 40
2.5
  9
$TRACEWID
 40
1.0
  9
$TEXTSTYLE
  7
STANDARD
  9
$CLAYER
  8
AM_0
  9
$CELTYPE
  6
BYLAYER
  9
$CECOLOR
 62
   256
  9
$DIMSCALE
 40
3.0
  9
$DIMASZ
 40
2.5
  9
$DIMEXO
 40
1.0
  9
$DIMDLI
 40
8.0
  9
$DIMRND
 40
0.0
  9
$DIMDLE
 40
0.0
  9
$DIMEXE
 40
0.6
  9
$DIMTP
 40
0.1
  9
$DIMTM
 40
0.1
  9
$DIMTXT
 40
2.5
  9
$DIMCEN
 40
0.0
  9
$DIMTSZ
 40
0.0
  9
$DIMTOL
 70
     0
  9
$DIMLIM
 70
     0
  9
$DIMTIH
 70
     0
  9
$DIMTOH
 70
     0
  9
$DIMSE1
 70
     0
  9
$DIMSE2
 70
     0
  9
$DIMTAD
 70
     1
  9
$DIMZIN
 70
     8
  9
$DIMBLK
  1

  9
$DIMASO
 70
     1
  9
$DIMSHO
 70
     1
  9
$DIMPOST
  1

  9
$DIMAPOST
  1
"
  9
$DIMALT
 70
     0
  9
$DIMALTD
 70
     2
  9
$DIMALTF
 40
0.0393701
  9
$DIMLFAC
 40
1.0
  9
$DIMTOFL
 70
     1
  9
$DIMTVP
 40
0.0
  9
$DIMTIX
 70
     0
  9
$DIMSOXD
 70
     0
  9
$DIMSAH
 70
     0
  9
$DIMBLK1
  1

  9
$DIMBLK2
  1

  9
$DIMSTYLE
  2
AM_ISO
  9
$DIMCLRD
 70
   256
  9
$DIMCLRE
 70
   256
  9
$DIMCLRT
 70
     4
  9
$DIMTFAC
 40
0.71
  9
$DIMGAP
 40
0.8
  9
$LUNITS
 70
     2
  9
$LUPREC
 70
     2
  9
$SKETCHINC
 40
1.0
  9
$FILLETRAD
 40
15.0
  9
$AUNITS
 70
     0
  9
$AUPREC
 70
     0
  9
$MENU
  1
.
  9
$ELEVATION
 40
0.0
  9
$PELEVATION
 40
0.0
  9
$THICKNESS
 40
0.0
  9
$LIMCHECK
 70
     0
  9
$BLIPMODE
 70
     0
  9
$CHAMFERA
 40
6.0
  9
$CHAMFERB
 40
3.0
  9
$SKPOLY
 70
     0
  9
$TDCREATE
 40
2452065.6056192131
  9
$TDUPDATE
 40
2458541.5748618171
  9
$TDINDWG
 40
0.1527365741
  9
$TDUSRTIMER
 40
0.1527363542
  9
$USRTIMER
 70
     1
  9
$ANGBASE
 50
0.0
  9
$ANGDIR
 70
     0
  9
$PDMODE
 70
     0
  9
$PDSIZE
 40
0.0
  9
$PLINEWID
 40
0.0
  9
$COORDS
 70
     1
  9
$SPLFRAME
 70
     0
  9
$SPLINETYPE
 70
     6
  9
$SPLINESEGS
 70
     8
  9
$ATTDIA
 70
     1
  9
$ATTREQ
 70
     1
  9
$HANDLING
 70
     1
  9
$HANDSEED
  5
4D12
  9
$SURFTAB1
 70
     6
  9
$SURFTAB2
 70
     6
  9
$SURFTYPE
 70
     6
  9
$SURFU
 70
     6
  9
$SURFV
 70
     6
  9
$UCSNAME
  2

  9
$UCSORG
 10
0.0
 20
0.0
 30
0.0
  9
$UCSXDIR
 10
1.0
 20
0.0
 30
0.0
  9
$UCSYDIR
 10
0.0
 20
1.0
 30
0.0
  9
$PUCSNAME
  2

  9
$PUCSORG
 10
0.0
 20
0.0
 30
0.0
  9
$PUCSXDIR
 10
1.0
 20
0.0
 30
0.0
  9
$PUCSYDIR
 10
0.0
 20
1.0
 30
0.0
  9
$USERI1
 70
     0
  9
$USERI2
 70
     0
  9
$USERI3
 70
     0
  9
$USERI4
 70
     0
  9
$USERI5
 70
     0
  9
$USERR1
 40
0.0
  9
$USERR2
 40
0.0
  9
$USERR3
 40
0.0
  9
$USERR4
 40
0.0
  9
$USERR5
 40
0.0
  9
$WORLDVIEW
 70
     1
  9
$SHADEDGE
 70
     3
  9
$SHADEDIF
 70
    70
  9
$TILEMODE
 70
     1
  9
$MAXACTVP
 70
    64
  9
$PLIMCHECK
 70
     0
  9
$PEXTMIN
 10
1.0000000000000000E+020
 20
1.0000000000000000E+020
 30
1.0000000000000000E+020
  9
$PEXTMAX
 10
-1.0000000000000000E+020
 20
-1.0000000000000000E+020
 30
-1.0000000000000000E+020
  9
$PLIMMIN
 10
0.0
 20
0.0
  9
$PLIMMAX
 10
420.0
 20
297.0
  9
$UNITMODE
 70
     0
  9
$VISRETAIN
 70
     1
  9
$PLINEGEN
 70
     0
  9
$PSLTSCALE
 70
     1
  0
ENDSEC
  0
SECTION
  2
TABLES
  0
TABLE
  2
VPORT
 70
     1
  0
VPORT
  2
*ACTIVE
 70
     0
 10
0.0
 20
0.0
 11
1.0
 21
1.0
 12
365.60524941358631
 22
364.72686906953669
 13
0.0
 23
0.0
 14
7.5
 24
7.5
 15
30.0
 25
30.0
 16
0.0
 26
0.0
 36
1.0
 17
0.0
 27
0.0
 37
0.0
 40
372.27855809055768
 41
1.7571592210767459
 42
50.0
 43
0.0
 44
0.0
 50
0.0
 51
0.0
 71
     0
 72
   100
 73
     1
 74
     3
 75
     0
 76
     0
 77
     0
 78
     0
  0
ENDTAB
  0
TABLE
  2
LTYPE
 70
    20
  0
LTYPE
  2
CONTINUOUS
 70
     0
  3
Solid line
 72
    65
 73
     0
 40
0.0
  0
LTYPE
  2
AM_ISO02W050
 70
     0
  3
__ __ __ __ __ __ __ __ __ __ __ __ __ __ __
 72
    65
 73
     2
 40
7.5
 49
6.0
 49
-1.5
  0
LTYPE
  2
AM_ISO08W050
 70
     0
  3
____ . ____ . ____ . ____ . ____ . ____ . ____
 72
    65
 73
     4
 40
18.0
 49
12.0
 49
-1.5
 49
3.0
 49
-1.5
  0
LTYPE
  2
AM_ISO09W050
 70
     0
  3
_____ . . _____ . . _____ . . ____ .. ____
 72
    65
 73
     6
 40
22.5
 49
12.0
 49
-1.5
 49
3.0
 49
-1.5
 49
3.0
 49
-1.5
  0
LTYPE
  2
AMCONSTR
 70
     0
  3
_______________________
 72
    65
 73
     2
 40
9999.0
 49
9999.0
 49
0.0
  0
LTYPE
  2
AM_ISO08W050X2
 70
     0
  3
__ . __ . __ . __ . __ . __
 72
    65
 73
     4
 40
9.0
 49
6.0
 49
-0.75
 49
1.5
 49
-0.75
  0
LTYPE
  2
AM_ISO02W050X2
 70
     0
  3
 _ _ _ _ _ _ _ _ _ _ _ _
 72
    65
 73
     2
 40
3.75
 49
3.0
 49
-0.75
  0
LTYPE
  2
AMZIGZAG
 70
     0
  3
/\/-/\/-/\/-/\/-/\/-/\/
 72
    65
 73
     2
 40
11.0001
 49
0.0001
 49
-11.0
  0
LTYPE
  2
CENTER
 70
     0
  3
__ . __
 72
    65
 73
     4
 40
7.0
 49
4.0
 49
-1.0
 49
1.0
 49
-1.0
  0
LTYPE
  2
PHANTOM2
 70
     0
  3
Phantom (.5x) ___ _ _ ___ _ _ ___ _ _ ___ _ _
 72
    65
 73
     6
 40
31.75
 49
15.875
 49
-3.174999999999998
 49
3.174999999999998
 49
-3.174999999999998
 49
3.174999999999998
 49
-3.174999999999998
  0
LTYPE
  2
GEN3B
 70
     0
  3
 - - - - -
 72
    65
 73
     2
 40
1.0
 49
0.5
 49
-0.5
  0
LTYPE
  2
GEN7A
 70
     0
  3
__ . __ . __
 72
    65
 73
     4
 40
7.375
 49
4.75
 49
-0.875
 49
0.875
 49
-0.875
  0
LTYPE
  2
GEN7
 70
     0
  3
____ . ____ . ____ . ____ . ____ . ____ . ____
 72
    65
 73
     4
 40
14.25
 49
9.75
 49
-1.5
 49
1.5
 49
-1.5
  0
LTYPE
  2
HIDDEN
 70
     0
  3
Hidden __ __ __ __ __ __ __ __ __ __ __ __ __ _
 72
    65
 73
     2
 40
9.5249999999999986
 49
6.349999999999997
 49
-3.174999999999998
  0
LTYPE
  2
CENTER2
 70
     0
  3
Center (.5x) ___ _ ___ _ ___ _ ___ _ ___ _ ___
 72
    65
 73
     4
 40
1.125
 49
0.75
 49
-0.125
 49
0.125
 49
-0.125
  0
LTYPE
  2
HIDDEN2
 70
     0
  3
Hidden (.5x) _ _ _ _ _ _ _ _ _ _ _ _ _ _ _ _ _
 72
    65
 73
     2
 40
0.1875
 49
0.125
 49
-0.0625
  0
LTYPE
  2
AMZIGZAG2
 70
     0
  3
/\/-/\/-/\/-/\/-/\/-/\/
 72
    65
 73
     2
 40
0.4401
 49
0.0001
 49
-0.4400000000000002
  0
LTYPE
  2
ACANSTGB
 70
     0
  3
__ . . __ . .
 72
    65
 73
     6
 40
0.35433070866
 49
0.15748031496
 49
-0.03937007874
 49
0.03937007874
 49
-0.03937007874
 49
0.03937007874
 49
-0.03937007874
  0
LTYPE
  2
ACANSTGL
 70
     0
  3
_ _ _ _ _
 72
    65
 73
     2
 40
0.11811023622
 49
0.07874015748
 49
-0.03937007874
  0
ENDTAB
  0
TABLE
  2
LAYER
 70
    11
  0
LAYER
  2
0
 70
     0
 62
     7
  6
CONTINUOUS
  0
LAYER
  2
AM_0
 70
     0
 62
     7
  6
CONTINUOUS
  0
LAYER
  2
DEFPOINTS
 70
     0
 62
     7
  6
CONTINUOUS
  0
LAYER
  2
ｶｸﾚｾﾝ2
 70
     0
 62
     3
  6
GEN3B
  0
LAYER
  2
ﾁｭｳｼﾝｾﾝ1
 70
     0
 62
     1
  6
GEN7A
  0
LAYER
  2
AM_4
 70
     0
 62
     2
  6
CONTINUOUS
  0
LAYER
  2
AM_5
 70
     0
 62
     2
  6
CONTINUOUS
  0
LAYER
  2
ｽﾝﾎ_ｳｾﾝ
 70
     0
 62
     2
  6
CONTINUOUS
  0
LAYER
  2
ﾁｭｳｼﾝｾﾝ
 70
     0
 62
     1
  6
GEN7
  0
LAYER
  2
AM_0N
 70
     0
 62
     7
  6
CONTINUOUS
  0
LAYER
  2
AM_3N
 70
     0
 62
     3
  6
AM_ISO02W050
  0
ENDTAB
  0
TABLE
  2
STYLE
 70
     5
  0
STYLE
  2
STANDARD
 70
     0
 40
0.0
 41
0.8299999999999999
 50
0.0
 71
     0
 42
2.5
  3
txt.shx
  4
bigfont.shx
  0
STYLE
  2
ANNOTATIVE
 70
     0
 40
0.0
 41
1.0
 50
0.0
 71
     0
 42
0.2
  3
txt
  4

  0
STYLE
  2

 70
     1
 40
0.0
 41
1.0
 50
0.0
 71
     0
 42
2.5
  3
genltshp.shx
  4

  0
STYLE
  2
ACANSTS
 70
     0
 40
0.0
 41
1.0
 50
0.0
 71
     0
 42
2.5
  3
romans.shx
  4
extfont.shx
  0
STYLE
  2
ACANSGDT
 70
     0
 40
0.0
 41
1.0
 50
0.0
 71
     0
 42
2.5
  3
amgdt.shx
  4

  0
ENDTAB
  0
TABLE
  2
VIEW
 70
     6
  0
VIEW
  2
AM_VIEW1
 70
     0
 40
277.50000000000011
 10
249.64779005524869
 20
416.24999999999989
 41
499.2955801104971
 11
0.0
 21
0.0
 31
1.0
 12
0.0
 22
0.0
 32
0.0
 42
50.0
 43
0.0
 44
0.0
 50
0.0
 71
     0
  0
VIEW
  2
AM_VIEW2
 70
     0
 40
277.50000000000011
 10
603.85220994475117
 20
416.24999999999989
 41
499.2955801104971
 11
0.0
 21
0.0
 31
1.0
 12
0.0
 22
0.0
 32
0.0
 42
50.0
 43
0.0
 44
0.0
 50
0.0
 71
     0
  0
VIEW
  2
AM_VIEW3
 70
     0
 40
277.50000000000011
 10
249.64779005524869
 20
138.75
 41
499.2955801104971
 11
0.0
 21
0.0
 31
1.0
 12
0.0
 22
0.0
 32
0.0
 42
50.0
 43
0.0
 44
0.0
 50
0.0
 71
     0
  0
VIEW
  2
AM_VIEW4
 70
     0
 40
277.50000000000011
 10
603.85220994475117
 20
138.75
 41
499.2955801104971
 11
0.0
 21
0.0
 31
1.0
 12
0.0
 22
0.0
 32
0.0
 42
50.0
 43
0.0
 44
0.0
 50
0.0
 71
     0
  0
VIEW
  2
AM_VIEW5
 70
     0
 40
277.50000000000011
 10
426.75
 20
277.50000000000011
 41
499.2955801104971
 11
0.0
 21
0.0
 31
1.0
 12
0.0
 22
0.0
 32
0.0
 42
50.0
 43
0.0
 44
0.0
 50
0.0
 71
     0
  0
VIEW
  2
AM_VIEW6
 70
     0
 40
554.99445000000014
 10
426.75
 20
277.5
 41
998.5811743093924
 11
0.0
 21
0.0
 31
1.0
 12
0.0
 22
0.0
 32
0.0
 42
50.0
 43
0.0
 44
0.0
 50
0.0
 71
     0
  0
ENDTAB
  0
TABLE
  2
UCS
 70
     0
  0
ENDTAB
  0
TABLE
  2
APPID
 70
   100
  0
APPID
  2
ACAD
 70
     0
  0
APPID
  2
ACADANNOTATIVE
 70
     0
  0
APPID
  2
MCAD_NO_VIS
 70
     0
  0
APPID
  2
ACAD_TEMP_GRAPHIC
 70
     0
  0
APPID
  2
ACATTRIBSERVICES
 70
     0
  0
APPID
  2
GENIUS_GENREC_14
 70
     0
  0
APPID
  2
GENIUS_GENOBJ-N-REC_13
 70
     0
  0
APPID
  2
GENIUS_GENODEF_13
 70
     0
  0
APPID
  2
GENIUS_GENOLIS_13
 70
     0
  0
APPID
  2
GENIUS_GENOBJ-N-TIT_13
 70
     0
  0
APPID
  2
GENIUS_GENOENT_13
 70
     0
  0
APPID
  2
GENIUS_GENTITLE_13
 70
     0
  0
APPID
  2
GENIUS_GENOREF_13
 70
     0
  0
APPID
  2
GENIUS_GENSCREG_15
 70
     0
  0
APPID
  2
GENIUS_GENOBJ-N-SDF_13
 70
     0
  0
APPID
  2
GENIUS_GENFIL_13
 70
     0
  0
APPID
  2
GENIUS_GENOBJ-N-CHA_13
 70
     0
  0
APPID
  2
GENIUS_GENDTOL_13
 70
     0
  0
APPID
  2
GENIUS_GENOBJ-N-FIL_13
 70
     0
  0
APPID
  2
AD_DRAW
 70
     0
  0
APPID
  2
DESIGNERASSEMBLIES
 70
     0
  0
APPID
  2
ASURF_PCURVE_APPNAME
 70
     0
  0
APPID
  2
GENIUS_GE3SECT_13
 70
     0
  0
APPID
  2
GENIUS_GENCFG_13
 70
     0
  0
APPID
  2
GENIUS_GE3CFG0_13
 70
     0
  0
APPID
  2
GENIUS_GENCFG0_13
 70
     0
  0
APPID
  2
GENIUS_GENCFG1_13
 70
     0
  0
APPID
  2
GENIUS_GENCFG2_13
 70
     0
  0
APPID
  2
GENIUS_GENCFG3_13
 70
     0
  0
APPID
  2
GENIUS_GENCFG4_13
 70
     0
  0
APPID
  2
GENIUS_GEVCFG0_13
 70
     0
  0
APPID
  2
GENIUS_GENHINW_13
 70
     0
  0
APPID
  2
GENIUS_FIRSTVISTXT_14
 70
     0
  0
APPID
  2
GENIUS_GENOBJ-N-LEADER_13
 70
     0
  0
APPID
  2
GEV_VCCNULL_SWITCH_OFF
 70
     0
  0
APPID
  2
GENIUS_GEFCFG0_13
 70
     0
  0
APPID
  2
GENIUS_GENZVEED_13
 70
     0
  0
APPID
  2
GENIUS_GENSCREG_13
 70
     0
  0
APPID
  2
GENIUS_DUMCFG0_13
 70
     0
  0
APPID
  2
GEVID936201362
 70
     0
  0
APPID
  2
GEVDC
 70
     0
  0
APPID
  2
GEVCON
 70
     0
  0
APPID
  2
VCC
 70
     0
  0
APPID
  2
GEVPT
 70
     0
  0
APPID
  2
GEVIT
 70
     0
  0
APPID
  2
GENBH
 70
     0
  0
APPID
  2
GEVMK
 70
     0
  0
APPID
  2
GENIUS_GENBH_13
 70
     0
  0
APPID
  2
GENIUS_GENOBJ-NBEHI-BHF_13
 70
     0
  0
APPID
  2
GENIUS_GENOBJ-NBEHI-BHB_13
 70
     0
  0
APPID
  2
GENIUS_GENOBJ-F-DESC_13
 70
     0
  0
APPID
  2
GENIUS_GEFDESC_14
 70
     0
  0
APPID
  2
GENIUS_GENOBJ-F-PART_13
 70
     0
  0
APPID
  2
GENIUS_GEFSTDP_13
 70
     0
  0
APPID
  2
GENIUS_GEFPARTINS_13
 70
     0
  0
APPID
  2
GENIUS_GENTRA_14
 70
     0
  0
APPID
  2
GENIUS_GENINF13_13
 70
     0
  0
APPID
  2
GENIUS_GENOBJ-N-INFOPT_13
 70
     0
  0
APPID
  2
GENIUS_GENOBJ-N-RSSYM_13
 70
     0
  0
APPID
  2
GENIUS_GENSYMENT_13
 70
     0
  0
APPID
  2
GENIUS_GENSCSYM_13
 70
     0
  0
APPID
  2
GENIUS_GEFINFNAM_13
 70
     0
  0
APPID
  2
GENIUS_GENOBJ-N-CEN_13
 70
     0
  0
APPID
  2
GENIUS_GENOBJ-N-CRS_13
 70
     0
  0
APPID
  2
GENIUS_GENOBJ-N-CRC_13
 70
     0
  0
APPID
  2
GENIUS_GENCRC_14
 70
     0
  0
APPID
  2
GEVID942827039
 70
     0
  0
APPID
  2
GEVID942827040
 70
     0
  0
APPID
  2
GEVID942827041
 70
     0
  0
APPID
  2
GENIUS_GENOBJ-F-SCPASSM_13
 70
     0
  0
APPID
  2
GENIUS_GENDIMSH_14
 70
     0
  0
APPID
  2
GEVID942827042
 70
     0
  0
APPID
  2
GEVID946020473
 70
     0
  0
APPID
  2
GEVID946020474
 70
     0
  0
APPID
  2
GEVID946020475
 70
     0
  0
APPID
  2
GENIUS_GENOBJ-N-HTC_13
 70
     0
  0
APPID
  2
GENIUS_GENHATCH_13
 70
     0
  0
APPID
  2
GEVID948854295
 70
     0
  0
APPID
  2
GEVID939402019
 70
     0
  0
APPID
  2
GEVID952919491
 70
     0
  0
APPID
  2
GEVID952919492
 70
     0
  0
APPID
  2
GENIUS_GEFWELD_13
 70
     0
  0
APPID
  2
GENIUS_GENOBJ-F-WELS_13
 70
     0
  0
APPID
  2
GEVID952919493
 70
     0
  0
APPID
  2
GENIUS_GENOBJ-N-RSBK_13
 70
     0
  0
APPID
  2
GENIUS_GENOBJ-N-LIB_13
 70
     0
  0
APPID
  2
GENIUS_GENSCALE_13
 70
     0
  0
APPID
  2
GEVID986376691
 70
     0
  0
APPID
  2
DCO15
 70
     0
  0
APPID
  2
GEVID988070561
 70
     0
  0
APPID
  2
GEVID988070562
 70
     0
  0
APPID
  2
GEVID988070563
 70
     0
  0
APPID
  2
ACADM_DIM_EDIT
 70
     0
  0
APPID
  2
AMDT_DM_ADJ
 70
     0
  0
APPID
  2
ACAD_DSTYLE_DIMJAG
 70
     0
  0
APPID
  2
ACAD_DSTYLE_DIMBREAK
 70
     0
  0
APPID
  2
ACAD_NAV_VCDISPLAY
 70
     0
  0
APPID
  2
ACADANNOPO
 70
     0
  0
APPID
  2
ACAD_EXEMPT_FROM_CAD_STANDARDS
 70
     0
  0
APPID
  2
ACAD_MLEADERVER
 70
     0
  0
ENDTAB
  0
TABLE
  2
DIMSTYLE
 70
     9
  0
DIMSTYLE
  2
STANDARD
 70
     0
  3

  4

  5

  6

  7

 40
1.0
 41
0.18
 42
0.0625
 43
0.38
 44
0.18
 45
0.0
 46
0.0
 47
0.0
 48
0.0
140
0.18
141
0.09
142
0.0
143
25.399999999999999
144
1.0
145
0.0
146
1.0
147
0.09
 71
     0
 72
     0
 73
     1
 74
     1
 75
     0
 76
     0
 77
     0
 78
     0
170
     0
171
     2
172
     0
173
     0
174
     0
175
     0
176
     0
177
     0
178
     0
  0
DIMSTYLE
  2
ANNOTATIVE
 70
     0
  3

  4

  5

  6

  7

 40
1.0
 41
0.18
 42
0.0625
 43
0.38
 44
0.18
 45
0.0
 46
0.0
 47
0.0
 48
0.0
140
0.18
141
0.09
142
0.0
143
25.399999999999999
144
1.0
145
0.0
146
1.0
147
0.09
 71
     0
 72
     0
 73
     1
 74
     1
 75
     0
 76
     0
 77
     0
 78
     0
170
     0
171
     2
172
     0
173
     0
174
     0
175
     0
176
     0
177
     0
178
     0
  0
DIMSTYLE
  2
AM_ISO
 70
     0
  3

  4
"
  5

  6

  7

 40
1.0
 41
2.5
 42
1.0
 43
8.0
 44
0.6
 45
0.0
 46
0.0
 47
0.1
 48
0.1
140
2.5
141
0.0
142
0.0
143
0.0393701
144
1.0
145
0.0
146
0.71
147
0.8
 71
     0
 72
     0
 73
     0
 74
     0
 75
     0
 76
     0
 77
     1
 78
     8
170
     0
171
     2
172
     1
173
     0
174
     0
175
     0
176
   256
177
   256
178
     4
  0
DIMSTYLE
  2
AM_ANSI
 70
     0
  3

  4
mm
  5

  6

  7

 40
1.0
 41
0.12
 42
0.05
 43
0.5
 44
0.1
 45
0.0
 46
0.0
 47
0.1
 48
0.1
140
0.12
141
0.0
142
0.0
143
25.399999999999999
144
1.0
145
0.0
146
0.71
147
0.06
 71
     0
 72
     0
 73
     1
 74
     1
 75
     0
 76
     0
 77
     0
 78
     7
170
     0
171
     2
172
     0
173
     0
174
     0
175
     0
176
   256
177
   256
178
     2
  0
DIMSTYLE
  2
AM_ANSI$3
 70
     0
  3

  4
mm
  5

  6

  7

 40
1.0
 41
0.12
 42
0.05
 43
0.5
 44
0.1
 45
0.0
 46
0.0
 47
0.1
 48
0.1
140
0.12
141
0.0
142
0.0
143
25.399999999999999
144
1.0
145
0.0
146
0.71
147
0.06
 71
     0
 72
     0
 73
     1
 74
     1
 75
     0
 76
     0
 77
     0
 78
     7
170
     0
171
     2
172
     0
173
     0
174
     0
175
     0
176
   256
177
   256
178
     2
  0
DIMSTYLE
  2
AM_ANSI$4
 70
     0
  3

  4
mm
  5

  6

  7

 40
1.0
 41
0.12
 42
0.05
 43
0.5
 44
0.1
 45
0.0
 46
0.0
 47
0.1
 48
0.1
140
0.12
141
0.0
142
0.0
143
25.399999999999999
144
1.0
145
0.0
146
0.71
147
0.06
 71
     0
 72
     0
 73
     1
 74
     1
 75
     0
 76
     0
 77
     0
 78
     7
170
     0
171
     2
172
     0
173
     0
174
     0
175
     0
176
   256
177
   256
178
     2
  0
DIMSTYLE
  2
AM_ANSI$7
 70
     0
  3

  4
mm
  5

  6

  7

 40
1.0
 41
0.12
 42
0.05
 43
0.5
 44
0.1
 45
0.0
 46
0.0
 47
0.1
 48
0.1
140
0.12
141
0.0
142
0.0
143
25.399999999999999
144
1.0
145
0.0
146
0.71
147
0.06
 71
     0
 72
     0
 73
     1
 74
     1
 75
     0
 76
     0
 77
     0
 78
     7
170
     0
171
     2
172
     0
173
     0
174
     0
175
     0
176
   256
177
   256
178
     2
  0
DIMSTYLE
  2
AM_ANSI$SF
 70
     0
  3

  4
mm
  5

  6

  7

 40
1.0
 41
0.12
 42
0.05
 43
0.5
 44
0.1
 45
0.0
 46
0.0
 47
0.1
 48
0.1
140
0.12
141
0.0
142
0.0
143
25.399999999999999
144
1.0
145
0.0
146
0.71
147
0.06
 71
     0
 72
     0
 73
     1
 74
     1
 75
     1
 76
     1
 77
     0
 78
     7
170
     0
171
     2
172
     0
173
     0
174
     0
175
     0
176
   256
177
   256
178
     2
  0
DIMSTYLE
  2
AM_ANSI$SH
 70
     0
  3

  4
mm
  5

  6

  7

 40
1.0
 41
0.12
 42
0.05
 43
0.5
 44
0.1
 45
0.0
 46
0.0
 47
0.1
 48
0.1
140
0.12
141
0.0
142
0.0
143
25.399999999999999
144
1.0
145
0.0
146
0.71
147
0.06
 71
     0
 72
     0
 73
     1
 74
     1
 75
     1
 76
     1
 77
     0
 78
     7
170
     0
171
     2
172
     0
173
     1
174
     0
175
     0
176
   256
177
   256
178
     2
  0
ENDTAB
  0
ENDSEC
  0
SECTION
  2
BLOCKS
  0
BLOCK
  8
0
  2
$MODEL_SPACE
 70
     0
 10
0.0
 20
0.0
 30
0.0
  3
$MODEL_SPACE
  1

  0
ENDBLK
  5
4BAB
  8
0
  0
BLOCK
 67
     1
  8
0
  2
$PAPER_SPACE
 70
     0
 10
0.0
 20
0.0
 30
0.0
  3
$PAPER_SPACE
  1

  0
ENDBLK
  5
4BA7
 67
     1
  8
0
  0
BLOCK
  8
0
  2
*U2
 70
     1
 10
0.0
 20
0.0
 30
0.0
  3
*U2
  1

  0
TEXT
  5
4811
  8
AM_0
 10
516.00115732175141
 20
166.6640647709188
 30
0.0
 40
8.0
  1
VX02-030S
 41
0.8299999999999999
  0
ENDBLK
  5
4813
  8
0
  0
BLOCK
  8
0
  2
GENAXEH
 70
     0
 10
0.0
 20
0.0
 30
0.0
  3
GENAXEH
  1

  0
LINE
  5
4A9A
  8
0
 10
-1.0
 20
0.0
 30
0.0
 11
1.0
 21
0.0
 31
0.0
  0
ENDBLK
  5
4A9C
  8
0
  0
BLOCK
  8
0
  2
_ACMFILLEDHALF
 70
     0
 10
0.0
 20
0.0
 30
0.0
  3
_ACMFILLEDHALF
  1

  0
TRACE
  5
4AAA
  8
AM_0
 62
     0
 10
-0.8
 20
0.0
 30
0.0
 11
-1.0
 21
0.166666666
 31
0.0
 12
0.0
 22
0.0
 32
0.0
 13
0.0
 23
0.0
 33
0.0
  0
LINE
  5
4AAB
  8
AM_0
 62
     0
 10
-1.0
 20
0.0
 30
0.0
 11
-0.8
 21
0.0
 31
0.0
  0
ENDBLK
  5
4AA9
  8
0
  0
ENDSEC
  0
SECTION
  2
ENTITIES
  0
LINE
  5
2A75
  8
ﾁｭｳｼﾝｾﾝ
 10
100.9434968918282
 20
479.56968796910257
 30
0.0
 11
405.23803860130818
 21
479.56968796910257
 31
0.0
  0
ARC
  5
2BFF
  8
AM_0
 10
402.87423860130832
 20
479.56968796910257
 30
0.0
 40
80.0
 50
148.90067999999891
 51
211.0993000000006
  0
LINE
  5
2C03
  8
AM_0
 10
303.87423860130838
 20
421.67514796910251
 30
0.0
 11
303.87423860130838
 21
537.46427796910257
 31
0.0
  0
LINE
  5
2C04
  8
AM_0
 10
322.87423860130849
 20
436.83606796910271
 30
0.0
 11
322.87423860130849
 21
522.30335796910299
 31
0.0
  0
LINE
  5
2C05
  8
AM_0
 10
309.87423860130838
 20
419.5696879691028
 30
0.0
 11
309.87423860130838
 21
539.56971796910295
 31
0.0
  0
LINE
  5
2C06
  8
AM_0
 10
367.87423860130838
 20
518.80680796910281
 30
0.0
 11
367.87423860130838
 21
437.12778796910271
 31
0.0
  0
LINE
  5
2C07
  8
AM_0
 10
354.87423860130838
 20
430.75403796910302
 30
0.0
 11
354.87423860130838
 21
528.38535796910287
 31
0.0
  0
LINE
  5
2C08
  8
AM_0
 10
369.87423860130838
 20
498.59555796910291
 30
0.0
 11
369.87423860130838
 21
460.54386796910279
 31
0.0
  0
LINE
  5
2C09
  8
AM_0
 10
354.87423860130838
 20
438.96378796910278
 30
0.0
 11
334.37234860130849
 21
438.24784796910279
 31
0.0
  0
LINE
  5
2C0A
  8
AM_0
 10
365.00515860130849
 20
411.01334796910271
 30
0.0
 11
309.87426860130842
 21
409.56968796910257
 31
0.0
  0
LINE
  5
2C0B
  8
AM_0
 10
349.74334860130853
 20
427.6971879691028
 30
0.0
 11
351.95278860130838
 21
427.75504796910258
 31
0.0
  0
ARC
  5
2C0C
  8
AM_0
 10
305.87423860130838
 20
421.67514796910251
 30
0.0
 40
2.0
 50
180.00001000000091
 51
268.5000000000004
  0
LINE
  5
2C0E
  8
AM_0
 10
309.87423860130838
 20
409.56971796910273
 30
0.0
 11
291.74337860130851
 21
410.0444779691025
 31
0.0
  0
LINE
  5
2C10
  8
AM_0
 10
294.87423860130838
 20
431.38541796910272
 30
0.0
 11
294.87423860130838
 21
424.53675796910272
 31
0.0
  0
ARC
  5
2C18
  8
AM_0
 10
291.87423860130838
 20
415.04276796910273
 30
0.0
 40
5.0
 50
180.00001000000091
 51
268.5000000000004
  0
ARC
  5
2C19
  8
AM_0
 10
296.87423860130838
 20
422.06968796910257
 30
0.0
 40
5.0
 50
170.3165899999986
 51
3.8501329999991381
  0
ARC
  5
2C1A
  8
ｶｸﾚｾﾝ2
 10
296.87423860130838
 20
422.06968796910257
 30
0.0
 40
5.0
 50
3.8501272999993961
 51
170.3165899999986
  0
LINE
  5
2C1B
  8
AM_0
 10
285.87426860130842
 20
423.06971796910273
 30
0.0
 11
295.86859860130818
 21
422.80799796910281
 31
0.0
  0
LINE
  5
2C1C
  8
AM_0
 10
286.87423860130838
 20
415.04276796910273
 30
0.0
 11
286.87423860130838
 21
423.04349796910259
 31
0.0
  0
LINE
  5
2C1D
  8
AM_0
 10
296.82189860130842
 20
422.53745796910277
 30
0.0
 11
302.50289860130829
 21
422.38868796910259
 31
0.0
  0
ARC
  5
2C1E
  8
AM_0
 10
296.87423860130838
 20
424.53675796910272
 30
0.0
 40
2.0
 50
180.00001000000091
 51
268.5000000000004
  0
ARC
  5
2C1F
  8
AM_0
 10
302.46365860130823
 20
420.88919796910301
 30
0.0
 40
1.5
 50
12.97665300000153
 51
88.499997000000747
  0
ARC
  5
2C27
  8
AM_0
 10
301.87423860130838
 20
445.62973796910291
 30
0.0
 40
2.0
 50
0.0
 51
90.000003000000945
  0
ARC
  5
2C28
  8
AM_0
 10
292.87423860130838
 20
431.38541796910272
 30
0.0
 40
2.0
 50
0.0
 51
88.499997000000747
  0
LINE
  5
2C29
  8
AM_0
 10
285.87426860130842
 20
433.56940796910288
 30
0.0
 11
301.92660860130849
 21
433.14905796910278
 31
0.0
  0
ARC
  5
2C2A
  8
AM_0
 10
301.87423860130838
 20
431.14975796910272
 30
0.0
 40
2.0
 50
0.0
 51
88.499997000000747
  0
LINE
  5
2C2B
  8
AM_0
 10
285.87423860130838
 20
447.62973796910251
 30
0.0
 11
301.87423860130838
 21
447.62973796910251
 31
0.0
  0
LINE
  5
2C2C
  8
AM_0
 10
321.87423860130838
 20
435.86194796910303
 30
0.0
 11
321.87423860130838
 21
423.31495796910281
 31
0.0
  0
LINE
  5
2C2D
  8
AM_0
 10
325.87423860130838
 20
424.81495796910292
 30
0.0
 11
325.87423860130838
 21
434.36197796910272
 31
0.0
  0
LINE
  5
2C2E
  8
AM_0
 10
320.87423860130849
 20
436.83606796910271
 30
0.0
 11
320.87423860130849
 21
420.18802796910251
 31
0.0
  0
LINE
  5
2C2F
  8
AM_0
 10
329.83727860130853
 20
425.03254796910272
 30
0.0
 11
323.07369860130848
 21
421.12760796910271
 31
0.0
  0
LINE
  5
2C30
  8
AM_0
 10
308.87423860130838
 20
410.57004796910257
 30
0.0
 11
308.87423860130838
 21
412.57071796910259
 31
0.0
  0
LINE
  5
2C31
  8
AM_0
 10
312.87423860130838
 20
411.59659796910262
 30
0.0
 11
312.87423860130838
 21
417.59519796910303
 31
0.0
  0
ARC
  5
2C32
  8
AM_0
 10
309.87423860130838
 20
410.57004796910257
 30
0.0
 40
1.0
 50
180.00001000000091
 51
268.5000000000004
  0
ARC
  5
2C33
  8
AM_0
 10
310.87423860130838
 20
411.59659796910262
 30
0.0
 40
2.0
 50
271.49999999999949
 51
0.0
  0
LINE
  5
2C34
  8
AM_0
 10
309.87423860130838
 20
424.04337796910272
 30
0.0
 11
320.87423860130849
 21
424.04337796910272
 31
0.0
  0
LINE
  5
2C35
  8
AM_0
 10
309.87423860130838
 20
419.56971796910278
 30
0.0
 11
318.33544860130849
 21
419.79126796910271
 31
0.0
  0
LINE
  5
2C36
  8
AM_0
 10
311.84808860130852
 20
413.51938796910281
 30
0.0
 11
309.90042860130848
 21
413.57041796910272
 31
0.0
  0
ARC
  5
2C37
  8
AM_0
 10
309.87423860130838
 20
412.57071796910259
 30
0.0
 40
1.0
 50
88.499997000000747
 51
180.00001000000091
  0
LINE
  5
2C38
  8
AM_0
 10
309.87426860130842
 20
419.5696879691028
 30
0.0
 11
305.82192860130851
 21
419.67582796910273
 31
0.0
  0
ARC
  5
2C39
  8
AM_0
 10
311.87423860130838
 20
414.51905796910251
 30
0.0
 40
1.0
 50
268.5000000000004
 51
0.0000006832462478
  0
ARC
  5
2C3A
  8
AM_0
 10
310.87423860130838
 20
417.59519796910303
 30
0.0
 40
2.0
 50
0.0
 51
91.500001000001546
  0
ARC
  5
2C3B
  8
AM_0
 10
318.07369860130848
 20
429.78782796910281
 30
0.0
 40
10.0
 50
271.49999999999949
 51
300.00001000000083
  0
LINE
  5
2C3C
  8
AM_0
 10
321.87423860130838
 20
426.70169796910272
 30
0.0
 11
324.87423860130849
 21
426.70169796910272
 31
0.0
  0
LINE
  5
2C3D
  8
AM_0
 10
321.87423860130838
 20
423.81492796910271
 30
0.0
 11
324.87423860130849
 21
423.81492796910271
 31
0.0
  0
LINE
  5
2C3E
  8
AM_0
 10
320.87423860130849
 20
423.31495796910281
 30
0.0
 11
321.87423860130838
 21
423.31495796910281
 31
0.0
  0
ARC
  5
2C3F
  8
AM_0
 10
324.87423860130849
 20
425.70169796910272
 30
0.0
 40
1.0
 50
0.0
 51
90.000003000000945
  0
ARC
  5
2C40
  8
AM_0
 10
324.87423860130849
 20
424.81495796910292
 30
0.0
 40
1.0
 50
269.999989999999
 51
0.0000006832462478
  0
ARC
  5
2C41
  8
AM_0
 10
324.87423860130849
 20
427.70169796910272
 30
0.0
 40
1.0
 50
269.999989999999
 51
0.0000006832462478
  0
ARC
  5
2C42
  8
AM_0
 10
347.87423860130849
 20
413.56577796910278
 30
0.0
 40
3.0
 50
180.00001000000091
 51
271.49999999999949
  0
LINE
  5
2C43
  8
AM_0
 10
346.86321860130852
 20
426.69065796910292
 30
0.0
 11
334.57549860130848
 21
426.3688779691027
 31
0.0
  0
ARC
  5
2C44
  8
AM_0
 10
334.83724860130877
 20
416.37229796910259
 30
0.0
 40
10.0
 50
91.500001000001546
 51
120.0000000000005
  0
LINE
  5
2C45
  8
AM_0
 10
344.87423860130838
 20
413.56577796910278
 30
0.0
 11
344.87423860130838
 21
422.69892796910278
 31
0.0
  0
ARC
  5
2C46
  8
AM_0
 10
349.87423860130849
 20
422.69892796910278
 30
0.0
 40
5.0
 50
91.500001000001546
 51
180.00001000000091
  0
LINE
  5
2C47
  8
AM_0
 10
334.37234860130849
 20
438.24787796910277
 30
0.0
 11
322.87423860130849
 21
436.83606796910271
 31
0.0
  0
LINE
  5
2C48
  8
AM_0
 10
321.87423860130838
 20
432.47519796910262
 30
0.0
 11
324.87423860130849
 21
432.47519796910262
 31
0.0
  0
LINE
  5
2C49
  8
AM_0
 10
321.87423860130838
 20
435.36197796910278
 30
0.0
 11
324.87423860130849
 21
435.36197796910278
 31
0.0
  0
LINE
  5
2C4A
  8
AM_0
 10
320.87423860130849
 20
436.83606796910271
 30
0.0
 11
322.87423860130849
 21
436.83606796910271
 31
0.0
  0
LINE
  5
2C4B
  8
AM_0
 10
320.87423860130849
 20
435.86194796910303
 30
0.0
 11
321.87423860130838
 21
435.86194796910303
 31
0.0
  0
ARC
  5
2C4C
  8
AM_0
 10
324.87423860130849
 20
434.36197796910272
 30
0.0
 40
1.0
 50
0.0
 51
90.000003000000945
  0
ARC
  5
2C4D
  8
AM_0
 10
324.87423860130849
 20
431.47519796910279
 30
0.0
 40
1.0
 50
0.0
 51
90.000003000000945
  0
ARC
  5
2C4E
  8
AM_0
 10
324.87423860130849
 20
433.47519796910262
 30
0.0
 40
1.0
 50
269.999989999999
 51
0.0000006832462478
  0
ARC
  5
2C4F
  8
AM_0
 10
351.87423860130838
 20
430.75403796910302
 30
0.0
 40
3.0
 50
271.49999999999949
 51
0.0
  0
LINE
  5
2C50
  8
AM_0
 10
369.87423860130838
 20
416.01163796910288
 30
0.0
 11
369.87423860130838
 21
433.12778796910271
 31
0.0
  0
ARC
  5
2C52
  8
AM_0
 10
364.87423860130838
 20
416.01163796910288
 30
0.0
 40
5.0
 50
271.49999999999949
 51
0.0
  0
CIRCLE
  5
2C53
  8
AM_0
 10
359.87423860130838
 20
422.06968796910257
 30
0.0
 40
5.0
  0
LINE
  5
2C55
  8
AM_0
 10
359.74337860130839
 20
437.19721796910272
 30
0.0
 11
364.9527886013085
 21
437.33362796910262
 31
0.0
  0
ARC
  5
2C56
  8
AM_0
 10
359.87423860130838
 20
432.19892796910273
 30
0.0
 40
5.0
 50
91.500001000001546
 51
180.00001000000091
  0
ARC
  5
2C57
  8
AM_0
 10
364.87423860130838
 20
440.33258796910292
 30
0.0
 40
3.0
 50
271.49999999999949
 51
0.0
  0
ARC
  5
2C58
  8
AM_0
 10
364.87423860130838
 20
433.12778796910271
 30
0.0
 40
5.0
 50
0.0
 51
70.485339000000806
  0
ARC
  5
2C59
  8
AM_0
 10
368.87423860130849
 20
460.54386796910279
 30
0.0
 40
1.0
 50
271.49999999999949
 51
0.0
  0
ARC
  5
2C5A
  8
AM_0
 10
368.87423860130849
 20
458.54319796910272
 30
0.0
 40
1.0
 50
91.500001000001546
 51
180.00001000000091
  0
LINE
  5
2C5B
  8
AM_0
 10
368.84808860130852
 20
459.54282796910258
 30
0.0
 11
368.90042860130842
 21
459.5441979691027
 31
0.0
  0
LINE
  5
2C5C
  8
AM_0
 10
354.87423860130838
 20
520.17560796910288
 30
0.0
 11
334.37237860130853
 21
520.89154796910282
 31
0.0
  0
LINE
  5
2C5D
  8
AM_0
 10
365.00512860130851
 20
548.12607796910265
 30
0.0
 11
309.87426860130842
 21
549.56971796910295
 31
0.0
  0
LINE
  5
2C5E
  8
AM_0
 10
349.74337860130839
 20
531.44220796910281
 30
0.0
 11
351.95278860130838
 21
531.38434796910281
 31
0.0
  0
ARC
  5
2C60
  8
AM_0
 10
296.87423860130838
 20
537.06971796910295
 30
0.0
 40
5.0
 50
356.1498700000015
 51
189.68341000000129
  0
ARC
  5
2C61
  8
ｶｸﾚｾﾝ2
 10
296.87423860130838
 20
537.06971796910295
 30
0.0
 40
5.0
 50
189.68341000000129
 51
356.14988000000108
  0
ARC
  5
2C62
  8
AM_0
 10
296.87423860130838
 20
534.60263796910283
 30
0.0
 40
2.0
 50
91.500001000001546
 51
180.00001000000091
  0
ARC
  5
2C63
  8
AM_0
 10
349.87423860130849
 20
536.44046796910288
 30
0.0
 40
5.0
 50
180.00001000000091
 51
268.5000000000004
  0
LINE
  5
2C67
  8
AM_0
 10
329.83727860130853
 20
534.10685796910298
 30
0.0
 11
323.07366860130838
 21
538.01181796910305
 31
0.0
  0
LINE
  5
2C68
  8
AM_0
 10
320.87423860130849
 20
522.30335796910299
 30
0.0
 11
320.87423860130849
 21
538.95139796910314
 31
0.0
  0
LINE
  5
2C77
  8
AM_0
 10
285.87423860130838
 20
511.50962796910272
 30
0.0
 11
301.87423860130838
 21
511.50962796910272
 31
0.0
  0
ARC
  5
2C78
  8
AM_0
 10
301.87423860130838
 20
513.50962796910289
 30
0.0
 40
2.0
 50
270.0
 51
0.0
  0
ARC
  5
2C79
  8
AM_0
 10
292.87423860130838
 20
527.75400796910287
 30
0.0
 40
2.0
 50
271.49999999999949
 51
0.0
  0
LINE
  5
2C7A
  8
AM_0
 10
285.87423860130838
 20
525.57001796910299
 30
0.0
 11
301.92660860130849
 21
525.99033796910282
 31
0.0
  0
ARC
  5
2C7B
  8
AM_0
 10
301.87423860130838
 20
527.98966796910304
 30
0.0
 40
2.0
 50
271.49999999999949
 51
0.0
  0
LINE
  5
2C7C
  8
AM_0
 10
294.87423860130838
 20
527.75400796910287
 30
0.0
 11
294.87423860130838
 21
534.60263796910283
 31
0.0
  0
LINE
  5
2C7D
  8
AM_0
 10
334.37234860130849
 20
520.89154796910282
 30
0.0
 11
322.87423860130849
 21
522.30335796910299
 31
0.0
  0
LINE
  5
2C7E
  8
AM_0
 10
309.87423860130838
 20
535.09604796910276
 30
0.0
 11
320.87423860130849
 21
535.09604796910276
 31
0.0
  0
ARC
  5
2C7F
  8
AM_0
 10
324.87423860130849
 20
527.66422796910297
 30
0.0
 40
1.0
 50
269.999989999999
 51
0.0000006832462478
  0
LINE
  5
2C80
  8
AM_0
 10
325.87423860130838
 20
534.32447796910265
 30
0.0
 11
325.87423860130838
 21
524.7774479691027
 31
0.0
  0
LINE
  5
2C81
  8
AM_0
 10
321.87423860130838
 20
523.27744796910281
 30
0.0
 11
321.87423860130838
 21
535.82447796910287
 31
0.0
  0
LINE
  5
2C82
  8
AM_0
 10
321.87423860130838
 20
523.77744796910281
 30
0.0
 11
324.87423860130849
 21
523.77744796910281
 31
0.0
  0
LINE
  5
2C83
  8
AM_0
 10
321.87423860130838
 20
526.66419796910282
 30
0.0
 11
324.87423860130849
 21
526.66419796910282
 31
0.0
  0
LINE
  5
2C84
  8
AM_0
 10
320.87423860130849
 20
522.30335796910299
 30
0.0
 11
322.87423860130849
 21
522.30335796910299
 31
0.0
  0
LINE
  5
2C85
  8
AM_0
 10
320.87423860130849
 20
523.27744796910281
 30
0.0
 11
321.87423860130838
 21
523.27744796910281
 31
0.0
  0
ARC
  5
2C86
  8
AM_0
 10
324.87423860130849
 20
525.66422796910285
 30
0.0
 40
1.0
 50
0.0
 51
90.000003000000945
  0
ARC
  5
2C87
  8
AM_0
 10
324.87423860130849
 20
524.7774479691027
 30
0.0
 40
1.0
 50
269.999989999999
 51
0.0000006832462478
  0
LINE
  5
2C88
  8
AM_0
 10
321.87423860130838
 20
535.32447796910287
 30
0.0
 11
324.87423860130849
 21
535.32447796910287
 31
0.0
  0
LINE
  5
2C89
  8
AM_0
 10
321.87423860130838
 20
532.43772796910275
 30
0.0
 11
324.87423860130849
 21
532.43772796910275
 31
0.0
  0
LINE
  5
2C8A
  8
AM_0
 10
320.87423860130849
 20
535.82447796910287
 30
0.0
 11
321.87423860130838
 21
535.82447796910287
 31
0.0
  0
ARC
  5
2C8B
  8
AM_0
 10
324.87423860130849
 20
531.43772796910275
 30
0.0
 40
1.0
 50
0.0
 51
90.000003000000945
  0
ARC
  5
2C8C
  8
AM_0
 10
324.87423860130849
 20
534.32447796910265
 30
0.0
 40
1.0
 50
0.0
 51
90.000003000000945
  0
ARC
  5
2C8D
  8
AM_0
 10
324.87423860130849
 20
533.43772796910298
 30
0.0
 40
1.0
 50
269.999989999999
 51
0.0000006832462478
  0
LINE
  5
2C8E
  8
AM_0
 10
346.86321860130852
 20
532.44877796910282
 30
0.0
 11
334.57549860130848
 21
532.77054796910295
 31
0.0
  0
ARC
  5
2C8F
  8
AM_0
 10
334.83724860130877
 20
542.76712796910283
 30
0.0
 40
10.0
 50
239.99999999999949
 51
268.5000000000004
  0
ARC
  5
2C90
  8
AM_0
 10
305.87423860130838
 20
537.46427796910257
 30
0.0
 40
2.0
 50
91.500001000001546
 51
180.00001000000091
  0
LINE
  5
2C92
  8
AM_0
 10
309.87426860130842
 20
549.56968796910292
 30
0.0
 11
291.74337860130851
 21
549.09491796910265
 31
0.0
  0
LINE
  5
2C96
  8
AM_0
 10
285.87426860130842
 20
536.06971796910295
 30
0.0
 11
295.86859860130818
 21
536.33139796910291
 31
0.0
  0
ARC
  5
2C97
  8
AM_0
 10
291.87423860130838
 20
544.09665796910281
 30
0.0
 40
5.0
 50
91.500001000001546
 51
180.00001000000091
  0
LINE
  5
2C98
  8
AM_0
 10
286.87423860130838
 20
544.09665796910281
 30
0.0
 11
286.87423860130838
 21
536.09589796910268
 31
0.0
  0
LINE
  5
2C99
  8
AM_0
 10
296.82189860130842
 20
536.60196796910304
 30
0.0
 11
302.5029286013085
 21
536.75074796910314
 31
0.0
  0
ARC
  5
2C9A
  8
AM_0
 10
302.46365860130823
 20
538.25022796910298
 30
0.0
 40
1.5
 50
271.49999999999949
 51
347.02334999999908
  0
LINE
  5
2C9B
  8
AM_0
 10
309.87426860130842
 20
539.56971796910295
 30
0.0
 11
318.33547860130852
 21
539.34815796910277
 31
0.0
  0
ARC
  5
2C9C
  8
AM_0
 10
311.87423860130838
 20
544.62037796910295
 30
0.0
 40
1.0
 50
0.0
 51
91.500001000001546
  0
LINE
  5
2C9D
  8
AM_0
 10
312.87423860130838
 20
547.54282796910275
 30
0.0
 11
312.87423860130838
 21
541.54419796910281
 31
0.0
  0
LINE
  5
2C9E
  8
AM_0
 10
305.82189860130842
 20
539.4636079691029
 30
0.0
 11
309.87423860130838
 21
539.56971796910295
 31
0.0
  0
ARC
  5
2C9F
  8
AM_0
 10
310.87423860130838
 20
541.54419796910281
 30
0.0
 40
2.0
 50
268.5000000000004
 51
0.0000006832462478
  0
LINE
  5
2CA0
  8
AM_0
 10
311.84808860130852
 20
545.62000796910274
 30
0.0
 11
309.90045860130851
 21
545.56900796910281
 31
0.0
  0
ARC
  5
2CA1
  8
AM_0
 10
309.87423860130838
 20
546.56867796910285
 30
0.0
 40
1.0
 50
180.00001000000091
 51
271.49999999999949
  0
ARC
  5
2CA2
  8
AM_0
 10
309.87423860130838
 20
548.5693779691029
 30
0.0
 40
1.0
 50
91.500001000001546
 51
180.00001000000091
  0
LINE
  5
2CA3
  8
AM_0
 10
308.87423860130838
 20
548.5693779691029
 30
0.0
 11
308.87423860130838
 21
546.56867796910285
 31
0.0
  0
ARC
  5
2CA4
  8
AM_0
 10
310.87423860130838
 20
547.54282796910275
 30
0.0
 40
2.0
 50
0.0
 51
88.499997000000747
  0
ARC
  5
2CA5
  8
AM_0
 10
318.07369860130848
 20
529.35157796910289
 30
0.0
 40
10.0
 50
60.000002000001302
 51
88.499997000000747
  0
LINE
  5
2CA6
  8
AM_0
 10
344.87423860130838
 20
545.57361796910288
 30
0.0
 11
344.87423860130838
 21
536.44046796910288
 31
0.0
  0
ARC
  5
2CA7
  8
AM_0
 10
347.87423860130849
 20
545.57361796910288
 30
0.0
 40
3.0
 50
88.499997000000747
 51
180.00001000000091
  0
CIRCLE
  5
2CA8
  8
AM_0
 10
359.87423860130838
 20
537.06971796910295
 30
0.0
 40
5.0
  0
LINE
  5
2CA9
  8
AM_0
 10
369.87423860130838
 20
543.12775796910284
 30
0.0
 11
369.87423860130838
 21
526.01163796910271
 31
0.0
  0
LINE
  5
2CAA
  8
ﾁｭｳｼﾝｾﾝ1
 10
359.87423860130838
 20
548.06971796910295
 30
0.0
 11
359.87423860130838
 21
526.06971796910295
 31
0.0
  0
LINE
  5
2CAB
  8
AM_0
 10
377.87423860130838
 20
482.56968796910292
 30
0.0
 11
399.87423860130838
 21
482.56968796910292
 31
0.0
  0
LINE
  5
2CAC
  8
AM_0
 10
377.87423860130838
 20
476.56968796910257
 30
0.0
 11
399.87423860130838
 21
476.56968796910257
 31
0.0
  0
LINE
  5
2CAD
  8
AM_0
 10
371.87423860130838
 20
489.06971796910273
 30
0.0
 11
399.87423860130838
 21
489.06971796910273
 31
0.0
  0
LINE
  5
2CAE
  8
AM_0
 10
371.87423860130838
 20
470.06971796910278
 30
0.0
 11
399.87423860130838
 21
470.06971796910278
 31
0.0
  0
ARC
  5
2CAF
  8
AM_0
 10
368.87423860130849
 20
500.59623796910279
 30
0.0
 40
1.0
 50
179.999989999999
 51
268.50000999999878
  0
ARC
  5
2CB0
  8
AM_0
 10
377.87423860130838
 20
479.56968796910257
 30
0.0
 40
3.0
 50
89.986013999999244
 51
270.01398999999998
  0
LINE
  5
2CB1
  8
AM_0
 10
371.87423860130838
 20
469.56971796910278
 30
0.0
 11
371.87423860130838
 21
489.56971796910273
 31
0.0
  0
LINE
  5
2CB2
  8
AM_0
 10
369.87423860130838
 20
469.56971796910278
 30
0.0
 11
371.87423860130838
 21
469.56971796910278
 31
0.0
  0
LINE
  5
2CB3
  8
AM_0
 10
369.87423860130838
 20
489.56971796910273
 30
0.0
 11
371.87423860130838
 21
489.56971796910273
 31
0.0
  0
ARC
  5
2CB4
  8
AM_0
 10
368.87423860130849
 20
498.59555796910291
 30
0.0
 40
1.0
 50
0.0
 51
88.499997000000747
  0
LINE
  5
2CB5
  8
AM_0
 10
368.84808860130852
 20
499.59656796910258
 30
0.0
 11
368.90042860130842
 21
499.59519796910263
 31
0.0
  0
LINE
  5
2CB6
  8
AM_0
 10
377.87423860130838
 20
476.56968796910257
 30
0.0
 11
377.87423860130838
 21
482.56968796910292
 31
0.0
  0
LINE
  5
2CB7
  8
AM_0
 10
359.74337860130839
 20
521.94220796910258
 30
0.0
 11
364.9527886013085
 21
521.80579796910285
 31
0.0
  0
ARC
  5
2CB8
  8
AM_0
 10
359.87423860130838
 20
526.94046796910266
 30
0.0
 40
5.0
 50
180.00001000000091
 51
268.5000000000004
  0
ARC
  5
2CB9
  8
AM_0
 10
351.87423860130838
 20
528.38535796910287
 30
0.0
 40
3.0
 50
0.0
 51
88.499997000000747
  0
ARC
  5
2CBA
  8
AM_0
 10
364.87423860130838
 20
526.01163796910271
 30
0.0
 40
5.0
 50
289.51466999999963
 51
0.0
  0
ARC
  5
2CBB
  8
AM_0
 10
364.87423860130838
 20
518.80680796910281
 30
0.0
 40
3.0
 50
0.0
 51
88.499997000000747
  0
LINE
  5
2CBC
  8
AM_0
 10
399.87423860130838
 20
470.06971796910278
 30
0.0
 11
399.87423860130838
 21
489.06971796910273
 31
0.0
  0
LINE
  5
2CBD
  8
ﾁｭｳｼﾝｾﾝ1
 10
348.87423860130838
 20
537.06971796910295
 30
0.0
 11
370.87423860130849
 21
537.06971796910295
 31
0.0
  0
ARC
  5
2CBE
  8
AM_0
 10
364.87423860130838
 20
543.12775796910284
 30
0.0
 40
5.0
 50
0.0
 51
88.499997000000747
  0
LINE
  5
2D3E
  8
ﾁｭｳｼﾝｾﾝ1
 10
359.87423860130838
 20
433.06968796910292
 30
0.0
 11
359.87423860130838
 21
411.0696879691028
 31
0.0
  0
LINE
  5
2D3F
  8
ﾁｭｳｼﾝｾﾝ1
 10
348.87423860130838
 20
422.06968796910257
 30
0.0
 11
370.87423860130849
 21
422.06968796910257
 31
0.0
  0
LINE
  5
2D46
  8
ﾁｭｳｼﾝｾﾝ1
 10
296.87423860130838
 20
433.06968796910292
 30
0.0
 11
296.87423860130838
 21
411.0696879691028
 31
0.0
  0
LINE
  5
2D47
  8
ﾁｭｳｼﾝｾﾝ1
 10
285.87423860130838
 20
422.06968796910257
 30
0.0
 11
307.87423860130838
 21
422.06968796910257
 31
0.0
  0
LINE
  5
2D4E
  8
ﾁｭｳｼﾝｾﾝ1
 10
296.87423860130838
 20
548.06971796910295
 30
0.0
 11
296.87423860130838
 21
526.06971796910295
 31
0.0
  0
LINE
  5
2D4F
  8
ﾁｭｳｼﾝｾﾝ1
 10
285.87423860130838
 20
537.06971796910295
 30
0.0
 11
307.87423860130838
 21
537.06971796910295
 31
0.0
  0
LINE
  5
4055
  8
AM_0
 10
371.87421860130831
 20
301.65210494003412
 30
0.0
 11
399.87423860130832
 21
301.65210494003412
 31
0.0
  0
LINE
  5
4056
  8
AM_0
 10
371.87421860130831
 20
282.65207894003407
 30
0.0
 11
399.87423860130832
 21
282.65207894003407
 31
0.0
  0
LINE
  5
4057
  8
ﾁｭｳｼﾝｾﾝ
 10
296.20402860371598
 20
292.15207994003413
 30
0.0
 11
401.60772860130822
 21
292.15207994003413
 31
0.0
  0
LINE
  5
4058
  8
AM_0
 10
377.87421860130831
 20
304.152084940034
 30
0.0
 11
399.87423860130832
 21
304.152084940034
 31
0.0
  0
LINE
  5
405A
  8
AM_0
 10
185.37423860130829
 20
300.15211644003409
 30
0.0
 11
185.37423860130829
 21
256.15211644003409
 31
0.0
  0
LINE
  5
405B
  8
AM_0
 10
127.37423860130841
 20
300.15211644003409
 30
0.0
 11
127.37423860130841
 21
256.15211644003409
 31
0.0
  0
LINE
  5
405C
  8
AM_0
 10
106.37423860130831
 20
292.15211644003409
 30
0.0
 11
106.37423860130831
 21
258.15211644003409
 31
0.0
  0
LINE
  5
405D
  8
AM_0
 10
267.37423860130832
 20
341.15211644003409
 30
0.0
 11
267.37423860130832
 21
209.15211644003409
 31
0.0
  0
LINE
  5
405E
  8
AM_0
 10
278.87423860130832
 20
341.15211644003409
 30
0.0
 11
278.87423860130832
 21
209.15211644003409
 31
0.0
  0
LINE
  5
405F
  8
AM_0
 10
124.37423860130841
 20
340.752116440034
 30
0.0
 11
124.37423860130841
 21
209.5521164400341
 31
0.0
  0
LINE
  5
4060
  8
AM_0
 10
121.87423860130841
 20
338.75211644003417
 30
0.0
 11
121.87423860130831
 21
211.5521164400341
 31
0.0
  0
LINE
  5
4061
  8
AM_0
 10
117.37423860130841
 20
328.2539843114136
 30
0.0
 11
117.37423860130841
 21
222.05024856865461
 31
0.0
  0
ARC
  5
4062
  8
AM_0
 10
1056.560362411127
 20
275.15211644003392
 30
0.0
 40
940.68612380981915
 50
176.76392470776159
 51
183.2360752922383
  0
LINE
  5
4064
  8
AM_0
 10
334.65993860130823
 20
299.49140594003421
 30
0.0
 11
322.87422860130818
 21
217.1520919400341
 31
0.0
  0
LINE
  5
4065
  8
AM_0
 10
322.87422860130818
 20
303.78294494003421
 30
0.0
 11
322.87422860130818
 21
217.1520919400341
 31
0.0
  0
LINE
  5
4066
  8
AM_0
 10
369.87423860130832
 20
311.17791494003421
 30
0.0
 11
369.87423860130832
 21
273.12622994003408
 31
0.0
  0
LINE
  5
4067
  8
AM_0
 10
344.8742486013083
 20
222.1520779400341
 30
0.0
 11
344.8742486013083
 21
300.06952994003427
 31
0.0
  0
LINE
  5
4068
  8
AM_0
 10
312.87423860130832
 20
279.90293294003408
 30
0.0
 11
312.87423860130832
 21
251.32795094003421
 31
0.0
  0
LINE
  5
4069
  8
AM_0
 10
357.87423860130832
 20
329.02440494003417
 30
0.0
 11
357.87423860130832
 21
243.91951994003409
 31
0.0
  0
LINE
  5
406A
  8
AM_0
 10
367.87419860130831
 20
320.15208494003411
 30
0.0
 11
367.87419860130831
 21
220.34249294003411
 31
0.0
  0
LINE
  5
406B
  8
AM_0
 10
303.87423860130832
 20
315.0257449400342
 30
0.0
 11
303.87423860130832
 21
275.15207894003407
 31
0.0
  0
LINE
  5
406C
  8
AM_0
 10
309.87423860130832
 20
335.15208494003411
 30
0.0
 11
309.87423860130832
 21
225.15210794003411
 31
0.0
  0
LINE
  5
406D
  8
AM_0
 10
285.87423860130832
 20
212.15211644003409
 30
0.0
 11
285.87423860130838
 21
338.15211644003409
 31
0.0
  0
LINE
  5
406E
  8
AM_0
 10
128.37423860130841
 20
255.15211644003409
 30
0.0
 11
184.37423860130829
 21
255.15211644003409
 31
0.0
  0
LINE
  5
406F
  8
AM_0
 10
123.87423860130831
 20
209.5521164400341
 30
0.0
 11
267.37423860130832
 21
209.5521164400341
 31
0.0
  0
LINE
  5
4070
  8
ﾁｭｳｼﾝｾﾝ
 10
100.9434968918282
 20
275.15207894003407
 30
0.0
 11
301.86372157190277
 21
275.15207894003407
 31
0.0
  0
ARC
  5
4071
  8
AM_0
 10
123.87423860130831
 20
211.5521164400341
 30
0.0
 40
2.0
 50
180.0
 51
270.0
1001
GENIUS_GENOBJ-N-FIL_13
1002
{
1000
OWNER
1000
GEN
1002
}
1001
GENIUS_GENODEF_13
1002
{
1000
HIER
1070
     0
1002
}
1002
{
1000
MANEDIT
1070
     0
1002
}
1002
{
1000
NOSEL
1070
     0
1002
}
1002
{
1000
BEHIND
1070
     0
1002
}
1002
{
1000
OTHER
1070
     0
1002
}
1002
{
1000
REACTOR
1002
}
  0
ARC
  5
4072
  8
AM_0
 10
119.87423860130831
 20
216.2539843114136
 30
0.0
 40
2.0
 50
0.0
 51
48.36646066343252
1001
GENIUS_GENOBJ-N-FIL_13
1002
{
1000
OWNER
1000
GEN
1002
}
1001
GENIUS_GENODEF_13
1002
{
1000
HIER
1070
     0
1002
}
1002
{
1000
MANEDIT
1070
     0
1002
}
1002
{
1000
NOSEL
1070
     0
1002
}
1002
{
1000
BEHIND
1070
     0
1002
}
1002
{
1000
OTHER
1070
     0
1002
}
1002
{
1000
REACTOR
1002
}
  0
LINE
  5
4073
  8
AM_0
 10
121.2029662789682
 20
217.74880294878099
 30
0.0
 11
118.04551092364861
 21
220.55542993128719
 31
0.0
  0
ARC
  5
4074
  8
AM_0
 10
119.37423860130841
 20
222.05024856865461
 30
0.0
 40
2.0
 50
180.0
 51
228.36646066343241
1001
GENIUS_GENODEF_13
1002
{
1000
HIER
1070
     0
1002
}
1002
{
1000
MANEDIT
1070
     0
1002
}
1002
{
1000
NOSEL
1070
     0
1002
}
1002
{
1000
BEHIND
1070
     0
1002
}
1002
{
1000
OTHER
1070
     0
1002
}
1002
{
1000
REACTOR
1002
}
1001
GENIUS_GENOBJ-N-FIL_13
1002
{
1000
OWNER
1000
GEN
1002
}
  0
ARC
  5
4075
  8
AM_0
 10
109.37423860130831
 20
258.15211644003409
 30
0.0
 40
3.0
 50
180.0
 51
270.0
1001
GENIUS_GENODEF_13
1002
{
1000
HIER
1070
     0
1002
}
1002
{
1000
MANEDIT
1070
     0
1002
}
1002
{
1000
NOSEL
1070
     0
1002
}
1002
{
1000
BEHIND
1070
     0
1002
}
1002
{
1000
OTHER
1070
     0
1002
}
1002
{
1000
REACTOR
1002
}
1001
GENIUS_GENOBJ-N-FIL_13
1002
{
1000
OWNER
1000
GEN
1002
}
  0
LINE
  5
4076
  8
AM_0
 10
109.37423860130831
 20
255.15211644003409
 30
0.0
 11
116.08687340235051
 21
255.15211644003409
 31
0.0
  0
ARC
  5
4077
  8
AM_0
 10
128.37423860130841
 20
256.15211644003409
 30
0.0
 40
1.0
 50
180.0
 51
270.0
1001
GENIUS_GENOBJ-N-FIL_13
1002
{
1000
OWNER
1000
GEN
1002
}
1001
GENIUS_GENODEF_13
1002
{
1000
HIER
1070
     0
1002
}
1002
{
1000
MANEDIT
1070
     0
1002
}
1002
{
1000
NOSEL
1070
     0
1002
}
1002
{
1000
BEHIND
1070
     0
1002
}
1002
{
1000
OTHER
1070
     0
1002
}
1002
{
1000
REACTOR
1002
}
  0
LINE
  5
4079
  8
ﾁｭｳｼﾝｾﾝ
 10
175.37423860130841
 20
256.47248764840111
 30
0.0
 11
175.37423860130841
 21
179.8784392133351
 31
0.0
  0
LINE
  5
407A
  8
AM_0
 10
150.37423860130821
 20
226.75211644003409
 30
0.0
 11
173.37423860130841
 21
226.75211644003409
 31
0.0
  0
LINE
  5
407B
  8
AM_0
 10
150.37423860130821
 20
231.95211644003399
 30
0.0
 11
173.37423860130841
 21
231.9521164400341
 31
0.0
  0
LINE
  5
407C
  8
AM_0
 10
150.37423860130821
 20
223.25211644003409
 30
0.0
 11
173.37423860130841
 21
223.25211644003409
 31
0.0
  0
LINE
  5
407D
  8
AM_0
 10
150.37423860130821
 20
218.95211644003399
 30
0.0
 11
173.37423860130841
 21
218.95211644003399
 31
0.0
  0
LINE
  5
407E
  8
AM_0
 10
150.37423860130821
 20
212.85211644003411
 30
0.0
 11
173.37423860130841
 21
212.85211644003411
 31
0.0
  0
LINE
  5
407F
  8
AM_0
 10
150.37423860130821
 20
215.45211644003399
 30
0.0
 11
173.37423860130841
 21
215.45211644003399
 31
0.0
  0
ARC
  5
4080
  8
AM_0
 10
150.37423860130821
 20
213.85211644003411
 30
0.0
 40
1.0
 50
180.0
 51
270.0
1001
GENIUS_GENODEF_13
1002
{
1000
HIER
1070
     0
1002
}
1002
{
1000
MANEDIT
1070
     0
1002
}
1002
{
1000
NOSEL
1070
     0
1002
}
1002
{
1000
BEHIND
1070
     0
1002
}
1002
{
1000
OTHER
1070
     0
1002
}
1002
{
1000
REACTOR
1002
}
1001
GENIUS_GENOBJ-N-FIL_13
1002
{
1000
OWNER
1000
GEN
1002
}
  0
LINE
  5
4081
  8
AM_0
 10
149.37423860130821
 20
222.25211644003409
 30
0.0
 11
149.37423860130821
 21
219.9521164400341
 31
0.0
  0
ARC
  5
4082
  8
AM_0
 10
150.37423860130821
 20
222.25211644003409
 30
0.0
 40
1.0
 50
90.0
 51
180.0
1001
GENIUS_GENODEF_13
1002
{
1000
HIER
1070
     0
1002
}
1002
{
1000
MANEDIT
1070
     0
1002
}
1002
{
1000
NOSEL
1070
     0
1002
}
1002
{
1000
BEHIND
1070
     0
1002
}
1002
{
1000
OTHER
1070
     0
1002
}
1002
{
1000
REACTOR
1002
}
1001
GENIUS_GENOBJ-N-FIL_13
1002
{
1000
OWNER
1000
GEN
1002
}
  0
LINE
  5
4083
  8
AM_0
 10
149.37423860130829
 20
214.4521164400341
 30
0.0
 11
149.37423860130821
 21
213.85211644003411
 31
0.0
  0
ARC
  5
4084
  8
AM_0
 10
150.37423860130821
 20
214.4521164400341
 30
0.0
 40
1.0
 50
90.0
 51
180.0
1001
GENIUS_GENOBJ-N-FIL_13
1002
{
1000
OWNER
1000
GEN
1002
}
1001
GENIUS_GENODEF_13
1002
{
1000
HIER
1070
     0
1002
}
1002
{
1000
MANEDIT
1070
     0
1002
}
1002
{
1000
NOSEL
1070
     0
1002
}
1002
{
1000
BEHIND
1070
     0
1002
}
1002
{
1000
OTHER
1070
     0
1002
}
1002
{
1000
REACTOR
1002
}
  0
ARC
  5
4085
  8
AM_0
 10
150.37423860130821
 20
219.9521164400341
 30
0.0
 40
1.0
 50
180.0
 51
270.0
1001
GENIUS_GENOBJ-N-FIL_13
1002
{
1000
OWNER
1000
GEN
1002
}
1001
GENIUS_GENODEF_13
1002
{
1000
HIER
1070
     0
1002
}
1002
{
1000
MANEDIT
1070
     0
1002
}
1002
{
1000
NOSEL
1070
     0
1002
}
1002
{
1000
BEHIND
1070
     0
1002
}
1002
{
1000
OTHER
1070
     0
1002
}
1002
{
1000
REACTOR
1002
}
  0
ARC
  5
4086
  8
AM_0
 10
150.37423860130821
 20
230.9521164400341
 30
0.0
 40
1.0
 50
90.0
 51
180.0
1001
GENIUS_GENODEF_13
1002
{
1000
HIER
1070
     0
1002
}
1002
{
1000
MANEDIT
1070
     0
1002
}
1002
{
1000
NOSEL
1070
     0
1002
}
1002
{
1000
BEHIND
1070
     0
1002
}
1002
{
1000
OTHER
1070
     0
1002
}
1002
{
1000
REACTOR
1002
}
1001
GENIUS_GENOBJ-N-FIL_13
1002
{
1000
OWNER
1000
GEN
1002
}
  0
ARC
  5
4087
  8
AM_0
 10
150.37423860130821
 20
227.75211644003409
 30
0.0
 40
1.0
 50
180.0
 51
270.0
1001
GENIUS_GENOBJ-N-FIL_13
1002
{
1000
OWNER
1000
GEN
1002
}
1001
GENIUS_GENODEF_13
1002
{
1000
HIER
1070
     0
1002
}
1002
{
1000
MANEDIT
1070
     0
1002
}
1002
{
1000
NOSEL
1070
     0
1002
}
1002
{
1000
BEHIND
1070
     0
1002
}
1002
{
1000
OTHER
1070
     0
1002
}
1002
{
1000
REACTOR
1002
}
  0
LINE
  5
4088
  8
AM_0
 10
149.37423860130821
 20
230.9521164400341
 30
0.0
 11
149.37423860130821
 21
227.75211644003409
 31
0.0
  0
ARC
  5
4089
  8
AM_0
 10
173.37423860130841
 20
213.85211644003411
 30
0.0
 40
1.0
 50
270.0
 51
0.0
1001
GENIUS_GENOBJ-N-FIL_13
1002
{
1000
OWNER
1000
GEN
1002
}
1001
GENIUS_GENODEF_13
1002
{
1000
HIER
1070
     0
1002
}
1002
{
1000
MANEDIT
1070
     0
1002
}
1002
{
1000
NOSEL
1070
     0
1002
}
1002
{
1000
BEHIND
1070
     0
1002
}
1002
{
1000
OTHER
1070
     0
1002
}
1002
{
1000
REACTOR
1002
}
  0
POLYLINE
  5
408A
  8
AM_4
 66
     1
 10
0.0
 20
0.0
 30
0.0
 70
     4
  0
VERTEX
  5
408B
  8
AM_4
 10
171.37423860130821
 20
200.3270160746072
 30
0.0
 70
    16
  0
VERTEX
  5
408C
  8
AM_4
 10
171.37423860130821
 20
200.3270160746072
 30
0.0
 70
     8
  0
VERTEX
  5
408D
  8
AM_4
 10
172.46525382572091
 20
200.90880605069461
 30
0.0
 70
     8
  0
VERTEX
  5
408E
  8
AM_4
 10
173.49879079929471
 20
200.93927565332211
 30
0.0
 70
     8
  0
VERTEX
  5
408F
  8
AM_4
 10
174.4905864725327
 20
200.61292057866251
 30
0.0
 70
     8
  0
VERTEX
  5
4090
  8
AM_4
 10
175.45637779593861
 20
200.12423652288879
 30
0.0
 70
     8
  0
VERTEX
  5
4091
  8
AM_4
 10
176.41190172001569
 20
199.6677191821737
 30
0.0
 70
     8
  0
VERTEX
  5
4092
  8
AM_4
 10
177.3728951952674
 20
199.43786425268999
 30
0.0
 70
     8
  0
VERTEX
  5
4093
  8
AM_4
 10
178.3550951721972
 20
199.62916743061069
 30
0.0
 70
     8
  0
VERTEX
  5
4094
  8
AM_4
 10
179.37423860130841
 20
200.4361244121084
 30
0.0
 70
     8
  0
VERTEX
  5
4095
  8
AM_4
 10
174.37423860130821
 20
202.78643490538479
 30
0.0
 70
    16
  0
VERTEX
  5
4096
  8
AM_4
 10
176.59327645365579
 20
197.2904823267468
 30
0.0
 70
    16
  0
VERTEX
  5
4097
  8
AM_4
 10
179.37423860130821
 20
200.4361244121084
 30
0.0
 70
    16
  0
SEQEND
  5
4098
  8
AM_4
  0
LINE
  5
4099
  8
AM_0
 10
171.37423860130841
 20
200.3270160746072
 30
0.0
 11
171.37423860130841
 21
196.33778983020841
 31
0.0
  0
LINE
  5
409A
  8
AM_0
 10
179.3652506013083
 20
200.4290077206374
 30
0.0
 11
179.3652506013083
 21
196.33778983020841
 31
0.0
  0
LINE
  5
409B
  8
AM_0
 10
176.37423860130841
 20
199.68571335935971
 30
0.0
 11
176.37423860130841
 21
194.9636943967495
 31
0.0
  0
LINE
  5
409C
  8
AM_0
 10
174.37423860130841
 20
200.65120539803061
 30
0.0
 11
174.37423860130841
 21
194.96220753983039
 31
0.0
  0
LINE
  5
409D
  8
AM_0
 10
173.37423860130841
 20
200.93560374213169
 30
0.0
 11
173.37423860130841
 21
196.33853937715591
 31
0.0
  0
LINE
  5
409E
  8
AM_0
 10
177.3728951952674
 20
199.43786425268999
 30
0.0
 11
177.3652506013083
 21
196.33853937715591
 31
0.0
  0
LINE
  5
409F
  8
AM_0
 10
174.37423860130841
 20
222.25211644003409
 30
0.0
 11
174.37423860130841
 21
219.9521164400341
 31
0.0
  0
ARC
  5
40A0
  8
AM_0
 10
173.37423860130841
 20
222.25211644003409
 30
0.0
 40
1.0
 50
0.0
 51
90.0
1001
GENIUS_GENODEF_13
1002
{
1000
HIER
1070
     0
1002
}
1002
{
1000
MANEDIT
1070
     0
1002
}
1002
{
1000
NOSEL
1070
     0
1002
}
1002
{
1000
BEHIND
1070
     0
1002
}
1002
{
1000
OTHER
1070
     0
1002
}
1002
{
1000
REACTOR
1002
}
1001
GENIUS_GENOBJ-N-FIL_13
1002
{
1000
OWNER
1000
GEN
1002
}
  0
ARC
  5
40A1
  8
AM_0
 10
173.37423860130841
 20
214.4521164400341
 30
0.0
 40
1.0
 50
0.0
 51
90.0
1001
GENIUS_GENODEF_13
1002
{
1000
HIER
1070
     0
1002
}
1002
{
1000
MANEDIT
1070
     0
1002
}
1002
{
1000
NOSEL
1070
     0
1002
}
1002
{
1000
BEHIND
1070
     0
1002
}
1002
{
1000
OTHER
1070
     0
1002
}
1002
{
1000
REACTOR
1002
}
1001
GENIUS_GENOBJ-N-FIL_13
1002
{
1000
OWNER
1000
GEN
1002
}
  0
LINE
  5
40A2
  8
AM_0
 10
174.37423860130841
 20
214.4521164400341
 30
0.0
 11
174.37423860130841
 21
213.85211644003411
 31
0.0
  0
ARC
  5
40A3
  8
AM_0
 10
173.37423860130841
 20
219.9521164400341
 30
0.0
 40
1.0
 50
270.0
 51
0.0
1001
GENIUS_GENODEF_13
1002
{
1000
HIER
1070
     0
1002
}
1002
{
1000
MANEDIT
1070
     0
1002
}
1002
{
1000
NOSEL
1070
     0
1002
}
1002
{
1000
BEHIND
1070
     0
1002
}
1002
{
1000
OTHER
1070
     0
1002
}
1002
{
1000
REACTOR
1002
}
1001
GENIUS_GENOBJ-N-FIL_13
1002
{
1000
OWNER
1000
GEN
1002
}
  0
ARC
  5
40A4
  8
AM_0
 10
173.37423860130841
 20
230.9521164400341
 30
0.0
 40
1.0
 50
0.0
 51
90.0
1001
GENIUS_GENODEF_13
1002
{
1000
HIER
1070
     0
1002
}
1002
{
1000
MANEDIT
1070
     0
1002
}
1002
{
1000
NOSEL
1070
     0
1002
}
1002
{
1000
BEHIND
1070
     0
1002
}
1002
{
1000
OTHER
1070
     0
1002
}
1002
{
1000
REACTOR
1002
}
1001
GENIUS_GENOBJ-N-FIL_13
1002
{
1000
OWNER
1000
GEN
1002
}
  0
ARC
  5
40A5
  8
AM_0
 10
173.37423860130841
 20
227.75211644003409
 30
0.0
 40
1.0
 50
270.0
 51
0.0
1001
GENIUS_GENODEF_13
1002
{
1000
HIER
1070
     0
1002
}
1002
{
1000
MANEDIT
1070
     0
1002
}
1002
{
1000
NOSEL
1070
     0
1002
}
1002
{
1000
BEHIND
1070
     0
1002
}
1002
{
1000
OTHER
1070
     0
1002
}
1002
{
1000
REACTOR
1002
}
1001
GENIUS_GENOBJ-N-FIL_13
1002
{
1000
OWNER
1000
GEN
1002
}
  0
LINE
  5
40A6
  8
AM_0
 10
174.37423860130829
 20
230.9521164400341
 30
0.0
 11
174.37423860130841
 21
227.75211644003409
 31
0.0
  0
LINE
  5
40A7
  8
AM_0
 10
150.37423860130821
 20
241.15211644003409
 30
0.0
 11
173.37423860130821
 21
241.15211644003409
 31
0.0
  0
LINE
  5
40A8
  8
AM_0
 10
150.37423860130821
 20
235.65211644003409
 30
0.0
 11
173.37423860130841
 21
235.65211644003409
 31
0.0
  0
CIRCLE
  5
40A9
  8
AM_0N
 10
149.87423860130829
 20
251.15211644003409
 30
0.0
 40
2.799999999999998
  0
LINE
  5
40AA
  8
AM_0
 10
143.87423860130841
 20
247.15211644003409
 30
0.0
 11
155.87423860130841
 21
247.15211644003409
 31
0.0
  0
ARC
  5
40AB
  8
AM_0
 10
143.87423860130841
 20
249.15211644003409
 30
0.0
 40
2.0
 50
180.0
 51
270.0
1001
GENIUS_GENOBJ-N-FIL_13
1002
{
1000
OWNER
1000
GEN
1002
}
1001
GENIUS_GENODEF_13
1002
{
1000
HIER
1070
     0
1002
}
1002
{
1000
MANEDIT
1070
     0
1002
}
1002
{
1000
NOSEL
1070
     0
1002
}
1002
{
1000
BEHIND
1070
     0
1002
}
1002
{
1000
OTHER
1070
     0
1002
}
1002
{
1000
REACTOR
1002
}
  0
LINE
  5
40AC
  8
AM_0
 10
145.87423860130829
 20
247.15211644003409
 30
0.0
 11
145.87423860130829
 21
255.15211644003409
 31
0.0
  0
LINE
  5
40AD
  8
AM_0
 10
141.87423860130841
 20
249.15211644003409
 30
0.0
 11
141.87423860130841
 21
255.15211644003409
 31
0.0
  0
LINE
  5
40AE
  8
AM_0
 10
149.37423860130821
 20
240.15211644003409
 30
0.0
 11
149.37423860130821
 21
236.65211644003409
 31
0.0
  0
ARC
  5
40AF
  8
AM_0
 10
150.37423860130821
 20
236.65211644003409
 30
0.0
 40
1.0
 50
180.0
 51
270.0
1001
GENIUS_GENODEF_13
1002
{
1000
HIER
1070
     0
1002
}
1002
{
1000
MANEDIT
1070
     0
1002
}
1002
{
1000
NOSEL
1070
     0
1002
}
1002
{
1000
BEHIND
1070
     0
1002
}
1002
{
1000
OTHER
1070
     0
1002
}
1002
{
1000
REACTOR
1002
}
1001
GENIUS_GENOBJ-N-FIL_13
1002
{
1000
OWNER
1000
GEN
1002
}
  0
ARC
  5
40B0
  8
AM_0
 10
150.37423860130821
 20
240.15211644003409
 30
0.0
 40
1.0
 50
90.0
 51
180.0
1001
GENIUS_GENODEF_13
1002
{
1000
HIER
1070
     0
1002
}
1002
{
1000
MANEDIT
1070
     0
1002
}
1002
{
1000
NOSEL
1070
     0
1002
}
1002
{
1000
BEHIND
1070
     0
1002
}
1002
{
1000
OTHER
1070
     0
1002
}
1002
{
1000
REACTOR
1002
}
1001
GENIUS_GENOBJ-N-FIL_13
1002
{
1000
OWNER
1000
GEN
1002
}
  0
LINE
  5
40B1
  8
AM_0N
 10
149.62173860130841
 20
252.63071163480521
 30
0.0
 11
150.1267386013084
 21
252.63071163480521
 31
0.0
  0
LINE
  5
40B2
  8
AM_0N
 10
150.1267386013084
 20
249.673521245263
 30
0.0
 11
150.1267386013084
 21
250.89961644003401
 31
0.0
  0
LINE
  5
40B3
  8
AM_0N
 10
149.62173860130841
 20
249.673521245263
 30
0.0
 11
149.62173860130841
 21
250.89961644003401
 31
0.0
  0
LINE
  5
40B4
  8
AM_0N
 10
151.35283379607941
 20
250.89961644003401
 30
0.0
 11
150.1267386013084
 21
250.89961644003401
 31
0.0
  0
LINE
  5
40B5
  8
AM_0N
 10
151.35283379607941
 20
251.40461644003409
 30
0.0
 11
150.1267386013084
 21
251.40461644003409
 31
0.0
  0
LINE
  5
40B6
  8
AM_0N
 10
151.35283379607941
 20
251.40461644003409
 30
0.0
 11
151.35283379607941
 21
250.89961644003401
 31
0.0
  0
LINE
  5
40B7
  8
AM_0N
 10
149.62173860130841
 20
249.673521245263
 30
0.0
 11
150.1267386013084
 21
249.673521245263
 31
0.0
  0
LINE
  5
40B8
  8
AM_0N
 10
149.62173860130841
 20
251.40461644003409
 30
0.0
 11
149.62173860130841
 21
252.63071163480521
 31
0.0
  0
LINE
  5
40B9
  8
AM_0N
 10
150.1267386013084
 20
251.40461644003409
 30
0.0
 11
150.1267386013084
 21
252.63071163480521
 31
0.0
  0
LINE
  5
40BA
  8
AM_0
 10
153.87423860130829
 20
247.15211644003409
 30
0.0
 11
153.87423860130829
 21
255.15211644003409
 31
0.0
  0
LINE
  5
40BB
  8
AM_0N
 10
148.39564340653729
 20
251.40461644003409
 30
0.0
 11
148.39564340653729
 21
250.89961644003401
 31
0.0
  0
LINE
  5
40BC
  8
AM_0N
 10
149.62173860130841
 20
250.89961644003401
 30
0.0
 11
148.39564340653729
 21
250.89961644003401
 31
0.0
  0
LINE
  5
40BD
  8
AM_0N
 10
149.62173860130841
 20
251.40461644003409
 30
0.0
 11
148.39564340653729
 21
251.40461644003409
 31
0.0
  0
ARC
  5
40BE
  8
AM_0
 10
155.87423860130841
 20
249.15211644003409
 30
0.0
 40
2.0
 50
270.0
 51
0.0
1001
GENIUS_GENOBJ-N-FIL_13
1002
{
1000
OWNER
1000
GEN
1002
}
1001
GENIUS_GENODEF_13
1002
{
1000
HIER
1070
     0
1002
}
1002
{
1000
MANEDIT
1070
     0
1002
}
1002
{
1000
NOSEL
1070
     0
1002
}
1002
{
1000
BEHIND
1070
     0
1002
}
1002
{
1000
OTHER
1070
     0
1002
}
1002
{
1000
REACTOR
1002
}
  0
LINE
  5
40BF
  8
AM_0
 10
157.87423860130829
 20
249.15211644003409
 30
0.0
 11
157.87423860130829
 21
255.15211644003409
 31
0.0
  0
LINE
  5
40C0
  8
AM_0
 10
176.37423860130841
 20
255.15211644003409
 30
0.0
 11
176.37423860130841
 21
245.50527114186531
 31
0.0
  0
LINE
  5
40C1
  8
AM_0
 10
177.37423860130841
 20
255.15211644003409
 30
0.0
 11
177.37423860130841
 21
245.2576836905111
 31
0.0
  0
POLYLINE
  5
40C2
  8
AM_4
 66
     1
 10
0.0
 20
0.0
 30
0.0
 70
     4
  0
VERTEX
  5
40C3
  8
AM_4
 10
171.37423860130841
 20
246.1465738571126
 30
0.0
 70
    16
  0
VERTEX
  5
40C4
  8
AM_4
 10
171.37423860130841
 20
246.1465738571126
 30
0.0
 70
     8
  0
VERTEX
  5
40C5
  8
AM_4
 10
172.46525382572099
 20
246.72836383320001
 30
0.0
 70
     8
  0
VERTEX
  5
40C6
  8
AM_4
 10
173.4987907992948
 20
246.7588334358276
 30
0.0
 70
     8
  0
VERTEX
  5
40C7
  8
AM_4
 10
174.49058647253281
 20
246.43247836116799
 30
0.0
 70
     8
  0
VERTEX
  5
40C8
  8
AM_4
 10
175.45637779593869
 20
245.94379430539439
 30
0.0
 70
     8
  0
VERTEX
  5
40C9
  8
AM_4
 10
176.41190172001581
 20
245.48727696467921
 30
0.0
 70
     8
  0
VERTEX
  5
40CA
  8
AM_4
 10
177.37289519526749
 20
245.2574220351955
 30
0.0
 70
     8
  0
VERTEX
  5
40CB
  8
AM_4
 10
178.35509517219731
 20
245.44872521311621
 30
0.0
 70
     8
  0
VERTEX
  5
40CC
  8
AM_4
 10
179.37423860130849
 20
246.25568219461391
 30
0.0
 70
     8
  0
VERTEX
  5
40CD
  8
AM_4
 10
174.37423860130841
 20
248.60599268789031
 30
0.0
 70
    16
  0
VERTEX
  5
40CE
  8
AM_4
 10
176.5932764536559
 20
243.1100401092524
 30
0.0
 70
    16
  0
VERTEX
  5
40CF
  8
AM_4
 10
179.37423860130841
 20
246.25568219461391
 30
0.0
 70
    16
  0
SEQEND
  5
40D0
  8
AM_4
  0
LINE
  5
40D1
  8
AM_0
 10
174.37423860130821
 20
240.15211644003409
 30
0.0
 11
174.37423860130821
 21
236.65211644003409
 31
0.0
  0
ARC
  5
40D2
  8
AM_0
 10
173.37423860130841
 20
236.65211644003409
 30
0.0
 40
1.0
 50
270.0
 51
0.0
1001
GENIUS_GENODEF_13
1002
{
1000
HIER
1070
     0
1002
}
1002
{
1000
MANEDIT
1070
     0
1002
}
1002
{
1000
NOSEL
1070
     0
1002
}
1002
{
1000
BEHIND
1070
     0
1002
}
1002
{
1000
OTHER
1070
     0
1002
}
1002
{
1000
REACTOR
1002
}
1001
GENIUS_GENOBJ-N-FIL_13
1002
{
1000
OWNER
1000
GEN
1002
}
  0
ARC
  5
40D3
  8
AM_0
 10
173.37423860130821
 20
240.15211644003409
 30
0.0
 40
1.0
 50
0.0
 51
90.0
1001
GENIUS_GENOBJ-N-FIL_13
1002
{
1000
OWNER
1000
GEN
1002
}
1001
GENIUS_GENODEF_13
1002
{
1000
HIER
1070
     0
1002
}
1002
{
1000
MANEDIT
1070
     0
1002
}
1002
{
1000
NOSEL
1070
     0
1002
}
1002
{
1000
BEHIND
1070
     0
1002
}
1002
{
1000
OTHER
1070
     0
1002
}
1002
{
1000
REACTOR
1002
}
  0
LINE
  5
40D4
  8
AM_0
 10
171.37423860130841
 20
255.15211644003409
 30
0.0
 11
171.37423860130841
 21
246.1465738571126
 31
0.0
  0
LINE
  5
40D5
  8
AM_0
 10
179.37423860130841
 20
255.15211644003409
 30
0.0
 11
179.37423860130841
 21
246.2556821946138
 31
0.0
  0
LINE
  5
40D6
  8
AM_0
 10
174.37423860130841
 20
255.15211644003409
 30
0.0
 11
174.37423860130841
 21
246.4707631805361
 31
0.0
  0
LINE
  5
40D7
  8
AM_0
 10
173.37423860130841
 20
255.15211644003409
 30
0.0
 11
173.37423860130841
 21
246.75516152463709
 31
0.0
  0
ARC
  5
40D8
  8
AM_0
 10
184.37423860130829
 20
256.15211644003409
 30
0.0
 40
1.0
 50
270.0
 51
0.0
1001
GENIUS_GENOBJ-N-FIL_13
1002
{
1000
OWNER
1000
GEN
1002
}
1001
GENIUS_GENODEF_13
1002
{
1000
HIER
1070
     0
1002
}
1002
{
1000
MANEDIT
1070
     0
1002
}
1002
{
1000
NOSEL
1070
     0
1002
}
1002
{
1000
BEHIND
1070
     0
1002
}
1002
{
1000
OTHER
1070
     0
1002
}
1002
{
1000
REACTOR
1002
}
  0
ARC
  5
40D9
  8
AM_0
 10
256.37423860130838
 20
213.85211644003411
 30
0.0
 40
1.0
 50
270.0
 51
0.0
1001
GENIUS_GENOBJ-N-FIL_13
1002
{
1000
OWNER
1000
GEN
1002
}
1001
GENIUS_GENODEF_13
1002
{
1000
HIER
1070
     0
1002
}
1002
{
1000
MANEDIT
1070
     0
1002
}
1002
{
1000
NOSEL
1070
     0
1002
}
1002
{
1000
BEHIND
1070
     0
1002
}
1002
{
1000
OTHER
1070
     0
1002
}
1002
{
1000
REACTOR
1002
}
  0
ARC
  5
40DA
  8
AM_0
 10
233.37423860130829
 20
213.85211644003411
 30
0.0
 40
1.0
 50
180.0
 51
270.0
1001
GENIUS_GENODEF_13
1002
{
1000
HIER
1070
     0
1002
}
1002
{
1000
MANEDIT
1070
     0
1002
}
1002
{
1000
NOSEL
1070
     0
1002
}
1002
{
1000
BEHIND
1070
     0
1002
}
1002
{
1000
OTHER
1070
     0
1002
}
1002
{
1000
REACTOR
1002
}
1001
GENIUS_GENOBJ-N-FIL_13
1002
{
1000
OWNER
1000
GEN
1002
}
  0
LINE
  5
40DB
  8
AM_0
 10
233.37423860130829
 20
212.85211644003411
 30
0.0
 11
256.37423860130838
 21
212.85211644003411
 31
0.0
  0
LINE
  5
40DC
  8
AM_0
 10
233.37423860130829
 20
231.95211644003399
 30
0.0
 11
256.37423860130838
 21
231.9521164400341
 31
0.0
  0
LINE
  5
40DD
  8
AM_0
 10
233.37423860130829
 20
226.75211644003409
 30
0.0
 11
256.37423860130838
 21
226.75211644003409
 31
0.0
  0
LINE
  5
40DE
  8
AM_0
 10
233.37423860130829
 20
223.25211644003409
 30
0.0
 11
256.37423860130838
 21
223.25211644003409
 31
0.0
  0
LINE
  5
40DF
  8
AM_0
 10
233.37423860130829
 20
218.95211644003399
 30
0.0
 11
256.37423860130838
 21
218.95211644003399
 31
0.0
  0
LINE
  5
40E0
  8
AM_0
 10
233.37423860130829
 20
215.45211644003399
 30
0.0
 11
256.37423860130838
 21
215.45211644003399
 31
0.0
  0
LINE
  5
40E1
  8
AM_0
 10
232.37423860130829
 20
222.25211644003409
 30
0.0
 11
232.37423860130829
 21
219.9521164400341
 31
0.0
  0
ARC
  5
40E2
  8
AM_0
 10
233.37423860130829
 20
222.25211644003409
 30
0.0
 40
1.0
 50
90.0
 51
180.0
1001
GENIUS_GENODEF_13
1002
{
1000
HIER
1070
     0
1002
}
1002
{
1000
MANEDIT
1070
     0
1002
}
1002
{
1000
NOSEL
1070
     0
1002
}
1002
{
1000
BEHIND
1070
     0
1002
}
1002
{
1000
OTHER
1070
     0
1002
}
1002
{
1000
REACTOR
1002
}
1001
GENIUS_GENOBJ-N-FIL_13
1002
{
1000
OWNER
1000
GEN
1002
}
  0
LINE
  5
40E3
  8
AM_0
 10
232.37423860130829
 20
214.4521164400341
 30
0.0
 11
232.37423860130829
 21
213.85211644003411
 31
0.0
  0
ARC
  5
40E4
  8
AM_0
 10
233.37423860130829
 20
214.4521164400341
 30
0.0
 40
1.0
 50
90.0
 51
180.0
1001
GENIUS_GENOBJ-N-FIL_13
1002
{
1000
OWNER
1000
GEN
1002
}
1001
GENIUS_GENODEF_13
1002
{
1000
HIER
1070
     0
1002
}
1002
{
1000
MANEDIT
1070
     0
1002
}
1002
{
1000
NOSEL
1070
     0
1002
}
1002
{
1000
BEHIND
1070
     0
1002
}
1002
{
1000
OTHER
1070
     0
1002
}
1002
{
1000
REACTOR
1002
}
  0
ARC
  5
40E5
  8
AM_0
 10
233.37423860130829
 20
219.9521164400341
 30
0.0
 40
1.0
 50
180.0
 51
270.0
1001
GENIUS_GENOBJ-N-FIL_13
1002
{
1000
OWNER
1000
GEN
1002
}
1001
GENIUS_GENODEF_13
1002
{
1000
HIER
1070
     0
1002
}
1002
{
1000
MANEDIT
1070
     0
1002
}
1002
{
1000
NOSEL
1070
     0
1002
}
1002
{
1000
BEHIND
1070
     0
1002
}
1002
{
1000
OTHER
1070
     0
1002
}
1002
{
1000
REACTOR
1002
}
  0
ARC
  5
40E6
  8
AM_0
 10
233.37423860130829
 20
230.9521164400341
 30
0.0
 40
1.0
 50
90.0
 51
180.0
1001
GENIUS_GENODEF_13
1002
{
1000
HIER
1070
     0
1002
}
1002
{
1000
MANEDIT
1070
     0
1002
}
1002
{
1000
NOSEL
1070
     0
1002
}
1002
{
1000
BEHIND
1070
     0
1002
}
1002
{
1000
OTHER
1070
     0
1002
}
1002
{
1000
REACTOR
1002
}
1001
GENIUS_GENOBJ-N-FIL_13
1002
{
1000
OWNER
1000
GEN
1002
}
  0
ARC
  5
40E7
  8
AM_0
 10
233.37423860130829
 20
227.75211644003409
 30
0.0
 40
1.0
 50
180.0
 51
270.0
1001
GENIUS_GENOBJ-N-FIL_13
1002
{
1000
OWNER
1000
GEN
1002
}
1001
GENIUS_GENODEF_13
1002
{
1000
HIER
1070
     0
1002
}
1002
{
1000
MANEDIT
1070
     0
1002
}
1002
{
1000
NOSEL
1070
     0
1002
}
1002
{
1000
BEHIND
1070
     0
1002
}
1002
{
1000
OTHER
1070
     0
1002
}
1002
{
1000
REACTOR
1002
}
  0
LINE
  5
40E8
  8
AM_0
 10
232.37423860130829
 20
230.9521164400341
 30
0.0
 11
232.37423860130829
 21
227.75211644003409
 31
0.0
  0
ARC
  5
40E9
  8
AM_0
 10
256.37423860130838
 20
222.25211644003409
 30
0.0
 40
1.0
 50
0.0
 51
90.0
1001
GENIUS_GENODEF_13
1002
{
1000
HIER
1070
     0
1002
}
1002
{
1000
MANEDIT
1070
     0
1002
}
1002
{
1000
NOSEL
1070
     0
1002
}
1002
{
1000
BEHIND
1070
     0
1002
}
1002
{
1000
OTHER
1070
     0
1002
}
1002
{
1000
REACTOR
1002
}
1001
GENIUS_GENOBJ-N-FIL_13
1002
{
1000
OWNER
1000
GEN
1002
}
  0
LINE
  5
40EA
  8
AM_0
 10
257.37423860130838
 20
222.25211644003409
 30
0.0
 11
257.37423860130838
 21
219.9521164400341
 31
0.0
  0
ARC
  5
40EB
  8
AM_0
 10
256.37423860130838
 20
214.4521164400341
 30
0.0
 40
1.0
 50
0.0
 51
90.0
1001
GENIUS_GENODEF_13
1002
{
1000
HIER
1070
     0
1002
}
1002
{
1000
MANEDIT
1070
     0
1002
}
1002
{
1000
NOSEL
1070
     0
1002
}
1002
{
1000
BEHIND
1070
     0
1002
}
1002
{
1000
OTHER
1070
     0
1002
}
1002
{
1000
REACTOR
1002
}
1001
GENIUS_GENOBJ-N-FIL_13
1002
{
1000
OWNER
1000
GEN
1002
}
  0
LINE
  5
40EC
  8
AM_0
 10
257.37423860130838
 20
214.4521164400341
 30
0.0
 11
257.37423860130838
 21
213.85211644003411
 31
0.0
  0
ARC
  5
40ED
  8
AM_0
 10
256.37423860130838
 20
219.9521164400341
 30
0.0
 40
1.0
 50
270.0
 51
0.0
1001
GENIUS_GENODEF_13
1002
{
1000
HIER
1070
     0
1002
}
1002
{
1000
MANEDIT
1070
     0
1002
}
1002
{
1000
NOSEL
1070
     0
1002
}
1002
{
1000
BEHIND
1070
     0
1002
}
1002
{
1000
OTHER
1070
     0
1002
}
1002
{
1000
REACTOR
1002
}
1001
GENIUS_GENOBJ-N-FIL_13
1002
{
1000
OWNER
1000
GEN
1002
}
  0
ARC
  5
40EE
  8
AM_0
 10
256.37423860130838
 20
230.9521164400341
 30
0.0
 40
1.0
 50
0.0
 51
90.0
1001
GENIUS_GENODEF_13
1002
{
1000
HIER
1070
     0
1002
}
1002
{
1000
MANEDIT
1070
     0
1002
}
1002
{
1000
NOSEL
1070
     0
1002
}
1002
{
1000
BEHIND
1070
     0
1002
}
1002
{
1000
OTHER
1070
     0
1002
}
1002
{
1000
REACTOR
1002
}
1001
GENIUS_GENOBJ-N-FIL_13
1002
{
1000
OWNER
1000
GEN
1002
}
  0
ARC
  5
40EF
  8
AM_0
 10
256.37423860130838
 20
227.75211644003409
 30
0.0
 40
1.0
 50
270.0
 51
0.0
1001
GENIUS_GENODEF_13
1002
{
1000
HIER
1070
     0
1002
}
1002
{
1000
MANEDIT
1070
     0
1002
}
1002
{
1000
NOSEL
1070
     0
1002
}
1002
{
1000
BEHIND
1070
     0
1002
}
1002
{
1000
OTHER
1070
     0
1002
}
1002
{
1000
REACTOR
1002
}
1001
GENIUS_GENOBJ-N-FIL_13
1002
{
1000
OWNER
1000
GEN
1002
}
  0
LINE
  5
40F0
  8
AM_0
 10
257.37423860130832
 20
230.9521164400341
 30
0.0
 11
257.37423860130838
 21
227.75211644003409
 31
0.0
  0
LINE
  5
40F1
  8
AM_0
 10
233.37423860130829
 20
253.15211644003409
 30
0.0
 11
256.37423860130832
 21
253.15211644003409
 31
0.0
  0
LINE
  5
40F2
  8
AM_0
 10
233.37423860130829
 20
246.65211644003409
 30
0.0
 11
256.37423860130832
 21
246.65211644003409
 31
0.0
  0
LINE
  5
40F3
  8
AM_0
 10
233.37423860130829
 20
241.15211644003409
 30
0.0
 11
256.37423860130832
 21
241.15211644003409
 31
0.0
  0
LINE
  5
40F4
  8
AM_0
 10
233.37423860130829
 20
235.65211644003409
 30
0.0
 11
256.37423860130838
 21
235.65211644003409
 31
0.0
  0
LINE
  5
40F5
  8
AM_0
 10
232.37423860130829
 20
240.15211644003409
 30
0.0
 11
232.37423860130829
 21
236.65211644003409
 31
0.0
  0
ARC
  5
40F6
  8
AM_0
 10
233.37423860130829
 20
236.65211644003409
 30
0.0
 40
1.0
 50
180.0
 51
270.0
1001
GENIUS_GENODEF_13
1002
{
1000
HIER
1070
     0
1002
}
1002
{
1000
MANEDIT
1070
     0
1002
}
1002
{
1000
NOSEL
1070
     0
1002
}
1002
{
1000
BEHIND
1070
     0
1002
}
1002
{
1000
OTHER
1070
     0
1002
}
1002
{
1000
REACTOR
1002
}
1001
GENIUS_GENOBJ-N-FIL_13
1002
{
1000
OWNER
1000
GEN
1002
}
  0
ARC
  5
40F7
  8
AM_0
 10
233.37423860130829
 20
240.15211644003409
 30
0.0
 40
1.0
 50
90.0
 51
180.0
1001
GENIUS_GENODEF_13
1002
{
1000
HIER
1070
     0
1002
}
1002
{
1000
MANEDIT
1070
     0
1002
}
1002
{
1000
NOSEL
1070
     0
1002
}
1002
{
1000
BEHIND
1070
     0
1002
}
1002
{
1000
OTHER
1070
     0
1002
}
1002
{
1000
REACTOR
1002
}
1001
GENIUS_GENOBJ-N-FIL_13
1002
{
1000
OWNER
1000
GEN
1002
}
  0
ARC
  5
40F8
  8
AM_0
 10
233.37423860130829
 20
252.15211644003409
 30
0.0
 40
1.0
 50
90.0
 51
180.0
1001
GENIUS_GENOBJ-N-FIL_13
1002
{
1000
OWNER
1000
GEN
1002
}
1001
GENIUS_GENODEF_13
1002
{
1000
HIER
1070
     0
1002
}
1002
{
1000
MANEDIT
1070
     0
1002
}
1002
{
1000
NOSEL
1070
     0
1002
}
1002
{
1000
BEHIND
1070
     0
1002
}
1002
{
1000
OTHER
1070
     0
1002
}
1002
{
1000
REACTOR
1002
}
  0
ARC
  5
40F9
  8
AM_0
 10
233.37423860130829
 20
247.65211644003409
 30
0.0
 40
1.0
 50
180.0
 51
270.0
1001
GENIUS_GENODEF_13
1002
{
1000
HIER
1070
     0
1002
}
1002
{
1000
MANEDIT
1070
     0
1002
}
1002
{
1000
NOSEL
1070
     0
1002
}
1002
{
1000
BEHIND
1070
     0
1002
}
1002
{
1000
OTHER
1070
     0
1002
}
1002
{
1000
REACTOR
1002
}
1001
GENIUS_GENOBJ-N-FIL_13
1002
{
1000
OWNER
1000
GEN
1002
}
  0
LINE
  5
40FA
  8
AM_0
 10
232.37423860130829
 20
252.15211644003409
 30
0.0
 11
232.37423860130829
 21
247.65211644003409
 31
0.0
  0
LINE
  5
40FB
  8
AM_0
 10
257.37423860130832
 20
240.15211644003409
 30
0.0
 11
257.37423860130832
 21
236.65211644003409
 31
0.0
  0
ARC
  5
40FC
  8
AM_0
 10
256.37423860130838
 20
236.65211644003409
 30
0.0
 40
1.0
 50
270.0
 51
0.0
1001
GENIUS_GENODEF_13
1002
{
1000
HIER
1070
     0
1002
}
1002
{
1000
MANEDIT
1070
     0
1002
}
1002
{
1000
NOSEL
1070
     0
1002
}
1002
{
1000
BEHIND
1070
     0
1002
}
1002
{
1000
OTHER
1070
     0
1002
}
1002
{
1000
REACTOR
1002
}
1001
GENIUS_GENOBJ-N-FIL_13
1002
{
1000
OWNER
1000
GEN
1002
}
  0
ARC
  5
40FD
  8
AM_0
 10
256.37423860130832
 20
240.15211644003409
 30
0.0
 40
1.0
 50
0.0
 51
90.0
1001
GENIUS_GENOBJ-N-FIL_13
1002
{
1000
OWNER
1000
GEN
1002
}
1001
GENIUS_GENODEF_13
1002
{
1000
HIER
1070
     0
1002
}
1002
{
1000
MANEDIT
1070
     0
1002
}
1002
{
1000
NOSEL
1070
     0
1002
}
1002
{
1000
BEHIND
1070
     0
1002
}
1002
{
1000
OTHER
1070
     0
1002
}
1002
{
1000
REACTOR
1002
}
  0
ARC
  5
40FE
  8
AM_0
 10
256.37423860130832
 20
252.15211644003409
 30
0.0
 40
1.0
 50
0.0
 51
90.0
1001
GENIUS_GENOBJ-N-FIL_13
1002
{
1000
OWNER
1000
GEN
1002
}
1001
GENIUS_GENODEF_13
1002
{
1000
HIER
1070
     0
1002
}
1002
{
1000
MANEDIT
1070
     0
1002
}
1002
{
1000
NOSEL
1070
     0
1002
}
1002
{
1000
BEHIND
1070
     0
1002
}
1002
{
1000
OTHER
1070
     0
1002
}
1002
{
1000
REACTOR
1002
}
  0
ARC
  5
40FF
  8
AM_0
 10
256.37423860130832
 20
247.65211644003409
 30
0.0
 40
1.0
 50
270.0
 51
0.0
1001
GENIUS_GENODEF_13
1002
{
1000
HIER
1070
     0
1002
}
1002
{
1000
MANEDIT
1070
     0
1002
}
1002
{
1000
NOSEL
1070
     0
1002
}
1002
{
1000
BEHIND
1070
     0
1002
}
1002
{
1000
OTHER
1070
     0
1002
}
1002
{
1000
REACTOR
1002
}
1001
GENIUS_GENOBJ-N-FIL_13
1002
{
1000
OWNER
1000
GEN
1002
}
  0
LINE
  5
4100
  8
AM_0
 10
257.37423860130832
 20
252.15211644003409
 30
0.0
 11
257.37423860130832
 21
247.65211644003409
 31
0.0
  0
LINE
  5
4103
  8
AM_0
 10
307.87422860130818
 20
208.1520919400341
 30
0.0
 11
348.87423860130832
 21
208.1520919400341
 31
0.0
  0
LINE
  5
4104
  8
AM_0
 10
312.85365860130838
 20
250.97744294003411
 30
0.0
 11
309.18594860130838
 21
219.80156894003409
 31
0.0
  0
LINE
  5
4105
  8
AM_0
 10
303.87423860130832
 20
217.1520919400341
 30
0.0
 11
303.87423860130832
 21
275.15207894003407
 31
0.0
  0
LINE
  5
4106
  8
AM_0
 10
306.20649860130823
 20
217.1520919400341
 30
0.0
 11
288.3742286013084
 21
217.1520919400341
 31
0.0
  0
LINE
  5
4107
  8
AM_0
 10
286.8742286013084
 20
207.1520779400341
 30
0.0
 11
306.87423860130832
 21
207.1520779400341
 31
0.0
  0
LINE
  5
4108
  8
AM_0
 10
285.87417860130842
 20
219.15210794003411
 30
0.0
 11
302.41347860130838
 21
218.7190039400341
 31
0.0
  0
LINE
  5
4109
  8
AM_0
 10
285.87423860130832
 20
229.1520919400341
 30
0.0
 11
303.87423860130832
 21
229.1520919400341
 31
0.0
  0
LINE
  5
410A
  8
ｶｸﾚｾﾝ2
 10
291.87423860130832
 20
207.1520779400341
 30
0.0
 11
291.87423860130832
 21
217.1520919400341
 31
0.0
  0
LINE
  5
410B
  8
AM_0
 10
286.8742286013084
 20
207.1520779400341
 30
0.0
 11
286.8742286013084
 21
215.6520919400341
 31
0.0
  0
LINE
  5
410C
  8
ﾁｭｳｼﾝｾﾝ1
 10
296.87424860130841
 20
204.54354194003409
 30
0.0
 11
296.87424860130841
 21
220.05436094003409
 31
0.0
  0
LINE
  5
410D
  8
AM_0
 10
285.87423860130832
 20
212.15211644003409
 30
0.0
 11
278.87423860130832
 21
209.15211644003409
 31
0.0
  0
LINE
  5
410E
  8
AM_0
 10
267.37423860130832
 20
209.15211644003409
 30
0.0
 11
278.87423860130832
 21
209.15211644003409
 31
0.0
  0
ARC
  5
410F
  8
AM_0
 10
288.3742286013084
 20
215.6520919400341
 30
0.0
 40
1.5000000299999969
 50
90.00000299999769
 51
180.00001000000091
  0
LINE
  5
4110
  8
ｶｸﾚｾﾝ2
 10
301.87422860130829
 20
207.1520779400341
 30
0.0
 11
301.87422860130829
 21
217.1520919400341
 31
0.0
  0
ARC
  5
4111
  8
AM_0
 10
307.87422860130818
 20
207.1520779400341
 30
0.0
 40
1.0000000199999981
 50
90.00000299999769
 51
180.00001000000091
  0
LINE
  5
4112
  8
AM_0
 10
306.87423860130832
 20
207.1520779400341
 30
0.0
 11
306.87423860130832
 21
207.1520779400341
 31
0.0
  0
ARC
  5
4113
  8
AM_0
 10
302.37423860130832
 20
217.2195229400341
 30
0.0
 40
1.5000000299999969
 50
0.0
 51
88.499997000000747
  0
ARC
  5
4114
  8
AM_0
 10
306.20649860130823
 20
220.1520919400341
 30
0.0
 40
3.0
 50
270.0
 51
353.29016000000053
  0
LINE
  5
4115
  8
AM_0
 10
285.87423860130832
 20
243.21465494003411
 30
0.0
 11
303.87423860130832
 21
243.21465494003411
 31
0.0
  0
ARC
  5
4116
  8
AM_0
 10
309.87423860130832
 20
251.32795094003421
 30
0.0
 40
3.0
 50
353.29016000000053
 51
0.0
  0
LINE
  5
4117
  8
AM_0
 10
349.87419860130831
 20
207.1520779400341
 30
0.0
 11
369.87423860130832
 21
207.1520779400341
 31
0.0
  0
LINE
  5
4118
  8
AM_0
 10
368.37423860130832
 20
217.1520919400341
 30
0.0
 11
349.87419860130831
 21
217.1520919400341
 31
0.0
  0
LINE
  5
4119
  8
ｶｸﾚｾﾝ2
 10
354.87423860130832
 20
207.1520779400341
 30
0.0
 11
354.87423860130832
 21
217.1520919400341
 31
0.0
  0
LINE
  5
411A
  8
ﾁｭｳｼﾝｾﾝ1
 10
359.87421860130831
 20
204.54354194003409
 30
0.0
 11
359.87421860130831
 21
220.05436094003409
 31
0.0
  0
ARC
  5
411B
  8
AM_0
 10
348.87423860130832
 20
207.1520779400341
 30
0.0
 40
1.0000000199999981
 50
0.0
 51
90.00000299999769
  0
LINE
  5
411C
  8
AM_0
 10
349.87419860130831
 20
207.1520779400341
 30
0.0
 11
349.87419860130831
 21
207.1520779400341
 31
0.0
  0
ARC
  5
411D
  8
AM_0
 10
349.87419860130831
 20
222.1520779400341
 30
0.0
 40
5.0000001000000003
 50
180.00001000000091
 51
270.0
  0
LINE
  5
411E
  8
ｶｸﾚｾﾝ2
 10
364.87419860130831
 20
207.1520779400341
 30
0.0
 11
364.87419860130831
 21
217.1520919400341
 31
0.0
  0
LINE
  5
411F
  8
AM_0
 10
369.87423860130832
 20
207.1520779400341
 30
0.0
 11
369.87423860130832
 21
215.6520919400341
 31
0.0
  0
ARC
  5
4120
  8
AM_0
 10
372.87423860130832
 20
220.34249294003411
 30
0.0
 40
5.0000001000000003
 50
179.999989999999
 51
226.18693000000181
  0
ARC
  5
4121
  8
AM_0
 10
368.37423860130832
 20
215.6520919400341
 30
0.0
 40
1.5000000299999969
 50
0.0
 51
90.00000299999769
  0
LINE
  5
4122
  8
AM_0
 10
352.87419860130831
 20
238.9195039400341
 30
0.0
 11
344.8742486013083
 21
238.9195039400341
 31
0.0
  0
ARC
  5
4123
  8
AM_0
 10
352.87419860130831
 20
243.91951994003409
 30
0.0
 40
5.0000001000000003
 50
270.0
 51
0.0
  0
ARC
  5
4124
  8
AM_0
 10
368.8742486013083
 20
273.12622994003408
 30
0.0
 40
1.0000000199999981
 50
271.50000000000267
 51
0.0
  0
ARC
  5
4125
  8
AM_0
 10
368.8742486013083
 20
271.12555994003412
 30
0.0
 40
1.0000000199999981
 50
91.500001000001546
 51
180.00001000000091
  0
LINE
  5
4126
  8
AM_0
 10
368.84805860130831
 20
272.12522294003412
 30
0.0
 11
368.9004086013083
 21
272.12659694003412
 31
0.0
  0
LINE
  5
4127
  8
AM_0
 10
123.87423860130841
 20
340.75211644003417
 30
0.0
 11
267.37423860130838
 21
340.752116440034
 31
0.0
  0
LINE
  5
4128
  8
AM_0
 10
128.37423860130841
 20
301.15211644003409
 30
0.0
 11
184.37423860130829
 21
301.15211644003409
 31
0.0
1001
GENIUS_GENOREF_13
1005
423F
  0
LINE
  5
412A
  8
AM_0
 10
109.37423860130831
 20
295.15211644003409
 30
0.0
 11
116.08687340235051
 21
295.15211644003409
 31
0.0
  0
ARC
  5
412B
  8
AM_0
 10
109.37423860130831
 20
292.15211644003409
 30
0.0
 40
3.0
 50
90.0
 51
180.0
1001
GENIUS_GENOBJ-N-FIL_13
1002
{
1000
OWNER
1000
GEN
1002
}
1001
GENIUS_GENODEF_13
1002
{
1000
HIER
1070
     0
1002
}
1002
{
1000
MANEDIT
1070
     0
1002
}
1002
{
1000
NOSEL
1070
     0
1002
}
1002
{
1000
BEHIND
1070
     0
1002
}
1002
{
1000
OTHER
1070
     0
1002
}
1002
{
1000
REACTOR
1002
}
  0
ARC
  5
412C
  8
AM_0
 10
128.37423860130841
 20
300.15211644003409
 30
0.0
 40
1.0
 50
90.0
 51
180.0
1001
GENIUS_GENODEF_13
1002
{
1000
HIER
1070
     0
1002
}
1002
{
1000
MANEDIT
1070
     0
1002
}
1002
{
1000
NOSEL
1070
     0
1002
}
1002
{
1000
BEHIND
1070
     0
1002
}
1002
{
1000
OTHER
1070
     0
1002
}
1002
{
1000
REACTOR
1002
}
1001
GENIUS_GENOBJ-N-FIL_13
1002
{
1000
OWNER
1000
GEN
1002
}
  0
ARC
  5
412D
  8
AM_0
 10
119.87423860130831
 20
334.05024856865458
 30
0.0
 40
2.0
 50
311.63353933656748
 51
0.0
1001
GENIUS_GENOBJ-N-FIL_13
1002
{
1000
OWNER
1000
GEN
1002
}
1001
GENIUS_GENODEF_13
1002
{
1000
HIER
1070
     0
1002
}
1002
{
1000
MANEDIT
1070
     0
1002
}
1002
{
1000
NOSEL
1070
     0
1002
}
1002
{
1000
BEHIND
1070
     0
1002
}
1002
{
1000
OTHER
1070
     0
1002
}
1002
{
1000
REACTOR
1002
}
  0
LINE
  5
412E
  8
AM_0
 10
121.2029662789682
 20
332.55542993128722
 30
0.0
 11
118.04551092364861
 21
329.74880294878091
 31
0.0
  0
ARC
  5
412F
  8
AM_0
 10
119.37423860130841
 20
328.2539843114136
 30
0.0
 40
2.0
 50
131.63353933656751
 51
180.0
1001
GENIUS_GENODEF_13
1002
{
1000
HIER
1070
     0
1002
}
1002
{
1000
MANEDIT
1070
     0
1002
}
1002
{
1000
NOSEL
1070
     0
1002
}
1002
{
1000
BEHIND
1070
     0
1002
}
1002
{
1000
OTHER
1070
     0
1002
}
1002
{
1000
REACTOR
1002
}
1001
GENIUS_GENOBJ-N-FIL_13
1002
{
1000
OWNER
1000
GEN
1002
}
  0
ARC
  5
4130
  8
AM_0
 10
123.87423860130841
 20
338.75211644003417
 30
0.0
 40
2.0
 50
90.0
 51
180.0
1001
GENIUS_GENOBJ-N-FIL_13
1002
{
1000
OWNER
1000
GEN
1002
}
1001
GENIUS_GENODEF_13
1002
{
1000
HIER
1070
     0
1002
}
1002
{
1000
MANEDIT
1070
     0
1002
}
1002
{
1000
NOSEL
1070
     0
1002
}
1002
{
1000
BEHIND
1070
     0
1002
}
1002
{
1000
OTHER
1070
     0
1002
}
1002
{
1000
REACTOR
1002
}
  0
LINE
  5
4131
  8
AM_0
 10
143.87423860130841
 20
309.15211644003409
 30
0.0
 11
155.87423860130841
 21
309.15211644003409
 31
0.0
1001
GENIUS_GENOREF_13
1005
423F
  0
CIRCLE
  5
4132
  8
AM_0N
 10
149.87423860130829
 20
305.15211644003409
 30
0.0
 40
2.799999999999998
1001
GENIUS_GENOREF_13
1005
0
  0
ARC
  5
4133
  8
AM_0
 10
143.87423860130841
 20
307.15211644003409
 30
0.0
 40
2.0
 50
90.0
 51
180.0
1001
GENIUS_GENOBJ-N-FIL_13
1002
{
1000
OWNER
1000
GEN
1002
}
1001
GENIUS_GENODEF_13
1002
{
1000
HIER
1070
     0
1002
}
1002
{
1000
MANEDIT
1070
     0
1002
}
1002
{
1000
NOSEL
1070
     0
1002
}
1002
{
1000
BEHIND
1070
     0
1002
}
1002
{
1000
OTHER
1070
     0
1002
}
1002
{
1000
REACTOR
1002
}
  0
LINE
  5
4134
  8
AM_0
 10
141.87423860130841
 20
307.15211644003409
 30
0.0
 11
141.87423860130841
 21
301.15211644003409
 31
0.0
  0
LINE
  5
4135
  8
AM_0
 10
145.87423860130829
 20
309.15211644003409
 30
0.0
 11
145.87423860130829
 21
301.15211644003409
 31
0.0
  0
LINE
  5
4136
  8
AM_0N
 10
149.62173860130841
 20
306.63071163480521
 30
0.0
 11
150.1267386013084
 21
306.63071163480521
 31
0.0
1001
GENIUS_GENOREF_13
1005
0
  0
LINE
  5
4137
  8
AM_0N
 10
151.35283379607941
 20
304.89961644003398
 30
0.0
 11
151.35283379607941
 21
305.40461644003409
 31
0.0
1001
GENIUS_GENOREF_13
1005
0
  0
LINE
  5
4138
  8
AM_0N
 10
151.35283379607941
 20
304.89961644003398
 30
0.0
 11
150.1267386013084
 21
304.89961644003398
 31
0.0
1001
GENIUS_GENOREF_13
1005
0
  0
LINE
  5
4139
  8
AM_0N
 10
151.35283379607941
 20
305.40461644003409
 30
0.0
 11
150.1267386013084
 21
305.40461644003409
 31
0.0
1001
GENIUS_GENOREF_13
1005
0
  0
LINE
  5
413A
  8
AM_0N
 10
149.62173860130841
 20
303.67352124526298
 30
0.0
 11
150.1267386013084
 21
303.67352124526298
 31
0.0
1001
GENIUS_GENOREF_13
1005
0
  0
LINE
  5
413B
  8
AM_0N
 10
150.1267386013084
 20
304.89961644003398
 30
0.0
 11
150.1267386013084
 21
303.67352124526298
 31
0.0
1001
GENIUS_GENOREF_13
1005
0
  0
LINE
  5
413C
  8
AM_0N
 10
149.62173860130841
 20
304.89961644003398
 30
0.0
 11
149.62173860130841
 21
303.67352124526298
 31
0.0
1001
GENIUS_GENOREF_13
1005
0
  0
LINE
  5
413D
  8
AM_0
 10
153.87423860130829
 20
309.15211644003409
 30
0.0
 11
153.87423860130829
 21
301.15211644003409
 31
0.0
  0
LINE
  5
413E
  8
AM_0N
 10
149.62173860130841
 20
306.63071163480521
 30
0.0
 11
149.62173860130841
 21
305.40461644003409
 31
0.0
1001
GENIUS_GENOREF_13
1005
0
  0
LINE
  5
413F
  8
AM_0N
 10
150.1267386013084
 20
306.63071163480521
 30
0.0
 11
150.1267386013084
 21
305.40461644003409
 31
0.0
1001
GENIUS_GENOREF_13
1005
0
  0
LINE
  5
4140
  8
AM_0N
 10
148.39564340653729
 20
304.89961644003398
 30
0.0
 11
148.39564340653729
 21
305.40461644003409
 31
0.0
1001
GENIUS_GENOREF_13
1005
0
  0
LINE
  5
4141
  8
AM_0N
 10
149.62173860130841
 20
304.89961644003398
 30
0.0
 11
148.39564340653729
 21
304.89961644003398
 31
0.0
1001
GENIUS_GENOREF_13
1005
0
  0
LINE
  5
4142
  8
AM_0N
 10
149.62173860130841
 20
305.40461644003409
 30
0.0
 11
148.39564340653729
 21
305.40461644003409
 31
0.0
1001
GENIUS_GENOREF_13
1005
0
  0
ARC
  5
4143
  8
AM_0
 10
155.87423860130841
 20
307.15211644003409
 30
0.0
 40
2.0
 50
0.0
 51
90.0
1001
GENIUS_GENOBJ-N-FIL_13
1002
{
1000
OWNER
1000
GEN
1002
}
1001
GENIUS_GENODEF_13
1002
{
1000
HIER
1070
     0
1002
}
1002
{
1000
MANEDIT
1070
     0
1002
}
1002
{
1000
NOSEL
1070
     0
1002
}
1002
{
1000
BEHIND
1070
     0
1002
}
1002
{
1000
OTHER
1070
     0
1002
}
1002
{
1000
REACTOR
1002
}
  0
LINE
  5
4144
  8
AM_0
 10
157.87423860130829
 20
307.15211644003409
 30
0.0
 11
157.87423860130829
 21
301.15211644003409
 31
0.0
  0
ARC
  5
4145
  8
AM_0
 10
184.37423860130829
 20
300.15211644003409
 30
0.0
 40
1.0
 50
0.0
 51
90.0
1001
GENIUS_GENODEF_13
1002
{
1000
HIER
1070
     0
1002
}
1002
{
1000
MANEDIT
1070
     0
1002
}
1002
{
1000
NOSEL
1070
     0
1002
}
1002
{
1000
BEHIND
1070
     0
1002
}
1002
{
1000
OTHER
1070
     0
1002
}
1002
{
1000
REACTOR
1002
}
1001
GENIUS_GENOBJ-N-FIL_13
1002
{
1000
OWNER
1000
GEN
1002
}
  0
LINE
  5
4146
  8
AM_0
 10
334.58388860130827
 20
319.57200494003428
 30
0.0
 11
322.87422860130818
 21
334.8116749400341
 31
0.0
  0
LINE
  5
4147
  8
AM_0
 10
309.87423860130832
 20
335.1521149400341
 30
0.0
 11
353.00505860130829
 21
334.02267494003399
 31
0.0
  0
LINE
  5
4148
  8
AM_0
 10
325.8742286013084
 20
318.67350494003409
 30
0.0
 11
352.87419860130831
 21
318.67350494003409
 31
0.0
  0
LINE
  5
4149
  8
AM_0
 10
322.87422860130818
 20
303.78294494003421
 30
0.0
 11
346.52601860130818
 21
303.78294494003421
 31
0.0
  0
LINE
  5
414A
  8
AM_0
 10
322.87422860130818
 20
334.70694494003408
 30
0.0
 11
322.87422860130818
 21
319.27755494003412
 31
0.0
  0
LINE
  5
414B
  8
AM_0
 10
320.8742486013083
 20
323.37405494003411
 30
0.0
 11
320.8742486013083
 21
303.99030494003409
 31
0.0
  0
LINE
  5
414C
  8
AM_0
 10
303.87423860130832
 20
333.53373494003409
 30
0.0
 11
303.87423860130832
 21
319.15212494003413
 31
0.0
  0
LINE
  5
414D
  8
AM_0
 10
294.87423860130832
 20
317.75895494003407
 30
0.0
 11
320.8742486013083
 21
317.75895494003407
 31
0.0
  0
LINE
  5
414E
  8
AM_0
 10
294.87423860130832
 20
319.15212494003413
 30
0.0
 11
303.87423860130832
 21
319.15212494003413
 31
0.0
  0
LINE
  5
414F
  8
AM_0
 10
294.87423860130832
 20
300.93480494003421
 30
0.0
 11
303.87423860130832
 21
300.93480494003421
 31
0.0
  0
LINE
  5
4150
  8
AM_0
 10
285.87423860130832
 20
321.15210494003401
 30
0.0
 11
303.87423860130832
 21
321.15210494003401
 31
0.0
  0
LINE
  5
4151
  8
AM_0
 10
294.87423860130832
 20
319.15212494003413
 30
0.0
 11
294.87423860130832
 21
300.93480494003421
 31
0.0
  0
LINE
  5
4152
  8
AM_0
 10
285.87423860130832
 20
307.08951494003412
 30
0.0
 11
294.87423860130832
 21
307.08951494003412
 31
0.0
  0
ARC
  5
4153
  8
AM_0
 10
324.87423860130832
 20
311.61729494003413
 30
0.0
 40
1.0000000199999981
 50
270.0
 51
0.0
  0
LINE
  5
4154
  8
AM_0
 10
325.8742286013084
 20
308.73054494003412
 30
0.0
 11
325.8742286013084
 21
318.2775649400341
 31
0.0
  0
LINE
  5
4155
  8
AM_0
 10
321.87423860130832
 20
319.77753494003412
 30
0.0
 11
321.87423860130832
 21
307.23054494003412
 31
0.0
  0
ARC
  5
4156
  8
AM_0
 10
321.87423860130832
 20
301.99029494003412
 30
0.0
 40
1.0000000199999981
 50
0.0
 51
90.00000299999769
  0
LINE
  5
4157
  8
AM_0
 10
321.87423860130832
 20
310.61730494003427
 30
0.0
 11
324.87423860130832
 21
310.61730494003427
 31
0.0
  0
LINE
  5
4158
  8
AM_0
 10
321.87423860130832
 20
307.73055494003421
 30
0.0
 11
324.87423860130832
 21
307.73055494003421
 31
0.0
  0
ARC
  5
4159
  8
AM_0
 10
321.87423860130832
 20
303.99030494003409
 30
0.0
 40
1.0000000199999981
 50
179.999989999999
 51
270.0
  0
LINE
  5
415A
  8
AM_0
 10
320.8742486013083
 20
307.23054494003412
 30
0.0
 11
321.87423860130832
 21
307.23054494003412
 31
0.0
  0
ARC
  5
415B
  8
AM_0
 10
324.87423860130832
 20
309.61728494003421
 30
0.0
 40
1.0000000199999981
 50
0.0
 51
90.00000299999769
  0
ARC
  5
415C
  8
AM_0
 10
324.87423860130832
 20
308.73054494003412
 30
0.0
 40
1.0000000199999981
 50
270.0
 51
0.0
  0
LINE
  5
415D
  8
AM_0
 10
321.87423860130832
 20
316.39080494003412
 30
0.0
 11
324.87423860130832
 21
316.39080494003412
 31
0.0
  0
LINE
  5
415E
  8
AM_0
 10
321.87423860130832
 20
319.27755494003412
 30
0.0
 11
324.87423860130832
 21
319.27755494003412
 31
0.0
  0
LINE
  5
415F
  8
AM_0
 10
320.8742486013083
 20
319.77753494003412
 30
0.0
 11
321.87423860130832
 21
319.77753494003412
 31
0.0
  0
ARC
  5
4160
  8
AM_0
 10
324.87423860130832
 20
318.2775649400341
 30
0.0
 40
1.0000000199999981
 50
0.0
 51
90.00000299999769
  0
ARC
  5
4161
  8
AM_0
 10
324.87423860130832
 20
315.390784940034
 30
0.0
 40
1.0000000199999981
 50
0.0
 51
90.00000299999769
  0
ARC
  5
4162
  8
AM_0
 10
324.87423860130832
 20
317.39079494003408
 30
0.0
 40
1.0000000199999981
 50
270.0
 51
0.0
  0
LINE
  5
4163
  8
AM_0
 10
285.87429860130823
 20
331.15212494003413
 30
0.0
 11
302.41347860130838
 21
331.5852049400342
 31
0.0
  0
LINE
  5
4164
  8
AM_0
 10
278.87423860130832
 20
341.15211644003409
 30
0.0
 11
285.87423860130832
 21
338.15211644003409
 31
0.0
  0
LINE
  5
4165
  8
AM_0
 10
267.37423860130832
 20
341.15211644003409
 30
0.0
 11
278.87423860130832
 21
341.15211644003409
 31
0.0
  0
ARC
  5
4166
  8
AM_0
 10
302.37423860130832
 20
333.08466494003409
 30
0.0
 40
1.5000000299999969
 50
271.50000000000267
 51
0.0
  0
LINE
  5
4167
  8
AM_0
 10
305.33499860130843
 20
335.03328494003409
 30
0.0
 11
309.87423860130832
 21
335.15214494003408
 31
0.0
  0
ARC
  5
4168
  8
AM_0
 10
305.37423860130832
 20
333.53373494003409
 30
0.0
 40
1.5000000299999969
 50
91.500001000001546
 51
180.00001000000091
  0
ARC
  5
4169
  8
AM_0
 10
321.87423860130832
 20
325.37406494003409
 30
0.0
 40
1.0000000199999981
 50
270.0
 51
0.0
  0
ARC
  5
416A
  8
AM_0
 10
321.87423860130832
 20
323.37405494003411
 30
0.0
 40
1.0000000199999981
 50
90.00000299999769
 51
180.00001000000091
  0
ARC
  5
416B
  8
AM_0
 10
365.8742486013083
 20
320.15208494003411
 30
0.0
 40
2.00000007
 50
0.0
 51
90.00000299999769
  0
ARC
  5
416C
  8
AM_0
 10
362.8742486013083
 20
327.15207494003408
 30
0.0
 40
5.0000001000000003
 50
180.00001000000091
 51
270.0
  0
ARC
  5
416D
  8
AM_0
 10
339.60948860130839
 20
298.78294094003411
 30
0.0
 40
5.0000001000000003
 50
90.00000299999769
 51
171.85423999999969
  0
ARC
  5
416E
  8
AM_0
 10
349.87419860130831
 20
300.06952994003427
 30
0.0
 40
5.0000001000000003
 50
90.00000299999769
 51
180.00001000000091
  0
LINE
  5
416F
  8
AM_0
 10
357.87423860130832
 20
305.06949494003408
 30
0.0
 11
349.87419860130831
 21
305.06949494003408
 31
0.0
  0
ARC
  5
4170
  8
AM_0
 10
352.87419860130831
 20
313.67349494003412
 30
0.0
 40
5.0000001000000003
 50
0.0
 51
90.00000299999769
  0
LINE
  5
4171
  8
AM_0
 10
371.87421860130831
 20
302.152084940034
 30
0.0
 11
371.87421860130831
 21
292.15207994003413
 31
0.0
  0
LINE
  5
4172
  8
AM_0
 10
371.87421860130831
 20
282.15211094003399
 30
0.0
 11
371.87421860130831
 21
292.15207994003413
 31
0.0
  0
LINE
  5
4173
  8
AM_0
 10
369.87423860130832
 20
282.15211094003399
 30
0.0
 11
371.87421860130831
 21
282.15211094003399
 31
0.0
  0
LINE
  5
4174
  8
AM_0
 10
369.87423860130832
 20
302.152084940034
 30
0.0
 11
371.87421860130831
 21
302.152084940034
 31
0.0
  0
LINE
  5
4175
  8
AM_0
 10
377.87421860130831
 20
301.65210494003412
 30
0.0
 11
377.8742186013082
 21
304.152084940034
 31
0.0
  0
ARC
  5
4176
  8
AM_0
 10
368.8742486013083
 20
311.17791494003421
 30
0.0
 40
1.0000000199999981
 50
0.0
 51
88.499997000000747
  0
ARC
  5
4177
  8
AM_0
 10
368.8742486013083
 20
313.17861494003398
 30
0.0
 40
1.0000000199999981
 50
179.999989999999
 51
268.50000999999878
  0
LINE
  5
4178
  8
AM_0
 10
368.84802860130822
 20
312.17895494003409
 30
0.0
 11
368.90034860130839
 21
312.17760494003409
 31
0.0
  0
LINE
  5
4179
  8
AM_0
 10
362.8742486013083
 20
322.15209494003409
 30
0.0
 11
365.8742486013083
 21
322.15209494003409
 31
0.0
  0
ARC
  5
417A
  8
AM_0
 10
352.87419860130831
 20
329.02440494003417
 30
0.0
 40
5.0000001000000003
 50
0.0
 51
88.499997000000747
  0
ARC
  5
417B
  8
AM_0
 10
351.0190586013083
 20
332.07399494003408
 30
0.0
 40
2.00000007
 50
60.000002000001302
 51
88.499997000000747
  0
ARC
  5
417E
  8
AM_0
 10
544.22115732175143
 20
275.15207894003407
 30
0.0
 40
66.0
 50
349.3422851950902
 51
23.462478107492981
  0
ARC
  5
417F
  8
AM_0
 10
728.04603009281311
 20
267.12611166481207
 30
0.0
 40
264.99999999999989
 50
173.53019364652329
 51
181.46980635347501
  0
ARC
  5
4180
  8
AM_0
 10
544.22115732175143
 20
275.15207894003407
 30
0.0
 40
66.0
 50
156.53744656965051
 51
190.6577637895885
  0
ARC
  5
4183
  8
AM_0
 10
544.22115732175143
 20
292.15207994003413
 30
0.0
 40
20.000000700000001
 50
90.00000299999769
 51
270.0
  0
ARC
  5
4184
  8
AM_0
 10
544.22115732175143
 20
279.65207894003407
 30
0.0
 40
42.500000999999997
 50
0.0
 51
180.00001000000091
  0
ARC
  5
4185
  8
AM_0
 10
544.22115732175143
 20
292.15207994003413
 30
0.0
 40
20.000000700000001
 50
270.0
 51
90.00000299999769
  0
LINE
  5
4186
  8
AM_0
 10
614.22115932175143
 20
217.1520919400341
 30
0.0
 11
604.09642032175145
 21
307.38231494003401
 31
0.0
  0
LINE
  5
4187
  8
AM_0
 10
474.22116132175142
 20
217.1520919400341
 30
0.0
 11
484.34592132175118
 21
307.38231494003401
 31
0.0
  0
LINE
  5
4188
  8
AM_0
 10
492.2211613217512
 20
299.38749194003412
 30
0.0
 11
492.2211613217512
 21
257.15207894003419
 31
0.0
  0
LINE
  5
4189
  8
AM_0
 10
614.22115932175143
 20
217.1520919400341
 30
0.0
 11
603.47349432175145
 21
284.59458494003411
 31
0.0
  0
LINE
  5
418A
  8
AM_0
 10
501.7211713217514
 20
279.65207894003407
 30
0.0
 11
501.7211713217514
 21
220.1520919400341
 31
0.0
  0
LINE
  5
418B
  8
AM_0
 10
586.72114332175136
 20
279.65207894003407
 30
0.0
 11
586.72114332175136
 21
220.1520919400341
 31
0.0
  0
LINE
  5
418C
  8
AM_0
 10
474.22116132175142
 20
217.15207694003411
 30
0.0
 11
484.96884132175131
 21
284.59458494003411
 31
0.0
  0
LINE
  5
418D
  8
AM_0
 10
596.22115932175143
 20
299.38749194003412
 30
0.0
 11
596.22115932175143
 21
257.15207894003419
 31
0.0
  0
LINE
  5
418E
  8
ﾁｭｳｼﾝｾﾝ
 10
544.22115732175143
 20
207.65209394003409
 30
0.0
 11
544.22115732175143
 21
344.46736969554172
 31
0.0
  0
LINE
  5
4193
  8
AM_0
 10
474.22116132175142
 20
207.1520779400341
 30
0.0
 11
504.22115832175137
 21
207.1520779400341
 31
0.0
  0
LINE
  5
4194
  8
AM_0
 10
486.72117132175111
 20
217.1520919400341
 30
0.0
 11
502.22115732175109
 21
217.1520919400341
 31
0.0
  0
LINE
  5
4195
  8
ﾁｭｳｼﾝｾﾝ
 10
605.9559943217514
 20
275.15207894003407
 30
0.0
 11
482.71665132175121
 21
275.15207894003407
 31
0.0
  0
LINE
  5
4196
  8
ｶｸﾚｾﾝ2
 10
481.72116132175142
 20
217.1520919400341
 30
0.0
 11
481.72116132175142
 21
207.1520779400341
 31
0.0
  0
LINE
  5
4197
  8
ﾁｭｳｼﾝｾﾝ1
 10
486.72117132175111
 20
220.05436094003409
 30
0.0
 11
486.72117132175111
 21
204.54354194003409
 31
0.0
  0
LINE
  5
4198
  8
AM_0
 10
474.22116132175142
 20
217.1520919400341
 30
0.0
 11
474.22116132175142
 21
207.1520779400341
 31
0.0
  0
LINE
  5
4199
  8
AM_0
 10
475.72116132175131
 20
217.1520919400341
 30
0.0
 11
486.72117132175111
 21
217.1520919400341
 31
0.0
  0
ARC
  5
419A
  8
AM_0
 10
475.72116132175131
 20
215.6520919400341
 30
0.0
 40
1.5000000299999969
 50
90.00000299999769
 51
180.00001000000091
  0
ARC
  5
419B
  8
AM_0
 10
468.13157506935829
 20
260.4570735137487
 30
0.0
 40
5.0
 50
181.46980635347501
 51
267.50000000000148
1001
GENIUS_GENOBJ-N-FIL_13
1002
{
1000
OWNER
1000
GEN
1002
}
1001
GENIUS_GENODEF_13
1002
{
1000
HIER
1070
     0
1002
}
1002
{
1000
MANEDIT
1070
     0
1002
}
1002
{
1000
NOSEL
1070
     0
1002
}
1002
{
1000
BEHIND
1070
     0
1002
}
1002
{
1000
OTHER
1070
     0
1002
}
1002
{
1000
REACTOR
1002
}
  0
LINE
  5
419C
  8
AM_0
 10
467.91347813253151
 20
255.46183240583929
 30
0.0
 11
478.46819886097762
 21
255.00100334669929
 31
0.0
  0
POLYLINE
  5
419D
  8
AM_4
 66
     1
 10
0.0
 20
0.0
 30
0.0
 70
     4
  0
VERTEX
  5
419E
  8
AM_4
 10
468.97510479952388
 20
241.14653635711261
 30
0.0
 70
    16
  0
VERTEX
  5
419F
  8
AM_4
 10
468.97510479952388
 20
241.14653635711261
 30
0.0
 70
     8
  0
VERTEX
  5
41A0
  8
AM_4
 10
470.0660271154008
 20
241.72823342466421
 30
0.0
 70
     8
  0
VERTEX
  5
41A1
  8
AM_4
 10
471.09891372922391
 20
241.75805266754119
 30
0.0
 70
     8
  0
VERTEX
  5
41A2
  8
AM_4
 10
472.0889441402818
 20
241.4299323307016
 30
0.0
 70
     8
  0
VERTEX
  5
41A3
  8
AM_4
 10
473.05129784786351
 20
240.9378106591036
 30
0.0
 70
     8
  0
VERTEX
  5
41A4
  8
AM_4
 10
474.00115435125701
 20
240.47562589770521
 30
0.0
 70
     8
  0
VERTEX
  5
41A5
  8
AM_4
 10
474.9536931497513
 20
240.2373162914644
 30
0.0
 70
     8
  0
VERTEX
  5
41A6
  8
AM_4
 10
475.92409374263559
 20
240.4168200853394
 30
0.0
 70
     8
  0
VERTEX
  5
41A7
  8
AM_4
 10
476.92753562919762
 20
241.2080755242882
 30
0.0
 70
     8
  0
VERTEX
  5
41A8
  8
AM_4
 10
471.97510479952388
 20
243.6059551878904
 30
0.0
 70
    16
  0
VERTEX
  5
41A9
  8
AM_4
 10
474.19414265187152
 20
238.11000260925249
 30
0.0
 70
    16
  0
VERTEX
  5
41AA
  8
AM_4
 10
476.92753562919802
 20
241.2080755242882
 30
0.0
 70
    16
  0
SEQEND
  5
41AB
  8
AM_4
  0
LINE
  5
41AC
  8
AM_0
 10
468.97510479952388
 20
255.41548078454159
 30
0.0
 11
468.97510479952388
 21
241.14653635711269
 31
0.0
  0
LINE
  5
41AD
  8
ﾁｭｳｼﾝｾﾝ1
 10
472.97510479952388
 20
256.47245014840109
 30
0.0
 11
472.97510479952388
 21
236.1536094666655
 31
0.0
  0
LINE
  5
41AE
  8
AM_0
 10
470.97510479952388
 20
255.32815889872461
 30
0.0
 11
470.97510479952388
 21
241.7551240246371
 31
0.0
  0
LINE
  5
41AF
  8
AM_0
 10
471.97510479952399
 20
255.28449795581619
 30
0.0
 11
471.97510479952399
 21
241.47072568053611
 31
0.0
  0
LINE
  5
41B0
  8
AM_0
 10
476.97510479952388
 20
255.06619324127351
 30
0.0
 11
476.97510479952388
 21
241.69479064388591
 31
0.0
  0
LINE
  5
41B1
  8
AM_0
 10
473.97510479952388
 20
255.19717606999899
 30
0.0
 11
473.97510479952388
 21
240.5052336418654
 31
0.0
  0
LINE
  5
41B2
  8
AM_0
 10
474.97510479952388
 20
255.1535151270906
 30
0.0
 11
474.97510479952388
 21
240.25764619051111
 31
0.0
  0
ARC
  5
41B3
  8
AM_0
 10
477.31775305596813
 20
248.54504044174959
 30
0.0
 40
2.0
 50
260.13518440998928
 51
267.50000000000148
1001
GENIUS_GENODEF_13
1002
{
1000
HIER
1070
     0
1002
}
1002
{
1000
MANEDIT
1070
     0
1002
}
1002
{
1000
NOSEL
1070
     0
1002
}
1002
{
1000
BEHIND
1070
     0
1002
}
1002
{
1000
OTHER
1070
     0
1002
}
1002
{
1000
REACTOR
1002
}
1001
GENIUS_GENOBJ-N-FIL_13
1002
{
1000
OWNER
1000
GEN
1002
}
  0
ARC
  5
41B4
  8
AM_0
 10
544.22115732175143
 20
275.15207894003407
 30
0.0
 40
74.0
 50
198.32817101502039
 51
200.6491345267662
  0
ARC
  5
41B5
  8
AM_0
 10
544.22115732175143
 20
275.15207894003407
 30
0.0
 40
69.0
 50
196.97122063449081
 51
197.47239195015601
  0
LINE
  5
41B6
  8
AM_0
 10
477.23051428123767
 20
246.5469439985859
 30
0.0
 11
477.5181571400293
 21
246.5343852401501
 31
0.0
  0
LINE
  5
41B7
  8
AM_0
 10
583.22116032175143
 20
208.1520919400341
 30
0.0
 11
544.22115732175143
 21
208.1520919400341
 31
0.0
  0
LINE
  5
41B8
  8
AM_0
 10
574.22116032175143
 20
226.6520779400341
 30
0.0
 11
514.22115732175143
 21
226.6520779400341
 31
0.0
  0
ARC
  5
41B9
  8
AM_0
 10
524.22115932175143
 20
257.15207894003419
 30
0.0
 40
32.000000999999997
 50
179.999989999999
 51
225.32174000000111
  0
CIRCLE
  5
41BA
  8
AM_0
 10
520.11208932175145
 20
216.94770194003411
 30
0.0
 40
4.9999998000000003
  0
LINE
  5
41BB
  8
AM_0
 10
505.22115732175138
 20
208.1520919400341
 30
0.0
 11
544.22115732175143
 21
208.1520919400341
 31
0.0
  0
LINE
  5
41BC
  8
AM_0
 10
525.11208732175135
 20
219.8344369400341
 30
0.0
 11
520.11208932175145
 21
222.72118394003411
 31
0.0
  0
LINE
  5
41BD
  8
AM_0
 10
520.11208932175145
 20
211.1742019400341
 30
0.0
 11
525.11208732175135
 21
214.0609519400341
 31
0.0
  0
LINE
  5
41BE
  8
ｶｸﾚｾﾝ2
 10
491.72115132175122
 20
217.1520919400341
 30
0.0
 11
491.72115132175122
 21
207.1520779400341
 31
0.0
  0
LINE
  5
41BF
  8
AM_0
 10
509.22115632175138
 20
221.6520919400341
 30
0.0
 11
509.22115632175138
 21
212.6520919400341
 31
0.0
  0
LINE
  5
41C0
  8
AM_0
 10
504.22115832175137
 20
215.15209394003409
 30
0.0
 11
504.22115832175137
 21
207.1520779400341
 31
0.0
  0
LINE
  5
41C1
  8
AM_0
 10
515.11208832175134
 20
214.06093694003411
 30
0.0
 11
520.11208932175145
 21
211.1741869400341
 31
0.0
  0
ARC
  5
41C2
  8
AM_0
 10
505.22115732175138
 20
208.6520779400341
 30
0.0
 40
1.0000000199999981
 50
90.00000299999769
 51
180.00001000000091
  0
ARC
  5
41C3
  8
AM_0
 10
505.22115732175138
 20
207.1520779400341
 30
0.0
 40
1.0000000199999981
 50
90.00000299999769
 51
180.00001000000091
  0
ARC
  5
41C4
  8
AM_0
 10
506.22115632175132
 20
212.6520919400341
 30
0.0
 40
3.0
 50
270.0
 51
0.0
  0
LINE
  5
41C5
  8
AM_0
 10
505.22115732175138
 20
209.6520919400341
 30
0.0
 11
506.22115632175132
 21
209.6520919400341
 31
0.0
  0
ARC
  5
41C6
  8
AM_0
 10
502.22115732175109
 20
215.15209394003409
 30
0.0
 40
2.00000007
 50
0.0
 51
90.00000299999769
  0
ARC
  5
41C7
  8
AM_0
 10
498.72117132175111
 20
220.1520919400341
 30
0.0
 40
3.0
 50
270.0
 51
0.0
  0
ARC
  5
41C8
  8
AM_0
 10
514.22115732175143
 20
221.6520919400341
 30
0.0
 40
5.0000001000000003
 50
90.00000299999769
 51
180.00001000000091
  0
LINE
  5
41C9
  8
AM_0
 10
515.11211832175115
 20
219.83445194003411
 30
0.0
 11
515.11211832175115
 21
214.06092194003409
 31
0.0
  0
LINE
  5
41CA
  8
AM_0
 10
520.11208932175145
 20
222.7211989400341
 30
0.0
 11
515.11208832175134
 21
219.83445194003411
 31
0.0
  0
ARC
  5
41CB
  8
AM_0
 10
535.2350443217515
 20
223.6520779400341
 30
0.0
 40
3.0
 50
356.81526000000008
 51
90.00000299999769
  0
LINE
  5
41CC
  8
AM_0
 10
525.11208732175135
 20
214.06092194003409
 30
0.0
 11
525.11208732175135
 21
219.83445194003411
 31
0.0
  0
ARC
  5
41CD
  8
AM_0
 10
553.20725832175106
 20
223.6520779400341
 30
0.0
 40
3.0
 50
90.00000299999769
 51
183.18473999999989
  0
ARC
  5
41CE
  8
AM_0
 10
544.22115732175143
 20
223.1520919400341
 30
0.0
 40
6.0000002999999991
 50
176.81527000000079
 51
3.1847360000014402
  0
ARC
  5
41CF
  8
AM_0
 10
564.22114332175136
 20
257.15207894003419
 30
0.0
 40
32.000000999999997
 50
314.67825999999889
 51
0.0
  0
ARC
  5
41D0
  8
AM_0
 10
589.72114332175136
 20
220.1520919400341
 30
0.0
 40
3.0
 50
179.999989999999
 51
270.0
  0
LINE
  5
41D1
  8
AM_0
 10
614.22115932175143
 20
207.1520779400341
 30
0.0
 11
584.22115932175143
 21
207.1520779400341
 31
0.0
  0
LINE
  5
41D2
  8
AM_0
 10
601.72114632175135
 20
217.1520919400341
 30
0.0
 11
586.22116032175143
 21
217.1520919400341
 31
0.0
  0
CIRCLE
  5
41D3
  8
AM_0
 10
568.33021332175144
 20
216.94770194003411
 30
0.0
 40
4.9999998000000003
  0
LINE
  5
41D4
  8
AM_0
 10
584.22115932175143
 20
207.1520779400341
 30
0.0
 11
584.22115932175143
 21
215.15209394003409
 31
0.0
  0
LINE
  5
41D5
  8
AM_0
 10
579.22114332175147
 20
221.6520919400341
 30
0.0
 11
579.22114332175147
 21
212.6520919400341
 31
0.0
  0
LINE
  5
41D6
  8
AM_0
 10
568.33021332175144
 20
211.1742019400341
 30
0.0
 11
573.33021432175144
 21
214.0609519400341
 31
0.0
  0
LINE
  5
41D7
  8
AM_0
 10
563.33021532175144
 20
214.06093694003411
 30
0.0
 11
568.33019832175125
 21
211.1741869400341
 31
0.0
  0
ARC
  5
41D8
  8
AM_0
 10
582.22114332175136
 20
212.6520919400341
 30
0.0
 40
3.0
 50
179.999989999999
 51
270.0
  0
ARC
  5
41D9
  8
AM_0
 10
583.22116032175143
 20
208.6520779400341
 30
0.0
 40
1.0000000199999981
 50
0.0
 51
90.00000299999769
  0
ARC
  5
41DA
  8
AM_0
 10
583.22116032175143
 20
207.1520779400341
 30
0.0
 40
1.0000000199999981
 50
0.0
 51
90.00000299999769
  0
LINE
  5
41DB
  8
AM_0
 10
583.22116032175143
 20
209.6520919400341
 30
0.0
 11
582.22114332175136
 21
209.6520919400341
 31
0.0
  0
LINE
  5
41DC
  8
AM_0
 10
573.33019932175148
 20
219.8344369400341
 30
0.0
 11
568.33021332175144
 21
222.72118394003411
 31
0.0
  0
LINE
  5
41DD
  8
AM_0
 10
568.33021332175144
 20
222.72121694003411
 30
0.0
 11
563.33021532175144
 21
219.8344669400341
 31
0.0
  0
LINE
  5
41DE
  8
AM_0
 10
563.33019732175137
 20
219.83445194003411
 30
0.0
 11
563.33019732175137
 21
214.06092194003409
 31
0.0
  0
ARC
  5
41DF
  8
AM_0
 10
574.22116032175143
 20
221.6520919400341
 30
0.0
 40
5.0000001000000003
 50
0.0
 51
90.00000299999769
  0
LINE
  5
41E0
  8
AM_0
 10
573.33021432175144
 20
214.06092194003409
 30
0.0
 11
573.33021432175144
 21
219.83445194003411
 31
0.0
  0
ARC
  5
41E1
  8
AM_0
 10
586.22116032175143
 20
215.15209394003409
 30
0.0
 40
2.00000007
 50
90.00000299999769
 51
180.00001000000091
  0
LINE
  5
41E2
  8
ｶｸﾚｾﾝ2
 10
596.7211603217512
 20
217.1520919400341
 30
0.0
 11
596.7211603217512
 21
207.1520779400341
 31
0.0
  0
LINE
  5
41E3
  8
ｶｸﾚｾﾝ2
 10
606.72115932175143
 20
217.1520919400341
 30
0.0
 11
606.72115932175143
 21
207.1520779400341
 31
0.0
  0
LINE
  5
41E4
  8
ﾁｭｳｼﾝｾﾝ1
 10
601.72114632175135
 20
220.08393194003409
 30
0.0
 11
601.72114632175135
 21
204.1407559400341
 31
0.0
  0
LINE
  5
41E5
  8
AM_0
 10
614.22115932175143
 20
217.1520919400341
 30
0.0
 11
614.22115932175143
 21
207.1520779400341
 31
0.0
  0
LINE
  5
41E6
  8
AM_0
 10
612.72115932175143
 20
217.1520919400341
 30
0.0
 11
601.72114632175135
 21
217.1520919400341
 31
0.0
  0
ARC
  5
41E7
  8
AM_0
 10
612.72115932175143
 20
215.6520919400341
 30
0.0
 40
1.5000000299999969
 50
0.0
 51
90.00000299999769
  0
ARC
  5
41E8
  8
AM_0
 10
488.46798132175132
 20
299.2786669400341
 30
0.0
 40
5.0000001000000003
 50
74.836353999996945
 51
173.59761999999901
  0
ARC
  5
41E9
  8
AM_0
 10
504.22115832175137
 20
305.15208494003411
 30
0.0
 40
20.000000700000001
 50
118.0724799999965
 51
173.59761999999901
  0
ARC
  5
41EA
  8
AM_0
 10
544.22115732175143
 20
275.15207894003407
 30
0.0
 40
60.000002999999992
 50
153.3308500000023
 51
170.94546000000039
  0
LINE
  5
41ED
  8
AM_0
 10
399.87423860130832
 20
282.65207894003407
 30
0.0
 11
399.87423860130832
 21
304.15208494003417
 31
0.0
  0
ARC
  5
41F0
  8
AM_0
 10
469.70187301451023
 20
296.4228094906955
 30
0.0
 40
5.0
 50
87.500000000001435
 51
173.53019364652329
1001
GENIUS_GENODEF_13
1002
{
1000
HIER
1070
     0
1002
}
1002
{
1000
MANEDIT
1070
     0
1002
}
1002
{
1000
NOSEL
1070
     0
1002
}
1002
{
1000
BEHIND
1070
     0
1002
}
1002
{
1000
OTHER
1070
     0
1002
}
1002
{
1000
REACTOR
1002
}
1001
GENIUS_GENOBJ-N-FIL_13
1002
{
1000
OWNER
1000
GEN
1002
}
  0
ARC
  5
41F1
  8
AM_0
 10
544.22115732175143
 20
275.15207894003407
 30
0.0
 40
60.000002999999992
 50
171.12478999999959
 51
172.44925999999899
  0
LINE
  5
41F2
  8
AM_0
 10
469.91996995133701
 20
301.41805059860491
 30
0.0
 11
483.42053154985422
 21
300.8286033494191
 31
0.0
  0
ARC
  5
41F3
  8
AM_0
 10
479.89129691052312
 20
307.48888551507918
 30
0.0
 40
2.0
 50
87.500000000001435
 51
153.3126135681114
1001
GENIUS_GENODEF_13
1002
{
1000
HIER
1070
     0
1002
}
1002
{
1000
MANEDIT
1070
     0
1002
}
1002
{
1000
NOSEL
1070
     0
1002
}
1002
{
1000
BEHIND
1070
     0
1002
}
1002
{
1000
OTHER
1070
     0
1002
}
1002
{
1000
REACTOR
1002
}
1001
GENIUS_GENOBJ-N-FIL_13
1002
{
1000
OWNER
1000
GEN
1002
}
  0
ARC
  5
41F4
  8
AM_0
 10
544.22115732175143
 20
275.15207894003407
 30
0.0
 40
74.0
 50
153.3126135681114
 51
159.39189950030541
  0
LINE
  5
41F5
  8
AM_0
 10
479.97853568525352
 20
309.48698195824301
 30
0.0
 11
484.26345205056469
 21
309.29989846944937
 31
0.0
  0
LINE
  5
41F6
  8
AM_0
 10
483.987889862472
 20
308.81145343182982
 30
0.0
 11
484.55419622531952
 21
308.78672796205291
 31
0.0
  0
ARC
  5
41F7
  8
AM_0
 10
544.22115732175143
 20
275.15207894003407
 30
0.0
 40
69.0
 50
150.3371115778433
 51
158.028779365509
  0
ARC
  5
41F8
  8
AM_0
 10
544.22115732175143
 20
275.15207894003407
 30
0.0
 40
66.0
 50
51.42740375659892
 51
128.57259624340099
  0
ARC
  5
41F9
  8
AM_0
 10
544.22115732175143
 20
230.15209394003409
 30
0.0
 40
105.00000300000001
 50
61.92751500000066
 51
118.0724799999965
  0
ARC
  5
41FA
  8
AM_0
 10
544.22115732175143
 20
275.15207894003407
 30
0.0
 40
60.000002999999992
 50
48.330844999999442
 51
131.66914999999591
  0
LINE
  5
41FB
  8
ﾁｭｳｼﾝｾﾝ
 10
508.41409092007427
 20
292.15207994003413
 30
0.0
 11
580.02822372342825
 21
292.15207994003413
 31
0.0
  0
ARC
  5
41FC
  8
AM_0
 10
506.48751432175141
 20
322.7597149400342
 30
0.0
 40
5.0000001000000003
 50
112.1688000000029
 51
210.1577899999985
  0
ARC
  5
41FD
  8
AM_0
 10
497.2211713217514
 20
299.38749194003412
 30
0.0
 40
5.0000001000000003
 50
106.5886100000029
 51
180.00001000000091
  0
ARC
  5
41FE
  8
AM_0
 10
492.65319132175119
 20
314.72157494003409
 30
0.0
 40
11.000000399999999
 50
254.8363599999997
 51
30.15779500000113
  0
ARC
  5
41FF
  8
AM_0
 10
506.32595532175122
 20
317.73087494003408
 30
0.0
 40
3.0
 50
131.66914999999591
 51
192.41255000000001
  0
CIRCLE
  5
4200
  8
AM_0
 10
494.23989132175137
 20
313.5040849400342
 30
0.0
 40
4.9999998000000003
  0
LINE
  5
4201
  8
AM_0
 10
499.2399013217514
 20
310.61733494003408
 30
0.0
 11
499.2399013217514
 21
316.39080494003412
 31
0.0
  0
LINE
  5
4202
  8
AM_0
 10
489.23988132175123
 20
316.39080494003412
 30
0.0
 11
489.23988132175123
 21
310.61733494003408
 31
0.0
  0
LINE
  5
4203
  8
AM_0
 10
494.23989132175137
 20
307.73061494003417
 30
0.0
 11
499.2399013217514
 21
310.61736494003412
 31
0.0
  0
ARC
  5
4204
  8
AM_0
 10
493.28520132175112
 20
300.73585094003408
 30
0.0
 40
3.0
 50
92.587449000000944
 51
153.3308500000023
  0
LINE
  5
4205
  8
AM_0
 10
489.23991132175109
 20
310.61730494003427
 30
0.0
 11
494.2399213217513
 21
307.73055494003421
 31
0.0
  0
LINE
  5
4206
  8
AM_0
 10
499.2399013217514
 20
316.39077494003408
 30
0.0
 11
494.2399213217513
 21
319.27752494003408
 31
0.0
  0
LINE
  5
4207
  8
AM_0
 10
494.23989132175137
 20
319.27758494003427
 30
0.0
 11
489.23988132175123
 21
316.39080494003412
 31
0.0
  0
ARC
  5
4208
  8
AM_0
 10
544.22115732175143
 20
292.15207994003413
 30
0.0
 40
9.5000003999999993
 50
108.40848
 51
71.591512000000776
  0
LINE
  5
4209
  8
AM_0
 10
541.22115732175143
 20
304.1520949400342
 30
0.0
 11
541.22115732175143
 21
298.15207994003413
 31
0.0
  0
LINE
  5
420A
  8
AM_0
 10
547.22115732175143
 20
298.15207994003413
 30
0.0
 11
547.22115732175143
 21
304.1520949400342
 31
0.0
  0
CIRCLE
  5
420B
  8
AM_5
 10
544.22115732175143
 20
292.15207994003413
 30
0.0
 40
3.0
  0
CIRCLE
  5
420C
  8
AM_0
 10
544.22115732175143
 20
292.15207994003413
 30
0.0
 40
2.4999998400000001
  0
LINE
  5
420D
  8
AM_0
 10
541.22115732175143
 20
298.15207994003413
 30
0.0
 11
547.22115732175143
 21
298.15207994003413
 31
0.0
  0
LINE
  5
420E
  8
AM_0
 10
547.22115732175143
 20
304.1520949400342
 30
0.0
 11
541.22115732175143
 21
304.1520949400342
 31
0.0
  0
ARC
  5
420F
  8
AM_0
 10
581.95480332175146
 20
322.7597149400342
 30
0.0
 40
5.0000001000000003
 50
329.84219999999971
 51
67.831202999998027
  0
ARC
  5
4210
  8
AM_0
 10
584.22115932175143
 20
305.15208494003411
 30
0.0
 40
20.000000700000001
 50
6.4023797999986547
 51
61.92751500000066
  0
ARC
  5
4211
  8
AM_0
 10
595.7891233217515
 20
314.72157494003409
 30
0.0
 40
11.000000399999999
 50
149.8422100000013
 51
285.1636500000007
  0
ARC
  5
4212
  8
AM_0
 10
582.11636232175135
 20
317.73087494003408
 30
0.0
 40
3.0
 50
347.58744999999982
 51
48.330844999999442
  0
ARC
  5
4213
  8
AM_0
 10
599.97434832175145
 20
299.2786669400341
 30
0.0
 40
5.0000001000000003
 50
6.4023797999986547
 51
105.1636400000003
  0
ARC
  5
4214
  8
AM_0
 10
591.22114632175135
 20
299.38749194003412
 30
0.0
 40
5.0000001000000003
 50
0.0
 51
73.411385000001331
  0
ARC
  5
4215
  8
AM_0
 10
544.22115732175143
 20
275.15207894003407
 30
0.0
 40
60.000002999999992
 50
9.0545419000017677
 51
26.66915699999943
  0
CIRCLE
  5
4216
  8
AM_0
 10
594.20240832175125
 20
313.5040849400342
 30
0.0
 40
4.9999998000000003
  0
LINE
  5
4217
  8
AM_0
 10
589.20240732175125
 20
316.39080494003412
 30
0.0
 11
589.20240732175125
 21
310.61733494003408
 31
0.0
  0
LINE
  5
4218
  8
AM_0
 10
599.20242132175144
 20
310.61733494003408
 30
0.0
 11
599.20242132175144
 21
316.39080494003412
 31
0.0
  0
ARC
  5
4219
  8
AM_0
 10
595.15711932175145
 20
300.73585094003408
 30
0.0
 40
3.0
 50
26.66915699999943
 51
87.412549000002571
  0
LINE
  5
421A
  8
AM_0
 10
594.20242332175144
 20
307.73058494003408
 30
0.0
 11
599.20242132175144
 21
310.61733494003408
 31
0.0
  0
LINE
  5
421B
  8
AM_0
 10
589.2023923217514
 20
310.61733494003408
 30
0.0
 11
594.20239332175117
 21
307.73058494003408
 31
0.0
  0
LINE
  5
421C
  8
AM_0
 10
599.20239132175152
 20
316.39080494003412
 30
0.0
 11
594.20240832175125
 21
319.27755494003412
 31
0.0
  0
LINE
  5
421D
  8
AM_0
 10
594.20242332175144
 20
319.27758494003427
 30
0.0
 11
589.20242232175144
 21
316.39086494003408
 31
0.0
  0
LINE
  5
421E
  8
AM_0
 10
180.0753016013083
 20
190.040799563169
 30
0.0
 11
180.0813286013084
 21
196.33752146316911
 31
0.0
  0
LINE
  5
421F
  8
AM_0
 10
177.08573860130849
 20
194.96422337732241
 30
0.0
 11
177.0917236013083
 21
188.6674720773224
 31
0.0
  0
LINE
  5
4220
  8
AM_0
 10
173.65969360130831
 20
188.66493947732241
 30
0.0
 11
173.6536666013082
 21
194.9616613773224
 31
0.0
  0
LINE
  5
4221
  8
AM_0
 10
170.6641876013083
 20
190.040799563169
 30
0.0
 11
170.65816060130831
 21
196.33752146316911
 31
0.0
  0
ARC
  5
4222
  8
AM_0
 10
178.32031060130819
 20
185.63323346316881
 30
0.0
 40
2.3091486599999991
 50
249.12780385311081
 51
15.094728000000879
  0
LINE
  5
4223
  8
AM_0
 10
171.22459360130841
 20
190.03962566316901
 30
0.0
 11
172.3803496013083
 21
190.0385567631688
 31
0.0
  0
ARC
  5
4224
  8
AM_0
 10
172.41917860130849
 20
185.63323346316881
 30
0.0
 40
2.3091486599999991
 50
164.90527199999909
 51
290.87219614688911
  0
ARC
  5
4225
  8
ｽﾝﾎ_ｳｾﾝ
 10
172.3787326013084
 20
185.63316836316901
 30
0.0
 40
1.5050001119999981
 50
34.081774240380142
 51
298.90870486052683
  0
LINE
  5
4226
  8
AM_0
 10
171.22459360130841
 20
190.03964666316901
 30
0.0
 11
170.18973460130829
 21
186.23460206316881
 31
0.0
  0
LINE
  5
4227
  8
AM_0
 10
171.22459360130841
 20
190.03962566316901
 30
0.0
 11
170.66422960130831
 21
190.0407785631688
 31
0.0
  0
LINE
  5
4228
  8
AM_0
 10
179.5148956013083
 20
190.03962566316901
 30
0.0
 11
180.07525960130829
 21
190.0407785631688
 31
0.0
  0
LINE
  5
4229
  8
AM_0
 10
179.5148956013083
 20
190.03964666316901
 30
0.0
 11
180.54975460130831
 21
186.23460206316881
 31
0.0
  0
LINE
  5
422A
  8
AM_0
 10
177.09176560130811
 20
188.66750357732221
 30
0.0
 11
176.53163260130839
 21
188.66166137732259
 31
0.0
  0
LINE
  5
422B
  8
AM_0
 10
177.20340460130851
 20
190.03749836316899
 30
0.0
 11
177.08070812458681
 21
189.6183002392591
 31
0.0
  0
LINE
  5
422C
  8
AM_0
 10
178.35913960130841
 20
190.0385567631688
 30
0.0
 11
177.08110924796719
 21
190.03737479930851
 31
0.0
  0
LINE
  5
422D
  8
AM_0
 10
176.80149211655021
 20
188.6643459786149
 30
0.0
 11
176.6551854491608
 21
188.1644825585399
 31
0.0
  0
LINE
  5
422E
  8
AM_0
 10
174.22009960130839
 20
188.66376557732261
 30
0.0
 11
173.65973560130831
 21
188.6649184773224
 31
0.0
  0
LINE
  5
422F
  8
AM_0
 10
174.22009960130839
 20
188.66376557732261
 30
0.0
 11
175.3758556013083
 21
188.6626966773226
 31
0.0
  0
LINE
  5
4230
  8
AM_0
 10
173.5360846013082
 20
190.03749836316899
 30
0.0
 11
173.65878107802979
 21
189.6183002392591
 31
0.0
  0
LINE
  5
4231
  8
AM_0
 10
172.3803496013083
 20
190.0385567631688
 30
0.0
 11
173.6583799546494
 21
190.03737479930851
 31
0.0
  0
LINE
  5
4232
  8
AM_0
 10
173.93799708606639
 20
188.6643459786149
 30
0.0
 11
174.08430375345591
 21
188.1644825585399
 31
0.0
  0
LINE
  5
4233
  8
AM_0
 10
175.3758556013083
 20
188.6626966773226
 30
0.0
 11
176.53163260130839
 21
188.66162777732239
 31
0.0
  0
CIRCLE
  5
4234
  8
ｽﾝﾎ_ｳｾﾝ
 10
175.37423860130841
 20
184.25730827732261
 30
0.0
 40
1.5050001119999981
  0
ARC
  5
4235
  8
AM_0
 10
175.41468460130841
 20
184.25737337732241
 30
0.0
 40
2.3091486599999991
 50
164.90527199999909
 51
16.267320000001838
  0
LINE
  5
4236
  8
AM_0
 10
176.53159060130821
 20
188.6616382773224
 30
0.0
 11
177.6313606013085
 21
184.9042237773225
 31
0.0
  0
LINE
  5
4237
  8
AM_0
 10
174.22009960130839
 20
188.6637865773225
 30
0.0
 11
173.18524060130829
 21
184.85874197732241
 31
0.0
  0
ARC
  5
4238
  8
ｽﾝﾎ_ｳｾﾝ
 10
178.36075660130831
 20
185.63316836316901
 30
0.0
 40
1.5050001119999981
 50
241.0912951394732
 51
145.91822575961979
  0
LINE
  5
4239
  8
AM_0
 10
179.5148956013083
 20
190.03962566316901
 30
0.0
 11
178.35913960130841
 21
190.0385567631688
 31
0.0
  0
LINE
  5
423A
  8
AM_0
 10
170.65816060130831
 20
196.33752146316911
 30
0.0
 11
174.0902338138963
 21
196.3388077131689
 31
0.0
  0
LINE
  5
423B
  8
AM_0
 10
176.64925660130811
 20
196.34008346316901
 30
0.0
 11
176.6479467440752
 21
194.96199737547241
 31
0.0
  0
LINE
  5
423C
  8
AM_0
 10
174.09023260130849
 20
196.34008346316901
 30
0.0
 11
174.09154245854151
 21
194.96199737547241
 31
0.0
  0
LINE
  5
423D
  8
AM_0
 10
173.6537086013083
 20
194.9616718773224
 30
0.0
 11
177.08578060130839
 21
194.96422337732241
 31
0.0
  0
LINE
  5
423E
  8
AM_0
 10
180.0813286013084
 20
196.33752146316911
 30
0.0
 11
176.64925538872041
 21
196.3388077131689
 31
0.0
  0
POINT
  5
423F
  8
0
 10
99.0287923978413
 20
540.49217816489795
 30
0.0
1001
GENIUS_GENOLIS_13
1002
{
1000
ENT
1005
0
1005
4128
1005
4131
1002
}
1001
GENIUS_GENOENT_13
1002
{
1000
MYREF
1005
423F
1002
}
1002
{
1000
GRP
1005
0
1002
}
1001
GENIUS_GENOBJ-NBEHI-BHB_13
1002
{
1000
OWNER
1000
genbehi
1002
}
1001
GENIUS_GENBH_13
1002
{
1000
FGO
1005
0
1002
}
1001
GENIUS_GENODEF_13
1002
{
1000
HIER
1070
     1
1002
}
1002
{
1000
MANEDIT
1070
     1
1002
}
1002
{
1000
NOSEL
1070
     1
1002
}
1002
{
1000
BEHIND
1070
     0
1002
}
1002
{
1000
OTHER
1070
     1
1002
}
1002
{
1000
REACTOR
1002
}
  0
LINE
  5
46D2
  8
AM_0N
 10
141.87423860130829
 20
419.72714519791481
 30
0.0
 11
157.87423860130829
 21
419.72714519791481
 31
0.0
1001
GENIUS_GENOREF_13
1005
0
  0
LINE
  5
46D3
  8
AM_0
 10
157.87423860130829
 20
423.27892948963392
 30
0.0
 11
141.87423860130829
 21
423.27892948963392
 31
0.0
1001
GENIUS_GENOREF_13
1005
470C
  0
LINE
  5
46D4
  8
AM_0
 10
145.87423860130829
 20
410.42012653640802
 30
0.0
 11
141.87423860130829
 21
410.42012653640802
 31
0.0
  0
LINE
  5
46D5
  8
AM_0
 10
183.37423860130821
 20
398.50972324016459
 30
0.0
 11
129.37423860130829
 21
398.50972324016459
 31
0.0
  0
LINE
  5
46D6
  8
AM_0
 10
183.37423860130829
 20
401.91732423887117
 30
0.0
 11
129.37423860130829
 21
401.91732423887117
 31
0.0
  0
LINE
  5
46D7
  8
AM_0
 10
123.87423860130841
 20
545.16972246910291
 30
0.0
 11
267.37423860130849
 21
545.16972246910257
 31
0.0
  0
LINE
  5
46D8
  8
AM_0
 10
117.37423860130841
 20
532.67159034048223
 30
0.0
 11
117.37423860130831
 21
426.46785459772337
 31
0.0
  0
ARC
  5
46D9
  8
AM_0
 10
1056.5603624111279
 20
479.5697224691026
 30
0.0
 40
940.68612380981915
 50
176.76392470776139
 51
183.2360752922385
  0
LINE
  5
46DA
  8
AM_0
 10
124.37423860130841
 20
545.16972246910291
 30
0.0
 11
124.37423860130831
 21
413.96972246910281
 31
0.0
  0
LINE
  5
46DB
  8
AM_0
 10
121.87423860130841
 20
543.16972246910291
 30
0.0
 11
121.87423860130841
 21
415.96972246910258
 31
0.0
  0
ARC
  5
46DC
  8
AM_0
 10
129.37423860130829
 20
400.50972324016431
 30
0.0
 40
2.0
 50
180.0
 51
270.0
1001
GENIUS_GENOBJ-N-FIL_13
1002
{
1000
OWNER
1000
GEN
1002
}
1001
GENIUS_GENODEF_13
1002
{
1000
HIER
1070
     0
1002
}
1002
{
1000
MANEDIT
1070
     0
1002
}
1002
{
1000
NOSEL
1070
     0
1002
}
1002
{
1000
BEHIND
1070
     0
1002
}
1002
{
1000
OTHER
1070
     0
1002
}
1002
{
1000
REACTOR
1002
}
  0
LINE
  5
46DD
  8
AM_0
 10
141.87423860130829
 20
423.27892948963392
 30
0.0
 11
141.87423860130829
 21
410.42012653640802
 31
0.0
  0
LINE
  5
46DE
  8
AM_0
 10
123.87423860130841
 20
413.96972246910281
 30
0.0
 11
127.37423860130831
 21
413.96972246910241
 31
0.0
  0
ARC
  5
46DF
  8
AM_0
 10
123.87423860130841
 20
415.96972246910258
 30
0.0
 40
2.0
 50
180.0
 51
270.0
1001
GENIUS_GENOBJ-N-FIL_13
1002
{
1000
OWNER
1000
GEN
1002
}
1001
GENIUS_GENODEF_13
1002
{
1000
HIER
1070
     0
1002
}
1002
{
1000
MANEDIT
1070
     0
1002
}
1002
{
1000
NOSEL
1070
     0
1002
}
1002
{
1000
BEHIND
1070
     0
1002
}
1002
{
1000
OTHER
1070
     0
1002
}
1002
{
1000
REACTOR
1002
}
  0
LINE
  5
46E0
  8
AM_0
 10
127.37423860130831
 20
417.31074949592369
 30
0.0
 11
127.37423860130831
 21
400.50972324016431
 31
0.0
  0
ARC
  5
46E1
  8
AM_0
 10
129.37423860130829
 20
403.91732423887112
 30
0.0
 40
2.0
 50
180.0
 51
270.0
1001
GENIUS_GENODEF_13
1002
{
1000
HIER
1070
     0
1002
}
1002
{
1000
MANEDIT
1070
     0
1002
}
1002
{
1000
NOSEL
1070
     0
1002
}
1002
{
1000
BEHIND
1070
     0
1002
}
1002
{
1000
OTHER
1070
     0
1002
}
1002
{
1000
REACTOR
1002
}
1001
GENIUS_GENOBJ-N-FIL_13
1002
{
1000
OWNER
1000
GEN
1002
}
  0
LINE
  5
46E2
  8
AM_0
 10
141.87423860130829
 20
419.3107494959238
 30
0.0
 11
129.37423860130829
 21
419.31074949592357
 31
0.0
  0
ARC
  5
46E3
  8
AM_0
 10
129.37423860130829
 20
417.31074949592369
 30
0.0
 40
2.0
 50
90.0
 51
180.0
1001
GENIUS_GENOBJ-N-FIL_13
1002
{
1000
OWNER
1000
GEN
1002
}
1001
GENIUS_GENODEF_13
1002
{
1000
HIER
1070
     0
1002
}
1002
{
1000
MANEDIT
1070
     0
1002
}
1002
{
1000
NOSEL
1070
     0
1002
}
1002
{
1000
BEHIND
1070
     0
1002
}
1002
{
1000
OTHER
1070
     0
1002
}
1002
{
1000
REACTOR
1002
}
  0
ARC
  5
46E4
  8
AM_0
 10
119.87423860130841
 20
420.67159034048223
 30
0.0
 40
2.0
 50
0.0
 51
48.366460663430352
1001
GENIUS_GENOBJ-N-FIL_13
1002
{
1000
OWNER
1000
GEN
1002
}
1001
GENIUS_GENODEF_13
1002
{
1000
HIER
1070
     0
1002
}
1002
{
1000
MANEDIT
1070
     0
1002
}
1002
{
1000
NOSEL
1070
     0
1002
}
1002
{
1000
BEHIND
1070
     0
1002
}
1002
{
1000
OTHER
1070
     0
1002
}
1002
{
1000
REACTOR
1002
}
  0
LINE
  5
46E5
  8
AM_0
 10
121.2029662789682
 20
422.16640897784958
 30
0.0
 11
118.04551092364849
 21
424.97303596035567
 31
0.0
  0
ARC
  5
46E6
  8
AM_0
 10
119.37423860130831
 20
426.46785459772337
 30
0.0
 40
2.0
 50
180.0
 51
228.3664606634303
1001
GENIUS_GENODEF_13
1002
{
1000
HIER
1070
     0
1002
}
1002
{
1000
MANEDIT
1070
     0
1002
}
1002
{
1000
NOSEL
1070
     0
1002
}
1002
{
1000
BEHIND
1070
     0
1002
}
1002
{
1000
OTHER
1070
     0
1002
}
1002
{
1000
REACTOR
1002
}
1001
GENIUS_GENOBJ-N-FIL_13
1002
{
1000
OWNER
1000
GEN
1002
}
  0
LINE
  5
46E7
  8
AM_0
 10
106.37423860130841
 20
496.56972246910283
 30
0.0
 11
106.37423860130831
 21
462.56972246910283
 31
0.0
  0
ARC
  5
46E8
  8
AM_0
 10
109.37423860130831
 20
462.56972246910283
 30
0.0
 40
3.0
 50
180.0
 51
270.0
1001
GENIUS_GENODEF_13
1002
{
1000
HIER
1070
     0
1002
}
1002
{
1000
MANEDIT
1070
     0
1002
}
1002
{
1000
NOSEL
1070
     0
1002
}
1002
{
1000
BEHIND
1070
     0
1002
}
1002
{
1000
OTHER
1070
     0
1002
}
1002
{
1000
REACTOR
1002
}
1001
GENIUS_GENOBJ-N-FIL_13
1002
{
1000
OWNER
1000
GEN
1002
}
  0
LINE
  5
46E9
  8
AM_0
 10
109.37423860130831
 20
459.56972246910271
 30
0.0
 11
116.08687340235051
 21
459.56972246910271
 31
0.0
  0
ARC
  5
46EA
  8
AM_0
 10
109.37423860130841
 20
496.56972246910283
 30
0.0
 40
3.0
 50
90.0
 51
180.0
1001
GENIUS_GENOBJ-N-FIL_13
1002
{
1000
OWNER
1000
GEN
1002
}
1001
GENIUS_GENODEF_13
1002
{
1000
HIER
1070
     0
1002
}
1002
{
1000
MANEDIT
1070
     0
1002
}
1002
{
1000
NOSEL
1070
     0
1002
}
1002
{
1000
BEHIND
1070
     0
1002
}
1002
{
1000
OTHER
1070
     0
1002
}
1002
{
1000
REACTOR
1002
}
  0
LINE
  5
46EB
  8
AM_0
 10
109.37423860130841
 20
499.56972246910271
 30
0.0
 11
116.08687340235051
 21
499.56972246910271
 31
0.0
  0
ARC
  5
46EC
  8
AM_0
 10
123.87423860130841
 20
543.16972246910291
 30
0.0
 40
2.0
 50
90.0
 51
180.0
1001
GENIUS_GENOBJ-N-FIL_13
1002
{
1000
OWNER
1000
GEN
1002
}
1001
GENIUS_GENODEF_13
1002
{
1000
HIER
1070
     0
1002
}
1002
{
1000
MANEDIT
1070
     0
1002
}
1002
{
1000
NOSEL
1070
     0
1002
}
1002
{
1000
BEHIND
1070
     0
1002
}
1002
{
1000
OTHER
1070
     0
1002
}
1002
{
1000
REACTOR
1002
}
  0
ARC
  5
46ED
  8
AM_0
 10
119.37423860130841
 20
532.67159034048223
 30
0.0
 40
2.0
 50
131.63353933656961
 51
180.0
1001
GENIUS_GENODEF_13
1002
{
1000
HIER
1070
     0
1002
}
1002
{
1000
MANEDIT
1070
     0
1002
}
1002
{
1000
NOSEL
1070
     0
1002
}
1002
{
1000
BEHIND
1070
     0
1002
}
1002
{
1000
OTHER
1070
     0
1002
}
1002
{
1000
REACTOR
1002
}
1001
GENIUS_GENOBJ-N-FIL_13
1002
{
1000
OWNER
1000
GEN
1002
}
  0
LINE
  5
46EE
  8
AM_0
 10
121.2029662789682
 20
536.9730359603559
 30
0.0
 11
118.04551092364849
 21
534.16640897784964
 31
0.0
  0
ARC
  5
46EF
  8
AM_0
 10
119.87423860130841
 20
538.4678545977232
 30
0.0
 40
2.0
 50
311.63353933656958
 51
0.0
1001
GENIUS_GENOBJ-N-FIL_13
1002
{
1000
OWNER
1000
GEN
1002
}
1001
GENIUS_GENODEF_13
1002
{
1000
HIER
1070
     0
1002
}
1002
{
1000
MANEDIT
1070
     0
1002
}
1002
{
1000
NOSEL
1070
     0
1002
}
1002
{
1000
BEHIND
1070
     0
1002
}
1002
{
1000
OTHER
1070
     0
1002
}
1002
{
1000
REACTOR
1002
}
  0
LINE
  5
46F0
  8
AM_0
 10
267.37423860130838
 20
545.56972246910289
 30
0.0
 11
267.37423860130838
 21
413.56972246910271
 31
0.0
  0
LINE
  5
46F1
  8
AM_0
 10
278.87423860130838
 20
545.56972246910289
 30
0.0
 11
278.87423860130838
 21
413.56972246910271
 31
0.0
  0
LINE
  5
46F2
  8
AM_0
 10
185.37423860130829
 20
413.96972246910281
 30
0.0
 11
267.37423860130838
 21
413.96972246910281
 31
0.0
  0
ARC
  5
46F3
  8
AM_0
 10
183.37423860130821
 20
400.50972324016431
 30
0.0
 40
2.0
 50
270.0
 51
0.0
1001
GENIUS_GENOBJ-N-FIL_13
1002
{
1000
OWNER
1000
GEN
1002
}
1001
GENIUS_GENODEF_13
1002
{
1000
HIER
1070
     0
1002
}
1002
{
1000
MANEDIT
1070
     0
1002
}
1002
{
1000
NOSEL
1070
     0
1002
}
1002
{
1000
BEHIND
1070
     0
1002
}
1002
{
1000
OTHER
1070
     0
1002
}
1002
{
1000
REACTOR
1002
}
  0
LINE
  5
46F4
  8
AM_0
 10
183.37423860130829
 20
419.31074949592357
 30
0.0
 11
157.87423860130829
 21
419.31074949592357
 31
0.0
  0
LINE
  5
46F5
  8
AM_0
 10
157.87423860130829
 20
423.2789294896337
 30
0.0
 11
157.87423860130829
 21
410.42012653640802
 31
0.0
  0
LINE
  5
46F6
  8
AM_3N
  6
AM_ISO02W050X2
 10
151.37423860130829
 20
417.55744919082991
 30
0.0
 11
149.87423860130829
 21
419.44485921938877
 31
0.0
1001
GENIUS_GENOREF_13
1005
0
  0
ARC
  5
46F7
  8
AM_0N
 10
149.87423860130829
 20
422.32714519791477
 30
0.0
 40
5.0
 50
246.4528627629231
 51
293.54713723707698
1001
GENIUS_GENOREF_13
1005
0
  0
LINE
  5
46F8
  8
AM_0
 10
153.87423860130841
 20
415.69618933491711
 30
0.0
 11
145.87423860130829
 21
415.69618933491711
 31
0.0
  0
LINE
  5
46F9
  8
AM_3N
  6
AM_ISO02W050X2
 10
149.62173860130829
 20
417.33352489296578
 30
0.0
 11
149.62173860130829
 21
419.12714519791461
 31
0.0
1001
GENIUS_GENOREF_13
1005
0
  0
LINE
  5
46FA
  8
AM_3N
  6
AM_ISO02W050X2
 10
150.12673860130829
 20
417.33352489296578
 30
0.0
 11
150.12673860130829
 21
419.12714519791461
 31
0.0
1001
GENIUS_GENOREF_13
1005
0
  0
LINE
  5
46FB
  8
AM_3N
  6
AM_ISO02W050X2
 10
148.37423860130829
 20
417.55744919082991
 30
0.0
 11
149.87423860130829
 21
419.44485921938877
 31
0.0
1001
GENIUS_GENOREF_13
1005
0
  0
LINE
  5
46FC
  8
AM_3N
  6
AM_ISO02W050X2
 10
150.12673860130829
 20
419.12714519791461
 30
0.0
 11
149.62173860130829
 21
419.12714519791461
 31
0.0
1001
GENIUS_GENOREF_13
1005
0
  0
ARC
  5
46FD
  8
AM_0N
 10
148.3561256843181
 20
418.843564687683
 30
0.0
 40
1.1999999999999991
 50
184.99999999999969
 51
246.4528627629231
1001
GENIUS_GENOREF_13
1005
0
  0
LINE
  5
46FE
  8
AM_0N
 10
147.16069204660801
 20
418.7389777963856
 30
0.0
 11
147.07423860130831
 21
419.72714519791481
 31
0.0
1001
GENIUS_GENOREF_13
1005
0
  0
LINE
  5
46FF
  8
AM_0
 10
145.87423860130829
 20
419.72714519791481
 30
0.0
 11
145.87423860130829
 21
410.42012653640802
 31
0.0
  0
ARC
  5
4700
  8
AM_0N
 10
151.3923515182986
 20
418.843564687683
 30
0.0
 40
1.1999999999999991
 50
293.54713723707698
 51
355.00000000000023
1001
GENIUS_GENOREF_13
1005
0
  0
LINE
  5
4701
  8
AM_0N
 10
152.58778515600869
 20
418.7389777963856
 30
0.0
 11
152.6742386013083
 21
419.72714519791481
 31
0.0
1001
GENIUS_GENOREF_13
1005
0
  0
LINE
  5
4702
  8
AM_0
 10
153.87423860130841
 20
419.72714519791481
 30
0.0
 11
153.87423860130841
 21
410.42012653640802
 31
0.0
  0
LINE
  5
4703
  8
AM_0
 10
157.87423860130829
 20
410.42012653640802
 30
0.0
 11
153.87423860130841
 21
410.42012653640802
 31
0.0
  0
LINE
  5
4704
  8
AM_0
 10
185.37423860130829
 20
417.31074949592369
 30
0.0
 11
185.37423860130809
 21
400.50972324016431
 31
0.0
  0
ARC
  5
4705
  8
AM_0
 10
183.37423860130829
 20
403.91732423887112
 30
0.0
 40
2.0
 50
270.0
 51
0.0
1001
GENIUS_GENOBJ-N-FIL_13
1002
{
1000
OWNER
1000
GEN
1002
}
1001
GENIUS_GENODEF_13
1002
{
1000
HIER
1070
     0
1002
}
1002
{
1000
MANEDIT
1070
     0
1002
}
1002
{
1000
NOSEL
1070
     0
1002
}
1002
{
1000
BEHIND
1070
     0
1002
}
1002
{
1000
OTHER
1070
     0
1002
}
1002
{
1000
REACTOR
1002
}
  0
ARC
  5
4706
  8
AM_0
 10
183.37423860130829
 20
417.31074949592369
 30
0.0
 40
2.0
 50
0.0
 51
90.0
1001
GENIUS_GENODEF_13
1002
{
1000
HIER
1070
     0
1002
}
1002
{
1000
MANEDIT
1070
     0
1002
}
1002
{
1000
NOSEL
1070
     0
1002
}
1002
{
1000
BEHIND
1070
     0
1002
}
1002
{
1000
OTHER
1070
     0
1002
}
1002
{
1000
REACTOR
1002
}
1001
GENIUS_GENOBJ-N-FIL_13
1002
{
1000
OWNER
1000
GEN
1002
}
  0
LINE
  5
4707
  8
AM_0
 10
267.37423860130838
 20
413.56972246910271
 30
0.0
 11
278.87423860130838
 21
413.56972246910271
 31
0.0
  0
LINE
  5
4708
  8
AM_0
 10
285.87423860130838
 20
416.56972246910289
 30
0.0
 11
278.87423860130838
 21
413.56972246910271
 31
0.0
  0
LINE
  5
4709
  8
AM_0
 10
267.37423860130838
 20
545.56972246910289
 30
0.0
 11
278.87423860130838
 21
545.56972246910289
 31
0.0
  0
LINE
  5
470A
  8
AM_0
 10
278.87423860130838
 20
545.56972246910289
 30
0.0
 11
285.87423860130838
 21
542.56972246910266
 31
0.0
  0
LINE
  5
470B
  8
AM_0
 10
285.87423860130838
 20
542.56972246910266
 30
0.0
 11
285.87423860130838
 21
416.56972246910289
 31
0.0
  0
POINT
  5
470C
  8
0
 10
0.0
 20
-21.973169790710699
 30
0.0
1001
GENIUS_GENOLIS_13
1002
{
1000
ENT
1005
0
1005
0
1005
0
1005
46D3
1002
}
1001
GENIUS_GENOENT_13
1002
{
1000
MYREF
1005
470C
1002
}
1002
{
1000
GRP
1005
0
1002
}
1001
GENIUS_GENOBJ-NBEHI-BHB_13
1002
{
1000
OWNER
1000
genbehi
1002
}
1001
GENIUS_GENBH_13
1002
{
1000
FGO
1005
0
1002
}
1001
GENIUS_GENODEF_13
1002
{
1000
HIER
1070
     1
1002
}
1002
{
1000
MANEDIT
1070
     1
1002
}
1002
{
1000
NOSEL
1070
     1
1002
}
1002
{
1000
BEHIND
1070
     0
1002
}
1002
{
1000
OTHER
1070
     1
1002
}
1002
{
1000
REACTOR
1002
}
  0
TEXT
  5
4AD4
  8
AM_0
 10
446.95187481172752
 20
488.19975398172079
 30
0.0
 40
10.0
  1
VX02-005S~VX02-030S
  0
ENDSEC
  0
EOF
