  0
SECTION
  2
HEADER
  9
$ACADVER
  1
AC1009
  9
$INSBASE
 10
0.0
 20
0.0
 30
0.0
  9
$EXTMIN
 10
72.543536867964804
 20
188.0798343947551
 30
-0.0015258207003583
  9
$EXTMAX
 10
666.11248705268076
 20
582.4981242880574
 30
0.0000000349246037
  9
$LIMMIN
 10
0.0
 20
0.0
  9
$LIMMAX
 10
853.5
 20
555.00000000000011
  9
$ORTHOMODE
 70
     0
  9
$REGENMODE
 70
     1
  9
$FILLMODE
 70
     1
  9
$QTEXTMODE
 70
     0
  9
$MIRRTEXT
 70
     1
  9
$DRAGMODE
 70
     2
  9
$LTSCALE
 40
3.0
  9
$OSMODE
 70
   551
  9
$ATTMODE
 70
     1
  9
$TEXTSIZE
 40
2.5
  9
$TRACEWID
 40
1.0
  9
$TEXTSTYLE
  7
STANDARD
  9
$CLAYER
  8
AM_0
  9
$CELTYPE
  6
BYLAYER
  9
$CECOLOR
 62
   256
  9
$DIMSCALE
 40
1.0
  9
$DIMASZ
 40
2.5
  9
$DIMEXO
 40
1.0
  9
$DIMDLI
 40
8.0
  9
$DIMRND
 40
0.0
  9
$DIMDLE
 40
0.0
  9
$DIMEXE
 40
0.6
  9
$DIMTP
 40
0.1
  9
$DIMTM
 40
0.1
  9
$DIMTXT
 40
2.5
  9
$DIMCEN
 40
0.0
  9
$DIMTSZ
 40
0.0
  9
$DIMTOL
 70
     0
  9
$DIMLIM
 70
     0
  9
$DIMTIH
 70
     0
  9
$DIMTOH
 70
     0
  9
$DIMSE1
 70
     0
  9
$DIMSE2
 70
     0
  9
$DIMTAD
 70
     1
  9
$DIMZIN
 70
     8
  9
$DIMBLK
  1

  9
$DIMASO
 70
     1
  9
$DIMSHO
 70
     1
  9
$DIMPOST
  1

  9
$DIMAPOST
  1
"
  9
$DIMALT
 70
     0
  9
$DIMALTD
 70
     2
  9
$DIMALTF
 40
0.0393701
  9
$DIMLFAC
 40
1.0
  9
$DIMTOFL
 70
     1
  9
$DIMTVP
 40
0.0
  9
$DIMTIX
 70
     0
  9
$DIMSOXD
 70
     0
  9
$DIMSAH
 70
     0
  9
$DIMBLK1
  1

  9
$DIMBLK2
  1

  9
$DIMSTYLE
  2
AM_ISO
  9
$DIMCLRD
 70
   256
  9
$DIMCLRE
 70
   256
  9
$DIMCLRT
 70
     4
  9
$DIMTFAC
 40
0.71
  9
$DIMGAP
 40
0.8
  9
$LUNITS
 70
     2
  9
$LUPREC
 70
     2
  9
$SKETCHINC
 40
1.0
  9
$FILLETRAD
 40
15.0
  9
$AUNITS
 70
     0
  9
$AUPREC
 70
     0
  9
$MENU
  1
.
  9
$ELEVATION
 40
0.0
  9
$PELEVATION
 40
0.0
  9
$THICKNESS
 40
0.0
  9
$LIMCHECK
 70
     0
  9
$BLIPMODE
 70
     0
  9
$CHAMFERA
 40
6.0
  9
$CHAMFERB
 40
3.0
  9
$SKPOLY
 70
     0
  9
$TDCREATE
 40
2452065.7341532758
  9
$TDUPDATE
 40
2458541.5665480788
  9
$TDINDWG
 40
0.0715974653
  9
$TDUSRTIMER
 40
0.0715974421
  9
$USRTIMER
 70
     1
  9
$ANGBASE
 50
0.0
  9
$ANGDIR
 70
     0
  9
$PDMODE
 70
     0
  9
$PDSIZE
 40
0.0
  9
$PLINEWID
 40
0.0
  9
$COORDS
 70
     1
  9
$SPLFRAME
 70
     0
  9
$SPLINETYPE
 70
     6
  9
$SPLINESEGS
 70
     8
  9
$ATTDIA
 70
     1
  9
$ATTREQ
 70
     1
  9
$HANDLING
 70
     1
  9
$HANDSEED
  5
396A
  9
$SURFTAB1
 70
     6
  9
$SURFTAB2
 70
     6
  9
$SURFTYPE
 70
     6
  9
$SURFU
 70
     6
  9
$SURFV
 70
     6
  9
$UCSNAME
  2

  9
$UCSORG
 10
0.0
 20
0.0
 30
0.0
  9
$UCSXDIR
 10
1.0
 20
0.0
 30
0.0
  9
$UCSYDIR
 10
0.0
 20
1.0
 30
0.0
  9
$PUCSNAME
  2

  9
$PUCSORG
 10
0.0
 20
0.0
 30
0.0
  9
$PUCSXDIR
 10
1.0
 20
0.0
 30
0.0
  9
$PUCSYDIR
 10
0.0
 20
1.0
 30
0.0
  9
$USERI1
 70
     0
  9
$USERI2
 70
     0
  9
$USERI3
 70
     0
  9
$USERI4
 70
     0
  9
$USERI5
 70
     0
  9
$USERR1
 40
0.0
  9
$USERR2
 40
0.0
  9
$USERR3
 40
0.0
  9
$USERR4
 40
0.0
  9
$USERR5
 40
0.0
  9
$WORLDVIEW
 70
     1
  9
$SHADEDGE
 70
     3
  9
$SHADEDIF
 70
    70
  9
$TILEMODE
 70
     1
  9
$MAXACTVP
 70
    64
  9
$PLIMCHECK
 70
     0
  9
$PEXTMIN
 10
1.0000000000000000E+020
 20
1.0000000000000000E+020
 30
1.0000000000000000E+020
  9
$PEXTMAX
 10
-1.0000000000000000E+020
 20
-1.0000000000000000E+020
 30
-1.0000000000000000E+020
  9
$PLIMMIN
 10
0.0
 20
0.0
  9
$PLIMMAX
 10
420.0
 20
297.0
  9
$UNITMODE
 70
     0
  9
$VISRETAIN
 70
     1
  9
$PLINEGEN
 70
     0
  9
$PSLTSCALE
 70
     1
  0
ENDSEC
  0
SECTION
  2
TABLES
  0
TABLE
  2
VPORT
 70
     1
  0
VPORT
  2
*ACTIVE
 70
     0
 10
0.0
 20
0.0
 11
1.0
 21
1.0
 12
369.32801196032278
 22
385.28897934140628
 13
0.0
 23
0.0
 14
7.5
 24
7.5
 15
30.0
 25
30.0
 16
0.0
 26
0.0
 36
1.0
 17
0.0
 27
0.0
 37
0.0
 40
397.12596694062472
 41
1.7571592210767459
 42
50.0
 43
0.0
 44
0.0
 50
0.0
 51
0.0
 71
     0
 72
   100
 73
     1
 74
     3
 75
     0
 76
     0
 77
     0
 78
     0
  0
ENDTAB
  0
TABLE
  2
LTYPE
 70
    20
  0
LTYPE
  2
CONTINUOUS
 70
     0
  3
Solid line
 72
    65
 73
     0
 40
0.0
  0
LTYPE
  2
AM_ISO02W050
 70
     0
  3
__ __ __ __ __ __ __ __ __ __ __ __ __ __ __
 72
    65
 73
     2
 40
7.5
 49
6.0
 49
-1.5
  0
LTYPE
  2
AM_ISO08W050
 70
     0
  3
____ . ____ . ____ . ____ . ____ . ____ . ____
 72
    65
 73
     4
 40
18.0
 49
12.0
 49
-1.5
 49
3.0
 49
-1.5
  0
LTYPE
  2
AM_ISO09W050
 70
     0
  3
_____ . . _____ . . _____ . . ____ .. ____
 72
    65
 73
     6
 40
22.5
 49
12.0
 49
-1.5
 49
3.0
 49
-1.5
 49
3.0
 49
-1.5
  0
LTYPE
  2
AMCONSTR
 70
     0
  3
_______________________
 72
    65
 73
     2
 40
9999.0
 49
9999.0
 49
0.0
  0
LTYPE
  2
AM_ISO08W050X2
 70
     0
  3
__ . __ . __ . __ . __ . __
 72
    65
 73
     4
 40
9.0
 49
6.0
 49
-0.75
 49
1.5
 49
-0.75
  0
LTYPE
  2
AM_ISO02W050X2
 70
     0
  3
 _ _ _ _ _ _ _ _ _ _ _ _
 72
    65
 73
     2
 40
3.75
 49
3.0
 49
-0.75
  0
LTYPE
  2
AMZIGZAG
 70
     0
  3
/\/-/\/-/\/-/\/-/\/-/\/
 72
    65
 73
     2
 40
11.0001
 49
0.0001
 49
-11.0
  0
LTYPE
  2
CENTER
 70
     0
  3
__ . __
 72
    65
 73
     4
 40
7.0
 49
4.0
 49
-1.0
 49
1.0
 49
-1.0
  0
LTYPE
  2
PHANTOM2
 70
     0
  3
Phantom (.5x) ___ _ _ ___ _ _ ___ _ _ ___ _ _
 72
    65
 73
     6
 40
31.75
 49
15.875
 49
-3.174999999999998
 49
3.174999999999998
 49
-3.174999999999998
 49
3.174999999999998
 49
-3.174999999999998
  0
LTYPE
  2
GEN3B
 70
     0
  3
 - - - - -
 72
    65
 73
     2
 40
1.0
 49
0.5
 49
-0.5
  0
LTYPE
  2
GEN7A
 70
     0
  3
__ . __ . __
 72
    65
 73
     4
 40
7.375
 49
4.75
 49
-0.875
 49
0.875
 49
-0.875
  0
LTYPE
  2
GEN7
 70
     0
  3
____ . ____ . ____ . ____ . ____ . ____ . ____
 72
    65
 73
     4
 40
14.25
 49
9.75
 49
-1.5
 49
1.5
 49
-1.5
  0
LTYPE
  2
HIDDEN
 70
     0
  3
Hidden __ __ __ __ __ __ __ __ __ __ __ __ __ _
 72
    65
 73
     2
 40
9.5249999999999986
 49
6.349999999999997
 49
-3.174999999999998
  0
LTYPE
  2
CENTER2
 70
     0
  3
Center (.5x) ___ _ ___ _ ___ _ ___ _ ___ _ ___
 72
    65
 73
     4
 40
1.125
 49
0.75
 49
-0.125
 49
0.125
 49
-0.125
  0
LTYPE
  2
HIDDEN2
 70
     0
  3
Hidden (.5x) _ _ _ _ _ _ _ _ _ _ _ _ _ _ _ _ _
 72
    65
 73
     2
 40
0.1875
 49
0.125
 49
-0.0625
  0
LTYPE
  2
AMZIGZAG2
 70
     0
  3
/\/-/\/-/\/-/\/-/\/-/\/
 72
    65
 73
     2
 40
0.4401
 49
0.0001
 49
-0.4400000000000001
  0
LTYPE
  2
ACANSTGB
 70
     0
  3
__ . . __ . .
 72
    65
 73
     6
 40
0.35433070866
 49
0.15748031496
 49
-0.03937007874
 49
0.03937007874
 49
-0.03937007874
 49
0.03937007874
 49
-0.03937007874
  0
LTYPE
  2
ACANSTGL
 70
     0
  3
_ _ _ _ _
 72
    65
 73
     2
 40
0.11811023622
 49
0.07874015748
 49
-0.03937007874
  0
ENDTAB
  0
TABLE
  2
LAYER
 70
    11
  0
LAYER
  2
0
 70
     0
 62
     7
  6
CONTINUOUS
  0
LAYER
  2
AM_0
 70
     0
 62
     7
  6
CONTINUOUS
  0
LAYER
  2
DEFPOINTS
 70
     0
 62
     7
  6
CONTINUOUS
  0
LAYER
  2
ｶｸﾚｾﾝ2
 70
     0
 62
     3
  6
GEN3B
  0
LAYER
  2
ﾁｭｳｼﾝｾﾝ1
 70
     0
 62
     1
  6
GEN7A
  0
LAYER
  2
AM_0N
 70
     0
 62
     7
  6
CONTINUOUS
  0
LAYER
  2
AM_3N
 70
     0
 62
     3
  6
AM_ISO02W050
  0
LAYER
  2
AM_5
 70
     0
 62
     2
  6
CONTINUOUS
  0
LAYER
  2
ｽﾝﾎ_ｳｾﾝ
 70
     0
 62
     2
  6
CONTINUOUS
  0
LAYER
  2
ﾁｭｳｼﾝｾﾝ
 70
     0
 62
     1
  6
GEN7
  0
LAYER
  2
AM_4
 70
     0
 62
     2
  6
CONTINUOUS
  0
ENDTAB
  0
TABLE
  2
STYLE
 70
     5
  0
STYLE
  2
STANDARD
 70
     0
 40
0.0
 41
0.8299999999999999
 50
0.0
 71
     0
 42
2.5
  3
txt.shx
  4
bigfont.shx
  0
STYLE
  2
ANNOTATIVE
 70
     0
 40
0.0
 41
1.0
 50
0.0
 71
     0
 42
0.2
  3
txt
  4

  0
STYLE
  2

 70
     1
 40
0.0
 41
1.0
 50
0.0
 71
     0
 42
2.5
  3
genltshp.shx
  4

  0
STYLE
  2
ACANSTS
 70
     0
 40
0.0
 41
1.0
 50
0.0
 71
     0
 42
2.5
  3
romans.shx
  4
extfont.shx
  0
STYLE
  2
ACANSGDT
 70
     0
 40
0.0
 41
1.0
 50
0.0
 71
     0
 42
2.5
  3
amgdt.shx
  4

  0
ENDTAB
  0
TABLE
  2
VIEW
 70
     6
  0
VIEW
  2
AM_VIEW1
 70
     0
 40
277.50000000000011
 10
249.64779005524869
 20
416.24999999999989
 41
499.2955801104971
 11
0.0
 21
0.0
 31
1.0
 12
0.0
 22
0.0
 32
0.0
 42
50.0
 43
0.0
 44
0.0
 50
0.0
 71
     0
  0
VIEW
  2
AM_VIEW2
 70
     0
 40
277.50000000000011
 10
603.85220994475117
 20
416.24999999999989
 41
499.2955801104971
 11
0.0
 21
0.0
 31
1.0
 12
0.0
 22
0.0
 32
0.0
 42
50.0
 43
0.0
 44
0.0
 50
0.0
 71
     0
  0
VIEW
  2
AM_VIEW3
 70
     0
 40
277.50000000000011
 10
249.64779005524869
 20
138.75
 41
499.2955801104971
 11
0.0
 21
0.0
 31
1.0
 12
0.0
 22
0.0
 32
0.0
 42
50.0
 43
0.0
 44
0.0
 50
0.0
 71
     0
  0
VIEW
  2
AM_VIEW4
 70
     0
 40
277.50000000000011
 10
603.85220994475117
 20
138.75
 41
499.2955801104971
 11
0.0
 21
0.0
 31
1.0
 12
0.0
 22
0.0
 32
0.0
 42
50.0
 43
0.0
 44
0.0
 50
0.0
 71
     0
  0
VIEW
  2
AM_VIEW5
 70
     0
 40
277.50000000000011
 10
426.75
 20
277.50000000000011
 41
499.2955801104971
 11
0.0
 21
0.0
 31
1.0
 12
0.0
 22
0.0
 32
0.0
 42
50.0
 43
0.0
 44
0.0
 50
0.0
 71
     0
  0
VIEW
  2
AM_VIEW6
 70
     0
 40
554.99445000000014
 10
426.75
 20
277.5
 41
998.5811743093924
 11
0.0
 21
0.0
 31
1.0
 12
0.0
 22
0.0
 32
0.0
 42
50.0
 43
0.0
 44
0.0
 50
0.0
 71
     0
  0
ENDTAB
  0
TABLE
  2
UCS
 70
     0
  0
ENDTAB
  0
TABLE
  2
APPID
 70
    97
  0
APPID
  2
ACAD
 70
     0
  0
APPID
  2
ACADANNOTATIVE
 70
     0
  0
APPID
  2
MCAD_NO_VIS
 70
     0
  0
APPID
  2
ACAD_TEMP_GRAPHIC
 70
     0
  0
APPID
  2
ACATTRIBSERVICES
 70
     0
  0
APPID
  2
GENIUS_GENREC_14
 70
     0
  0
APPID
  2
GENIUS_GENOBJ-N-REC_13
 70
     0
  0
APPID
  2
GENIUS_GENODEF_13
 70
     0
  0
APPID
  2
GENIUS_GENOLIS_13
 70
     0
  0
APPID
  2
GENIUS_GENOBJ-N-TIT_13
 70
     0
  0
APPID
  2
GENIUS_GENOENT_13
 70
     0
  0
APPID
  2
GENIUS_GENTITLE_13
 70
     0
  0
APPID
  2
GENIUS_GENOREF_13
 70
     0
  0
APPID
  2
GENIUS_GENSCREG_15
 70
     0
  0
APPID
  2
GENIUS_GENOBJ-N-SDF_13
 70
     0
  0
APPID
  2
GENIUS_GENFIL_13
 70
     0
  0
APPID
  2
GENIUS_GENOBJ-N-CHA_13
 70
     0
  0
APPID
  2
GENIUS_GENDTOL_13
 70
     0
  0
APPID
  2
GENIUS_GENOBJ-N-FIL_13
 70
     0
  0
APPID
  2
AD_DRAW
 70
     0
  0
APPID
  2
DESIGNERASSEMBLIES
 70
     0
  0
APPID
  2
ASURF_PCURVE_APPNAME
 70
     0
  0
APPID
  2
GENIUS_GE3SECT_13
 70
     0
  0
APPID
  2
GENIUS_GENCFG_13
 70
     0
  0
APPID
  2
GENIUS_GE3CFG0_13
 70
     0
  0
APPID
  2
GENIUS_GENCFG0_13
 70
     0
  0
APPID
  2
GENIUS_GENCFG1_13
 70
     0
  0
APPID
  2
GENIUS_GENCFG2_13
 70
     0
  0
APPID
  2
GENIUS_GENCFG3_13
 70
     0
  0
APPID
  2
GENIUS_GENCFG4_13
 70
     0
  0
APPID
  2
GENIUS_GEVCFG0_13
 70
     0
  0
APPID
  2
GENIUS_GENHINW_13
 70
     0
  0
APPID
  2
GENIUS_FIRSTVISTXT_14
 70
     0
  0
APPID
  2
GENIUS_GENOBJ-N-LEADER_13
 70
     0
  0
APPID
  2
GEV_VCCNULL_SWITCH_OFF
 70
     0
  0
APPID
  2
GENIUS_GEFCFG0_13
 70
     0
  0
APPID
  2
GENIUS_GENZVEED_13
 70
     0
  0
APPID
  2
GENIUS_GENSCREG_13
 70
     0
  0
APPID
  2
GENIUS_DUMCFG0_13
 70
     0
  0
APPID
  2
GEVID936201362
 70
     0
  0
APPID
  2
GEVDC
 70
     0
  0
APPID
  2
GEVCON
 70
     0
  0
APPID
  2
VCC
 70
     0
  0
APPID
  2
GEVPT
 70
     0
  0
APPID
  2
GEVIT
 70
     0
  0
APPID
  2
GENBH
 70
     0
  0
APPID
  2
GEVMK
 70
     0
  0
APPID
  2
GENIUS_GENBH_13
 70
     0
  0
APPID
  2
GENIUS_GENOBJ-NBEHI-BHF_13
 70
     0
  0
APPID
  2
GENIUS_GENOBJ-NBEHI-BHB_13
 70
     0
  0
APPID
  2
GENIUS_GENOBJ-F-DESC_13
 70
     0
  0
APPID
  2
GENIUS_GEFDESC_14
 70
     0
  0
APPID
  2
GENIUS_GENOBJ-F-PART_13
 70
     0
  0
APPID
  2
GENIUS_GEFSTDP_13
 70
     0
  0
APPID
  2
GENIUS_GEFPARTINS_13
 70
     0
  0
APPID
  2
GENIUS_GENTRA_14
 70
     0
  0
APPID
  2
GENIUS_GENINF13_13
 70
     0
  0
APPID
  2
GENIUS_GENOBJ-N-INFOPT_13
 70
     0
  0
APPID
  2
GENIUS_GENOBJ-N-RSSYM_13
 70
     0
  0
APPID
  2
GENIUS_GENSYMENT_13
 70
     0
  0
APPID
  2
GENIUS_GENSCSYM_13
 70
     0
  0
APPID
  2
GENIUS_GEFINFNAM_13
 70
     0
  0
APPID
  2
GENIUS_GENOBJ-N-CEN_13
 70
     0
  0
APPID
  2
GENIUS_GENOBJ-N-CRS_13
 70
     0
  0
APPID
  2
GENIUS_GENOBJ-N-CRC_13
 70
     0
  0
APPID
  2
GENIUS_GENCRC_14
 70
     0
  0
APPID
  2
GEVID942827039
 70
     0
  0
APPID
  2
GEVID942827040
 70
     0
  0
APPID
  2
GEVID942827041
 70
     0
  0
APPID
  2
GENIUS_GENOBJ-F-SCPASSM_13
 70
     0
  0
APPID
  2
GENIUS_GENDIMSH_14
 70
     0
  0
APPID
  2
GEVID942827042
 70
     0
  0
APPID
  2
GEVID946020473
 70
     0
  0
APPID
  2
GEVID946020474
 70
     0
  0
APPID
  2
GEVID946020475
 70
     0
  0
APPID
  2
GENIUS_GENOBJ-N-HTC_13
 70
     0
  0
APPID
  2
GENIUS_GENHATCH_13
 70
     0
  0
APPID
  2
GEVID948854295
 70
     0
  0
APPID
  2
GEVID939402019
 70
     0
  0
APPID
  2
GEVID952919491
 70
     0
  0
APPID
  2
GEVID952919492
 70
     0
  0
APPID
  2
GENIUS_GEFWELD_13
 70
     0
  0
APPID
  2
GENIUS_GENOBJ-F-WELS_13
 70
     0
  0
APPID
  2
GEVID952919493
 70
     0
  0
APPID
  2
GENIUS_GENOBJ-N-RSBK_13
 70
     0
  0
APPID
  2
GENIUS_GENOBJ-N-LIB_13
 70
     0
  0
APPID
  2
GENIUS_GENSCALE_13
 70
     0
  0
APPID
  2
GEVID986376691
 70
     0
  0
APPID
  2
DCO15
 70
     0
  0
APPID
  2
ACADM_DIM_EDIT
 70
     0
  0
APPID
  2
AMDT_DM_ADJ
 70
     0
  0
APPID
  2
ACAD_DSTYLE_DIMJAG
 70
     0
  0
APPID
  2
ACAD_DSTYLE_DIMBREAK
 70
     0
  0
APPID
  2
ACAD_NAV_VCDISPLAY
 70
     0
  0
APPID
  2
ACADANNOPO
 70
     0
  0
APPID
  2
ACAD_EXEMPT_FROM_CAD_STANDARDS
 70
     0
  0
APPID
  2
ACAD_MLEADERVER
 70
     0
  0
ENDTAB
  0
TABLE
  2
DIMSTYLE
 70
     9
  0
DIMSTYLE
  2
STANDARD
 70
     0
  3

  4

  5

  6

  7

 40
1.0
 41
0.18
 42
0.0625
 43
0.38
 44
0.18
 45
0.0
 46
0.0
 47
0.0
 48
0.0
140
0.18
141
0.09
142
0.0
143
25.399999999999999
144
1.0
145
0.0
146
1.0
147
0.09
 71
     0
 72
     0
 73
     1
 74
     1
 75
     0
 76
     0
 77
     0
 78
     0
170
     0
171
     2
172
     0
173
     0
174
     0
175
     0
176
     0
177
     0
178
     0
  0
DIMSTYLE
  2
ANNOTATIVE
 70
     0
  3

  4

  5

  6

  7

 40
1.0
 41
0.18
 42
0.0625
 43
0.38
 44
0.18
 45
0.0
 46
0.0
 47
0.0
 48
0.0
140
0.18
141
0.09
142
0.0
143
25.399999999999999
144
1.0
145
0.0
146
1.0
147
0.09
 71
     0
 72
     0
 73
     1
 74
     1
 75
     0
 76
     0
 77
     0
 78
     0
170
     0
171
     2
172
     0
173
     0
174
     0
175
     0
176
     0
177
     0
178
     0
  0
DIMSTYLE
  2
AM_ISO
 70
     0
  3

  4
"
  5

  6

  7

 40
1.0
 41
2.5
 42
1.0
 43
8.0
 44
0.6
 45
0.0
 46
0.0
 47
0.1
 48
0.1
140
2.5
141
0.0
142
0.0
143
0.0393701
144
1.0
145
0.0
146
0.71
147
0.8
 71
     0
 72
     0
 73
     0
 74
     0
 75
     0
 76
     0
 77
     1
 78
     8
170
     0
171
     2
172
     1
173
     0
174
     0
175
     0
176
   256
177
   256
178
     4
  0
DIMSTYLE
  2
AM_ANSI
 70
     0
  3

  4
mm
  5

  6

  7

 40
1.0
 41
0.12
 42
0.05
 43
0.5
 44
0.1
 45
0.0
 46
0.0
 47
0.1
 48
0.1
140
0.12
141
0.0
142
0.0
143
25.399999999999999
144
1.0
145
0.0
146
0.71
147
0.06
 71
     0
 72
     0
 73
     1
 74
     1
 75
     0
 76
     0
 77
     0
 78
     7
170
     0
171
     2
172
     0
173
     0
174
     0
175
     0
176
   256
177
   256
178
     2
  0
DIMSTYLE
  2
AM_ANSI$3
 70
     0
  3

  4
mm
  5

  6

  7

 40
1.0
 41
0.12
 42
0.05
 43
0.5
 44
0.1
 45
0.0
 46
0.0
 47
0.1
 48
0.1
140
0.12
141
0.0
142
0.0
143
25.399999999999999
144
1.0
145
0.0
146
0.71
147
0.06
 71
     0
 72
     0
 73
     1
 74
     1
 75
     0
 76
     0
 77
     0
 78
     7
170
     0
171
     2
172
     0
173
     0
174
     0
175
     0
176
   256
177
   256
178
     2
  0
DIMSTYLE
  2
AM_ANSI$4
 70
     0
  3

  4
mm
  5

  6

  7

 40
1.0
 41
0.12
 42
0.05
 43
0.5
 44
0.1
 45
0.0
 46
0.0
 47
0.1
 48
0.1
140
0.12
141
0.0
142
0.0
143
25.399999999999999
144
1.0
145
0.0
146
0.71
147
0.06
 71
     0
 72
     0
 73
     1
 74
     1
 75
     0
 76
     0
 77
     0
 78
     7
170
     0
171
     2
172
     0
173
     0
174
     0
175
     0
176
   256
177
   256
178
     2
  0
DIMSTYLE
  2
AM_ANSI$7
 70
     0
  3

  4
mm
  5

  6

  7

 40
1.0
 41
0.12
 42
0.05
 43
0.5
 44
0.1
 45
0.0
 46
0.0
 47
0.1
 48
0.1
140
0.12
141
0.0
142
0.0
143
25.399999999999999
144
1.0
145
0.0
146
0.71
147
0.06
 71
     0
 72
     0
 73
     1
 74
     1
 75
     0
 76
     0
 77
     0
 78
     7
170
     0
171
     2
172
     0
173
     0
174
     0
175
     0
176
   256
177
   256
178
     2
  0
DIMSTYLE
  2
AM_ANSI$SF
 70
     0
  3

  4
mm
  5

  6

  7

 40
1.0
 41
0.12
 42
0.05
 43
0.5
 44
0.1
 45
0.0
 46
0.0
 47
0.1
 48
0.1
140
0.12
141
0.0
142
0.0
143
25.399999999999999
144
1.0
145
0.0
146
0.71
147
0.06
 71
     0
 72
     0
 73
     1
 74
     1
 75
     1
 76
     1
 77
     0
 78
     7
170
     0
171
     2
172
     0
173
     0
174
     0
175
     0
176
   256
177
   256
178
     2
  0
DIMSTYLE
  2
AM_ANSI$SH
 70
     0
  3

  4
mm
  5

  6
GENAXEH
  7

 40
1.0
 41
0.12
 42
0.05
 43
0.5
 44
0.1
 45
0.0
 46
0.0
 47
0.1
 48
0.1
140
0.12
141
0.0
142
0.0
143
25.399999999999999
144
1.0
145
0.0
146
0.71
147
0.06
 71
     0
 72
     0
 73
     1
 74
     1
 75
     1
 76
     1
 77
     0
 78
     7
170
     0
171
     2
172
     0
173
     1
174
     0
175
     0
176
   256
177
   256
178
     2
  0
ENDTAB
  0
ENDSEC
  0
SECTION
  2
BLOCKS
  0
BLOCK
  8
0
  2
$MODEL_SPACE
 70
     0
 10
0.0
 20
0.0
 30
0.0
  3
$MODEL_SPACE
  1

  0
ENDBLK
  5
37F8
  8
0
  0
BLOCK
 67
     1
  8
0
  2
$PAPER_SPACE
 70
     0
 10
0.0
 20
0.0
 30
0.0
  3
$PAPER_SPACE
  1

  0
ENDBLK
  5
37F4
 67
     1
  8
0
  0
BLOCK
  8
0
  2
*U2
 70
     1
 10
0.0
 20
0.0
 30
0.0
  3
*U2
  1

  0
TEXT
  5
3646
  8
AM_0
 10
526.2950658356873
 20
174.1704695224829
 30
0.0
 40
8.0
  1
VX02-060S
 41
0.8299999999999999
  0
ENDBLK
  5
3648
  8
0
  0
BLOCK
  8
0
  2
GENAXEH
 70
     0
 10
0.0
 20
0.0
 30
0.0
  3
GENAXEH
  1

  0
LINE
  5
38C9
  8
0
 10
-1.0
 20
0.0
 30
0.0
 11
1.0
 21
0.0
 31
0.0
  0
ENDBLK
  5
38CB
  8
0
  0
BLOCK
  8
0
  2
_ACMFILLEDHALF
 70
     0
 10
0.0
 20
0.0
 30
0.0
  3
_ACMFILLEDHALF
  1

  0
TRACE
  5
38D9
  8
AM_0
 62
     0
 10
-0.8
 20
0.0
 30
0.0
 11
-1.0
 21
0.166666666
 31
0.0
 12
0.0
 22
0.0
 32
0.0
 13
0.0
 23
0.0
 33
0.0
  0
LINE
  5
38DA
  8
AM_0
 62
     0
 10
-1.0
 20
0.0
 30
0.0
 11
-0.8
 21
0.0
 31
0.0
  0
ENDBLK
  5
38D8
  8
0
  0
ENDSEC
  0
SECTION
  2
ENTITIES
  0
LINE
  5
2724
  8
ﾁｭｳｼﾝｾﾝ1
 10
72.593988498693932
 20
504.48538409125598
 30
0.0
 11
407.60366499816092
 21
504.48538409125598
 31
0.0
  0
ARC
  5
28AF
  8
AM_0
 10
409.87271499816109
 20
504.48538409125598
 30
0.0
 40
101.48872
 50
151.89333000000019
 51
208.10666999999961
  0
LINE
  5
28B1
  8
AM_0
 10
287.38400499816129
 20
435.61700409125598
 30
0.0
 11
287.38400499816129
 21
573.35375409125606
 31
0.0
  0
LINE
  5
28B2
  8
AM_0
 10
308.38400499816117
 20
454.41815409125599
 30
0.0
 11
308.38400499816117
 21
554.55261409125592
 31
0.0
  0
LINE
  5
28B5
  8
AM_0
 10
343.38400499816117
 20
454.23437409125597
 30
0.0
 11
343.38400499816117
 21
554.73638409125567
 31
0.0
  0
LINE
  5
28B6
  8
AM_0
 10
359.38397499816108
 20
478.95104409125599
 30
0.0
 11
359.38397499816108
 21
530.01968409125595
 31
0.0
  0
LINE
  5
28B7
  8
AM_0
 10
356.38397499816108
 20
554.03033409125601
 30
0.0
 11
356.38397499816108
 21
454.94042409125598
 31
0.0
  0
LINE
  5
28B8
  8
AM_0
 10
294.38397499816119
 20
575.48538409125604
 30
0.0
 11
294.38397499816119
 21
433.48538409125598
 31
0.0
  0
LINE
  5
28B9
  8
AM_0
 10
361.3839449981611
 20
516.98535409125589
 30
0.0
 11
361.3839449981611
 21
491.98541409125602
 31
0.0
  0
LINE
  5
28BA
  8
AM_0
 10
401.38397499816091
 20
516.48538409125604
 30
0.0
 11
401.38397499816091
 21
492.48538409125598
 31
0.0
  0
ARC
  5
28BB
  8
AM_0
 10
335.38397499816119
 20
432.48217409125601
 30
0.0
 40
5.0
 50
180.00001000000091
 51
271.49999999999949
  0
ARC
  5
28BC
  8
AM_0
 10
335.38397499816119
 20
445.76635409125601
 30
0.0
 40
5.0
 50
95.00000199999856
 51
180.00001000000091
  0
LINE
  5
28BD
  8
AM_0
 10
340.46255499816118
 20
457.46087409125602
 30
0.0
 11
321.96594499816121
 21
456.97650409125589
 31
0.0
  0
LINE
  5
28BE
  8
AM_0
 10
297.38400499816117
 20
426.48538409125598
 30
0.0
 11
357.43633499816121
 21
428.05792409125598
 31
0.0
  0
LINE
  5
28BF
  8
AM_0
 10
297.38397499816119
 20
430.34133409125599
 30
0.0
 11
290.38397499816119
 21
426.66867409125598
 31
0.0
  0
LINE
  5
28C0
  8
AM_0
 10
290.38397499816119
 20
426.66870409125602
 30
0.0
 11
290.38397499816119
 21
431.18579409125601
 31
0.0
  0
LINE
  5
28C1
  8
AM_0
 10
265.38397499816119
 20
429.2716640912559
 30
0.0
 11
265.38397499816119
 21
448.249694091256
 31
0.0
  0
LINE
  5
28C2
  8
AM_0
 10
267.33163499816118
 20
427.27233409125603
 30
0.0
 11
297.38397499816119
 21
426.48541409125602
 31
0.0
  0
ARC
  5
28C3
  8
AM_0
 10
267.38397499816119
 20
429.2716640912559
 30
0.0
 40
2.0
 50
180.00001000000091
 51
268.5000000000004
  0
LINE
  5
28C4
  8
AM_0
 10
256.38400499816117
 20
472.54544409125589
 30
0.0
 11
287.38400499816129
 21
472.54544409125589
 31
0.0
  0
LINE
  5
28C5
  8
AM_0
 10
284.38397499816119
 20
439.27410409125599
 30
0.0
 11
285.38400499816129
 21
439.27410409125599
 31
0.0
  0
LINE
  5
28C6
  8
AM_0
 10
256.38400499816117
 20
458.48507409125602
 30
0.0
 11
287.38400499816129
 21
458.48507409125602
 31
0.0
  0
LINE
  5
28C9
  8
AM_0
 10
282.38400499816117
 20
447.80453409125602
 30
0.0
 11
256.38403499816121
 21
448.48538409125598
 31
0.0
  0
LINE
  5
28D0
  8
AM_0
 10
282.38397499816119
 20
441.27410409125599
 30
0.0
 11
282.38397499816119
 21
456.48507409125602
 31
0.0
  0
ARC
  5
28D2
  8
AM_0
 10
277.38397499816119
 20
439.48538409125598
 30
0.0
 40
6.0
 50
33.5572999999982
 51
0.5425182800010755
  0
ARC
  5
28D3
  8
AM_0
 10
284.38397499816119
 20
441.27410409125599
 30
0.0
 40
2.0
 50
180.00001000000091
 51
270.0
  0
ARC
  5
28D4
  8
AM_0
 10
280.38397499816119
 20
456.48507409125602
 30
0.0
 40
2.0
 50
0.0
 51
90.000003000000945
  0
ARC
  5
28DB
  8
AM_0
 10
306.98895499816132
 20
438.81716409125602
 30
0.0
 40
5.0
 50
271.49999999999949
 51
299.88701999999921
  0
LINE
  5
28DC
  8
AM_0
 10
308.38400499816117
 20
454.41815409125599
 30
0.0
 11
321.96597499816119
 21
456.97650409125589
 31
0.0
  0
LINE
  5
28DD
  8
AM_0
 10
306.38397499816119
 20
451.9474440912561
 30
0.0
 11
309.38397499816119
 21
451.9474440912561
 31
0.0
  0
LINE
  5
28DE
  8
AM_0
 10
306.38397499816119
 20
440.40039409125598
 30
0.0
 11
309.38397499816119
 21
440.40039409125598
 31
0.0
  0
LINE
  5
28DF
  8
AM_0
 10
306.38397499816119
 20
443.28716409125599
 30
0.0
 11
309.38397499816119
 21
443.28716409125599
 31
0.0
  0
LINE
  5
28E0
  8
AM_0
 10
306.38397499816119
 20
449.060664091256
 30
0.0
 11
309.38397499816119
 21
449.060664091256
 31
0.0
  0
LINE
  5
28E1
  8
AM_0
 10
306.38397499816119
 20
452.9474440912561
 30
0.0
 11
306.38397499816119
 21
439.40039409125598
 31
0.0
  0
LINE
  5
28E2
  8
AM_0
 10
305.38397499816119
 20
454.41815409125599
 30
0.0
 11
305.38397499816119
 21
433.77343409125598
 31
0.0
  0
LINE
  5
28E3
  8
AM_0
 10
307.11984499816123
 20
433.81887409125602
 30
0.0
 11
294.38400499816117
 21
433.48538409125598
 31
0.0
  0
ARC
  5
28E4
  8
AM_0
 10
285.38400499816129
 20
437.27410409125599
 30
0.0
 40
2.0
 50
0.0
 51
90.000003000000945
  0
LINE
  5
28E5
  8
AM_0
 10
294.38400499816117
 20
433.48538409125598
 30
0.0
 11
289.33166499816122
 21
433.61770409125597
 31
0.0
  0
LINE
  5
28E6
  8
AM_0
 10
294.78701499816123
 20
433.49594409125598
 30
0.0
 11
290.38397499816119
 21
431.18579409125601
 31
0.0
  0
ARC
  5
28E7
  8
AM_0
 10
289.38400499816117
 20
435.61700409125598
 30
0.0
 40
2.0
 50
180.00001000000091
 51
268.5000000000004
  0
LINE
  5
28E8
  8
AM_0
 10
297.38397499816119
 20
433.56393409125599
 30
0.0
 11
297.38397499816119
 21
430.34136409125603
 31
0.0
  0
LINE
  5
28E9
  8
AM_0
 10
305.38397499816119
 20
439.40039409125598
 30
0.0
 11
306.38397499816119
 21
439.40039409125598
 31
0.0
  0
LINE
  5
28EA
  8
AM_0
 10
305.38397499816119
 20
454.41815409125599
 30
0.0
 11
308.38397499816119
 21
454.41815409125599
 31
0.0
  0
LINE
  5
28EB
  8
AM_0
 10
305.38397499816119
 20
452.9474440912561
 30
0.0
 11
306.38397499816119
 21
452.9474440912561
 31
0.0
  0
LINE
  5
28EC
  8
AM_0
 10
310.38394499816121
 20
441.40039409125598
 30
0.0
 11
310.38394499816121
 21
450.94741409125589
 31
0.0
  0
ARC
  5
28ED
  8
AM_0
 10
322.6086449981612
 20
436.26028409125598
 30
0.0
 40
5.0
 50
91.500001000001546
 51
119.8870199999991
  0
LINE
  5
28EE
  8
AM_0
 10
309.48040499816119
 20
434.48214409125598
 30
0.0
 11
320.1171549981612
 21
440.59533409125589
 31
0.0
  0
ARC
  5
28EF
  8
AM_0
 10
309.38397499816119
 20
444.28713409125589
 30
0.0
 40
1.0
 50
269.999989999999
 51
0.0000006832462478
  0
ARC
  5
28F0
  8
AM_0
 10
309.38397499816119
 20
441.40039409125598
 30
0.0
 40
1.0
 50
269.999989999999
 51
0.0000006832462478
  0
ARC
  5
28F1
  8
AM_0
 10
309.38397499816119
 20
442.28716409125599
 30
0.0
 40
1.0
 50
0.0
 51
90.000003000000945
  0
LINE
  5
28F2
  8
AM_0
 10
330.38397499816119
 20
432.48217409125601
 30
0.0
 11
330.38397499816119
 21
445.76635409125601
 31
0.0
  0
LINE
  5
28F3
  8
AM_0
 10
327.46249499816122
 20
441.38909409125603
 30
0.0
 11
322.47775499816117
 21
441.25857409125598
 31
0.0
  0
ARC
  5
28F4
  8
AM_0
 10
327.38397499816119
 20
444.38806409125601
 30
0.0
 40
3.0
 50
271.49999999999949
 51
0.0
  0
ARC
  5
28F5
  8
AM_0
 10
309.38397499816119
 20
450.06066409125589
 30
0.0
 40
1.0
 50
269.999989999999
 51
0.0000006832462478
  0
ARC
  5
28F6
  8
AM_0
 10
309.38397499816119
 20
448.060664091256
 30
0.0
 40
1.0
 50
0.0
 51
90.000003000000945
  0
ARC
  5
28F7
  8
AM_0
 10
309.38397499816119
 20
450.94741409125589
 30
0.0
 40
1.0
 50
0.0
 51
90.000003000000945
  0
ARC
  5
28F8
  8
AM_0
 10
357.38397499816108
 20
430.05721409125601
 30
0.0
 40
2.0
 50
271.49999999999949
 51
0.0
  0
LINE
  5
28F9
  8
AM_0
 10
361.3839449981611
 20
492.48538409125598
 30
0.0
 11
401.38397499816091
 21
492.48538409125598
 31
0.0
  0
LINE
  5
28FA
  8
AM_0
 10
357.43633499816121
 20
454.91287409125601
 30
0.0
 11
356.38400499816117
 21
454.94042409125598
 31
0.0
  0
CIRCLE
  5
28FC
  8
AM_0
 10
347.38397499816108
 20
439.48538409125598
 30
0.0
 40
6.0
  0
ARC
  5
28FE
  8
AM_0
 10
347.55801499816118
 20
450.69409409125598
 30
0.0
 40
5.0
 50
95.00000199999856
 51
153.73432999999969
  0
LINE
  5
28FF
  8
AM_0
 10
340.64547499816121
 20
451.24578409125598
 30
0.0
 11
334.9481849981612
 21
450.74734409125602
 31
0.0
  0
ARC
  5
2900
  8
AM_0
 10
340.38400499816117
 20
454.23437409125597
 30
0.0
 40
3.0
 50
274.99999999999972
 51
0.0
  0
ARC
  5
2901
  8
AM_0
 10
340.38400499816117
 20
460.45983409125603
 30
0.0
 40
3.0
 50
271.49999999999949
 51
0.0
  0
ARC
  5
2902
  8
AM_0
 10
351.38397499816108
 20
461.067014091256
 30
0.0
 40
5.0
 50
274.99999999999972
 51
0.0
  0
LINE
  5
2903
  8
AM_0
 10
351.81976499816119
 20
456.086084091256
 30
0.0
 11
347.12225499816122
 21
455.67510409125589
 31
0.0
  0
LINE
  5
2904
  8
AM_0
 10
359.38397499816108
 20
430.05721409125601
 30
0.0
 11
359.38397499816108
 21
452.91354409125597
 31
0.0
  0
ARC
  5
2905
  8
AM_0
 10
357.38397499816108
 20
452.91354409125597
 30
0.0
 40
2.0
 50
0.0
 51
88.499997000000747
  0
LINE
  5
2906
  8
AM_0
 10
357.34905499816108
 20
477.91433409125602
 30
0.0
 11
358.41885499816118
 21
477.951694091256
 31
0.0
  0
ARC
  5
2907
  8
AM_0
 10
357.38397499816108
 20
476.91491409125598
 30
0.0
 40
1.0
 50
91.999998000000545
 51
180.00001000000091
  0
ARC
  5
2908
  8
AM_0
 10
358.38397499816108
 20
478.95104409125599
 30
0.0
 40
1.0
 50
272.0000000000004
 51
0.0
  0
LINE
  5
2909
  8
AM_0
 10
359.38397499816108
 20
491.98541409125602
 30
0.0
 11
361.3839449981611
 21
491.98541409125602
 31
0.0
  0
ARC
  5
290A
  8
AM_0
 10
335.38397499816119
 20
576.48858409125592
 30
0.0
 40
5.0
 50
88.499997000000747
 51
180.00001000000091
  0
ARC
  5
290B
  8
AM_0
 10
335.38397499816119
 20
563.204374091256
 30
0.0
 40
5.0
 50
180.00001000000091
 51
265.00001000000071
  0
LINE
  5
290C
  8
AM_0
 10
340.46255499816118
 20
551.50991409125595
 30
0.0
 11
321.96597499816119
 21
551.99426409125579
 31
0.0
  0
LINE
  5
290D
  8
AM_0
 10
297.38400499816117
 20
582.48538409125604
 30
0.0
 11
357.43633499816121
 21
580.91287409125596
 31
0.0
  0
ARC
  5
290E
  8
AM_0
 10
284.38397499816119
 20
567.69668409125597
 30
0.0
 40
2.0
 50
90.000003000000945
 51
180.00001000000091
  0
ARC
  5
290F
  8
AM_0
 10
309.38397499816119
 20
567.5703740912561
 30
0.0
 40
1.0
 50
0.0
 51
90.000003000000945
  0
ARC
  5
2910
  8
AM_0
 10
277.38397499816119
 20
569.48538409125604
 30
0.0
 40
6.0
 50
359.4574799999985
 51
326.4427199999991
  0
LINE
  5
2911
  8
AM_0
 10
305.38397499816119
 20
554.55261409125592
 30
0.0
 11
305.38397499816119
 21
575.19732409125595
 31
0.0
  0
LINE
  5
2912
  8
AM_0
 10
306.38397499816119
 20
556.023314091256
 30
0.0
 11
306.38397499816119
 21
569.5703740912561
 31
0.0
  0
LINE
  5
2913
  8
AM_0
 10
309.48043499816117
 20
574.48864409125588
 30
0.0
 11
320.1171549981612
 21
568.37542409125604
 31
0.0
  0
LINE
  5
2914
  8
AM_0
 10
330.38397499816119
 20
563.204374091256
 30
0.0
 11
330.38397499816119
 21
576.48858409125592
 31
0.0
  0
LINE
  5
2916
  8
AM_0
 10
265.38397499816119
 20
579.69912409125595
 30
0.0
 11
265.38397499816119
 21
560.72106409125604
 31
0.0
  0
LINE
  5
2917
  8
AM_0
 10
256.38400499816117
 20
536.42532409125567
 30
0.0
 11
287.38400499816129
 21
536.42532409125567
 31
0.0
  0
LINE
  5
2918
  8
AM_0
 10
256.38400499816117
 20
550.48568409125585
 30
0.0
 11
287.38400499816129
 21
550.48568409125585
 31
0.0
  0
LINE
  5
291B
  8
AM_0
 10
282.38400499816117
 20
561.16619409125599
 30
0.0
 11
256.38403499816121
 21
560.48538409125604
 31
0.0
  0
ARC
  5
292E
  8
AM_0
 10
280.38397499816119
 20
552.48568409125585
 30
0.0
 40
2.0
 50
270.0
 51
0.0
  0
LINE
  5
292F
  8
AM_0
 10
282.38397499816119
 20
567.69668409125597
 30
0.0
 11
282.38397499816119
 21
552.48568409125585
 31
0.0
  0
LINE
  5
2930
  8
AM_0
 10
306.38397499816119
 20
559.91009409125604
 30
0.0
 11
309.38397499816119
 21
559.91009409125604
 31
0.0
  0
LINE
  5
2931
  8
AM_0
 10
306.38397499816119
 20
565.68359409125605
 30
0.0
 11
309.38397499816119
 21
565.68359409125605
 31
0.0
  0
LINE
  5
2932
  8
AM_0
 10
306.38397499816119
 20
568.57034409125595
 30
0.0
 11
309.38397499816119
 21
568.57034409125595
 31
0.0
  0
LINE
  5
2933
  8
AM_0
 10
306.38397499816119
 20
557.02334409125615
 30
0.0
 11
309.38397499816119
 21
557.02334409125615
 31
0.0
  0
LINE
  5
2934
  8
AM_0
 10
308.38397499816119
 20
554.55261409125592
 30
0.0
 11
321.96594499816121
 21
551.99426409125579
 31
0.0
  0
LINE
  5
2935
  8
AM_0
 10
305.38397499816119
 20
554.55261409125592
 30
0.0
 11
308.38397499816119
 21
554.55261409125592
 31
0.0
  0
LINE
  5
2936
  8
AM_0
 10
305.38397499816119
 20
556.023314091256
 30
0.0
 11
306.38397499816119
 21
556.023314091256
 31
0.0
  0
ARC
  5
2937
  8
AM_0
 10
322.6086449981612
 20
572.71047409125595
 30
0.0
 40
5.0
 50
240.1129800000009
 51
268.5000000000004
  0
ARC
  5
2938
  8
AM_0
 10
309.38397499816119
 20
560.91009409125604
 30
0.0
 40
1.0
 50
269.999989999999
 51
0.0000006832462478
  0
ARC
  5
2939
  8
AM_0
 10
309.38397499816119
 20
558.91009409125604
 30
0.0
 40
1.0
 50
0.0
 51
90.000003000000945
  0
LINE
  5
293A
  8
AM_0
 10
310.38394499816121
 20
567.5703740912561
 30
0.0
 11
310.38394499816121
 21
558.02334409125615
 31
0.0
  0
ARC
  5
293B
  8
AM_0
 10
309.38397499816119
 20
558.02334409125615
 30
0.0
 40
1.0
 50
269.999989999999
 51
0.0000006832462478
  0
ARC
  5
293C
  8
AM_0
 10
309.38397499816119
 20
566.68359409125605
 30
0.0
 40
1.0
 50
269.999989999999
 51
0.0000006832462478
  0
ARC
  5
293D
  8
AM_0
 10
309.38397499816119
 20
564.68362409125575
 30
0.0
 40
1.0
 50
0.0
 51
90.000003000000945
  0
LINE
  5
293E
  8
AM_0
 10
327.4625249981612
 20
567.58169409125605
 30
0.0
 11
322.47778499816121
 21
567.7122140912561
 31
0.0
  0
ARC
  5
293F
  8
AM_0
 10
327.38397499816119
 20
564.58270409125612
 30
0.0
 40
3.0
 50
0.0
 51
88.499997000000747
  0
LINE
  5
2940
  8
AM_0
 10
284.38397499816119
 20
569.69668409125575
 30
0.0
 11
285.38400499816129
 21
569.69668409125575
 31
0.0
  0
LINE
  5
2941
  8
AM_0
 10
267.33163499816118
 20
581.69842409125613
 30
0.0
 11
297.38397499816119
 21
582.48538409125604
 31
0.0
  0
ARC
  5
2943
  8
AM_0
 10
267.38397499816119
 20
579.69912409125595
 30
0.0
 40
2.0
 50
91.500001000001546
 51
180.00001000000091
  0
ARC
  5
2944
  8
AM_0
 10
306.98895499816132
 20
570.15359409125597
 30
0.0
 40
5.0
 50
60.112980000000888
 51
88.499997000000747
  0
LINE
  5
2945
  8
AM_0
 10
307.11984499816123
 20
575.15188409125597
 30
0.0
 11
294.38400499816117
 21
575.48538409125604
 31
0.0
  0
LINE
  5
2946
  8
AM_0
 10
297.38397499816119
 20
578.6293940912559
 30
0.0
 11
290.38397499816119
 21
582.30206409125606
 31
0.0
  0
LINE
  5
2947
  8
AM_0
 10
294.78701499816123
 20
575.4748240912561
 30
0.0
 11
290.38400499816117
 21
577.78494409125585
 31
0.0
  0
LINE
  5
2948
  8
AM_0
 10
294.38397499816119
 20
575.48538409125604
 30
0.0
 11
289.33166499816122
 21
575.35308409125605
 31
0.0
  0
ARC
  5
2949
  8
AM_0
 10
285.38400499816129
 20
571.69668409125597
 30
0.0
 40
2.0
 50
270.0
 51
0.0
  0
ARC
  5
294A
  8
AM_0
 10
289.38400499816117
 20
573.35375409125606
 30
0.0
 40
2.0
 50
91.500001000001546
 51
180.00001000000091
  0
LINE
  5
294B
  8
AM_0
 10
290.38397499816119
 20
582.30206409125606
 30
0.0
 11
290.38397499816119
 21
577.78497409125612
 31
0.0
  0
LINE
  5
294C
  8
AM_0
 10
297.38397499816119
 20
575.40682409125611
 30
0.0
 11
297.38397499816119
 21
578.6293940912559
 31
0.0
  0
LINE
  5
294D
  8
AM_0
 10
305.38397499816119
 20
569.5703740912561
 30
0.0
 11
306.38397499816119
 21
569.5703740912561
 31
0.0
  0
CIRCLE
  5
294E
  8
AM_0
 10
347.38397499816108
 20
569.48538409125604
 30
0.0
 40
6.0
  0
LINE
  5
294F
  8
ﾁｭｳｼﾝｾﾝ1
 10
347.38397499816108
 20
580.48538409125604
 30
0.0
 11
347.38397499816108
 21
558.48538409125604
 31
0.0
  0
LINE
  5
2950
  8
AM_0
 10
359.38397499816108
 20
578.91354409125563
 30
0.0
 11
359.38397499816108
 21
556.05721409125601
 31
0.0
  0
LINE
  5
2951
  8
AM_0
 10
369.38397499816119
 20
508.48535409125589
 30
0.0
 11
401.38397499816091
 21
508.48535409125589
 31
0.0
  0
LINE
  5
2952
  8
AM_0
 10
369.38397499816119
 20
500.48538409125598
 30
0.0
 11
401.38397499816091
 21
500.48538409125598
 31
0.0
  0
LINE
  5
2953
  8
AM_0
 10
361.3839449981611
 20
516.48538409125604
 30
0.0
 11
401.38397499816091
 21
516.48538409125604
 31
0.0
  0
LINE
  5
2954
  8
AM_0
 10
357.34909499816121
 20
531.05642409125608
 30
0.0
 11
358.41891499816109
 21
531.01907409125602
 31
0.0
  0
ARC
  5
2955
  8
AM_0
 10
357.38397499816108
 20
532.05584409125595
 30
0.0
 40
1.0
 50
180.00001000000091
 51
267.99999999999972
  0
ARC
  5
2956
  8
AM_0
 10
369.38397499816119
 20
504.48535409125589
 30
0.0
 40
3.9999962
 50
90.000003000000945
 51
270.0
  0
LINE
  5
2957
  8
AM_0
 10
369.38397499816119
 20
508.48535409125589
 30
0.0
 11
369.38397499816119
 21
500.48538409125598
 31
0.0
  0
LINE
  5
2958
  8
AM_0
 10
359.38397499816108
 20
516.98535409125589
 30
0.0
 11
361.3839449981611
 21
516.98535409125589
 31
0.0
  0
ARC
  5
2959
  8
AM_0
 10
358.38397499816108
 20
530.01968409125595
 30
0.0
 40
1.0
 50
0.0
 51
87.999999999999659
  0
LINE
  5
295A
  8
AM_0
 10
356.38397499816108
 20
554.03036409125593
 30
0.0
 11
357.43633499816121
 21
554.05792409125593
 31
0.0
  0
ARC
  5
295B
  8
AM_0
 10
340.38400499816117
 20
548.51092409125602
 30
0.0
 40
3.0
 50
0.0
 51
88.499997000000747
  0
ARC
  5
295C
  8
AM_0
 10
351.38397499816108
 20
547.90371409125589
 30
0.0
 40
5.0
 50
0.0
 51
85.000004000001198
  0
ARC
  5
295D
  8
AM_0
 10
347.55801499816118
 20
558.276644091256
 30
0.0
 40
5.0
 50
206.2656700000002
 51
265.00001000000071
  0
LINE
  5
295E
  8
AM_0
 10
340.64550499816119
 20
557.72494409125591
 30
0.0
 11
334.94824499816121
 21
558.22338409125587
 31
0.0
  0
ARC
  5
295F
  8
AM_0
 10
340.38400499816117
 20
554.73638409125567
 30
0.0
 40
3.0
 50
0.0
 51
85.000004000001198
  0
LINE
  5
2960
  8
AM_0
 10
351.81979499816123
 20
552.88470409125603
 30
0.0
 11
347.12228499816109
 21
553.29568409125602
 31
0.0
  0
ARC
  5
2961
  8
AM_0
 10
357.38397499816108
 20
556.05721409125601
 30
0.0
 40
2.0
 50
271.49999999999949
 51
0.0
  0
LINE
  5
2962
  8
ﾁｭｳｼﾝｾﾝ1
 10
336.38397499816119
 20
569.48538409125604
 30
0.0
 11
358.38397499816108
 21
569.48538409125604
 31
0.0
  0
ARC
  5
2963
  8
AM_0
 10
357.38397499816108
 20
578.91354409125563
 30
0.0
 40
2.0
 50
0.0
 51
88.499997000000747
  0
LINE
  5
29D3
  8
ﾁｭｳｼﾝｾﾝ1
 10
347.38397499816108
 20
450.48538409125598
 30
0.0
 11
347.38397499816108
 21
428.48538409125598
 31
0.0
  0
LINE
  5
29D4
  8
ﾁｭｳｼﾝｾﾝ1
 10
336.38397499816119
 20
439.48538409125598
 30
0.0
 11
358.38397499816108
 21
439.48538409125598
 31
0.0
  0
LINE
  5
29DB
  8
ﾁｭｳｼﾝｾﾝ1
 10
277.38397499816119
 20
450.48538409125598
 30
0.0
 11
277.38397499816119
 21
428.48538409125598
 31
0.0
  0
LINE
  5
29DC
  8
ﾁｭｳｼﾝｾﾝ1
 10
266.38397499816119
 20
439.48538409125598
 30
0.0
 11
288.38397499816119
 21
439.48538409125598
 31
0.0
  0
LINE
  5
29E3
  8
ﾁｭｳｼﾝｾﾝ1
 10
277.38397499816119
 20
580.48538409125604
 30
0.0
 11
277.38397499816119
 21
558.48538409125604
 31
0.0
  0
LINE
  5
29E4
  8
ﾁｭｳｼﾝｾﾝ1
 10
266.38397499816119
 20
569.48538409125604
 30
0.0
 11
288.38397499816119
 21
569.48538409125604
 31
0.0
  0
LINE
  5
2F5E
  8
AM_0
 10
94.384004998161245
 20
570.08541859125603
 30
0.0
 11
237.88400499816129
 21
570.08541859125592
 31
0.0
  0
LINE
  5
2F5F
  8
AM_0
 10
153.88400499816109
 20
444.22644561807681
 30
0.0
 11
128.38400499816109
 21
444.22644561807681
 31
0.0
  0
LINE
  5
2F60
  8
AM_0
 10
153.884004998161
 20
423.42541936231771
 30
0.0
 11
99.884004998161146
 21
423.42541936231771
 31
0.0
  0
LINE
  5
2F61
  8
AM_0
 10
153.88400499816109
 20
426.8330203610243
 30
0.0
 11
99.884004998161146
 21
426.8330203610243
 31
0.0
  0
LINE
  5
2F62
  8
AM_0
 10
87.884004998161245
 20
557.58728646263535
 30
0.0
 11
87.884004998161089
 21
451.3835507198765
 31
0.0
  0
ARC
  5
2F63
  8
AM_0
 10
1027.0701288079811
 20
504.48541859125572
 30
0.0
 40
940.68612380981915
 50
176.76392470776139
 51
183.2360752922385
  0
LINE
  5
2F64
  8
AM_0
 10
94.884004998161245
 20
570.08541859125603
 30
0.0
 11
94.884004998161146
 21
438.88541859125593
 31
0.0
  0
LINE
  5
2F65
  8
AM_0
 10
92.384004998161245
 20
568.08541859125603
 30
0.0
 11
92.384004998161245
 21
440.88541859125581
 31
0.0
  0
LINE
  5
2F66
  8
AM_0
 10
128.38400499816109
 20
448.19462561178682
 30
0.0
 11
128.3840049981612
 21
435.33582265856091
 31
0.0
  0
LINE
  5
2F67
  8
AM_0
 10
116.3840049981611
 20
444.64284132006787
 30
0.0
 11
116.3840049981611
 21
435.33582265856091
 31
0.0
  0
LINE
  5
2F68
  8
AM_0
 10
124.3840049981612
 20
444.64284132006787
 30
0.0
 11
124.3840049981612
 21
435.33582265856091
 31
0.0
  0
LINE
  5
2F69
  8
AM_0
 10
112.3840049981611
 20
448.19462561178682
 30
0.0
 11
112.3840049981611
 21
435.33582265856091
 31
0.0
  0
LINE
  5
2F6A
  8
AM_0
 10
97.884004998161132
 20
442.22644561807681
 30
0.0
 11
97.884004998161132
 21
425.4254193623176
 31
0.0
  0
LINE
  5
2F6B
  8
AM_0
 10
116.3840049981611
 20
435.33582265856091
 30
0.0
 11
112.3840049981611
 21
435.33582265856091
 31
0.0
  0
ARC
  5
2F6C
  8
AM_0
 10
99.884004998161146
 20
425.4254193623176
 30
0.0
 40
2.0
 50
180.0
 51
270.0
1001
GENIUS_GENOBJ-N-FIL_13
1002
{
1000
OWNER
1000
GEN
1002
}
1001
GENIUS_GENODEF_13
1002
{
1000
HIER
1070
     0
1002
}
1002
{
1000
MANEDIT
1070
     0
1002
}
1002
{
1000
NOSEL
1070
     0
1002
}
1002
{
1000
BEHIND
1070
     0
1002
}
1002
{
1000
OTHER
1070
     0
1002
}
1002
{
1000
REACTOR
1002
}
  0
ARC
  5
2F6D
  8
AM_0
 10
99.884004998161146
 20
428.83302036102441
 30
0.0
 40
2.0
 50
180.0
 51
270.0
1001
GENIUS_GENODEF_13
1002
{
1000
HIER
1070
     0
1002
}
1002
{
1000
MANEDIT
1070
     0
1002
}
1002
{
1000
NOSEL
1070
     0
1002
}
1002
{
1000
BEHIND
1070
     0
1002
}
1002
{
1000
OTHER
1070
     0
1002
}
1002
{
1000
REACTOR
1002
}
1001
GENIUS_GENOBJ-N-FIL_13
1002
{
1000
OWNER
1000
GEN
1002
}
  0
LINE
  5
2F6E
  8
AM_0
 10
128.3840049981612
 20
435.33582265856091
 30
0.0
 11
124.3840049981612
 21
435.33582265856091
 31
0.0
  0
LINE
  5
2F6F
  8
AM_0
 10
94.384004998161245
 20
438.88541859125593
 30
0.0
 11
97.884004998161132
 21
438.88541859125581
 31
0.0
  0
ARC
  5
2F70
  8
AM_0
 10
90.384004998161245
 20
445.58728646263529
 30
0.0
 40
2.0
 50
0.0
 51
48.366460663430352
1001
GENIUS_GENOBJ-N-FIL_13
1002
{
1000
OWNER
1000
GEN
1002
}
1001
GENIUS_GENODEF_13
1002
{
1000
HIER
1070
     0
1002
}
1002
{
1000
MANEDIT
1070
     0
1002
}
1002
{
1000
NOSEL
1070
     0
1002
}
1002
{
1000
BEHIND
1070
     0
1002
}
1002
{
1000
OTHER
1070
     0
1002
}
1002
{
1000
REACTOR
1002
}
  0
LINE
  5
2F71
  8
AM_0
 10
91.712732675821059
 20
447.08210510000282
 30
0.0
 11
88.55527732050129
 21
449.88873208250891
 31
0.0
  0
ARC
  5
2F72
  8
AM_0
 10
94.384004998161245
 20
440.88541859125581
 30
0.0
 40
2.0
 50
180.0
 51
270.0
1001
GENIUS_GENOBJ-N-FIL_13
1002
{
1000
OWNER
1000
GEN
1002
}
1001
GENIUS_GENODEF_13
1002
{
1000
HIER
1070
     0
1002
}
1002
{
1000
MANEDIT
1070
     0
1002
}
1002
{
1000
NOSEL
1070
     0
1002
}
1002
{
1000
BEHIND
1070
     0
1002
}
1002
{
1000
OTHER
1070
     0
1002
}
1002
{
1000
REACTOR
1002
}
  0
ARC
  5
2F73
  8
AM_0
 10
89.884004998161075
 20
451.3835507198765
 30
0.0
 40
2.0
 50
180.0
 51
228.3664606634303
1001
GENIUS_GENODEF_13
1002
{
1000
HIER
1070
     0
1002
}
1002
{
1000
MANEDIT
1070
     0
1002
}
1002
{
1000
NOSEL
1070
     0
1002
}
1002
{
1000
BEHIND
1070
     0
1002
}
1002
{
1000
OTHER
1070
     0
1002
}
1002
{
1000
REACTOR
1002
}
1001
GENIUS_GENOBJ-N-FIL_13
1002
{
1000
OWNER
1000
GEN
1002
}
  0
LINE
  5
2F74
  8
AM_0N
 10
112.3840049981611
 20
444.64284132006787
 30
0.0
 11
128.38400499816109
 21
444.64284132006787
 31
0.0
1001
GENIUS_GENOREF_13
1005
0
  0
LINE
  5
2F75
  8
AM_0
 10
128.3840049981612
 20
448.19462561178682
 30
0.0
 11
112.3840049981611
 21
448.19462561178682
 31
0.0
1001
GENIUS_GENOREF_13
1005
2F98
  0
LINE
  5
2F76
  8
AM_0
 10
112.3840049981611
 20
444.22644561807681
 30
0.0
 11
99.884004998161146
 21
444.22644561807681
 31
0.0
  0
ARC
  5
2F77
  8
AM_0
 10
99.884004998161146
 20
442.22644561807681
 30
0.0
 40
2.0
 50
90.0
 51
180.0
1001
GENIUS_GENOBJ-N-FIL_13
1002
{
1000
OWNER
1000
GEN
1002
}
1001
GENIUS_GENODEF_13
1002
{
1000
HIER
1070
     0
1002
}
1002
{
1000
MANEDIT
1070
     0
1002
}
1002
{
1000
NOSEL
1070
     0
1002
}
1002
{
1000
BEHIND
1070
     0
1002
}
1002
{
1000
OTHER
1070
     0
1002
}
1002
{
1000
REACTOR
1002
}
  0
ARC
  5
2F78
  8
AM_0N
 10
120.3840049981611
 20
447.24284132006778
 30
0.0
 40
5.0
 50
246.4528627629231
 51
293.54713723707698
1001
GENIUS_GENOREF_13
1005
0
  0
LINE
  5
2F79
  8
AM_0
 10
124.3840049981612
 20
440.61188545707
 30
0.0
 11
116.3840049981611
 21
440.61188545707
 31
0.0
  0
LINE
  5
2F7A
  8
AM_3N
  6
AM_ISO02W050X2
 10
120.13150499816111
 20
442.24922101511879
 30
0.0
 11
120.13150499816111
 21
444.04284132006779
 31
0.0
1001
GENIUS_GENOREF_13
1005
0
  0
LINE
  5
2F7B
  8
AM_3N
  6
AM_ISO02W050X2
 10
120.6365049981611
 20
442.24922101511879
 30
0.0
 11
120.6365049981611
 21
444.04284132006779
 31
0.0
1001
GENIUS_GENOREF_13
1005
0
  0
LINE
  5
2F7C
  8
AM_3N
  6
AM_ISO02W050X2
 10
118.8840049981611
 20
442.47314531298309
 30
0.0
 11
120.3840049981611
 21
444.3605553415419
 31
0.0
1001
GENIUS_GENOREF_13
1005
0
  0
LINE
  5
2F7D
  8
AM_3N
  6
AM_ISO02W050X2
 10
120.6365049981611
 20
444.04284132006779
 30
0.0
 11
120.13150499816111
 21
444.04284132006779
 31
0.0
1001
GENIUS_GENOREF_13
1005
0
  0
ARC
  5
2F7E
  8
AM_0N
 10
118.8658920811709
 20
443.75926080983618
 30
0.0
 40
1.1999999999999991
 50
184.99999999999969
 51
246.4528627629231
1001
GENIUS_GENOREF_13
1005
0
  0
LINE
  5
2F7F
  8
AM_0N
 10
117.6704584434608
 20
443.65467391853889
 30
0.0
 11
117.58400499816111
 21
444.64284132006787
 31
0.0
1001
GENIUS_GENOREF_13
1005
0
  0
LINE
  5
2F80
  8
AM_3N
  6
AM_ISO02W050X2
 10
121.8840049981611
 20
442.47314531298309
 30
0.0
 11
120.3840049981611
 21
444.3605553415419
 31
0.0
1001
GENIUS_GENOREF_13
1005
0
  0
ARC
  5
2F81
  8
AM_0N
 10
121.90211791515139
 20
443.75926080983618
 30
0.0
 40
1.1999999999999991
 50
293.54713723707698
 51
355.00000000000023
1001
GENIUS_GENOREF_13
1005
0
  0
LINE
  5
2F82
  8
AM_0N
 10
123.0975515528615
 20
443.65467391853889
 30
0.0
 11
123.1840049981611
 21
444.64284132006787
 31
0.0
1001
GENIUS_GENOREF_13
1005
0
  0
ARC
  5
2F83
  8
AM_0
 10
79.884004998161231
 20
521.48541859125589
 30
0.0
 40
3.0
 50
90.0
 51
180.0
1001
GENIUS_GENOBJ-N-FIL_13
1002
{
1000
OWNER
1000
GEN
1002
}
1001
GENIUS_GENODEF_13
1002
{
1000
HIER
1070
     0
1002
}
1002
{
1000
MANEDIT
1070
     0
1002
}
1002
{
1000
NOSEL
1070
     0
1002
}
1002
{
1000
BEHIND
1070
     0
1002
}
1002
{
1000
OTHER
1070
     0
1002
}
1002
{
1000
REACTOR
1002
}
  0
LINE
  5
2F84
  8
AM_0
 10
76.884004998161231
 20
521.48541859125589
 30
0.0
 11
76.884004998161103
 21
487.48541859125601
 31
0.0
  0
LINE
  5
2F85
  8
AM_0
 10
79.884004998161103
 20
484.48541859125589
 30
0.0
 11
86.596639799203317
 21
484.48541859125589
 31
0.0
  0
ARC
  5
2F86
  8
AM_0
 10
79.884004998161103
 20
487.48541859125601
 30
0.0
 40
3.0
 50
180.0
 51
270.0
1001
GENIUS_GENODEF_13
1002
{
1000
HIER
1070
     0
1002
}
1002
{
1000
MANEDIT
1070
     0
1002
}
1002
{
1000
NOSEL
1070
     0
1002
}
1002
{
1000
BEHIND
1070
     0
1002
}
1002
{
1000
OTHER
1070
     0
1002
}
1002
{
1000
REACTOR
1002
}
1001
GENIUS_GENOBJ-N-FIL_13
1002
{
1000
OWNER
1000
GEN
1002
}
  0
LINE
  5
2F87
  8
AM_0
 10
79.884004998161231
 20
524.48541859125601
 30
0.0
 11
86.596639799203317
 21
524.48541859125601
 31
0.0
  0
LINE
  5
2F88
  8
AM_0
 10
91.712732675821059
 20
561.8887320825088
 30
0.0
 11
88.55527732050129
 21
559.08210510000265
 31
0.0
  0
ARC
  5
2F89
  8
AM_0
 10
89.884004998161259
 20
557.58728646263535
 30
0.0
 40
2.0
 50
131.63353933656961
 51
180.0
1001
GENIUS_GENODEF_13
1002
{
1000
HIER
1070
     0
1002
}
1002
{
1000
MANEDIT
1070
     0
1002
}
1002
{
1000
NOSEL
1070
     0
1002
}
1002
{
1000
BEHIND
1070
     0
1002
}
1002
{
1000
OTHER
1070
     0
1002
}
1002
{
1000
REACTOR
1002
}
1001
GENIUS_GENOBJ-N-FIL_13
1002
{
1000
OWNER
1000
GEN
1002
}
  0
ARC
  5
2F8A
  8
AM_0
 10
90.384004998161245
 20
563.38355071987644
 30
0.0
 40
2.0
 50
311.63353933656958
 51
0.0
1001
GENIUS_GENOBJ-N-FIL_13
1002
{
1000
OWNER
1000
GEN
1002
}
1001
GENIUS_GENODEF_13
1002
{
1000
HIER
1070
     0
1002
}
1002
{
1000
MANEDIT
1070
     0
1002
}
1002
{
1000
NOSEL
1070
     0
1002
}
1002
{
1000
BEHIND
1070
     0
1002
}
1002
{
1000
OTHER
1070
     0
1002
}
1002
{
1000
REACTOR
1002
}
  0
ARC
  5
2F8B
  8
AM_0
 10
94.384004998161245
 20
568.08541859125603
 30
0.0
 40
2.0
 50
90.0
 51
180.0
1001
GENIUS_GENOBJ-N-FIL_13
1002
{
1000
OWNER
1000
GEN
1002
}
1001
GENIUS_GENODEF_13
1002
{
1000
HIER
1070
     0
1002
}
1002
{
1000
MANEDIT
1070
     0
1002
}
1002
{
1000
NOSEL
1070
     0
1002
}
1002
{
1000
BEHIND
1070
     0
1002
}
1002
{
1000
OTHER
1070
     0
1002
}
1002
{
1000
REACTOR
1002
}
  0
LINE
  5
2F8C
  8
AM_0
 10
249.3840049981612
 20
570.48541859125601
 30
0.0
 11
249.3840049981612
 21
438.48541859125589
 31
0.0
  0
LINE
  5
2F8D
  8
AM_0
 10
237.8840049981612
 20
570.48541859125601
 30
0.0
 11
237.8840049981612
 21
438.48541859125589
 31
0.0
  0
LINE
  5
2F8E
  8
AM_0
 10
155.88400499816109
 20
438.88541859125598
 30
0.0
 11
237.8840049981612
 21
438.88541859125593
 31
0.0
  0
LINE
  5
2F8F
  8
AM_0
 10
155.88400499816109
 20
442.22644561807681
 30
0.0
 11
155.884004998161
 21
425.4254193623176
 31
0.0
  0
ARC
  5
2F90
  8
AM_0
 10
153.884004998161
 20
425.4254193623176
 30
0.0
 40
2.0
 50
270.0
 51
0.0
1001
GENIUS_GENOBJ-N-FIL_13
1002
{
1000
OWNER
1000
GEN
1002
}
1001
GENIUS_GENODEF_13
1002
{
1000
HIER
1070
     0
1002
}
1002
{
1000
MANEDIT
1070
     0
1002
}
1002
{
1000
NOSEL
1070
     0
1002
}
1002
{
1000
BEHIND
1070
     0
1002
}
1002
{
1000
OTHER
1070
     0
1002
}
1002
{
1000
REACTOR
1002
}
  0
ARC
  5
2F91
  8
AM_0
 10
153.88400499816109
 20
428.83302036102441
 30
0.0
 40
2.0
 50
270.0
 51
0.0
1001
GENIUS_GENOBJ-N-FIL_13
1002
{
1000
OWNER
1000
GEN
1002
}
1001
GENIUS_GENODEF_13
1002
{
1000
HIER
1070
     0
1002
}
1002
{
1000
MANEDIT
1070
     0
1002
}
1002
{
1000
NOSEL
1070
     0
1002
}
1002
{
1000
BEHIND
1070
     0
1002
}
1002
{
1000
OTHER
1070
     0
1002
}
1002
{
1000
REACTOR
1002
}
  0
ARC
  5
2F92
  8
AM_0
 10
153.88400499816109
 20
442.22644561807681
 30
0.0
 40
2.0
 50
0.0
 51
90.0
1001
GENIUS_GENODEF_13
1002
{
1000
HIER
1070
     0
1002
}
1002
{
1000
MANEDIT
1070
     0
1002
}
1002
{
1000
NOSEL
1070
     0
1002
}
1002
{
1000
BEHIND
1070
     0
1002
}
1002
{
1000
OTHER
1070
     0
1002
}
1002
{
1000
REACTOR
1002
}
1001
GENIUS_GENOBJ-N-FIL_13
1002
{
1000
OWNER
1000
GEN
1002
}
  0
LINE
  5
2F93
  8
AM_0
 10
237.8840049981612
 20
438.48541859125589
 30
0.0
 11
249.3840049981612
 21
438.48541859125589
 31
0.0
  0
LINE
  5
2F94
  8
AM_0
 10
256.38400499816117
 20
441.48541859125601
 30
0.0
 11
249.3840049981612
 21
438.48541859125589
 31
0.0
  0
LINE
  5
2F95
  8
AM_0
 10
237.8840049981612
 20
570.48541859125601
 30
0.0
 11
249.3840049981612
 21
570.48541859125601
 31
0.0
  0
LINE
  5
2F96
  8
AM_0
 10
249.3840049981612
 20
570.48541859125601
 30
0.0
 11
256.38400499816117
 21
567.48541859125567
 31
0.0
  0
LINE
  5
2F97
  8
AM_0
 10
256.38400499816117
 20
567.48541859125567
 30
0.0
 11
256.38400499816117
 21
441.48541859125601
 31
0.0
  0
POINT
  5
2F98
  8
0
 10
-29.49023360314721
 20
2.942526331442421
 30
0.0
1001
GENIUS_GENOLIS_13
1002
{
1000
ENT
1005
0
1005
0
1005
0
1005
2F75
1002
}
1001
GENIUS_GENOENT_13
1002
{
1000
MYREF
1005
2F98
1002
}
1002
{
1000
GRP
1005
0
1002
}
1001
GENIUS_GENOBJ-NBEHI-BHB_13
1002
{
1000
OWNER
1000
genbehi
1002
}
1001
GENIUS_GENBH_13
1002
{
1000
FGO
1005
0
1002
}
1001
GENIUS_GENODEF_13
1002
{
1000
HIER
1070
     1
1002
}
1002
{
1000
MANEDIT
1070
     1
1002
}
1002
{
1000
NOSEL
1070
     1
1002
}
1002
{
1000
BEHIND
1070
     0
1002
}
1002
{
1000
OTHER
1070
     1
1002
}
1002
{
1000
REACTOR
1002
}
  0
LINE
  5
323D
  8
ﾁｭｳｼﾝｾﾝ1
 10
405.09644499816079
 20
303.35827642694022
 30
0.0
 11
274.99137576404399
 21
303.35827642694022
 31
0.0
  0
LINE
  5
323F
  8
AM_0
 10
155.88401499816121
 20
308.35830542694021
 30
0.0
 11
155.88401499816121
 21
264.35830542694021
 31
0.0
  0
LINE
  5
3240
  8
AM_0
 10
97.884014998161206
 20
308.35830542694021
 30
0.0
 11
97.884014998161206
 21
264.35830542694021
 31
0.0
  0
LINE
  5
3241
  8
AM_0
 10
76.884014998161206
 20
300.35830542694021
 30
0.0
 11
76.884014998161206
 21
266.35830542694021
 31
0.0
  0
LINE
  5
3242
  8
AM_0
 10
237.88401499816109
 20
349.35830542694009
 30
0.0
 11
237.88401499816109
 21
217.35830542694021
 31
0.0
  0
LINE
  5
3243
  8
AM_0
 10
249.38401499816121
 20
349.35830542694009
 30
0.0
 11
249.38401499816121
 21
217.35830542694021
 31
0.0
  0
LINE
  5
3244
  8
AM_0
 10
94.884014998161206
 20
348.95830542694023
 30
0.0
 11
94.884014998161206
 21
217.75830542694021
 31
0.0
  0
LINE
  5
3245
  8
AM_0
 10
92.384014998161234
 20
346.95830542694023
 30
0.0
 11
92.384014998161206
 21
219.75830542694021
 31
0.0
  0
LINE
  5
3246
  8
AM_0
 10
87.884014998161206
 20
336.46017329831972
 30
0.0
 11
87.884014998161206
 21
230.25643755556081
 31
0.0
  0
ARC
  5
3247
  8
AM_0
 10
1027.0701388079799
 20
283.35830542693998
 30
0.0
 40
940.68612380981915
 50
176.76392470776159
 51
183.2360752922383
  0
LINE
  5
3249
  8
AM_0
 10
287.38400499816112
 20
324.85262242694017
 30
0.0
 11
287.38400499816112
 21
220.4882174269402
 31
0.0
  0
LINE
  5
324A
  8
AM_0
 10
321.21356499816108
 20
316.70699242694019
 30
0.0
 11
308.3839449981611
 21
290.5745534269401
 31
0.0
  0
LINE
  5
324B
  8
AM_0
 10
308.38400499816112
 20
316.70699242694019
 30
0.0
 11
308.38400499816112
 21
290.5745534269401
 31
0.0
  0
LINE
  5
324C
  8
AM_0
 10
343.38401499816121
 20
348.20438242694007
 30
0.0
 11
343.38401499816121
 21
239.3990924269402
 31
0.0
  0
LINE
  5
324D
  8
AM_0
 10
330.38399499816092
 20
313.14911242694018
 30
0.0
 11
330.38399499816092
 21
225.35828842694019
 31
0.0
  0
LINE
  5
324E
  8
AM_0
 10
356.38397499816108
 20
333.6093224269402
 30
0.0
 11
356.38397499816108
 21
224.1028574269402
 31
0.0
  0
LINE
  5
324F
  8
AM_0
 10
294.38402499816101
 20
354.35828242694009
 30
0.0
 11
294.38402499816101
 21
239.21543842694021
 31
0.0
  0
LINE
  5
3250
  8
AM_0
 10
359.38397499816108
 20
278.01300142694021
 30
0.0
 11
359.38397499816108
 21
328.7035724269403
 31
0.0
  0
LINE
  5
3251
  8
AM_0
 10
256.38401499816109
 20
220.35830542694021
 30
0.0
 11
256.38401499816109
 21
346.35830542694021
 31
0.0
  0
LINE
  5
3252
  8
AM_0
 10
361.38395499816107
 20
315.8582624269402
 30
0.0
 11
361.38395499816107
 21
290.85830542694021
 31
0.0
  0
LINE
  5
3253
  8
AM_0
 10
401.3839749981608
 20
318.35828242694021
 30
0.0
 11
401.3839749981608
 21
291.35827642694022
 31
0.0
  0
LINE
  5
3254
  8
AM_0
 10
120.88401499816111
 20
249.35830542694021
 30
0.0
 11
143.88401499816109
 21
249.35830542694021
 31
0.0
  0
LINE
  5
3255
  8
AM_0
 10
98.884014998161206
 20
263.35830542694021
 30
0.0
 11
154.88401499816121
 21
263.35830542694021
 31
0.0
  0
LINE
  5
3256
  8
AM_0
 10
120.88401499816111
 20
243.85830542694021
 30
0.0
 11
143.88401499816109
 21
243.85830542694021
 31
0.0
  0
LINE
  5
3257
  8
AM_0
 10
120.88401499816111
 20
234.9583054269402
 30
0.0
 11
143.88401499816109
 21
234.9583054269402
 31
0.0
  0
LINE
  5
3258
  8
AM_0
 10
120.88401499816111
 20
240.1583054269401
 30
0.0
 11
143.88401499816109
 21
240.1583054269403
 31
0.0
  0
LINE
  5
3259
  8
AM_0
 10
120.88401499816111
 20
231.4583054269402
 30
0.0
 11
143.88401499816109
 21
231.4583054269402
 31
0.0
  0
LINE
  5
325A
  8
AM_0
 10
120.88401499816111
 20
227.1583054269401
 30
0.0
 11
143.88401499816109
 21
227.1583054269401
 31
0.0
  0
LINE
  5
325B
  8
AM_0
 10
120.88401499816111
 20
221.05830542694019
 30
0.0
 11
143.88401499816109
 21
221.05830542694019
 31
0.0
  0
LINE
  5
325C
  8
AM_0
 10
120.88401499816111
 20
223.65830542694019
 30
0.0
 11
143.88401499816109
 21
223.65830542694019
 31
0.0
  0
LINE
  5
325D
  8
AM_0
 10
94.384014998161206
 20
217.75830542694021
 30
0.0
 11
237.88401499816109
 21
217.75830542694021
 31
0.0
  0
LINE
  5
325E
  8
ﾁｭｳｼﾝｾﾝ1
 10
72.593988498693932
 20
283.35830542694021
 30
0.0
 11
281.67706216551159
 21
283.35830542694021
 31
0.0
  0
ARC
  5
325F
  8
AM_0
 10
94.384014998161206
 20
219.75830542694021
 30
0.0
 40
2.0
 50
180.0
 51
270.0
1001
GENIUS_GENOBJ-N-FIL_13
1002
{
1000
OWNER
1000
GEN
1002
}
1001
GENIUS_GENODEF_13
1002
{
1000
HIER
1070
     0
1002
}
1002
{
1000
MANEDIT
1070
     0
1002
}
1002
{
1000
NOSEL
1070
     0
1002
}
1002
{
1000
BEHIND
1070
     0
1002
}
1002
{
1000
OTHER
1070
     0
1002
}
1002
{
1000
REACTOR
1002
}
  0
ARC
  5
3260
  8
AM_0
 10
90.384014998161206
 20
224.46017329831969
 30
0.0
 40
2.0
 50
0.0
 51
48.36646066343252
1001
GENIUS_GENOBJ-N-FIL_13
1002
{
1000
OWNER
1000
GEN
1002
}
1001
GENIUS_GENODEF_13
1002
{
1000
HIER
1070
     0
1002
}
1002
{
1000
MANEDIT
1070
     0
1002
}
1002
{
1000
NOSEL
1070
     0
1002
}
1002
{
1000
BEHIND
1070
     0
1002
}
1002
{
1000
OTHER
1070
     0
1002
}
1002
{
1000
REACTOR
1002
}
  0
LINE
  5
3261
  8
AM_0
 10
91.712742675821062
 20
225.9549919356871
 30
0.0
 11
88.555287320501407
 21
228.76161891819331
 31
0.0
  0
ARC
  5
3262
  8
AM_0
 10
89.884014998161206
 20
230.25643755556081
 30
0.0
 40
2.0
 50
180.0
 51
228.36646066343241
1001
GENIUS_GENODEF_13
1002
{
1000
HIER
1070
     0
1002
}
1002
{
1000
MANEDIT
1070
     0
1002
}
1002
{
1000
NOSEL
1070
     0
1002
}
1002
{
1000
BEHIND
1070
     0
1002
}
1002
{
1000
OTHER
1070
     0
1002
}
1002
{
1000
REACTOR
1002
}
1001
GENIUS_GENOBJ-N-FIL_13
1002
{
1000
OWNER
1000
GEN
1002
}
  0
ARC
  5
3263
  8
AM_0
 10
120.88401499816111
 20
230.4583054269402
 30
0.0
 40
1.0
 50
90.0
 51
180.0
1001
GENIUS_GENODEF_13
1002
{
1000
HIER
1070
     0
1002
}
1002
{
1000
MANEDIT
1070
     0
1002
}
1002
{
1000
NOSEL
1070
     0
1002
}
1002
{
1000
BEHIND
1070
     0
1002
}
1002
{
1000
OTHER
1070
     0
1002
}
1002
{
1000
REACTOR
1002
}
1001
GENIUS_GENOBJ-N-FIL_13
1002
{
1000
OWNER
1000
GEN
1002
}
  0
ARC
  5
3264
  8
AM_0
 10
120.88401499816111
 20
222.65830542694019
 30
0.0
 40
1.0
 50
90.0
 51
180.0
1001
GENIUS_GENOBJ-N-FIL_13
1002
{
1000
OWNER
1000
GEN
1002
}
1001
GENIUS_GENODEF_13
1002
{
1000
HIER
1070
     0
1002
}
1002
{
1000
MANEDIT
1070
     0
1002
}
1002
{
1000
NOSEL
1070
     0
1002
}
1002
{
1000
BEHIND
1070
     0
1002
}
1002
{
1000
OTHER
1070
     0
1002
}
1002
{
1000
REACTOR
1002
}
  0
ARC
  5
3265
  8
AM_0
 10
120.88401499816111
 20
222.05830542694031
 30
0.0
 40
1.0
 50
180.0
 51
270.0
1001
GENIUS_GENODEF_13
1002
{
1000
HIER
1070
     0
1002
}
1002
{
1000
MANEDIT
1070
     0
1002
}
1002
{
1000
NOSEL
1070
     0
1002
}
1002
{
1000
BEHIND
1070
     0
1002
}
1002
{
1000
OTHER
1070
     0
1002
}
1002
{
1000
REACTOR
1002
}
1001
GENIUS_GENOBJ-N-FIL_13
1002
{
1000
OWNER
1000
GEN
1002
}
  0
ARC
  5
3266
  8
AM_0
 10
120.88401499816111
 20
228.15830542694019
 30
0.0
 40
1.0
 50
180.0
 51
270.0
1001
GENIUS_GENOBJ-N-FIL_13
1002
{
1000
OWNER
1000
GEN
1002
}
1001
GENIUS_GENODEF_13
1002
{
1000
HIER
1070
     0
1002
}
1002
{
1000
MANEDIT
1070
     0
1002
}
1002
{
1000
NOSEL
1070
     0
1002
}
1002
{
1000
BEHIND
1070
     0
1002
}
1002
{
1000
OTHER
1070
     0
1002
}
1002
{
1000
REACTOR
1002
}
  0
LINE
  5
3267
  8
AM_0
 10
119.88401499816111
 20
230.4583054269402
 30
0.0
 11
119.88401499816111
 21
228.15830542694019
 31
0.0
  0
LINE
  5
3268
  8
AM_0
 10
119.88401499816111
 20
222.65830542694019
 30
0.0
 11
119.88401499816111
 21
222.05830542694031
 31
0.0
  0
ARC
  5
3269
  8
AM_0
 10
120.88401499816111
 20
244.85830542694021
 30
0.0
 40
1.0
 50
180.0
 51
270.0
1001
GENIUS_GENODEF_13
1002
{
1000
HIER
1070
     0
1002
}
1002
{
1000
MANEDIT
1070
     0
1002
}
1002
{
1000
NOSEL
1070
     0
1002
}
1002
{
1000
BEHIND
1070
     0
1002
}
1002
{
1000
OTHER
1070
     0
1002
}
1002
{
1000
REACTOR
1002
}
1001
GENIUS_GENOBJ-N-FIL_13
1002
{
1000
OWNER
1000
GEN
1002
}
  0
ARC
  5
326A
  8
AM_0
 10
120.88401499816111
 20
239.15830542694019
 30
0.0
 40
1.0
 50
90.0
 51
180.0
1001
GENIUS_GENODEF_13
1002
{
1000
HIER
1070
     0
1002
}
1002
{
1000
MANEDIT
1070
     0
1002
}
1002
{
1000
NOSEL
1070
     0
1002
}
1002
{
1000
BEHIND
1070
     0
1002
}
1002
{
1000
OTHER
1070
     0
1002
}
1002
{
1000
REACTOR
1002
}
1001
GENIUS_GENOBJ-N-FIL_13
1002
{
1000
OWNER
1000
GEN
1002
}
  0
ARC
  5
326B
  8
AM_0
 10
120.88401499816111
 20
235.9583054269402
 30
0.0
 40
1.0
 50
180.0
 51
270.0
1001
GENIUS_GENOBJ-N-FIL_13
1002
{
1000
OWNER
1000
GEN
1002
}
1001
GENIUS_GENODEF_13
1002
{
1000
HIER
1070
     0
1002
}
1002
{
1000
MANEDIT
1070
     0
1002
}
1002
{
1000
NOSEL
1070
     0
1002
}
1002
{
1000
BEHIND
1070
     0
1002
}
1002
{
1000
OTHER
1070
     0
1002
}
1002
{
1000
REACTOR
1002
}
  0
ARC
  5
326C
  8
AM_0
 10
120.88401499816111
 20
248.35830542694021
 30
0.0
 40
1.0
 50
90.0
 51
180.0
1001
GENIUS_GENODEF_13
1002
{
1000
HIER
1070
     0
1002
}
1002
{
1000
MANEDIT
1070
     0
1002
}
1002
{
1000
NOSEL
1070
     0
1002
}
1002
{
1000
BEHIND
1070
     0
1002
}
1002
{
1000
OTHER
1070
     0
1002
}
1002
{
1000
REACTOR
1002
}
1001
GENIUS_GENOBJ-N-FIL_13
1002
{
1000
OWNER
1000
GEN
1002
}
  0
LINE
  5
326D
  8
AM_0
 10
119.88401499816111
 20
239.15830542694019
 30
0.0
 11
119.88401499816111
 21
235.9583054269402
 31
0.0
  0
LINE
  5
326E
  8
AM_0
 10
119.88401499816111
 20
248.35830542694021
 30
0.0
 11
119.88401499816111
 21
244.85830542694021
 31
0.0
  0
ARC
  5
326F
  8
AM_0
 10
79.884014998161206
 20
266.35830542694021
 30
0.0
 40
3.0
 50
180.0
 51
270.0
1001
GENIUS_GENODEF_13
1002
{
1000
HIER
1070
     0
1002
}
1002
{
1000
MANEDIT
1070
     0
1002
}
1002
{
1000
NOSEL
1070
     0
1002
}
1002
{
1000
BEHIND
1070
     0
1002
}
1002
{
1000
OTHER
1070
     0
1002
}
1002
{
1000
REACTOR
1002
}
1001
GENIUS_GENOBJ-N-FIL_13
1002
{
1000
OWNER
1000
GEN
1002
}
  0
LINE
  5
3270
  8
AM_0
 10
79.884014998161206
 20
263.35830542694021
 30
0.0
 11
86.596649799203362
 21
263.35830542694021
 31
0.0
  0
ARC
  5
3271
  8
AM_0
 10
98.884014998161206
 20
264.35830542694021
 30
0.0
 40
1.0
 50
180.0
 51
270.0
1001
GENIUS_GENOBJ-N-FIL_13
1002
{
1000
OWNER
1000
GEN
1002
}
1001
GENIUS_GENODEF_13
1002
{
1000
HIER
1070
     0
1002
}
1002
{
1000
MANEDIT
1070
     0
1002
}
1002
{
1000
NOSEL
1070
     0
1002
}
1002
{
1000
BEHIND
1070
     0
1002
}
1002
{
1000
OTHER
1070
     0
1002
}
1002
{
1000
REACTOR
1002
}
  0
LINE
  5
3272
  8
AM_0N
 10
120.13151499816119
 20
260.83690062171132
 30
0.0
 11
120.6365149981612
 21
260.83690062171132
 31
0.0
  0
LINE
  5
3273
  8
AM_0N
 10
120.13151499816119
 20
257.87971023216909
 30
0.0
 11
120.6365149981612
 21
257.87971023216909
 31
0.0
  0
CIRCLE
  5
3274
  8
AM_0N
 10
120.38401499816121
 20
259.35830542694021
 30
0.0
 40
2.799999999999998
  0
LINE
  5
3275
  8
AM_0
 10
114.38401499816121
 20
255.35830542694021
 30
0.0
 11
126.38401499816121
 21
255.35830542694021
 31
0.0
  0
LINE
  5
3276
  8
AM_0N
 10
120.13151499816119
 20
257.87971023216909
 30
0.0
 11
120.13151499816119
 21
259.10580542694021
 31
0.0
  0
LINE
  5
3277
  8
AM_0N
 10
120.13151499816119
 20
259.61080542694032
 30
0.0
 11
120.13151499816119
 21
260.83690062171132
 31
0.0
  0
LINE
  5
3278
  8
AM_0N
 10
118.9054198033901
 20
259.61080542694032
 30
0.0
 11
118.9054198033901
 21
259.10580542694021
 31
0.0
  0
ARC
  5
3279
  8
AM_0
 10
114.38401499816121
 20
257.35830542694021
 30
0.0
 40
2.0
 50
180.0
 51
270.0
1001
GENIUS_GENOBJ-N-FIL_13
1002
{
1000
OWNER
1000
GEN
1002
}
1001
GENIUS_GENODEF_13
1002
{
1000
HIER
1070
     0
1002
}
1002
{
1000
MANEDIT
1070
     0
1002
}
1002
{
1000
NOSEL
1070
     0
1002
}
1002
{
1000
BEHIND
1070
     0
1002
}
1002
{
1000
OTHER
1070
     0
1002
}
1002
{
1000
REACTOR
1002
}
  0
LINE
  5
327A
  8
AM_0
 10
116.38401499816121
 20
255.35830542694021
 30
0.0
 11
116.38401499816121
 21
263.35830542694021
 31
0.0
  0
LINE
  5
327B
  8
AM_0
 10
112.38401499816121
 20
257.35830542694021
 30
0.0
 11
112.38401499816121
 21
263.35830542694021
 31
0.0
  0
LINE
  5
327C
  8
AM_0N
 10
120.13151499816119
 20
259.10580542694021
 30
0.0
 11
118.9054198033901
 21
259.10580542694021
 31
0.0
  0
LINE
  5
327D
  8
AM_0N
 10
120.13151499816119
 20
259.61080542694032
 30
0.0
 11
118.9054198033901
 21
259.61080542694032
 31
0.0
  0
ARC
  5
327E
  8
AM_0
 10
126.38401499816121
 20
257.35830542694021
 30
0.0
 40
2.0
 50
270.0
 51
0.0
1001
GENIUS_GENOBJ-N-FIL_13
1002
{
1000
OWNER
1000
GEN
1002
}
1001
GENIUS_GENODEF_13
1002
{
1000
HIER
1070
     0
1002
}
1002
{
1000
MANEDIT
1070
     0
1002
}
1002
{
1000
NOSEL
1070
     0
1002
}
1002
{
1000
BEHIND
1070
     0
1002
}
1002
{
1000
OTHER
1070
     0
1002
}
1002
{
1000
REACTOR
1002
}
  0
LINE
  5
327F
  8
AM_0N
 10
120.6365149981612
 20
257.87971023216909
 30
0.0
 11
120.6365149981612
 21
259.10580542694021
 31
0.0
  0
LINE
  5
3280
  8
AM_0N
 10
121.86261019293219
 20
259.10580542694021
 30
0.0
 11
120.6365149981612
 21
259.10580542694021
 31
0.0
  0
LINE
  5
3281
  8
AM_0N
 10
121.86261019293219
 20
259.61080542694032
 30
0.0
 11
120.6365149981612
 21
259.61080542694032
 31
0.0
  0
LINE
  5
3282
  8
AM_0N
 10
121.86261019293219
 20
259.61080542694032
 30
0.0
 11
121.86261019293219
 21
259.10580542694021
 31
0.0
  0
LINE
  5
3283
  8
AM_0N
 10
120.6365149981612
 20
259.61080542694032
 30
0.0
 11
120.6365149981612
 21
260.83690062171132
 31
0.0
  0
LINE
  5
3284
  8
AM_0
 10
124.38401499816121
 20
255.35830542694021
 30
0.0
 11
124.38401499816121
 21
263.35830542694021
 31
0.0
  0
LINE
  5
3285
  8
AM_0
 10
128.38401499816121
 20
257.35830542694021
 30
0.0
 11
128.38401499816121
 21
263.35830542694021
 31
0.0
  0
LINE
  5
3287
  8
AM_0
 10
256.38401499816109
 20
237.35829142694021
 30
0.0
 11
287.38400499816112
 21
237.35829142694021
 31
0.0
  0
LINE
  5
3288
  8
AM_0
 10
256.38401499816109
 20
251.42127742694021
 30
0.0
 11
287.38400499816112
 21
251.42127742694021
 31
0.0
  0
LINE
  5
3289
  8
AM_0
 10
267.38402499816101
 20
220.35830542694021
 30
0.0
 11
286.33334499816101
 21
220.35830542694021
 31
0.0
  0
LINE
  5
328A
  8
AM_0
 10
265.38401499816109
 20
208.35830542694021
 30
0.0
 11
290.384004998161
 21
208.35830542694021
 31
0.0
  0
LINE
  5
328B
  8
AM_0
 10
256.38395499816107
 20
227.35828942694019
 30
0.0
 11
279.46250499816108
 21
226.7539514269402
 31
0.0
  0
LINE
  5
328D
  8
ﾁｭｳｼﾝｾﾝ
 10
145.88401499816109
 20
264.67867663530723
 30
0.0
 11
145.88401499816109
 21
188.08462820024121
 31
0.0
  0
LINE
  5
328E
  8
AM_0
 10
265.38401499816109
 20
218.3582894269401
 30
0.0
 11
265.38401499816109
 21
208.35830542694021
 31
0.0
  0
LINE
  5
328F
  8
AM_0
 10
150.58507799816121
 20
198.24698855007509
 30
0.0
 11
150.59110499816109
 21
204.5437104500752
 31
0.0
  0
LINE
  5
3290
  8
AM_0
 10
147.59551499816129
 20
203.17041236422861
 30
0.0
 11
147.6014999981611
 21
196.87366106422871
 31
0.0
  0
LINE
  5
3291
  8
AM_0
 10
144.16946999816111
 20
196.8711284642286
 30
0.0
 11
144.16344299816109
 21
203.16785036422871
 31
0.0
  0
LINE
  5
3292
  8
AM_0
 10
141.17396399816121
 20
198.24698855007509
 30
0.0
 11
141.16793699816111
 21
204.5437104500752
 31
0.0
  0
LINE
  5
3293
  8
AM_0
 10
144.72987599816111
 20
196.86995456422869
 30
0.0
 11
145.88563199816099
 21
196.86888566422871
 31
0.0
  0
CIRCLE
  5
3294
  8
ｽﾝﾎ_ｳｾﾝ
 10
145.88401499816109
 20
192.46349726422869
 30
0.0
 40
1.5050001119999981
  0
ARC
  5
3295
  8
AM_0
 10
145.92446099816121
 20
192.46356236422861
 30
0.0
 40
2.3091486599999991
 50
164.90527199999909
 51
16.267320000001838
  0
LINE
  5
3296
  8
AM_0
 10
144.72987599816111
 20
196.86995456422869
 30
0.0
 11
144.16951199816111
 21
196.8711074642286
 31
0.0
  0
LINE
  5
3297
  8
AM_0
 10
144.04586099816109
 20
198.24368735007511
 30
0.0
 11
144.16855747488259
 21
197.82448922616521
 31
0.0
  0
LINE
  5
3298
  8
AM_0
 10
142.8901259981611
 20
198.24474575007511
 30
0.0
 11
144.16815635150229
 21
198.24356378621451
 31
0.0
  0
LINE
  5
3299
  8
AM_0
 10
144.44777348291919
 20
196.8705349655211
 30
0.0
 11
144.59408015030871
 21
196.37067154544599
 31
0.0
  0
LINE
  5
329A
  8
AM_0
 10
141.73436999816121
 20
198.24583565007509
 30
0.0
 11
140.6995109981612
 21
194.44079105007501
 31
0.0
  0
LINE
  5
329B
  8
AM_0
 10
141.73436999816121
 20
198.24581465007509
 30
0.0
 11
141.17400599816119
 21
198.2469675500752
 31
0.0
  0
LINE
  5
329C
  8
AM_0
 10
141.73436999816121
 20
198.24581465007509
 30
0.0
 11
142.8901259981611
 21
198.24474575007511
 31
0.0
  0
LINE
  5
329D
  8
AM_0
 10
144.72987599816111
 20
196.8699755642285
 30
0.0
 11
143.69501699816121
 21
193.06493096422841
 31
0.0
  0
ARC
  5
329E
  8
AM_0
 10
142.92895499816129
 20
193.83942245007501
 30
0.0
 40
2.3091486599999991
 50
164.90527199999909
 51
290.87219614688911
  0
ARC
  5
329F
  8
ｽﾝﾎ_ｳｾﾝ
 10
142.888508998161
 20
193.83935735007509
 30
0.0
 40
1.5050001119999981
 50
34.081774240383801
 51
298.90870486052683
  0
LINE
  5
32A0
  8
AM_0
 10
150.02467199816121
 20
198.24581465007509
 30
0.0
 11
150.58503599816109
 21
198.2469675500752
 31
0.0
  0
LINE
  5
32A1
  8
AM_0
 10
150.02467199816121
 20
198.24583565007509
 30
0.0
 11
151.05953099816111
 21
194.44079105007501
 31
0.0
  0
LINE
  5
32A2
  8
AM_0
 10
147.601541998161
 20
196.87369256422861
 30
0.0
 11
147.04140899816119
 21
196.8678503642287
 31
0.0
  0
LINE
  5
32A3
  8
AM_0
 10
147.71318099816119
 20
198.24368735007511
 30
0.0
 11
147.59048452143969
 21
197.82448922616521
 31
0.0
  0
LINE
  5
32A4
  8
AM_0
 10
148.86891599816121
 20
198.24474575007511
 30
0.0
 11
147.59088564481999
 21
198.24356378621451
 31
0.0
  0
LINE
  5
32A5
  8
AM_0
 10
147.31126851340309
 20
196.8705349655211
 30
0.0
 11
147.1649618460136
 21
196.37067154544599
 31
0.0
  0
LINE
  5
32A6
  8
AM_0
 10
145.88563199816099
 20
196.86888566422871
 30
0.0
 11
147.04140899816119
 21
196.86781676422859
 31
0.0
  0
LINE
  5
32A7
  8
AM_0
 10
147.0413669981611
 20
196.86782726422859
 30
0.0
 11
148.1411369981613
 21
193.1104127642285
 31
0.0
  0
ARC
  5
32A8
  8
ｽﾝﾎ_ｳｾﾝ
 10
148.87053299816111
 20
193.83935735007509
 30
0.0
 40
1.5050001119999981
 50
241.0912951394732
 51
145.91822575961609
  0
LINE
  5
32A9
  8
AM_0
 10
150.02467199816121
 20
198.24581465007509
 30
0.0
 11
148.86891599816121
 21
198.24474575007511
 31
0.0
  0
ARC
  5
32AA
  8
AM_0
 10
148.83008699816111
 20
193.83942245007501
 30
0.0
 40
2.3091486599999991
 50
249.12780385311081
 51
15.094728000000879
  0
LINE
  5
32AB
  8
AM_0
 10
144.1634849981611
 20
203.1678608642286
 30
0.0
 11
147.59555699816119
 21
203.17041236422861
 31
0.0
  0
POLYLINE
  5
32AC
  8
AM_4
 66
     1
 10
0.0
 20
0.0
 30
0.0
 70
     4
  0
VERTEX
  5
32AD
  8
AM_4
 10
141.88401499816109
 20
208.53320506151331
 30
0.0
 70
    16
  0
VERTEX
  5
32AE
  8
AM_4
 10
141.88401499816109
 20
208.53320506151331
 30
0.0
 70
     8
  0
VERTEX
  5
32AF
  8
AM_4
 10
142.97503022257371
 20
209.11499503760061
 30
0.0
 70
     8
  0
VERTEX
  5
32B0
  8
AM_4
 10
144.0085671961474
 20
209.1454646402282
 30
0.0
 70
     8
  0
VERTEX
  5
32B1
  8
AM_4
 10
145.0003628693855
 20
208.8191095655686
 30
0.0
 70
     8
  0
VERTEX
  5
32B2
  8
AM_4
 10
145.96615419279141
 20
208.33042550979491
 30
0.0
 70
     8
  0
VERTEX
  5
32B3
  8
AM_4
 10
146.92167811686861
 20
207.8739081690799
 30
0.0
 70
     8
  0
VERTEX
  5
32B4
  8
AM_4
 10
147.88267159212029
 20
207.6440532395961
 30
0.0
 70
     8
  0
VERTEX
  5
32B5
  8
AM_4
 10
148.86487156905
 20
207.83535641751681
 30
0.0
 70
     8
  0
VERTEX
  5
32B6
  8
AM_4
 10
149.88401499816109
 20
208.64231339901451
 30
0.0
 70
     8
  0
VERTEX
  5
32B7
  8
AM_4
 10
144.88401499816109
 20
210.99262389229091
 30
0.0
 70
    16
  0
VERTEX
  5
32B8
  8
AM_4
 10
147.1030528505087
 20
205.496671313653
 30
0.0
 70
    16
  0
VERTEX
  5
32B9
  8
AM_4
 10
149.88401499816109
 20
208.64231339901451
 30
0.0
 70
    16
  0
SEQEND
  5
32BA
  8
AM_4
  0
LINE
  5
32BB
  8
AM_0
 10
144.60000899816129
 20
204.54627245007509
 30
0.0
 11
144.60131885539431
 21
203.16818636237861
 31
0.0
  0
LINE
  5
32BC
  8
AM_0
 10
141.16793699816111
 20
204.5437104500752
 30
0.0
 11
144.6000102107491
 21
204.5449967000751
 31
0.0
  0
LINE
  5
32BD
  8
AM_0
 10
144.88401499816109
 20
208.8573943849367
 30
0.0
 11
144.88401499816109
 21
203.1683965267365
 31
0.0
  0
LINE
  5
32BE
  8
AM_0
 10
143.88401499816109
 20
209.14179272903789
 30
0.0
 11
143.88401499816109
 21
204.54472836406211
 31
0.0
  0
LINE
  5
32BF
  8
AM_0
 10
141.88401499816121
 20
208.53320506151331
 30
0.0
 11
141.88401499816121
 21
204.54397881711469
 31
0.0
  0
LINE
  5
32C0
  8
AM_0
 10
149.87502699816119
 20
208.63519670754351
 30
0.0
 11
149.8750269981611
 21
204.54397881711469
 31
0.0
  0
LINE
  5
32C1
  8
AM_0
 10
147.159032998161
 20
204.54627245007509
 30
0.0
 11
147.157723140928
 21
203.16818636237861
 31
0.0
  0
LINE
  5
32C2
  8
AM_0
 10
146.88401499816109
 20
207.89190234626579
 30
0.0
 11
146.88401499816109
 21
203.16988338365559
 31
0.0
  0
LINE
  5
32C3
  8
AM_0
 10
147.88267159212029
 20
207.6440532395961
 30
0.0
 11
147.8750269981611
 21
204.54472836406211
 31
0.0
  0
LINE
  5
32C4
  8
AM_0
 10
150.59110499816109
 20
204.5437104500752
 30
0.0
 11
147.15903178557321
 21
204.5449967000751
 31
0.0
  0
ARC
  5
32C5
  8
AM_0
 10
203.88401499816109
 20
260.35830542694021
 30
0.0
 40
1.0
 50
90.0
 51
180.0
1001
GENIUS_GENOBJ-N-FIL_13
1002
{
1000
OWNER
1000
GEN
1002
}
1001
GENIUS_GENODEF_13
1002
{
1000
HIER
1070
     0
1002
}
1002
{
1000
MANEDIT
1070
     0
1002
}
1002
{
1000
NOSEL
1070
     0
1002
}
1002
{
1000
BEHIND
1070
     0
1002
}
1002
{
1000
OTHER
1070
     0
1002
}
1002
{
1000
REACTOR
1002
}
  0
ARC
  5
32C6
  8
AM_0
 10
203.88401499816109
 20
255.85830542694021
 30
0.0
 40
1.0
 50
180.0
 51
270.0
1001
GENIUS_GENODEF_13
1002
{
1000
HIER
1070
     0
1002
}
1002
{
1000
MANEDIT
1070
     0
1002
}
1002
{
1000
NOSEL
1070
     0
1002
}
1002
{
1000
BEHIND
1070
     0
1002
}
1002
{
1000
OTHER
1070
     0
1002
}
1002
{
1000
REACTOR
1002
}
1001
GENIUS_GENOBJ-N-FIL_13
1002
{
1000
OWNER
1000
GEN
1002
}
  0
ARC
  5
32C7
  8
AM_0
 10
203.88401499816109
 20
244.85830542694021
 30
0.0
 40
1.0
 50
180.0
 51
270.0
1001
GENIUS_GENODEF_13
1002
{
1000
HIER
1070
     0
1002
}
1002
{
1000
MANEDIT
1070
     0
1002
}
1002
{
1000
NOSEL
1070
     0
1002
}
1002
{
1000
BEHIND
1070
     0
1002
}
1002
{
1000
OTHER
1070
     0
1002
}
1002
{
1000
REACTOR
1002
}
1001
GENIUS_GENOBJ-N-FIL_13
1002
{
1000
OWNER
1000
GEN
1002
}
  0
ARC
  5
32C8
  8
AM_0
 10
203.88401499816109
 20
239.15830542694019
 30
0.0
 40
1.0
 50
90.0
 51
180.0
1001
GENIUS_GENODEF_13
1002
{
1000
HIER
1070
     0
1002
}
1002
{
1000
MANEDIT
1070
     0
1002
}
1002
{
1000
NOSEL
1070
     0
1002
}
1002
{
1000
BEHIND
1070
     0
1002
}
1002
{
1000
OTHER
1070
     0
1002
}
1002
{
1000
REACTOR
1002
}
1001
GENIUS_GENOBJ-N-FIL_13
1002
{
1000
OWNER
1000
GEN
1002
}
  0
ARC
  5
32C9
  8
AM_0
 10
203.88401499816109
 20
235.9583054269402
 30
0.0
 40
1.0
 50
180.0
 51
270.0
1001
GENIUS_GENOBJ-N-FIL_13
1002
{
1000
OWNER
1000
GEN
1002
}
1001
GENIUS_GENODEF_13
1002
{
1000
HIER
1070
     0
1002
}
1002
{
1000
MANEDIT
1070
     0
1002
}
1002
{
1000
NOSEL
1070
     0
1002
}
1002
{
1000
BEHIND
1070
     0
1002
}
1002
{
1000
OTHER
1070
     0
1002
}
1002
{
1000
REACTOR
1002
}
  0
ARC
  5
32CA
  8
AM_0
 10
203.88401499816109
 20
230.4583054269402
 30
0.0
 40
1.0
 50
90.0
 51
180.0
1001
GENIUS_GENODEF_13
1002
{
1000
HIER
1070
     0
1002
}
1002
{
1000
MANEDIT
1070
     0
1002
}
1002
{
1000
NOSEL
1070
     0
1002
}
1002
{
1000
BEHIND
1070
     0
1002
}
1002
{
1000
OTHER
1070
     0
1002
}
1002
{
1000
REACTOR
1002
}
1001
GENIUS_GENOBJ-N-FIL_13
1002
{
1000
OWNER
1000
GEN
1002
}
  0
ARC
  5
32CB
  8
AM_0
 10
203.88401499816109
 20
222.65830542694019
 30
0.0
 40
1.0
 50
90.0
 51
180.0
1001
GENIUS_GENOBJ-N-FIL_13
1002
{
1000
OWNER
1000
GEN
1002
}
1001
GENIUS_GENODEF_13
1002
{
1000
HIER
1070
     0
1002
}
1002
{
1000
MANEDIT
1070
     0
1002
}
1002
{
1000
NOSEL
1070
     0
1002
}
1002
{
1000
BEHIND
1070
     0
1002
}
1002
{
1000
OTHER
1070
     0
1002
}
1002
{
1000
REACTOR
1002
}
  0
ARC
  5
32CC
  8
AM_0
 10
203.88401499816109
 20
222.05830542694031
 30
0.0
 40
1.0
 50
180.0
 51
270.0
1001
GENIUS_GENODEF_13
1002
{
1000
HIER
1070
     0
1002
}
1002
{
1000
MANEDIT
1070
     0
1002
}
1002
{
1000
NOSEL
1070
     0
1002
}
1002
{
1000
BEHIND
1070
     0
1002
}
1002
{
1000
OTHER
1070
     0
1002
}
1002
{
1000
REACTOR
1002
}
1001
GENIUS_GENOBJ-N-FIL_13
1002
{
1000
OWNER
1000
GEN
1002
}
  0
ARC
  5
32CD
  8
AM_0
 10
203.88401499816109
 20
228.15830542694019
 30
0.0
 40
1.0
 50
180.0
 51
270.0
1001
GENIUS_GENOBJ-N-FIL_13
1002
{
1000
OWNER
1000
GEN
1002
}
1001
GENIUS_GENODEF_13
1002
{
1000
HIER
1070
     0
1002
}
1002
{
1000
MANEDIT
1070
     0
1002
}
1002
{
1000
NOSEL
1070
     0
1002
}
1002
{
1000
BEHIND
1070
     0
1002
}
1002
{
1000
OTHER
1070
     0
1002
}
1002
{
1000
REACTOR
1002
}
  0
ARC
  5
32CE
  8
AM_0
 10
203.88401499816109
 20
248.35830542694021
 30
0.0
 40
1.0
 50
90.0
 51
180.0
1001
GENIUS_GENODEF_13
1002
{
1000
HIER
1070
     0
1002
}
1002
{
1000
MANEDIT
1070
     0
1002
}
1002
{
1000
NOSEL
1070
     0
1002
}
1002
{
1000
BEHIND
1070
     0
1002
}
1002
{
1000
OTHER
1070
     0
1002
}
1002
{
1000
REACTOR
1002
}
1001
GENIUS_GENOBJ-N-FIL_13
1002
{
1000
OWNER
1000
GEN
1002
}
  0
LINE
  5
32CF
  8
AM_0
 10
147.88401499816109
 20
263.35830542694021
 30
0.0
 11
147.88401499816109
 21
253.46387267741721
 31
0.0
  0
POLYLINE
  5
32D0
  8
AM_4
 66
     1
 10
0.0
 20
0.0
 30
0.0
 70
     4
  0
VERTEX
  5
32D1
  8
AM_4
 10
141.88401499816121
 20
254.35276284401871
 30
0.0
 70
    16
  0
VERTEX
  5
32D2
  8
AM_4
 10
141.88401499816121
 20
254.35276284401871
 30
0.0
 70
     8
  0
VERTEX
  5
32D3
  8
AM_4
 10
142.97503022257379
 20
254.93455282010609
 30
0.0
 70
     8
  0
VERTEX
  5
32D4
  8
AM_4
 10
144.00856719614751
 20
254.96502242273371
 30
0.0
 70
     8
  0
VERTEX
  5
32D5
  8
AM_4
 10
145.0003628693855
 20
254.63866734807411
 30
0.0
 70
     8
  0
VERTEX
  5
32D6
  8
AM_4
 10
145.96615419279141
 20
254.1499832923005
 30
0.0
 70
     8
  0
VERTEX
  5
32D7
  8
AM_4
 10
146.92167811686869
 20
253.6934659515853
 30
0.0
 70
     8
  0
VERTEX
  5
32D8
  8
AM_4
 10
147.8826715921204
 20
253.4636110221017
 30
0.0
 70
     8
  0
VERTEX
  5
32D9
  8
AM_4
 10
148.86487156905011
 20
253.65491420002229
 30
0.0
 70
     8
  0
VERTEX
  5
32DA
  8
AM_4
 10
149.88401499816129
 20
254.46187118152
 30
0.0
 70
     8
  0
VERTEX
  5
32DB
  8
AM_4
 10
144.88401499816109
 20
256.81218167479642
 30
0.0
 70
    16
  0
VERTEX
  5
32DC
  8
AM_4
 10
147.10305285050879
 20
251.31622909615851
 30
0.0
 70
    16
  0
VERTEX
  5
32DD
  8
AM_4
 10
149.88401499816109
 20
254.46187118152
 30
0.0
 70
    16
  0
SEQEND
  5
32DE
  8
AM_4
  0
ARC
  5
32DF
  8
AM_0
 10
143.88401499816109
 20
222.05830542694031
 30
0.0
 40
1.0
 50
270.0
 51
0.0
1001
GENIUS_GENOBJ-N-FIL_13
1002
{
1000
OWNER
1000
GEN
1002
}
1001
GENIUS_GENODEF_13
1002
{
1000
HIER
1070
     0
1002
}
1002
{
1000
MANEDIT
1070
     0
1002
}
1002
{
1000
NOSEL
1070
     0
1002
}
1002
{
1000
BEHIND
1070
     0
1002
}
1002
{
1000
OTHER
1070
     0
1002
}
1002
{
1000
REACTOR
1002
}
  0
LINE
  5
32E0
  8
AM_0
 10
144.88401499816109
 20
230.4583054269402
 30
0.0
 11
144.88401499816109
 21
228.15830542694019
 31
0.0
  0
ARC
  5
32E1
  8
AM_0
 10
143.88401499816109
 20
230.4583054269402
 30
0.0
 40
1.0
 50
0.0
 51
90.0
1001
GENIUS_GENODEF_13
1002
{
1000
HIER
1070
     0
1002
}
1002
{
1000
MANEDIT
1070
     0
1002
}
1002
{
1000
NOSEL
1070
     0
1002
}
1002
{
1000
BEHIND
1070
     0
1002
}
1002
{
1000
OTHER
1070
     0
1002
}
1002
{
1000
REACTOR
1002
}
1001
GENIUS_GENOBJ-N-FIL_13
1002
{
1000
OWNER
1000
GEN
1002
}
  0
ARC
  5
32E2
  8
AM_0
 10
143.88401499816109
 20
222.65830542694019
 30
0.0
 40
1.0
 50
0.0
 51
90.0
1001
GENIUS_GENODEF_13
1002
{
1000
HIER
1070
     0
1002
}
1002
{
1000
MANEDIT
1070
     0
1002
}
1002
{
1000
NOSEL
1070
     0
1002
}
1002
{
1000
BEHIND
1070
     0
1002
}
1002
{
1000
OTHER
1070
     0
1002
}
1002
{
1000
REACTOR
1002
}
1001
GENIUS_GENOBJ-N-FIL_13
1002
{
1000
OWNER
1000
GEN
1002
}
  0
LINE
  5
32E3
  8
AM_0
 10
144.88401499816109
 20
222.65830542694019
 30
0.0
 11
144.88401499816109
 21
222.05830542694031
 31
0.0
  0
ARC
  5
32E4
  8
AM_0
 10
143.88401499816109
 20
228.15830542694019
 30
0.0
 40
1.0
 50
270.0
 51
0.0
1001
GENIUS_GENODEF_13
1002
{
1000
HIER
1070
     0
1002
}
1002
{
1000
MANEDIT
1070
     0
1002
}
1002
{
1000
NOSEL
1070
     0
1002
}
1002
{
1000
BEHIND
1070
     0
1002
}
1002
{
1000
OTHER
1070
     0
1002
}
1002
{
1000
REACTOR
1002
}
1001
GENIUS_GENOBJ-N-FIL_13
1002
{
1000
OWNER
1000
GEN
1002
}
  0
ARC
  5
32E5
  8
AM_0
 10
143.88401499816109
 20
239.1583054269403
 30
0.0
 40
1.0
 50
0.0
 51
90.0
1001
GENIUS_GENODEF_13
1002
{
1000
HIER
1070
     0
1002
}
1002
{
1000
MANEDIT
1070
     0
1002
}
1002
{
1000
NOSEL
1070
     0
1002
}
1002
{
1000
BEHIND
1070
     0
1002
}
1002
{
1000
OTHER
1070
     0
1002
}
1002
{
1000
REACTOR
1002
}
1001
GENIUS_GENOBJ-N-FIL_13
1002
{
1000
OWNER
1000
GEN
1002
}
  0
ARC
  5
32E6
  8
AM_0
 10
143.88401499816109
 20
235.9583054269402
 30
0.0
 40
1.0
 50
270.0
 51
0.0
1001
GENIUS_GENODEF_13
1002
{
1000
HIER
1070
     0
1002
}
1002
{
1000
MANEDIT
1070
     0
1002
}
1002
{
1000
NOSEL
1070
     0
1002
}
1002
{
1000
BEHIND
1070
     0
1002
}
1002
{
1000
OTHER
1070
     0
1002
}
1002
{
1000
REACTOR
1002
}
1001
GENIUS_GENOBJ-N-FIL_13
1002
{
1000
OWNER
1000
GEN
1002
}
  0
LINE
  5
32E7
  8
AM_0
 10
144.88401499816109
 20
239.1583054269403
 30
0.0
 11
144.88401499816109
 21
235.9583054269402
 31
0.0
  0
LINE
  5
32E8
  8
AM_0
 10
144.88401499816109
 20
248.35830542694021
 30
0.0
 11
144.88401499816109
 21
244.85830542694021
 31
0.0
  0
ARC
  5
32E9
  8
AM_0
 10
143.88401499816109
 20
244.85830542694021
 30
0.0
 40
1.0
 50
270.0
 51
0.0
1001
GENIUS_GENODEF_13
1002
{
1000
HIER
1070
     0
1002
}
1002
{
1000
MANEDIT
1070
     0
1002
}
1002
{
1000
NOSEL
1070
     0
1002
}
1002
{
1000
BEHIND
1070
     0
1002
}
1002
{
1000
OTHER
1070
     0
1002
}
1002
{
1000
REACTOR
1002
}
1001
GENIUS_GENOBJ-N-FIL_13
1002
{
1000
OWNER
1000
GEN
1002
}
  0
ARC
  5
32EA
  8
AM_0
 10
143.88401499816109
 20
248.35830542694021
 30
0.0
 40
1.0
 50
0.0
 51
90.0
1001
GENIUS_GENOBJ-N-FIL_13
1002
{
1000
OWNER
1000
GEN
1002
}
1001
GENIUS_GENODEF_13
1002
{
1000
HIER
1070
     0
1002
}
1002
{
1000
MANEDIT
1070
     0
1002
}
1002
{
1000
NOSEL
1070
     0
1002
}
1002
{
1000
BEHIND
1070
     0
1002
}
1002
{
1000
OTHER
1070
     0
1002
}
1002
{
1000
REACTOR
1002
}
  0
LINE
  5
32EB
  8
AM_0
 10
202.88401499816109
 20
230.4583054269402
 30
0.0
 11
202.88401499816109
 21
228.15830542694019
 31
0.0
  0
LINE
  5
32EC
  8
AM_0
 10
202.88401499816109
 20
222.65830542694019
 30
0.0
 11
202.88401499816109
 21
222.05830542694031
 31
0.0
  0
LINE
  5
32ED
  8
AM_0
 10
202.88401499816109
 20
239.15830542694019
 30
0.0
 11
202.88401499816109
 21
235.9583054269402
 31
0.0
  0
LINE
  5
32EE
  8
AM_0
 10
202.88401499816109
 20
248.35830542694021
 30
0.0
 11
202.88401499816109
 21
244.85830542694021
 31
0.0
  0
LINE
  5
32EF
  8
AM_0
 10
144.88401499816109
 20
263.35830542694021
 30
0.0
 11
144.88401499816109
 21
254.67695216744221
 31
0.0
  0
LINE
  5
32F0
  8
AM_0
 10
141.88401499816121
 20
263.35830542694021
 30
0.0
 11
141.88401499816121
 21
254.35276284401871
 31
0.0
  0
LINE
  5
32F1
  8
AM_0
 10
143.88401499816109
 20
263.35830542694021
 30
0.0
 11
143.88401499816109
 21
254.9613505115432
 31
0.0
  0
LINE
  5
32F2
  8
AM_0
 10
149.88401499816109
 20
263.35830542694021
 30
0.0
 11
149.88401499816109
 21
254.46187118151991
 31
0.0
  0
LINE
  5
32F3
  8
AM_0
 10
146.88401499816109
 20
263.35830542694021
 30
0.0
 11
146.88401499816109
 21
253.71146012877151
 31
0.0
  0
ARC
  5
32F4
  8
AM_0
 10
154.88401499816121
 20
264.35830542694021
 30
0.0
 40
1.0
 50
270.0
 51
0.0
1001
GENIUS_GENOBJ-N-FIL_13
1002
{
1000
OWNER
1000
GEN
1002
}
1001
GENIUS_GENODEF_13
1002
{
1000
HIER
1070
     0
1002
}
1002
{
1000
MANEDIT
1070
     0
1002
}
1002
{
1000
NOSEL
1070
     0
1002
}
1002
{
1000
BEHIND
1070
     0
1002
}
1002
{
1000
OTHER
1070
     0
1002
}
1002
{
1000
REACTOR
1002
}
  0
LINE
  5
32F5
  8
AM_0
 10
202.88401499816109
 20
260.35830542694021
 30
0.0
 11
202.88401499816109
 21
255.85830542694021
 31
0.0
  0
LINE
  5
32F6
  8
AM_0
 10
203.88401499816109
 20
231.4583054269402
 30
0.0
 11
226.88401499816121
 21
231.4583054269402
 31
0.0
  0
LINE
  5
32F7
  8
AM_0
 10
203.88401499816109
 20
227.1583054269401
 30
0.0
 11
226.88401499816121
 21
227.1583054269401
 31
0.0
  0
LINE
  5
32F8
  8
AM_0
 10
203.88401499816109
 20
223.65830542694019
 30
0.0
 11
226.88401499816121
 21
223.65830542694019
 31
0.0
  0
LINE
  5
32F9
  8
AM_0
 10
203.88401499816109
 20
221.05830542694019
 30
0.0
 11
226.88401499816121
 21
221.05830542694019
 31
0.0
  0
ARC
  5
32FA
  8
AM_0
 10
226.88401499816121
 20
222.05830542694031
 30
0.0
 40
1.0
 50
270.0
 51
0.0
1001
GENIUS_GENOBJ-N-FIL_13
1002
{
1000
OWNER
1000
GEN
1002
}
1001
GENIUS_GENODEF_13
1002
{
1000
HIER
1070
     0
1002
}
1002
{
1000
MANEDIT
1070
     0
1002
}
1002
{
1000
NOSEL
1070
     0
1002
}
1002
{
1000
BEHIND
1070
     0
1002
}
1002
{
1000
OTHER
1070
     0
1002
}
1002
{
1000
REACTOR
1002
}
  0
ARC
  5
32FB
  8
AM_0
 10
226.88401499816121
 20
230.4583054269402
 30
0.0
 40
1.0
 50
0.0
 51
90.0
1001
GENIUS_GENODEF_13
1002
{
1000
HIER
1070
     0
1002
}
1002
{
1000
MANEDIT
1070
     0
1002
}
1002
{
1000
NOSEL
1070
     0
1002
}
1002
{
1000
BEHIND
1070
     0
1002
}
1002
{
1000
OTHER
1070
     0
1002
}
1002
{
1000
REACTOR
1002
}
1001
GENIUS_GENOBJ-N-FIL_13
1002
{
1000
OWNER
1000
GEN
1002
}
  0
LINE
  5
32FC
  8
AM_0
 10
227.88401499816121
 20
230.4583054269402
 30
0.0
 11
227.88401499816121
 21
228.15830542694019
 31
0.0
  0
ARC
  5
32FD
  8
AM_0
 10
226.88401499816121
 20
222.65830542694019
 30
0.0
 40
1.0
 50
0.0
 51
90.0
1001
GENIUS_GENODEF_13
1002
{
1000
HIER
1070
     0
1002
}
1002
{
1000
MANEDIT
1070
     0
1002
}
1002
{
1000
NOSEL
1070
     0
1002
}
1002
{
1000
BEHIND
1070
     0
1002
}
1002
{
1000
OTHER
1070
     0
1002
}
1002
{
1000
REACTOR
1002
}
1001
GENIUS_GENOBJ-N-FIL_13
1002
{
1000
OWNER
1000
GEN
1002
}
  0
LINE
  5
32FE
  8
AM_0
 10
227.88401499816121
 20
222.65830542694019
 30
0.0
 11
227.88401499816121
 21
222.05830542694031
 31
0.0
  0
ARC
  5
32FF
  8
AM_0
 10
226.88401499816121
 20
228.15830542694019
 30
0.0
 40
1.0
 50
270.0
 51
0.0
1001
GENIUS_GENODEF_13
1002
{
1000
HIER
1070
     0
1002
}
1002
{
1000
MANEDIT
1070
     0
1002
}
1002
{
1000
NOSEL
1070
     0
1002
}
1002
{
1000
BEHIND
1070
     0
1002
}
1002
{
1000
OTHER
1070
     0
1002
}
1002
{
1000
REACTOR
1002
}
1001
GENIUS_GENOBJ-N-FIL_13
1002
{
1000
OWNER
1000
GEN
1002
}
  0
LINE
  5
3300
  8
AM_0
 10
203.88401499816109
 20
249.35830542694021
 30
0.0
 11
226.88401499816109
 21
249.35830542694021
 31
0.0
  0
LINE
  5
3301
  8
AM_0
 10
203.88401499816109
 20
243.85830542694021
 30
0.0
 11
226.88401499816121
 21
243.85830542694021
 31
0.0
  0
LINE
  5
3302
  8
AM_0
 10
203.88401499816109
 20
240.1583054269401
 30
0.0
 11
226.88401499816121
 21
240.1583054269403
 31
0.0
  0
LINE
  5
3303
  8
AM_0
 10
203.88401499816109
 20
234.9583054269402
 30
0.0
 11
226.88401499816121
 21
234.9583054269402
 31
0.0
  0
ARC
  5
3304
  8
AM_0
 10
226.88401499816121
 20
239.1583054269403
 30
0.0
 40
1.0
 50
0.0
 51
90.0
1001
GENIUS_GENODEF_13
1002
{
1000
HIER
1070
     0
1002
}
1002
{
1000
MANEDIT
1070
     0
1002
}
1002
{
1000
NOSEL
1070
     0
1002
}
1002
{
1000
BEHIND
1070
     0
1002
}
1002
{
1000
OTHER
1070
     0
1002
}
1002
{
1000
REACTOR
1002
}
1001
GENIUS_GENOBJ-N-FIL_13
1002
{
1000
OWNER
1000
GEN
1002
}
  0
ARC
  5
3305
  8
AM_0
 10
226.88401499816121
 20
235.9583054269402
 30
0.0
 40
1.0
 50
270.0
 51
0.0
1001
GENIUS_GENODEF_13
1002
{
1000
HIER
1070
     0
1002
}
1002
{
1000
MANEDIT
1070
     0
1002
}
1002
{
1000
NOSEL
1070
     0
1002
}
1002
{
1000
BEHIND
1070
     0
1002
}
1002
{
1000
OTHER
1070
     0
1002
}
1002
{
1000
REACTOR
1002
}
1001
GENIUS_GENOBJ-N-FIL_13
1002
{
1000
OWNER
1000
GEN
1002
}
  0
LINE
  5
3306
  8
AM_0
 10
227.88401499816109
 20
239.1583054269403
 30
0.0
 11
227.88401499816121
 21
235.9583054269402
 31
0.0
  0
LINE
  5
3307
  8
AM_0
 10
227.88401499816109
 20
248.35830542694021
 30
0.0
 11
227.88401499816109
 21
244.85830542694021
 31
0.0
  0
ARC
  5
3308
  8
AM_0
 10
226.88401499816121
 20
244.85830542694021
 30
0.0
 40
1.0
 50
270.0
 51
0.0
1001
GENIUS_GENODEF_13
1002
{
1000
HIER
1070
     0
1002
}
1002
{
1000
MANEDIT
1070
     0
1002
}
1002
{
1000
NOSEL
1070
     0
1002
}
1002
{
1000
BEHIND
1070
     0
1002
}
1002
{
1000
OTHER
1070
     0
1002
}
1002
{
1000
REACTOR
1002
}
1001
GENIUS_GENOBJ-N-FIL_13
1002
{
1000
OWNER
1000
GEN
1002
}
  0
ARC
  5
3309
  8
AM_0
 10
226.88401499816109
 20
248.35830542694021
 30
0.0
 40
1.0
 50
0.0
 51
90.0
1001
GENIUS_GENOBJ-N-FIL_13
1002
{
1000
OWNER
1000
GEN
1002
}
1001
GENIUS_GENODEF_13
1002
{
1000
HIER
1070
     0
1002
}
1002
{
1000
MANEDIT
1070
     0
1002
}
1002
{
1000
NOSEL
1070
     0
1002
}
1002
{
1000
BEHIND
1070
     0
1002
}
1002
{
1000
OTHER
1070
     0
1002
}
1002
{
1000
REACTOR
1002
}
  0
LINE
  5
330A
  8
AM_0
 10
256.38401499816109
 20
220.35830542694021
 30
0.0
 11
249.38401499816121
 21
217.35830542694021
 31
0.0
  0
LINE
  5
330B
  8
AM_0
 10
237.88401499816109
 20
217.35830542694021
 30
0.0
 11
249.38401499816121
 21
217.35830542694021
 31
0.0
  0
ARC
  5
330C
  8
AM_0
 10
267.38402499816101
 20
218.3582894269401
 30
0.0
 40
2.00000007
 50
90.00000299999769
 51
180.00001000000091
  0
LINE
  5
330D
  8
AM_0
 10
203.88401499816109
 20
261.35830542694021
 30
0.0
 11
226.88401499816109
 21
261.35830542694021
 31
0.0
  0
LINE
  5
330E
  8
AM_0
 10
203.88401499816109
 20
254.85830542694021
 30
0.0
 11
226.88401499816109
 21
254.85830542694021
 31
0.0
  0
ARC
  5
330F
  8
AM_0
 10
226.88401499816109
 20
260.35830542694021
 30
0.0
 40
1.0
 50
0.0
 51
90.0
1001
GENIUS_GENOBJ-N-FIL_13
1002
{
1000
OWNER
1000
GEN
1002
}
1001
GENIUS_GENODEF_13
1002
{
1000
HIER
1070
     0
1002
}
1002
{
1000
MANEDIT
1070
     0
1002
}
1002
{
1000
NOSEL
1070
     0
1002
}
1002
{
1000
BEHIND
1070
     0
1002
}
1002
{
1000
OTHER
1070
     0
1002
}
1002
{
1000
REACTOR
1002
}
  0
ARC
  5
3310
  8
AM_0
 10
226.88401499816109
 20
255.85830542694021
 30
0.0
 40
1.0
 50
270.0
 51
0.0
1001
GENIUS_GENODEF_13
1002
{
1000
HIER
1070
     0
1002
}
1002
{
1000
MANEDIT
1070
     0
1002
}
1002
{
1000
NOSEL
1070
     0
1002
}
1002
{
1000
BEHIND
1070
     0
1002
}
1002
{
1000
OTHER
1070
     0
1002
}
1002
{
1000
REACTOR
1002
}
1001
GENIUS_GENOBJ-N-FIL_13
1002
{
1000
OWNER
1000
GEN
1002
}
  0
LINE
  5
3311
  8
AM_0
 10
227.88401499816109
 20
260.35830542694021
 30
0.0
 11
227.88401499816109
 21
255.85830542694021
 31
0.0
  0
LINE
  5
3313
  8
ｶｸﾚｾﾝ2
 10
341.38397499816102
 20
220.35830542694021
 30
0.0
 11
341.38397499816102
 21
208.35830542694021
 31
0.0
  0
LINE
  5
3314
  8
ｶｸﾚｾﾝ2
 10
353.38397499816108
 20
220.35830542694021
 30
0.0
 11
353.38397499816108
 21
208.35830542694021
 31
0.0
  0
LINE
  5
3315
  8
ｶｸﾚｾﾝ2
 10
271.38401499816109
 20
220.35830542694021
 30
0.0
 11
271.38401499816109
 21
208.35830542694021
 31
0.0
  0
LINE
  5
3316
  8
ｶｸﾚｾﾝ2
 10
283.38401499816109
 20
220.35830542694021
 30
0.0
 11
283.38401499816109
 21
208.35830542694021
 31
0.0
  0
LINE
  5
3317
  8
AM_0
 10
359.38397499816108
 20
218.3582894269401
 30
0.0
 11
359.38397499816108
 21
208.35830542694021
 31
0.0
  0
LINE
  5
3318
  8
ﾁｭｳｼﾝｾﾝ1
 10
277.38401499816109
 20
224.90376142694021
 30
0.0
 11
277.38401499816109
 21
203.81283442694021
 31
0.0
  0
LINE
  5
3319
  8
ﾁｭｳｼﾝｾﾝ1
 10
347.38397499816108
 20
224.90376142694021
 30
0.0
 11
347.38397499816108
 21
203.81283442694021
 31
0.0
  0
LINE
  5
331B
  8
AM_0
 10
334.38401499816121
 20
208.35830542694021
 30
0.0
 11
359.38397499816108
 21
208.35830542694021
 31
0.0
  0
LINE
  5
331C
  8
AM_0
 10
291.38402499816101
 20
209.35828942694019
 30
0.0
 11
333.38399499816092
 21
209.35828942694019
 31
0.0
  0
ARC
  5
331D
  8
AM_0
 10
291.38402499816101
 20
208.35830542694021
 30
0.0
 40
1.0000000199999981
 50
90.00000299999769
 51
180.00001000000091
  0
LINE
  5
331E
  8
AM_0
 10
290.384004998161
 20
208.35830542694021
 30
0.0
 11
290.384004998161
 21
208.35830542694021
 31
0.0
  0
ARC
  5
331F
  8
AM_0
 10
333.38399499816092
 20
208.35830542694021
 30
0.0
 40
1.0000000199999981
 50
0.0
 51
90.00000299999769
  0
LINE
  5
3320
  8
AM_0
 10
334.38401499816121
 20
208.35830542694021
 30
0.0
 11
334.38401499816121
 21
208.35830542694021
 31
0.0
  0
LINE
  5
3321
  8
AM_0
 10
330.38399499816092
 20
235.39910842694019
 30
0.0
 11
339.38399499816092
 21
235.39910842694019
 31
0.0
  0
LINE
  5
3322
  8
AM_0
 10
335.38397499816102
 20
220.35830542694021
 30
0.0
 11
357.38399499816109
 21
220.35830542694021
 31
0.0
  0
ARC
  5
3323
  8
AM_0
 10
292.38401499816092
 20
253.88276542694021
 30
0.0
 40
5.0000001000000003
 50
348.0238700000001
 51
0.0
  0
LINE
  5
3324
  8
AM_0
 10
282.38402499816101
 20
232.1425304269402
 30
0.0
 11
282.38402499816101
 21
220.35830542694021
 31
0.0
  0
LINE
  5
3325
  8
AM_0
 10
291.22454499816092
 20
224.32076842694011
 30
0.0
 11
297.27512499816112
 21
252.84524542694021
 31
0.0
  0
ARC
  5
3326
  8
AM_0
 10
286.33334499816101
 20
225.35828842694019
 30
0.0
 40
5.0000001000000003
 50
270.0
 51
348.0238700000001
  0
LINE
  5
3327
  8
AM_0
 10
284.384004998161
 20
220.4882174269402
 30
0.0
 11
287.38400499816112
 21
220.4882174269402
 31
0.0
  0
ARC
  5
3328
  8
AM_0
 10
284.384004998161
 20
218.48821942694019
 30
0.0
 40
2.00000007
 50
90.00000299999769
 51
110.7662300000015
  0
ARC
  5
3329
  8
AM_0
 10
279.38402499816101
 20
223.75497142694019
 30
0.0
 40
3.0
 50
0.0
 51
88.499997000000747
  0
LINE
  5
332A
  8
AM_0
 10
282.38402499816101
 20
234.14254642694021
 30
0.0
 11
287.38400499816112
 21
234.14254642694021
 31
0.0
  0
ARC
  5
332B
  8
AM_0
 10
280.38401499816121
 20
232.1425304269402
 30
0.0
 40
2.00000007
 50
0.0
 51
90.00000299999769
  0
ARC
  5
332C
  8
AM_0
 10
335.38397499816102
 20
225.35828842694019
 30
0.0
 40
5.0000001000000003
 50
180.00001000000091
 51
270.0
  0
LINE
  5
332D
  8
AM_0
 10
297.38402499816101
 20
290.5745534269401
 30
0.0
 11
308.38400499816112
 21
290.5745534269401
 31
0.0
  0
LINE
  5
332E
  8
AM_0
 10
297.38402499816101
 20
290.5745534269401
 30
0.0
 11
297.38402499816101
 21
253.88276542694021
 31
0.0
  0
ARC
  5
332F
  8
AM_0
 10
361.38401499816121
 20
224.1028574269402
 30
0.0
 40
5.0000001000000003
 50
179.999989999999
 51
235.15011000000041
  0
ARC
  5
3330
  8
AM_0
 10
357.38399499816109
 20
218.3582894269401
 30
0.0
 40
2.00000007
 50
0.0
 51
90.00000299999769
  0
ARC
  5
3331
  8
AM_0
 10
339.38399499816092
 20
239.3990924269402
 30
0.0
 40
4.000000199999997
 50
270.0
 51
0.0
  0
LINE
  5
3332
  8
AM_0
 10
361.38395499816107
 20
291.35827642694022
 30
0.0
 11
401.3839749981608
 21
291.35827642694022
 31
0.0
  0
ARC
  5
3333
  8
AM_0
 10
358.38401499816109
 20
273.97152742694021
 30
0.0
 40
2.00000007
 50
120.0000000000005
 51
180.00001000000091
  0
ARC
  5
3334
  8
AM_0
 10
357.38399499816109
 20
278.01300142694021
 30
0.0
 40
2.00000007
 50
300.00000000000051
 51
0.0
  0
LINE
  5
3335
  8
AM_0
 10
357.3839649981611
 20
275.70358342694021
 30
0.0
 11
358.38395499816107
 21
276.28094542694021
 31
0.0
  0
LINE
  5
3336
  8
AM_0
 10
359.38397499816108
 20
290.85830542694021
 30
0.0
 11
361.38395499816107
 21
290.85830542694021
 31
0.0
  0
LINE
  5
3337
  8
AM_0
 10
94.384014998161263
 20
348.95830542694023
 30
0.0
 11
237.88401499816121
 21
348.95830542694023
 31
0.0
  0
LINE
  5
3338
  8
AM_0
 10
98.884014998161206
 20
309.35830542694021
 30
0.0
 11
154.88401499816121
 21
309.35830542694021
 31
0.0
1001
GENIUS_GENOREF_13
1005
3408
  0
LINE
  5
333B
  8
AM_0
 10
91.712742675821062
 20
340.76161891819322
 30
0.0
 11
88.555287320501407
 21
337.95499193568708
 31
0.0
  0
ARC
  5
333C
  8
AM_0
 10
79.884014998161206
 20
300.35830542694021
 30
0.0
 40
3.0
 50
90.0
 51
180.0
1001
GENIUS_GENOBJ-N-FIL_13
1002
{
1000
OWNER
1000
GEN
1002
}
1001
GENIUS_GENODEF_13
1002
{
1000
HIER
1070
     0
1002
}
1002
{
1000
MANEDIT
1070
     0
1002
}
1002
{
1000
NOSEL
1070
     0
1002
}
1002
{
1000
BEHIND
1070
     0
1002
}
1002
{
1000
OTHER
1070
     0
1002
}
1002
{
1000
REACTOR
1002
}
  0
LINE
  5
333D
  8
AM_0
 10
79.884014998161206
 20
303.35830542694021
 30
0.0
 11
86.596649799203362
 21
303.35830542694021
 31
0.0
  0
ARC
  5
333E
  8
AM_0
 10
98.884014998161206
 20
308.35830542694021
 30
0.0
 40
1.0
 50
90.0
 51
180.0
1001
GENIUS_GENODEF_13
1002
{
1000
HIER
1070
     0
1002
}
1002
{
1000
MANEDIT
1070
     0
1002
}
1002
{
1000
NOSEL
1070
     0
1002
}
1002
{
1000
BEHIND
1070
     0
1002
}
1002
{
1000
OTHER
1070
     0
1002
}
1002
{
1000
REACTOR
1002
}
1001
GENIUS_GENOBJ-N-FIL_13
1002
{
1000
OWNER
1000
GEN
1002
}
  0
ARC
  5
333F
  8
AM_0
 10
89.884014998161206
 20
336.46017329831972
 30
0.0
 40
2.0
 50
131.63353933656751
 51
180.0
1001
GENIUS_GENODEF_13
1002
{
1000
HIER
1070
     0
1002
}
1002
{
1000
MANEDIT
1070
     0
1002
}
1002
{
1000
NOSEL
1070
     0
1002
}
1002
{
1000
BEHIND
1070
     0
1002
}
1002
{
1000
OTHER
1070
     0
1002
}
1002
{
1000
REACTOR
1002
}
1001
GENIUS_GENOBJ-N-FIL_13
1002
{
1000
OWNER
1000
GEN
1002
}
  0
LINE
  5
3340
  8
AM_0N
 10
120.13151499816119
 20
314.83690062171121
 30
0.0
 11
120.6365149981612
 21
314.83690062171121
 31
0.0
1001
GENIUS_GENOREF_13
1005
0
  0
LINE
  5
3341
  8
AM_0N
 10
120.13151499816119
 20
311.87971023216909
 30
0.0
 11
120.6365149981612
 21
311.87971023216909
 31
0.0
1001
GENIUS_GENOREF_13
1005
0
  0
LINE
  5
3342
  8
AM_0
 10
114.38401499816121
 20
317.35830542694021
 30
0.0
 11
126.38401499816121
 21
317.35830542694021
 31
0.0
1001
GENIUS_GENOREF_13
1005
3408
  0
CIRCLE
  5
3343
  8
AM_0N
 10
120.38401499816121
 20
313.35830542694021
 30
0.0
 40
2.799999999999998
1001
GENIUS_GENOREF_13
1005
0
  0
LINE
  5
3344
  8
AM_0N
 10
120.13151499816119
 20
313.10580542694021
 30
0.0
 11
120.13151499816119
 21
311.87971023216909
 31
0.0
1001
GENIUS_GENOREF_13
1005
0
  0
LINE
  5
3345
  8
AM_0N
 10
120.13151499816119
 20
314.83690062171121
 30
0.0
 11
120.13151499816119
 21
313.61080542694032
 31
0.0
1001
GENIUS_GENOREF_13
1005
0
  0
ARC
  5
3346
  8
AM_0
 10
114.38401499816121
 20
315.35830542694021
 30
0.0
 40
2.0
 50
90.0
 51
180.0
1001
GENIUS_GENOBJ-N-FIL_13
1002
{
1000
OWNER
1000
GEN
1002
}
1001
GENIUS_GENODEF_13
1002
{
1000
HIER
1070
     0
1002
}
1002
{
1000
MANEDIT
1070
     0
1002
}
1002
{
1000
NOSEL
1070
     0
1002
}
1002
{
1000
BEHIND
1070
     0
1002
}
1002
{
1000
OTHER
1070
     0
1002
}
1002
{
1000
REACTOR
1002
}
  0
LINE
  5
3347
  8
AM_0N
 10
118.9054198033901
 20
313.10580542694021
 30
0.0
 11
118.9054198033901
 21
313.61080542694032
 31
0.0
1001
GENIUS_GENOREF_13
1005
0
  0
LINE
  5
3348
  8
AM_0
 10
112.38401499816121
 20
315.35830542694021
 30
0.0
 11
112.38401499816121
 21
309.35830542694021
 31
0.0
  0
LINE
  5
3349
  8
AM_0
 10
116.38401499816121
 20
317.35830542694021
 30
0.0
 11
116.38401499816121
 21
309.35830542694021
 31
0.0
  0
LINE
  5
334A
  8
AM_0N
 10
120.13151499816119
 20
313.10580542694021
 30
0.0
 11
118.9054198033901
 21
313.10580542694021
 31
0.0
1001
GENIUS_GENOREF_13
1005
0
  0
LINE
  5
334B
  8
AM_0N
 10
120.13151499816119
 20
313.61080542694032
 30
0.0
 11
118.9054198033901
 21
313.61080542694032
 31
0.0
1001
GENIUS_GENOREF_13
1005
0
  0
ARC
  5
334C
  8
AM_0
 10
126.38401499816121
 20
315.35830542694021
 30
0.0
 40
2.0
 50
0.0
 51
90.0
1001
GENIUS_GENOBJ-N-FIL_13
1002
{
1000
OWNER
1000
GEN
1002
}
1001
GENIUS_GENODEF_13
1002
{
1000
HIER
1070
     0
1002
}
1002
{
1000
MANEDIT
1070
     0
1002
}
1002
{
1000
NOSEL
1070
     0
1002
}
1002
{
1000
BEHIND
1070
     0
1002
}
1002
{
1000
OTHER
1070
     0
1002
}
1002
{
1000
REACTOR
1002
}
  0
LINE
  5
334D
  8
AM_0N
 10
121.86261019293219
 20
313.10580542694021
 30
0.0
 11
121.86261019293219
 21
313.61080542694032
 31
0.0
1001
GENIUS_GENOREF_13
1005
0
  0
LINE
  5
334E
  8
AM_0N
 10
121.86261019293219
 20
313.10580542694021
 30
0.0
 11
120.6365149981612
 21
313.10580542694021
 31
0.0
1001
GENIUS_GENOREF_13
1005
0
  0
LINE
  5
334F
  8
AM_0N
 10
121.86261019293219
 20
313.61080542694032
 30
0.0
 11
120.6365149981612
 21
313.61080542694032
 31
0.0
1001
GENIUS_GENOREF_13
1005
0
  0
LINE
  5
3350
  8
AM_0N
 10
120.6365149981612
 20
313.10580542694021
 30
0.0
 11
120.6365149981612
 21
311.87971023216909
 31
0.0
1001
GENIUS_GENOREF_13
1005
0
  0
LINE
  5
3351
  8
AM_0
 10
128.38401499816121
 20
315.35830542694021
 30
0.0
 11
128.38401499816121
 21
309.35830542694021
 31
0.0
  0
LINE
  5
3352
  8
AM_0
 10
124.38401499816121
 20
317.35830542694021
 30
0.0
 11
124.38401499816121
 21
309.35830542694021
 31
0.0
  0
LINE
  5
3353
  8
AM_0N
 10
120.6365149981612
 20
314.83690062171121
 30
0.0
 11
120.6365149981612
 21
313.61080542694032
 31
0.0
1001
GENIUS_GENOREF_13
1005
0
  0
ARC
  5
3354
  8
AM_0
 10
90.384014998161206
 20
342.25643755556069
 30
0.0
 40
2.0
 50
311.63353933656748
 51
0.0
1001
GENIUS_GENOBJ-N-FIL_13
1002
{
1000
OWNER
1000
GEN
1002
}
1001
GENIUS_GENODEF_13
1002
{
1000
HIER
1070
     0
1002
}
1002
{
1000
MANEDIT
1070
     0
1002
}
1002
{
1000
NOSEL
1070
     0
1002
}
1002
{
1000
BEHIND
1070
     0
1002
}
1002
{
1000
OTHER
1070
     0
1002
}
1002
{
1000
REACTOR
1002
}
  0
ARC
  5
3355
  8
AM_0
 10
94.384014998161263
 20
346.95830542694023
 30
0.0
 40
2.0
 50
90.0
 51
180.0
1001
GENIUS_GENOBJ-N-FIL_13
1002
{
1000
OWNER
1000
GEN
1002
}
1001
GENIUS_GENODEF_13
1002
{
1000
HIER
1070
     0
1002
}
1002
{
1000
MANEDIT
1070
     0
1002
}
1002
{
1000
NOSEL
1070
     0
1002
}
1002
{
1000
BEHIND
1070
     0
1002
}
1002
{
1000
OTHER
1070
     0
1002
}
1002
{
1000
REACTOR
1002
}
  0
LINE
  5
3357
  8
AM_0
 10
256.38401499816109
 20
315.29528242694022
 30
0.0
 11
282.38402499816101
 21
315.29528242694022
 31
0.0
  0
LINE
  5
3358
  8
AM_0
 10
256.38401499816109
 20
329.35829242694018
 30
0.0
 11
282.38402499816101
 21
329.35829242694018
 31
0.0
  0
LINE
  5
3359
  8
AM_0
 10
256.38395499816107
 20
339.35828242694021
 30
0.0
 11
282.51488499816111
 21
340.04255242694018
 31
0.0
  0
ARC
  5
335A
  8
AM_0
 10
154.88401499816121
 20
308.35830542694021
 30
0.0
 40
1.0
 50
0.0
 51
90.0
1001
GENIUS_GENODEF_13
1002
{
1000
HIER
1070
     0
1002
}
1002
{
1000
MANEDIT
1070
     0
1002
}
1002
{
1000
NOSEL
1070
     0
1002
}
1002
{
1000
BEHIND
1070
     0
1002
}
1002
{
1000
OTHER
1070
     0
1002
}
1002
{
1000
REACTOR
1002
}
1001
GENIUS_GENOBJ-N-FIL_13
1002
{
1000
OWNER
1000
GEN
1002
}
  0
LINE
  5
335B
  8
AM_0
 10
249.38401499816121
 20
349.35830542694009
 30
0.0
 11
256.38401499816109
 21
346.35830542694021
 31
0.0
  0
LINE
  5
335C
  8
AM_0
 10
237.88401499816109
 20
349.35830542694009
 30
0.0
 11
249.38401499816121
 21
349.35830542694009
 31
0.0
  0
ARC
  5
335E
  8
AM_0
 10
338.38397499816102
 20
313.14911242694018
 30
0.0
 40
8.0000000999999976
 50
90.00000299999769
 51
180.00001000000091
  0
LINE
  5
335F
  8
AM_0
 10
308.38400499816112
 20
334.88573242694019
 30
0.0
 11
343.38401499816121
 21
334.88573242694019
 31
0.0
  0
LINE
  5
3360
  8
AM_0
 10
294.38396499816099
 20
354.35828242694009
 30
0.0
 11
338.51483499816112
 21
353.20268242694021
 31
0.0
  0
ARC
  5
3361
  8
AM_0
 10
306.38402499816101
 20
339.88508242694019
 30
0.0
 40
1.0000000199999981
 50
90.00000299999769
 51
180.00001000000091
  0
ARC
  5
3362
  8
AM_0
 10
282.38402499816101
 20
345.04082242694022
 30
0.0
 40
5.0000001000000003
 50
271.50000000000267
 51
0.0
  0
LINE
  5
3363
  8
AM_0
 10
308.3839449981611
 20
353.91314242694023
 30
0.0
 11
321.9659649981611
 21
334.88573242694019
 31
0.0
  0
LINE
  5
3364
  8
AM_0
 10
308.38400499816112
 20
353.91314242694023
 30
0.0
 11
308.38400499816112
 21
334.88573242694019
 31
0.0
  0
LINE
  5
3365
  8
AM_0
 10
287.38400499816112
 20
352.3583024269401
 30
0.0
 11
287.38400499816112
 21
337.02542242694022
 31
0.0
  0
LINE
  5
3366
  8
AM_0
 10
278.74199499816109
 20
328.10228242694029
 30
0.0
 11
311.50199499816102
 21
328.10228242694029
 31
0.0
  0
LINE
  5
3367
  8
AM_0
 10
282.38402499816101
 20
333.02546242694018
 30
0.0
 11
282.38402499816101
 21
313.38632242694018
 31
0.0
  0
LINE
  5
3368
  8
AM_0
 10
282.38402499816101
 20
311.38632142694019
 30
0.0
 11
287.38400499816112
 21
311.38632142694019
 31
0.0
  0
ARC
  5
3369
  8
AM_0
 10
280.38401499816121
 20
313.38632242694018
 30
0.0
 40
2.00000007
 50
270.0
 51
0.0
  0
ARC
  5
336A
  8
AM_0
 10
285.38402499816101
 20
324.85262242694017
 30
0.0
 40
2.00000007
 50
0.0
 51
90.00000299999769
  0
ARC
  5
336B
  8
AM_0
 10
285.38402499816101
 20
337.02542242694022
 30
0.0
 40
2.00000007
 50
270.0
 51
0.0
  0
ARC
  5
336C
  8
AM_0
 10
284.384004998161
 20
328.85264242694018
 30
0.0
 40
2.00000007
 50
179.999989999999
 51
270.0
  0
LINE
  5
336D
  8
AM_0
 10
284.384004998161
 20
326.8526324269402
 30
0.0
 11
285.38402499816101
 21
326.8526324269402
 31
0.0
  0
ARC
  5
336E
  8
AM_0
 10
284.384004998161
 20
333.02546242694018
 30
0.0
 40
2.00000007
 50
90.00000299999769
 51
180.00001000000091
  0
LINE
  5
336F
  8
AM_0
 10
284.384004998161
 20
335.02544242694017
 30
0.0
 11
285.38402499816101
 21
335.02544242694017
 31
0.0
  0
LINE
  5
3370
  8
AM_0
 10
305.384004998161
 20
339.88508242694019
 30
0.0
 11
305.384004998161
 21
316.98302242694018
 31
0.0
  0
LINE
  5
3371
  8
AM_0
 10
308.38400499816112
 20
316.70699242694019
 30
0.0
 11
331.21871499816092
 21
316.70699242694019
 31
0.0
  0
ARC
  5
3372
  8
AM_0
 10
306.38402499816101
 20
313.98302242694018
 30
0.0
 40
2.00000007
 50
0.0
 51
90.00000299999769
  0
ARC
  5
3373
  8
AM_0
 10
306.38402499816101
 20
316.98302242694018
 30
0.0
 40
1.0000000199999981
 50
179.999989999999
 51
270.0
  0
LINE
  5
3374
  8
AM_0
 10
306.38402499816101
 20
334.8758024269402
 30
0.0
 11
306.38402499816101
 21
321.32876242694022
 31
0.0
  0
LINE
  5
3375
  8
AM_0
 10
310.38395499816107
 20
323.32877242694019
 30
0.0
 11
310.38395499816107
 21
332.87579242694022
 31
0.0
  0
ARC
  5
3376
  8
AM_0
 10
309.38402499816101
 20
323.32877242694019
 30
0.0
 40
1.0000000199999981
 50
270.0
 51
0.0
  0
ARC
  5
3377
  8
AM_0
 10
309.38402499816101
 20
324.21551242694022
 30
0.0
 40
1.0000000199999981
 50
0.0
 51
90.00000299999769
  0
ARC
  5
3378
  8
AM_0
 10
309.38402499816101
 20
326.2155224269402
 30
0.0
 40
1.0000000199999981
 50
270.0
 51
0.0
  0
LINE
  5
3379
  8
AM_0
 10
305.384004998161
 20
321.32876242694022
 30
0.0
 11
306.38402499816101
 21
321.32876242694022
 31
0.0
  0
LINE
  5
337A
  8
AM_0
 10
306.38402499816101
 20
325.2155024269403
 30
0.0
 11
309.38402499816101
 21
325.2155024269403
 31
0.0
  0
LINE
  5
337B
  8
AM_0
 10
306.38402499816101
 20
322.3287524269403
 30
0.0
 11
309.38402499816101
 21
322.3287524269403
 31
0.0
  0
ARC
  5
337C
  8
AM_0
 10
309.38402499816101
 20
332.87579242694022
 30
0.0
 40
1.0000000199999981
 50
0.0
 51
90.00000299999769
  0
ARC
  5
337D
  8
AM_0
 10
309.38402499816101
 20
331.98902242694021
 30
0.0
 40
1.0000000199999981
 50
270.0
 51
0.0
  0
ARC
  5
337E
  8
AM_0
 10
309.38402499816101
 20
329.98904242694022
 30
0.0
 40
1.0000000199999981
 50
0.0
 51
90.00000299999769
  0
LINE
  5
337F
  8
AM_0
 10
305.384004998161
 20
334.8758024269402
 30
0.0
 11
306.38402499816101
 21
334.8758024269402
 31
0.0
  0
LINE
  5
3380
  8
AM_0
 10
306.38402499816101
 20
330.98900242694009
 30
0.0
 11
309.38402499816101
 21
330.98900242694009
 31
0.0
  0
LINE
  5
3381
  8
AM_0
 10
306.38402499816101
 20
333.87578242694019
 30
0.0
 11
309.38402499816101
 21
333.87578242694019
 31
0.0
  0
ARC
  5
3382
  8
AM_0
 10
289.38401499816092
 20
352.3583024269401
 30
0.0
 40
2.00000007
 50
90.00000299999769
 51
180.00001000000091
  0
LINE
  5
3383
  8
AM_0
 10
289.38401499816092
 20
354.35828242694009
 30
0.0
 11
294.38402499816101
 21
354.35828242694009
 31
0.0
  0
ARC
  5
3384
  8
AM_0
 10
306.38402499816101
 20
342.8850824269403
 30
0.0
 40
2.00000007
 50
270.0
 51
0.0
  0
ARC
  5
3386
  8
AM_0
 10
348.38399499816109
 20
342.07730242694021
 30
0.0
 40
5.0000001000000003
 50
179.999989999999
 51
265.00000000000028
  0
LINE
  5
3387
  8
AM_0
 10
369.38399499816109
 20
318.35828242694021
 30
0.0
 11
401.3839749981608
 21
318.35828242694021
 31
0.0
  0
LINE
  5
3388
  8
AM_0
 10
361.38395499816107
 20
315.35828242694021
 30
0.0
 11
401.3839749981608
 21
315.35828242694021
 31
0.0
  0
LINE
  5
3389
  8
AM_0
 10
359.38397499816108
 20
315.8582624269402
 30
0.0
 11
361.38395499816107
 21
315.8582624269402
 31
0.0
  0
LINE
  5
338A
  8
AM_0
 10
369.38399499816109
 20
318.35828242694021
 30
0.0
 11
369.38399499816109
 21
315.35828242694021
 31
0.0
  0
LINE
  5
338B
  8
AM_0
 10
347.94818499816108
 20
337.09631242694019
 30
0.0
 11
353.64545499816109
 21
336.5978624269402
 31
0.0
  0
LINE
  5
338C
  8
AM_0
 10
338.38397499816102
 20
321.14909242694017
 30
0.0
 11
343.38401499816121
 21
321.14909242694017
 31
0.0
  0
ARC
  5
338D
  8
AM_0
 10
357.38399499816109
 20
328.7035724269403
 30
0.0
 40
2.00000007
 50
0.0
 51
60.000002000001302
  0
ARC
  5
338E
  8
AM_0
 10
358.38401499816109
 20
332.74505242694022
 30
0.0
 40
2.00000007
 50
179.999989999999
 51
240.00000999999969
  0
ARC
  5
338F
  8
AM_0
 10
353.38397499816108
 20
333.6093224269402
 30
0.0
 40
3.0
 50
0.0
 51
84.999996999998572
  0
LINE
  5
3390
  8
AM_0
 10
357.38399499816109
 20
331.0130024269402
 30
0.0
 11
358.383984998161
 21
330.43565242694018
 31
0.0
  0
ARC
  5
3391
  8
AM_0
 10
338.38397499816102
 20
348.20438242694007
 30
0.0
 40
5.0000001000000003
 50
0.0
 51
88.499997000000747
  0
ARC
  5
3393
  8
AM_0
 10
738.4887843331104
 20
275.33233815171832
 30
0.0
 40
264.99999999999989
 50
173.53019364652329
 51
181.46980635347501
  0
ARC
  5
3397
  8
AM_0
 10
554.66391156204872
 20
283.35830542694032
 30
0.0
 40
71.000000999999983
 50
152.99941999999919
 51
174.01019000000019
  0
ARC
  5
3398
  8
AM_0
 10
554.66391156204872
 20
303.35827642694022
 30
0.0
 40
26.500002599999998
 50
270.0
 51
90.00000299999769
  0
ARC
  5
3399
  8
AM_0
 10
554.66391156204872
 20
288.35827642694022
 30
0.0
 40
48.0
 50
0.0
 51
180.00001000000091
  0
ARC
  5
339A
  8
AM_0
 10
554.66391156204872
 20
283.35830542694032
 30
0.0
 40
71.000000999999983
 50
5.9898141999996781
 51
27.00057300000061
  0
ARC
  5
339B
  8
AM_0
 10
554.66391156204872
 20
303.35827642694022
 30
0.0
 40
26.500002599999998
 50
90.00000299999769
 51
270.0
  0
ARC
  5
339C
  8
AM_0
 10
554.66391156204872
 20
303.35827642694022
 30
0.0
 40
12.0000003
 50
109.4712199999996
 51
70.528788999999293
  0
LINE
  5
339D
  8
AM_0
 10
501.66390456204851
 20
318.61085242694031
 30
0.0
 11
501.66390456204851
 21
257.3582894269403
 31
0.0
  0
LINE
  5
339E
  8
AM_0
 10
607.66389756204865
 20
318.61085242694031
 30
0.0
 11
607.66389756204865
 21
257.3582894269403
 31
0.0
  0
LINE
  5
339F
  8
AM_0
 10
476.66394456204853
 20
220.3582904269403
 30
0.0
 11
487.4323545620486
 21
322.98842242694019
 31
0.0
  0
LINE
  5
33A0
  8
AM_0
 10
632.66391456204872
 20
220.35827542694031
 30
0.0
 11
621.89549556204872
 21
322.98845242694023
 31
0.0
  0
LINE
  5
33A1
  8
ﾁｭｳｼﾝｾﾝ1
 10
554.66391156204872
 20
359.02229974617518
 30
0.0
 11
554.66391156204872
 21
204.12399142694031
 31
0.0
  0
ARC
  5
33A6
  8
AM_0
 10
508.66390956204867
 20
209.35830442694029
 30
0.0
 40
2.00000007
 50
90.00000299999769
 51
180.00001000000091
  0
ARC
  5
33A7
  8
AM_0
 10
507.66391056204827
 20
208.35830542694029
 30
0.0
 40
1.0000000199999981
 50
90.00000299999769
 51
180.00001000000091
  0
ARC
  5
33A8
  8
AM_0
 10
501.66390456204851
 20
225.35828842694019
 30
0.0
 40
5.0000001000000003
 50
270.0
 51
0.0
  0
LINE
  5
33A9
  8
ﾁｭｳｼﾝｾﾝ1
 10
492.37247425772603
 20
283.35830542694032
 30
0.0
 11
616.65765741364885
 21
283.35830542694032
 31
0.0
  0
LINE
  5
33AA
  8
AM_0
 10
506.66391156204872
 20
208.35830542694029
 30
0.0
 11
506.66391156204872
 21
218.35830442694029
 31
0.0
  0
LINE
  5
33AB
  8
AM_0
 10
476.66391456204849
 20
208.35830542694029
 30
0.0
 11
476.66391456204849
 21
220.35830542694029
 31
0.0
  0
LINE
  5
33AC
  8
ｶｸﾚｾﾝ2
 10
483.66390456204851
 20
220.35830542694029
 30
0.0
 11
483.66390456204851
 21
208.35830542694029
 31
0.0
  0
LINE
  5
33AD
  8
ｶｸﾚｾﾝ2
 10
495.66390456204857
 20
220.35830542694029
 30
0.0
 11
495.66390456204857
 21
208.35830542694029
 31
0.0
  0
LINE
  5
33AE
  8
ﾁｭｳｼﾝｾﾝ1
 10
489.66390456204851
 20
224.90376142694029
 30
0.0
 11
489.66390456204851
 21
203.81283442694021
 31
0.0
  0
LINE
  5
33AF
  8
AM_0
 10
476.66391456204849
 20
208.35830542694029
 30
0.0
 11
506.66391156204872
 21
208.35830542694029
 31
0.0
  0
ARC
  5
33B1
  8
AM_0
 10
535.66391256204849
 20
257.3582894269403
 30
0.0
 40
34.000002000000002
 50
179.999989999999
 51
211.4669699999979
  0
LINE
  5
33B2
  8
AM_0
 10
506.66391156204872
 20
288.35827642694022
 30
0.0
 11
506.66391156204872
 21
225.35828842694019
 31
0.0
  0
LINE
  5
33B3
  8
AM_0
 10
504.66391056204861
 20
220.35830542694029
 30
0.0
 11
478.66392456204841
 21
220.35830542694029
 31
0.0
  0
ARC
  5
33B4
  8
AM_0
 10
478.66392456204841
 20
218.35830442694029
 30
0.0
 40
2.00000007
 50
90.00000299999769
 51
180.00001000000091
  0
ARC
  5
33B5
  8
AM_0
 10
504.66391056204861
 20
218.35830442694029
 30
0.0
 40
2.00000007
 50
0.0
 51
90.00000299999769
  0
ARC
  5
33B6
  8
AM_0
 10
478.57432930965552
 20
268.66330000065477
 30
0.0
 40
5.0
 50
181.46980635347501
 51
267.50000000000148
1001
GENIUS_GENOBJ-N-FIL_13
1002
{
1000
OWNER
1000
GEN
1002
}
1001
GENIUS_GENODEF_13
1002
{
1000
HIER
1070
     0
1002
}
1002
{
1000
MANEDIT
1070
     0
1002
}
1002
{
1000
NOSEL
1070
     0
1002
}
1002
{
1000
BEHIND
1070
     0
1002
}
1002
{
1000
OTHER
1070
     0
1002
}
1002
{
1000
REACTOR
1002
}
  0
LINE
  5
33B7
  8
AM_0
 10
478.35623237282829
 20
263.66805889274548
 30
0.0
 11
481.19519257158521
 21
263.54410721358801
 31
0.0
  0
ARC
  5
33B8
  8
AM_0
 10
600.66391356204872
 20
209.35830442694029
 30
0.0
 40
2.00000007
 50
0.0
 51
90.00000299999769
  0
LINE
  5
33B9
  8
AM_0
 10
632.66392956204868
 20
208.35830542694029
 30
0.0
 11
632.66392956204868
 21
220.35830542694029
 31
0.0
  0
LINE
  5
33BA
  8
ｶｸﾚｾﾝ2
 10
625.66393056204845
 20
220.35830542694029
 30
0.0
 11
625.66393056204845
 21
208.35830542694029
 31
0.0
  0
LINE
  5
33BB
  8
ｶｸﾚｾﾝ2
 10
613.66391256204872
 20
220.35830542694029
 30
0.0
 11
613.66391256204872
 21
208.35830542694029
 31
0.0
  0
LINE
  5
33BC
  8
ﾁｭｳｼﾝｾﾝ1
 10
619.66393056204845
 20
224.90376142694029
 30
0.0
 11
619.66393056204845
 21
203.81283442694021
 31
0.0
  0
LINE
  5
33BD
  8
AM_0
 10
602.66391456204872
 20
208.35830542694029
 30
0.0
 11
602.66391456204872
 21
218.35830442694029
 31
0.0
  0
LINE
  5
33BE
  8
AM_0
 10
521.95624056204861
 20
211.93844242694021
 30
0.0
 11
527.29025556204874
 21
209.72903242694019
 31
0.0
  0
LINE
  5
33BF
  8
AM_0
 10
527.2902225620486
 20
209.72903242694019
 30
0.0
 11
531.87066756204877
 21
213.2437274269403
 31
0.0
  0
LINE
  5
33C0
  8
AM_0
 10
582.03760056204874
 20
209.72904742694021
 30
0.0
 11
587.37163056204872
 21
211.9384754269403
 31
0.0
  0
LINE
  5
33C1
  8
AM_0
 10
577.45718556204861
 20
213.24369442694029
 30
0.0
 11
582.03761556204836
 21
209.72901742694029
 31
0.0
  0
LINE
  5
33C2
  8
AM_0
 10
601.66389756204865
 20
209.35830442694029
 30
0.0
 11
507.66391056204827
 21
209.35830442694029
 31
0.0
  0
LINE
  5
33C3
  8
AM_0
 10
632.66392956204868
 20
208.35830542694029
 30
0.0
 11
602.66391456204872
 21
208.35830542694029
 31
0.0
  0
ARC
  5
33C4
  8
AM_0
 10
601.66389756204865
 20
208.35830542694029
 30
0.0
 40
1.0000000199999981
 50
0.0
 51
90.00000299999769
  0
LINE
  5
33C5
  8
AM_0
 10
520.66391256204861
 20
225.35828842694019
 30
0.0
 11
588.66391356204872
 21
225.35828842694019
 31
0.0
  0
CIRCLE
  5
33C6
  8
AM_0
 10
526.53662256204859
 20
215.45315242694031
 30
0.0
 40
4.9999998000000003
  0
LINE
  5
33C7
  8
AM_0
 10
525.78305256204862
 20
221.17724542694029
 30
0.0
 11
521.20263756204872
 21
217.66256542694029
 31
0.0
  0
ARC
  5
33C8
  8
AM_0
 10
520.66391256204861
 20
220.35830542694029
 30
0.0
 40
5.0000001000000003
 50
90.00000299999769
 51
180.00001000000091
  0
ARC
  5
33C9
  8
AM_0
 10
512.66391156204872
 20
214.35830542694029
 30
0.0
 40
3.0
 50
270.0
 51
0.0
  0
LINE
  5
33CA
  8
AM_0
 10
515.66391156204872
 20
220.35830542694029
 30
0.0
 11
515.66391156204872
 21
214.35830542694029
 31
0.0
  0
LINE
  5
33CB
  8
AM_0
 10
512.66391156204872
 20
211.35830542694021
 30
0.0
 11
508.66390956204867
 21
211.35830542694021
 31
0.0
  0
LINE
  5
33CC
  8
AM_0
 10
521.20260756204846
 20
217.66258042694031
 30
0.0
 11
521.95620756204835
 21
211.9384754269403
 31
0.0
  0
LINE
  5
33CD
  8
AM_0
 10
531.11709756204868
 20
218.96781742694029
 30
0.0
 11
525.78308256204855
 21
221.17724542694029
 31
0.0
  0
LINE
  5
33CE
  8
AM_0
 10
531.87066756204877
 20
213.2437424269402
 30
0.0
 11
531.11706756204865
 21
218.9678474269403
 31
0.0
  0
ARC
  5
33CF
  8
AM_0
 10
573.66391356204872
 20
257.3582894269403
 30
0.0
 40
34.000002000000002
 50
328.53301999999962
 51
0.0
  0
LINE
  5
33D0
  8
AM_0
 10
602.66391456204872
 20
288.35827642694022
 30
0.0
 11
602.66391456204872
 21
225.35828842694019
 31
0.0
  0
ARC
  5
33D1
  8
AM_0
 10
607.66389756204865
 20
225.35828842694019
 30
0.0
 40
5.0000001000000003
 50
179.999989999999
 51
270.0
  0
LINE
  5
33D2
  8
AM_0
 10
604.66389756204876
 20
220.35830542694029
 30
0.0
 11
630.66392856204845
 21
220.35830542694029
 31
0.0
  0
ARC
  5
33D3
  8
AM_0
 10
588.66391356204872
 20
220.35830542694029
 30
0.0
 40
5.0000001000000003
 50
0.0
 51
90.00000299999769
  0
LINE
  5
33D4
  8
AM_0
 10
588.12521556204865
 20
217.6625504269403
 30
0.0
 11
583.54480356204863
 21
221.17722742694031
 31
0.0
  0
LINE
  5
33D5
  8
AM_0
 10
583.54480356204863
 20
221.17726042694019
 30
0.0
 11
578.21077356204864
 21
218.9678324269403
 31
0.0
  0
CIRCLE
  5
33D6
  8
AM_0
 10
582.79115556204874
 20
215.45315242694031
 30
0.0
 40
4.9999998000000003
  0
LINE
  5
33D7
  8
AM_0
 10
578.21072556204865
 20
218.9678324269403
 30
0.0
 11
577.45714056204861
 21
213.2437274269403
 31
0.0
  0
LINE
  5
33D8
  8
AM_0
 10
587.37160056204868
 20
211.93846042694031
 30
0.0
 11
588.12518556204873
 21
217.66256542694029
 31
0.0
  0
LINE
  5
33D9
  8
AM_0
 10
600.66391356204872
 20
211.35830542694021
 30
0.0
 11
596.66391456204872
 21
211.35830542694021
 31
0.0
  0
ARC
  5
33DA
  8
AM_0
 10
596.66391456204872
 20
214.35830542694029
 30
0.0
 40
3.0
 50
179.999989999999
 51
270.0
  0
LINE
  5
33DB
  8
AM_0
 10
593.66391456204872
 20
220.35830542694029
 30
0.0
 11
593.66391456204872
 21
214.35830542694029
 31
0.0
  0
ARC
  5
33DC
  8
AM_0
 10
604.66389756204876
 20
218.35830442694029
 30
0.0
 40
2.00000007
 50
90.00000299999769
 51
180.00001000000091
  0
ARC
  5
33DD
  8
AM_0
 10
630.66392856204845
 20
218.35830442694029
 30
0.0
 40
2.00000007
 50
0.0
 51
90.00000299999769
  0
ARC
  5
33DE
  8
AM_0
 10
554.66391156204872
 20
244.35830542694029
 30
0.0
 40
110.000004
 50
58.263836000000381
 51
121.736169999997
  0
ARC
  5
33DF
  8
AM_0
 10
509.59668156204862
 20
339.19469242694032
 30
0.0
 40
5.0000001000000003
 50
115.4175599999964
 51
205.0629700000004
  0
ARC
  5
33E0
  8
AM_0
 10
554.66391156204872
 20
283.35830542694032
 30
0.0
 40
71.000000999999983
 50
47.99935899999911
 51
132.0006499999993
  0
ARC
  5
33E1
  8
AM_0
 10
492.38565456204873
 20
331.14602242694019
 30
0.0
 40
13.9999986
 50
266.80063999999902
 51
25.062969000000368
  0
LINE
  5
33E2
  8
ﾁｭｳｼﾝｾﾝ1
 10
505.68663130207028
 20
303.35827642694022
 30
0.0
 11
603.64119182202705
 21
303.35827642694022
 31
0.0
  0
ARC
  5
33E5
  8
AM_0
 10
506.66391156204872
 20
318.61085242694031
 30
0.0
 40
5.0000001000000003
 50
138.71940999999791
 51
180.00001000000091
  0
ARC
  5
33E6
  8
AM_0
 10
491.32524456204868
 20
312.17563042694019
 30
0.0
 40
5.0000001000000003
 50
86.800639000002292
 51
174.01019000000019
  0
ARC
  5
33E7
  8
AM_0
 10
480.14462725480752
 20
304.62903597760157
 30
0.0
 40
5.0
 50
87.500000000001435
 51
173.53019364652329
1001
GENIUS_GENODEF_13
1002
{
1000
HIER
1070
     0
1002
}
1002
{
1000
MANEDIT
1070
     0
1002
}
1002
{
1000
NOSEL
1070
     0
1002
}
1002
{
1000
BEHIND
1070
     0
1002
}
1002
{
1000
OTHER
1070
     0
1002
}
1002
{
1000
REACTOR
1002
}
1001
GENIUS_GENOBJ-N-FIL_13
1002
{
1000
OWNER
1000
GEN
1002
}
  0
LINE
  5
33E8
  8
AM_0
 10
480.3627241916339
 20
309.62427708551093
 30
0.0
 11
486.00428442876108
 21
309.37796124608292
 31
0.0
  0
ARC
  5
33E9
  8
AM_0
 10
554.66391156204861
 20
283.35830542694032
 30
0.0
 40
74.0
 50
157.63965728329791
 51
159.39189950030311
  0
ARC
  5
33EA
  8
AM_0
 10
494.07576456204862
 20
314.2302524269403
 30
0.0
 40
3.0
 50
95.70573799999886
 51
152.99941999999919
  0
ARC
  5
33EB
  8
AM_0
 10
507.32315256204862
 20
320.90144242694021
 30
0.0
 40
20.000000700000001
 50
121.736169999997
 51
174.01019000000019
  0
CIRCLE
  5
33EC
  8
AM_0
 10
496.3524345620487
 20
328.1022524269402
 30
0.0
 40
4.9999998000000003
  0
LINE
  5
33ED
  8
AM_0
 10
491.01846456204862
 20
330.31172242694032
 30
0.0
 11
491.77206456204863
 21
324.58760242694018
 31
0.0
  0
LINE
  5
33EE
  8
AM_0
 10
501.68649456204861
 20
325.8928724269403
 30
0.0
 11
500.93292456204841
 21
331.61696242694018
 31
0.0
  0
LINE
  5
33EF
  8
AM_0
 10
497.10603456204842
 20
322.3781924269403
 30
0.0
 11
501.68649456204861
 21
325.8928724269403
 31
0.0
  0
LINE
  5
33F0
  8
AM_0
 10
491.77206456204863
 20
324.5875724269402
 30
0.0
 11
497.10609456204872
 21
322.37813242694023
 31
0.0
  0
LINE
  5
33F1
  8
AM_0
 10
500.93292456204841
 20
331.61693242694031
 30
0.0
 11
495.5988945620486
 21
333.8263424269403
 31
0.0
  0
LINE
  5
33F2
  8
AM_0
 10
495.59886456204862
 20
333.82640242694021
 30
0.0
 11
491.01846456204862
 21
330.31172242694032
 31
0.0
  0
ARC
  5
33F3
  8
AM_0
 10
509.16244656204861
 20
333.89162242694022
 30
0.0
 40
3.0
 50
132.0006499999993
 51
189.2943400000016
  0
CIRCLE
  5
33F4
  8
AM_0
 10
554.66391156204872
 20
303.35827642694022
 30
0.0
 40
3.0
  0
CIRCLE
  5
33F5
  8
AM_5
 10
554.66391156204872
 20
303.35827642694022
 30
0.0
 40
4.000000199999997
  0
LINE
  5
33F6
  8
AM_0
 10
550.66389756204876
 20
311.35827742694022
 30
0.0
 11
558.66389856204864
 21
311.35827742694022
 31
0.0
  0
LINE
  5
33F7
  8
AM_0
 10
550.66389756204876
 20
318.35828242694032
 30
0.0
 11
558.66389856204864
 21
318.35828242694032
 31
0.0
  0
LINE
  5
33F8
  8
AM_0
 10
550.66389756204876
 20
318.35828242694032
 30
0.0
 11
550.66389756204876
 21
311.35827742694022
 31
0.0
  0
LINE
  5
33F9
  8
AM_0
 10
558.66389856204864
 20
318.35828242694032
 30
0.0
 11
558.66389856204864
 21
311.35827742694022
 31
0.0
  0
ARC
  5
33FA
  8
AM_0
 10
599.73115956204845
 20
339.19469242694032
 30
0.0
 40
5.0000001000000003
 50
334.9370299999996
 51
64.582444000001303
  0
ARC
  5
33FB
  8
AM_0
 10
616.94218956204872
 20
331.14602242694019
 30
0.0
 40
13.9999986
 50
154.93704000000099
 51
273.19937000000078
  0
ARC
  5
33FC
  8
AM_0
 10
602.66391456204872
 20
318.61085242694031
 30
0.0
 40
5.0000001000000003
 50
0.0
 51
41.280591000002673
  0
ARC
  5
33FD
  8
AM_0
 10
600.16536456204847
 20
333.89162242694022
 30
0.0
 40
3.0
 50
350.70567000000091
 51
47.99935899999911
  0
ARC
  5
33FE
  8
AM_0
 10
615.25206456204864
 20
314.2302524269403
 30
0.0
 40
3.0
 50
27.00057300000061
 51
84.294261000002294
  0
ARC
  5
33FF
  8
AM_0
 10
618.0025815620487
 20
312.17563042694019
 30
0.0
 40
5.0000001000000003
 50
5.9898155000000548
 51
93.199358999997784
  0
ARC
  5
3400
  8
AM_0
 10
602.00468856204861
 20
320.90144242694021
 30
0.0
 40
20.000000700000001
 50
5.9898155000000548
 51
58.263836000000381
  0
CIRCLE
  5
3401
  8
AM_0
 10
612.97539156204834
 20
328.10219242694018
 30
0.0
 40
4.9999998000000003
  0
LINE
  5
3402
  8
AM_0
 10
618.30937656204844
 20
330.3116624269403
 30
0.0
 11
617.55577656204844
 21
324.5875724269402
 31
0.0
  0
LINE
  5
3403
  8
AM_0
 10
608.39494656204874
 20
331.61687242694018
 30
0.0
 11
607.6413615620487
 21
325.89275242694032
 31
0.0
  0
LINE
  5
3404
  8
AM_0
 10
612.2218215620486
 20
322.3781024269403
 30
0.0
 11
617.5558515620487
 21
324.58751242694029
 31
0.0
  0
LINE
  5
3405
  8
AM_0
 10
607.6414065620487
 20
325.89275242694032
 30
0.0
 11
612.22183656204845
 21
322.37807242694032
 31
0.0
  0
LINE
  5
3406
  8
AM_0
 10
618.30943656204863
 20
330.31160242694023
 30
0.0
 11
613.72902456204838
 21
333.82628242694022
 31
0.0
  0
LINE
  5
3407
  8
AM_0
 10
613.72900656204865
 20
333.82631242694032
 30
0.0
 11
608.39497656204844
 21
331.61690242694038
 31
0.0
  0
POINT
  5
3408
  8
0
 10
27.87626145878858
 20
531.35039740320985
 30
0.0
1001
GENIUS_GENOLIS_13
1002
{
1000
ENT
1005
0
1005
3338
1005
3342
1002
}
1001
GENIUS_GENOENT_13
1002
{
1000
MYREF
1005
3408
1002
}
1002
{
1000
GRP
1005
0
1002
}
1001
GENIUS_GENOBJ-NBEHI-BHB_13
1002
{
1000
OWNER
1000
genbehi
1002
}
1001
GENIUS_GENBH_13
1002
{
1000
FGO
1005
0
1002
}
1001
GENIUS_GENODEF_13
1002
{
1000
HIER
1070
     1
1002
}
1002
{
1000
MANEDIT
1070
     1
1002
}
1002
{
1000
NOSEL
1070
     1
1002
}
1002
{
1000
BEHIND
1070
     0
1002
}
1002
{
1000
OTHER
1070
     1
1002
}
1002
{
1000
REACTOR
1002
}
  0
TEXT
  5
3903
  8
AM_0
 10
482.72710165699573
 20
522.7060954618812
 30
0.0
 40
10.0
  1
VX02-040S~VX02-060S
  0
ENDSEC
  0
EOF
