  0
SECTION
  2
HEADER
  9
$ACADVER
  1
AC1009
  9
$INSBASE
 10
0.0
 20
0.0
 30
0.0
  9
$EXTMIN
 10
73.0151045286716
 20
177.15350320629159
 30
-0.0015258207003583
  9
$EXTMAX
 10
659.78000703747398
 20
586.79243199111295
 30
0.0000000349246037
  9
$LIMMIN
 10
0.0
 20
0.0
  9
$LIMMAX
 10
853.5
 20
555.00000000000011
  9
$ORTHOMODE
 70
     0
  9
$REGENMODE
 70
     1
  9
$FILLMODE
 70
     1
  9
$QTEXTMODE
 70
     0
  9
$MIRRTEXT
 70
     1
  9
$DRAGMODE
 70
     2
  9
$LTSCALE
 40
3.0
  9
$OSMODE
 70
   551
  9
$ATTMODE
 70
     1
  9
$TEXTSIZE
 40
2.5
  9
$TRACEWID
 40
1.0
  9
$TEXTSTYLE
  7
STANDARD
  9
$CLAYER
  8
AM_0
  9
$CELTYPE
  6
BYLAYER
  9
$CECOLOR
 62
   256
  9
$DIMSCALE
 40
1.0
  9
$DIMASZ
 40
2.5
  9
$DIMEXO
 40
1.0
  9
$DIMDLI
 40
8.0
  9
$DIMRND
 40
0.0
  9
$DIMDLE
 40
0.0
  9
$DIMEXE
 40
0.6
  9
$DIMTP
 40
0.1
  9
$DIMTM
 40
0.1
  9
$DIMTXT
 40
2.5
  9
$DIMCEN
 40
0.0
  9
$DIMTSZ
 40
0.0
  9
$DIMTOL
 70
     0
  9
$DIMLIM
 70
     0
  9
$DIMTIH
 70
     0
  9
$DIMTOH
 70
     0
  9
$DIMSE1
 70
     0
  9
$DIMSE2
 70
     0
  9
$DIMTAD
 70
     1
  9
$DIMZIN
 70
     8
  9
$DIMBLK
  1

  9
$DIMASO
 70
     1
  9
$DIMSHO
 70
     1
  9
$DIMPOST
  1

  9
$DIMAPOST
  1
"
  9
$DIMALT
 70
     0
  9
$DIMALTD
 70
     2
  9
$DIMALTF
 40
0.0393701
  9
$DIMLFAC
 40
1.0
  9
$DIMTOFL
 70
     1
  9
$DIMTVP
 40
0.0
  9
$DIMTIX
 70
     0
  9
$DIMSOXD
 70
     0
  9
$DIMSAH
 70
     0
  9
$DIMBLK1
  1

  9
$DIMBLK2
  1

  9
$DIMSTYLE
  2
AM_ISO
  9
$DIMCLRD
 70
   256
  9
$DIMCLRE
 70
   256
  9
$DIMCLRT
 70
     4
  9
$DIMTFAC
 40
0.71
  9
$DIMGAP
 40
0.8
  9
$LUNITS
 70
     2
  9
$LUPREC
 70
     2
  9
$SKETCHINC
 40
1.0
  9
$FILLETRAD
 40
15.0
  9
$AUNITS
 70
     0
  9
$AUPREC
 70
     0
  9
$MENU
  1
.
  9
$ELEVATION
 40
0.0
  9
$PELEVATION
 40
0.0
  9
$THICKNESS
 40
0.0
  9
$LIMCHECK
 70
     0
  9
$BLIPMODE
 70
     0
  9
$CHAMFERA
 40
6.0
  9
$CHAMFERB
 40
3.0
  9
$SKPOLY
 70
     0
  9
$TDCREATE
 40
2452065.742638519
  9
$TDUPDATE
 40
2458541.5668916781
  9
$TDINDWG
 40
0.0741186343
  9
$TDUSRTIMER
 40
0.0741182755
  9
$USRTIMER
 70
     1
  9
$ANGBASE
 50
0.0
  9
$ANGDIR
 70
     0
  9
$PDMODE
 70
     0
  9
$PDSIZE
 40
0.0
  9
$PLINEWID
 40
0.0
  9
$COORDS
 70
     1
  9
$SPLFRAME
 70
     0
  9
$SPLINETYPE
 70
     6
  9
$SPLINESEGS
 70
     8
  9
$ATTDIA
 70
     1
  9
$ATTREQ
 70
     1
  9
$HANDLING
 70
     1
  9
$HANDSEED
  5
41DF
  9
$SURFTAB1
 70
     6
  9
$SURFTAB2
 70
     6
  9
$SURFTYPE
 70
     6
  9
$SURFU
 70
     6
  9
$SURFV
 70
     6
  9
$UCSNAME
  2

  9
$UCSORG
 10
0.0
 20
0.0
 30
0.0
  9
$UCSXDIR
 10
1.0
 20
0.0
 30
0.0
  9
$UCSYDIR
 10
0.0
 20
1.0
 30
0.0
  9
$PUCSNAME
  2

  9
$PUCSORG
 10
0.0
 20
0.0
 30
0.0
  9
$PUCSXDIR
 10
1.0
 20
0.0
 30
0.0
  9
$PUCSYDIR
 10
0.0
 20
1.0
 30
0.0
  9
$USERI1
 70
     0
  9
$USERI2
 70
     0
  9
$USERI3
 70
     0
  9
$USERI4
 70
     0
  9
$USERI5
 70
     0
  9
$USERR1
 40
0.0
  9
$USERR2
 40
0.0
  9
$USERR3
 40
0.0
  9
$USERR4
 40
0.0
  9
$USERR5
 40
0.0
  9
$WORLDVIEW
 70
     1
  9
$SHADEDGE
 70
     3
  9
$SHADEDIF
 70
    70
  9
$TILEMODE
 70
     1
  9
$MAXACTVP
 70
    64
  9
$PLIMCHECK
 70
     0
  9
$PEXTMIN
 10
1.0000000000000000E+020
 20
1.0000000000000000E+020
 30
1.0000000000000000E+020
  9
$PEXTMAX
 10
-1.0000000000000000E+020
 20
-1.0000000000000000E+020
 30
-1.0000000000000000E+020
  9
$PLIMMIN
 10
0.0
 20
0.0
  9
$PLIMMAX
 10
420.0
 20
297.0
  9
$UNITMODE
 70
     0
  9
$VISRETAIN
 70
     1
  9
$PLINEGEN
 70
     0
  9
$PSLTSCALE
 70
     1
  0
ENDSEC
  0
SECTION
  2
TABLES
  0
TABLE
  2
VPORT
 70
     1
  0
VPORT
  2
*ACTIVE
 70
     0
 10
0.0
 20
0.0
 11
1.0
 21
1.0
 12
366.39755578307279
 22
381.97296759870233
 13
0.0
 23
0.0
 14
7.5
 24
7.5
 15
30.0
 25
30.0
 16
0.0
 26
0.0
 36
1.0
 17
0.0
 27
0.0
 37
0.0
 40
412.451095343985
 41
1.7571592210767459
 42
50.0
 43
0.0
 44
0.0
 50
0.0
 51
0.0
 71
     0
 72
   100
 73
     1
 74
     3
 75
     0
 76
     0
 77
     0
 78
     0
  0
ENDTAB
  0
TABLE
  2
LTYPE
 70
    20
  0
LTYPE
  2
CONTINUOUS
 70
     0
  3
Solid line
 72
    65
 73
     0
 40
0.0
  0
LTYPE
  2
AM_ISO02W050
 70
     0
  3
__ __ __ __ __ __ __ __ __ __ __ __ __ __ __
 72
    65
 73
     2
 40
7.5
 49
6.0
 49
-1.5
  0
LTYPE
  2
AM_ISO08W050
 70
     0
  3
____ . ____ . ____ . ____ . ____ . ____ . ____
 72
    65
 73
     4
 40
18.0
 49
12.0
 49
-1.5
 49
3.0
 49
-1.5
  0
LTYPE
  2
AM_ISO09W050
 70
     0
  3
_____ . . _____ . . _____ . . ____ .. ____
 72
    65
 73
     6
 40
22.5
 49
12.0
 49
-1.5
 49
3.0
 49
-1.5
 49
3.0
 49
-1.5
  0
LTYPE
  2
AMCONSTR
 70
     0
  3
_______________________
 72
    65
 73
     2
 40
9999.0
 49
9999.0
 49
0.0
  0
LTYPE
  2
AM_ISO08W050X2
 70
     0
  3
__ . __ . __ . __ . __ . __
 72
    65
 73
     4
 40
9.0
 49
6.0
 49
-0.75
 49
1.5
 49
-0.75
  0
LTYPE
  2
AM_ISO02W050X2
 70
     0
  3
 _ _ _ _ _ _ _ _ _ _ _ _
 72
    65
 73
     2
 40
3.75
 49
3.0
 49
-0.75
  0
LTYPE
  2
AMZIGZAG
 70
     0
  3
/\/-/\/-/\/-/\/-/\/-/\/
 72
    65
 73
     2
 40
11.0001
 49
0.0001
 49
-11.0
  0
LTYPE
  2
CENTER
 70
     0
  3
__ . __
 72
    65
 73
     4
 40
7.0
 49
4.0
 49
-1.0
 49
1.0
 49
-1.0
  0
LTYPE
  2
PHANTOM2
 70
     0
  3
Phantom (.5x) ___ _ _ ___ _ _ ___ _ _ ___ _ _
 72
    65
 73
     6
 40
31.75
 49
15.875
 49
-3.174999999999998
 49
3.174999999999998
 49
-3.174999999999998
 49
3.174999999999998
 49
-3.174999999999998
  0
LTYPE
  2
GEN3B
 70
     0
  3
 - - - - -
 72
    65
 73
     2
 40
1.0
 49
0.5
 49
-0.5
  0
LTYPE
  2
GEN7A
 70
     0
  3
__ . __ . __
 72
    65
 73
     4
 40
7.375
 49
4.75
 49
-0.875
 49
0.875
 49
-0.875
  0
LTYPE
  2
GEN7
 70
     0
  3
____ . ____ . ____ . ____ . ____ . ____ . ____
 72
    65
 73
     4
 40
14.25
 49
9.75
 49
-1.5
 49
1.5
 49
-1.5
  0
LTYPE
  2
HIDDEN
 70
     0
  3
Hidden __ __ __ __ __ __ __ __ __ __ __ __ __ _
 72
    65
 73
     2
 40
9.5249999999999986
 49
6.349999999999997
 49
-3.174999999999998
  0
LTYPE
  2
CENTER2
 70
     0
  3
Center (.5x) ___ _ ___ _ ___ _ ___ _ ___ _ ___
 72
    65
 73
     4
 40
1.125
 49
0.75
 49
-0.125
 49
0.125
 49
-0.125
  0
LTYPE
  2
HIDDEN2
 70
     0
  3
Hidden (.5x) _ _ _ _ _ _ _ _ _ _ _ _ _ _ _ _ _
 72
    65
 73
     2
 40
0.1875
 49
0.125
 49
-0.0625
  0
LTYPE
  2
AMZIGZAG2
 70
     0
  3
/\/-/\/-/\/-/\/-/\/-/\/
 72
    65
 73
     2
 40
0.4401
 49
0.0001
 49
-0.4400000000000001
  0
LTYPE
  2
ACANSTGB
 70
     0
  3
__ . . __ . .
 72
    65
 73
     6
 40
0.35433070866
 49
0.15748031496
 49
-0.03937007874
 49
0.03937007874
 49
-0.03937007874
 49
0.03937007874
 49
-0.03937007874
  0
LTYPE
  2
ACANSTGL
 70
     0
  3
_ _ _ _ _
 72
    65
 73
     2
 40
0.11811023622
 49
0.07874015748
 49
-0.03937007874
  0
ENDTAB
  0
TABLE
  2
LAYER
 70
    11
  0
LAYER
  2
0
 70
     0
 62
     7
  6
CONTINUOUS
  0
LAYER
  2
AM_0
 70
     0
 62
     7
  6
CONTINUOUS
  0
LAYER
  2
AM_5
 70
     0
 62
     2
  6
CONTINUOUS
  0
LAYER
  2
DEFPOINTS
 70
     0
 62
     7
  6
CONTINUOUS
  0
LAYER
  2
ｶｸﾚｾﾝ2
 70
     0
 62
     3
  6
GEN3B
  0
LAYER
  2
ﾁｭｳｼﾝｾﾝ1
 70
     0
 62
     1
  6
GEN7A
  0
LAYER
  2
AM_0N
 70
     0
 62
     7
  6
CONTINUOUS
  0
LAYER
  2
AM_3N
 70
     0
 62
     3
  6
AM_ISO02W050
  0
LAYER
  2
ｽﾝﾎ_ｳｾﾝ
 70
     0
 62
     2
  6
CONTINUOUS
  0
LAYER
  2
ﾁｭｳｼﾝｾﾝ
 70
     0
 62
     1
  6
GEN7
  0
LAYER
  2
AM_4
 70
     0
 62
     2
  6
CONTINUOUS
  0
ENDTAB
  0
TABLE
  2
STYLE
 70
     5
  0
STYLE
  2
STANDARD
 70
     0
 40
0.0
 41
0.8299999999999999
 50
0.0
 71
     0
 42
2.5
  3
txt.shx
  4
bigfont.shx
  0
STYLE
  2
ANNOTATIVE
 70
     0
 40
0.0
 41
1.0
 50
0.0
 71
     0
 42
0.2
  3
txt
  4

  0
STYLE
  2

 70
     1
 40
0.0
 41
1.0
 50
0.0
 71
     0
 42
2.5
  3
genltshp.shx
  4

  0
STYLE
  2
ACANSTS
 70
     0
 40
0.0
 41
1.0
 50
0.0
 71
     0
 42
2.5
  3
romans.shx
  4
extfont.shx
  0
STYLE
  2
ACANSGDT
 70
     0
 40
0.0
 41
1.0
 50
0.0
 71
     0
 42
2.5
  3
amgdt.shx
  4

  0
ENDTAB
  0
TABLE
  2
VIEW
 70
     6
  0
VIEW
  2
AM_VIEW1
 70
     0
 40
277.50000000000011
 10
249.64779005524869
 20
416.24999999999989
 41
499.2955801104971
 11
0.0
 21
0.0
 31
1.0
 12
0.0
 22
0.0
 32
0.0
 42
50.0
 43
0.0
 44
0.0
 50
0.0
 71
     0
  0
VIEW
  2
AM_VIEW2
 70
     0
 40
277.50000000000011
 10
603.85220994475117
 20
416.24999999999989
 41
499.2955801104971
 11
0.0
 21
0.0
 31
1.0
 12
0.0
 22
0.0
 32
0.0
 42
50.0
 43
0.0
 44
0.0
 50
0.0
 71
     0
  0
VIEW
  2
AM_VIEW3
 70
     0
 40
277.50000000000011
 10
249.64779005524869
 20
138.75
 41
499.2955801104971
 11
0.0
 21
0.0
 31
1.0
 12
0.0
 22
0.0
 32
0.0
 42
50.0
 43
0.0
 44
0.0
 50
0.0
 71
     0
  0
VIEW
  2
AM_VIEW4
 70
     0
 40
277.50000000000011
 10
603.85220994475117
 20
138.75
 41
499.2955801104971
 11
0.0
 21
0.0
 31
1.0
 12
0.0
 22
0.0
 32
0.0
 42
50.0
 43
0.0
 44
0.0
 50
0.0
 71
     0
  0
VIEW
  2
AM_VIEW5
 70
     0
 40
277.50000000000011
 10
426.75
 20
277.50000000000011
 41
499.2955801104971
 11
0.0
 21
0.0
 31
1.0
 12
0.0
 22
0.0
 32
0.0
 42
50.0
 43
0.0
 44
0.0
 50
0.0
 71
     0
  0
VIEW
  2
AM_VIEW6
 70
     0
 40
554.99445000000014
 10
426.75
 20
277.5
 41
998.5811743093924
 11
0.0
 21
0.0
 31
1.0
 12
0.0
 22
0.0
 32
0.0
 42
50.0
 43
0.0
 44
0.0
 50
0.0
 71
     0
  0
ENDTAB
  0
TABLE
  2
UCS
 70
     0
  0
ENDTAB
  0
TABLE
  2
APPID
 70
    97
  0
APPID
  2
ACAD
 70
     0
  0
APPID
  2
ACADANNOTATIVE
 70
     0
  0
APPID
  2
MCAD_NO_VIS
 70
     0
  0
APPID
  2
ACAD_TEMP_GRAPHIC
 70
     0
  0
APPID
  2
ACATTRIBSERVICES
 70
     0
  0
APPID
  2
GENIUS_GENREC_14
 70
     0
  0
APPID
  2
GENIUS_GENOBJ-N-REC_13
 70
     0
  0
APPID
  2
GENIUS_GENODEF_13
 70
     0
  0
APPID
  2
GENIUS_GENOLIS_13
 70
     0
  0
APPID
  2
GENIUS_GENOBJ-N-TIT_13
 70
     0
  0
APPID
  2
GENIUS_GENOENT_13
 70
     0
  0
APPID
  2
GENIUS_GENTITLE_13
 70
     0
  0
APPID
  2
GENIUS_GENOREF_13
 70
     0
  0
APPID
  2
GENIUS_GENSCREG_15
 70
     0
  0
APPID
  2
GENIUS_GENOBJ-N-SDF_13
 70
     0
  0
APPID
  2
GENIUS_GENFIL_13
 70
     0
  0
APPID
  2
GENIUS_GENOBJ-N-CHA_13
 70
     0
  0
APPID
  2
GENIUS_GENDTOL_13
 70
     0
  0
APPID
  2
GENIUS_GENOBJ-N-FIL_13
 70
     0
  0
APPID
  2
AD_DRAW
 70
     0
  0
APPID
  2
DESIGNERASSEMBLIES
 70
     0
  0
APPID
  2
ASURF_PCURVE_APPNAME
 70
     0
  0
APPID
  2
GENIUS_GE3SECT_13
 70
     0
  0
APPID
  2
GENIUS_GENCFG_13
 70
     0
  0
APPID
  2
GENIUS_GE3CFG0_13
 70
     0
  0
APPID
  2
GENIUS_GENCFG0_13
 70
     0
  0
APPID
  2
GENIUS_GENCFG1_13
 70
     0
  0
APPID
  2
GENIUS_GENCFG2_13
 70
     0
  0
APPID
  2
GENIUS_GENCFG3_13
 70
     0
  0
APPID
  2
GENIUS_GENCFG4_13
 70
     0
  0
APPID
  2
GENIUS_GEVCFG0_13
 70
     0
  0
APPID
  2
GENIUS_GENHINW_13
 70
     0
  0
APPID
  2
GENIUS_FIRSTVISTXT_14
 70
     0
  0
APPID
  2
GENIUS_GENOBJ-N-LEADER_13
 70
     0
  0
APPID
  2
GEV_VCCNULL_SWITCH_OFF
 70
     0
  0
APPID
  2
GENIUS_GEFCFG0_13
 70
     0
  0
APPID
  2
GENIUS_GENZVEED_13
 70
     0
  0
APPID
  2
GENIUS_GENSCREG_13
 70
     0
  0
APPID
  2
GENIUS_DUMCFG0_13
 70
     0
  0
APPID
  2
GEVID936201362
 70
     0
  0
APPID
  2
GEVDC
 70
     0
  0
APPID
  2
GEVCON
 70
     0
  0
APPID
  2
VCC
 70
     0
  0
APPID
  2
GEVPT
 70
     0
  0
APPID
  2
GEVIT
 70
     0
  0
APPID
  2
GENBH
 70
     0
  0
APPID
  2
GEVMK
 70
     0
  0
APPID
  2
GENIUS_GENBH_13
 70
     0
  0
APPID
  2
GENIUS_GENOBJ-NBEHI-BHF_13
 70
     0
  0
APPID
  2
GENIUS_GENOBJ-NBEHI-BHB_13
 70
     0
  0
APPID
  2
GENIUS_GENOBJ-F-DESC_13
 70
     0
  0
APPID
  2
GENIUS_GEFDESC_14
 70
     0
  0
APPID
  2
GENIUS_GENOBJ-F-PART_13
 70
     0
  0
APPID
  2
GENIUS_GEFSTDP_13
 70
     0
  0
APPID
  2
GENIUS_GEFPARTINS_13
 70
     0
  0
APPID
  2
GENIUS_GENTRA_14
 70
     0
  0
APPID
  2
GENIUS_GENINF13_13
 70
     0
  0
APPID
  2
GENIUS_GENOBJ-N-INFOPT_13
 70
     0
  0
APPID
  2
GENIUS_GENOBJ-N-RSSYM_13
 70
     0
  0
APPID
  2
GENIUS_GENSYMENT_13
 70
     0
  0
APPID
  2
GENIUS_GENSCSYM_13
 70
     0
  0
APPID
  2
GENIUS_GEFINFNAM_13
 70
     0
  0
APPID
  2
GENIUS_GENOBJ-N-CEN_13
 70
     0
  0
APPID
  2
GENIUS_GENOBJ-N-CRS_13
 70
     0
  0
APPID
  2
GENIUS_GENOBJ-N-CRC_13
 70
     0
  0
APPID
  2
GENIUS_GENCRC_14
 70
     0
  0
APPID
  2
GEVID942827039
 70
     0
  0
APPID
  2
GEVID942827040
 70
     0
  0
APPID
  2
GEVID942827041
 70
     0
  0
APPID
  2
GENIUS_GENOBJ-F-SCPASSM_13
 70
     0
  0
APPID
  2
GENIUS_GENDIMSH_14
 70
     0
  0
APPID
  2
GEVID942827042
 70
     0
  0
APPID
  2
GEVID946020473
 70
     0
  0
APPID
  2
GEVID946020474
 70
     0
  0
APPID
  2
GEVID946020475
 70
     0
  0
APPID
  2
GENIUS_GENOBJ-N-HTC_13
 70
     0
  0
APPID
  2
GENIUS_GENHATCH_13
 70
     0
  0
APPID
  2
GEVID948854295
 70
     0
  0
APPID
  2
GEVID939402019
 70
     0
  0
APPID
  2
GEVID952919491
 70
     0
  0
APPID
  2
GEVID952919492
 70
     0
  0
APPID
  2
GENIUS_GEFWELD_13
 70
     0
  0
APPID
  2
GENIUS_GENOBJ-F-WELS_13
 70
     0
  0
APPID
  2
GEVID952919493
 70
     0
  0
APPID
  2
GENIUS_GENOBJ-N-RSBK_13
 70
     0
  0
APPID
  2
GENIUS_GENOBJ-N-LIB_13
 70
     0
  0
APPID
  2
GENIUS_GENSCALE_13
 70
     0
  0
APPID
  2
GEVID986376691
 70
     0
  0
APPID
  2
DCO15
 70
     0
  0
APPID
  2
ACADM_DIM_EDIT
 70
     0
  0
APPID
  2
AMDT_DM_ADJ
 70
     0
  0
APPID
  2
ACAD_DSTYLE_DIMJAG
 70
     0
  0
APPID
  2
ACAD_DSTYLE_DIMBREAK
 70
     0
  0
APPID
  2
ACAD_NAV_VCDISPLAY
 70
     0
  0
APPID
  2
ACADANNOPO
 70
     0
  0
APPID
  2
ACAD_EXEMPT_FROM_CAD_STANDARDS
 70
     0
  0
APPID
  2
ACAD_MLEADERVER
 70
     0
  0
ENDTAB
  0
TABLE
  2
DIMSTYLE
 70
     9
  0
DIMSTYLE
  2
STANDARD
 70
     0
  3

  4

  5

  6

  7

 40
1.0
 41
0.18
 42
0.0625
 43
0.38
 44
0.18
 45
0.0
 46
0.0
 47
0.0
 48
0.0
140
0.18
141
0.09
142
0.0
143
25.399999999999999
144
1.0
145
0.0
146
1.0
147
0.09
 71
     0
 72
     0
 73
     1
 74
     1
 75
     0
 76
     0
 77
     0
 78
     0
170
     0
171
     2
172
     0
173
     0
174
     0
175
     0
176
     0
177
     0
178
     0
  0
DIMSTYLE
  2
ANNOTATIVE
 70
     0
  3

  4

  5

  6

  7

 40
1.0
 41
0.18
 42
0.0625
 43
0.38
 44
0.18
 45
0.0
 46
0.0
 47
0.0
 48
0.0
140
0.18
141
0.09
142
0.0
143
25.399999999999999
144
1.0
145
0.0
146
1.0
147
0.09
 71
     0
 72
     0
 73
     1
 74
     1
 75
     0
 76
     0
 77
     0
 78
     0
170
     0
171
     2
172
     0
173
     0
174
     0
175
     0
176
     0
177
     0
178
     0
  0
DIMSTYLE
  2
AM_ISO
 70
     0
  3

  4
"
  5

  6

  7

 40
1.0
 41
2.5
 42
1.0
 43
8.0
 44
0.6
 45
0.0
 46
0.0
 47
0.1
 48
0.1
140
2.5
141
0.0
142
0.0
143
0.0393701
144
1.0
145
0.0
146
0.71
147
0.8
 71
     0
 72
     0
 73
     0
 74
     0
 75
     0
 76
     0
 77
     1
 78
     8
170
     0
171
     2
172
     1
173
     0
174
     0
175
     0
176
   256
177
   256
178
     4
  0
DIMSTYLE
  2
AM_ANSI
 70
     0
  3

  4
mm
  5

  6

  7

 40
1.0
 41
0.12
 42
0.05
 43
0.5
 44
0.1
 45
0.0
 46
0.0
 47
0.1
 48
0.1
140
0.12
141
0.0
142
0.0
143
25.399999999999999
144
1.0
145
0.0
146
0.71
147
0.06
 71
     0
 72
     0
 73
     1
 74
     1
 75
     0
 76
     0
 77
     0
 78
     7
170
     0
171
     2
172
     0
173
     0
174
     0
175
     0
176
   256
177
   256
178
     2
  0
DIMSTYLE
  2
AM_ANSI$3
 70
     0
  3

  4
mm
  5

  6

  7

 40
1.0
 41
0.12
 42
0.05
 43
0.5
 44
0.1
 45
0.0
 46
0.0
 47
0.1
 48
0.1
140
0.12
141
0.0
142
0.0
143
25.399999999999999
144
1.0
145
0.0
146
0.71
147
0.06
 71
     0
 72
     0
 73
     1
 74
     1
 75
     0
 76
     0
 77
     0
 78
     7
170
     0
171
     2
172
     0
173
     0
174
     0
175
     0
176
   256
177
   256
178
     2
  0
DIMSTYLE
  2
AM_ANSI$4
 70
     0
  3

  4
mm
  5

  6

  7

 40
1.0
 41
0.12
 42
0.05
 43
0.5
 44
0.1
 45
0.0
 46
0.0
 47
0.1
 48
0.1
140
0.12
141
0.0
142
0.0
143
25.399999999999999
144
1.0
145
0.0
146
0.71
147
0.06
 71
     0
 72
     0
 73
     1
 74
     1
 75
     0
 76
     0
 77
     0
 78
     7
170
     0
171
     2
172
     0
173
     0
174
     0
175
     0
176
   256
177
   256
178
     2
  0
DIMSTYLE
  2
AM_ANSI$7
 70
     0
  3

  4
mm
  5

  6

  7

 40
1.0
 41
0.12
 42
0.05
 43
0.5
 44
0.1
 45
0.0
 46
0.0
 47
0.1
 48
0.1
140
0.12
141
0.0
142
0.0
143
25.399999999999999
144
1.0
145
0.0
146
0.71
147
0.06
 71
     0
 72
     0
 73
     1
 74
     1
 75
     0
 76
     0
 77
     0
 78
     7
170
     0
171
     2
172
     0
173
     0
174
     0
175
     0
176
   256
177
   256
178
     2
  0
DIMSTYLE
  2
AM_ANSI$SF
 70
     0
  3

  4
mm
  5

  6

  7

 40
1.0
 41
0.12
 42
0.05
 43
0.5
 44
0.1
 45
0.0
 46
0.0
 47
0.1
 48
0.1
140
0.12
141
0.0
142
0.0
143
25.399999999999999
144
1.0
145
0.0
146
0.71
147
0.06
 71
     0
 72
     0
 73
     1
 74
     1
 75
     1
 76
     1
 77
     0
 78
     7
170
     0
171
     2
172
     0
173
     0
174
     0
175
     0
176
   256
177
   256
178
     2
  0
DIMSTYLE
  2
AM_ANSI$SH
 70
     0
  3

  4
mm
  5

  6
GENAXEH
  7

 40
1.0
 41
0.12
 42
0.05
 43
0.5
 44
0.1
 45
0.0
 46
0.0
 47
0.1
 48
0.1
140
0.12
141
0.0
142
0.0
143
25.399999999999999
144
1.0
145
0.0
146
0.71
147
0.06
 71
     0
 72
     0
 73
     1
 74
     1
 75
     1
 76
     1
 77
     0
 78
     7
170
     0
171
     2
172
     0
173
     1
174
     0
175
     0
176
   256
177
   256
178
     2
  0
ENDTAB
  0
ENDSEC
  0
SECTION
  2
BLOCKS
  0
BLOCK
  8
0
  2
$MODEL_SPACE
 70
     0
 10
0.0
 20
0.0
 30
0.0
  3
$MODEL_SPACE
  1

  0
ENDBLK
  5
406D
  8
0
  0
BLOCK
 67
     1
  8
0
  2
$PAPER_SPACE
 70
     0
 10
0.0
 20
0.0
 30
0.0
  3
$PAPER_SPACE
  1

  0
ENDBLK
  5
4069
 67
     1
  8
0
  0
BLOCK
  8
0
  2
*U2
 70
     1
 10
0.0
 20
0.0
 30
0.0
  3
*U2
  1

  0
TEXT
  5
3EBB
  8
AM_0
 10
522.37785632148962
 20
166.7360175390501
 30
0.0
 40
10.0
  1
VX02-100S
 41
0.8299999999999999
  0
ENDBLK
  5
3EBD
  8
0
  0
BLOCK
  8
0
  2
GENAXEH
 70
     0
 10
0.0
 20
0.0
 30
0.0
  3
GENAXEH
  1

  0
LINE
  5
413E
  8
0
 10
-1.0
 20
0.0
 30
0.0
 11
1.0
 21
0.0
 31
0.0
  0
ENDBLK
  5
4140
  8
0
  0
BLOCK
  8
0
  2
_ACMFILLEDHALF
 70
     0
 10
0.0
 20
0.0
 30
0.0
  3
_ACMFILLEDHALF
  1

  0
TRACE
  5
414E
  8
AM_0
 62
     0
 10
-0.8
 20
0.0
 30
0.0
 11
-1.0
 21
0.166666666
 31
0.0
 12
0.0
 22
0.0
 32
0.0
 13
0.0
 23
0.0
 33
0.0
  0
LINE
  5
414F
  8
AM_0
 62
     0
 10
-1.0
 20
0.0
 30
0.0
 11
-0.8
 21
0.0
 31
0.0
  0
ENDBLK
  5
414D
  8
0
  0
ENDSEC
  0
SECTION
  2
ENTITIES
  0
LINE
  5
2CBA
  8
ﾁｭｳｼﾝｾﾝ1
 10
73.057452700633789
 20
508.78021605579193
 30
0.0
 11
407.60366499816092
 21
508.78021605579193
 31
0.0
  0
ARC
  5
2E45
  8
AM_0
 10
409.87271499816109
 20
508.78021605579193
 30
0.0
 40
101.48872
 50
151.89333000000019
 51
208.10666999999961
  0
LINE
  5
2E46
  8
AM_0
 10
401.38397499816091
 20
522.78024605579208
 30
0.0
 11
401.38397499816091
 21
494.78024605579202
 31
0.0
  0
LINE
  5
2E47
  8
AM_0
 10
361.38397499816108
 20
523.78021605579204
 30
0.0
 11
361.38397499816108
 21
493.78021605579198
 31
0.0
  0
LINE
  5
2E49
  8
AM_0
 10
287.38400499816129
 20
439.91183605579198
 30
0.0
 11
287.38400499816129
 21
577.64858605579207
 31
0.0
  0
LINE
  5
2E4A
  8
AM_0
 10
308.38400499816117
 20
458.71298605579199
 30
0.0
 11
308.38400499816117
 21
558.84744605579203
 31
0.0
  0
LINE
  5
2E4D
  8
AM_0
 10
343.38400499816117
 20
458.52920605579197
 30
0.0
 11
343.38400499816117
 21
559.03121605579179
 31
0.0
  0
LINE
  5
2E4E
  8
AM_0
 10
359.38397499816108
 20
483.24587605579188
 30
0.0
 11
359.38397499816108
 21
534.31451605579196
 31
0.0
  0
LINE
  5
2E4F
  8
AM_0
 10
356.38397499816108
 20
558.3251660557919
 30
0.0
 11
356.38397499816108
 21
459.23525605579198
 31
0.0
  0
LINE
  5
2E50
  8
AM_0
 10
294.38397499816119
 20
579.7802160557917
 30
0.0
 11
294.38397499816119
 21
437.78021605579181
 31
0.0
  0
ARC
  5
2E51
  8
AM_0
 10
335.38397499816119
 20
436.77700605579201
 30
0.0
 40
5.0
 50
180.00001000000091
 51
271.49999999999949
  0
ARC
  5
2E52
  8
AM_0
 10
335.38397499816119
 20
450.06118605579201
 30
0.0
 40
5.0
 50
95.00000199999856
 51
180.00001000000091
  0
LINE
  5
2E53
  8
AM_0
 10
340.46255499816118
 20
461.75567605579198
 30
0.0
 11
321.96597499816119
 21
461.27133605579189
 31
0.0
  0
LINE
  5
2E54
  8
AM_0
 10
297.38400499816117
 20
430.78021605579193
 30
0.0
 11
357.43637499816123
 21
432.35275605579187
 31
0.0
  0
LINE
  5
2E55
  8
AM_0
 10
256.38400499816117
 20
476.84027605579189
 30
0.0
 11
287.38400499816129
 21
476.84027605579189
 31
0.0
  0
LINE
  5
2E56
  8
AM_0
 10
284.38397499816119
 20
443.56893605579199
 30
0.0
 11
285.38400499816129
 21
443.56893605579199
 31
0.0
  0
LINE
  5
2E57
  8
AM_0
 10
256.38400499816117
 20
462.77990605579203
 30
0.0
 11
287.38400499816129
 21
462.77990605579203
 31
0.0
  0
LINE
  5
2E58
  8
AM_0
 10
267.3316049981612
 20
431.56716605579197
 30
0.0
 11
297.38397499816119
 21
430.78021605579193
 31
0.0
  0
LINE
  5
2E5B
  8
AM_0
 10
282.38397499816119
 20
452.09936605579202
 30
0.0
 11
256.38400499816117
 21
452.780186055792
 31
0.0
  0
ARC
  5
2E62
  8
AM_0
 10
277.38397499816119
 20
443.78021605579198
 30
0.0
 40
6.0
 50
33.5572999999982
 51
0.5425182800010755
  0
LINE
  5
2E63
  8
AM_0
 10
282.38397499816119
 20
445.56893605579188
 30
0.0
 11
282.38397499816119
 21
460.77990605579203
 31
0.0
  0
LINE
  5
2E64
  8
AM_0
 10
265.38397499816119
 20
433.56649605579179
 30
0.0
 11
265.38397499816119
 21
452.54452605579201
 31
0.0
  0
ARC
  5
2E66
  8
AM_0
 10
267.38397499816119
 20
433.56649605579179
 30
0.0
 40
2.0
 50
180.00001000000091
 51
268.5000000000004
  0
ARC
  5
2E67
  8
AM_0
 10
284.38397499816119
 20
445.56893605579188
 30
0.0
 40
2.0
 50
180.00001000000091
 51
270.0
  0
ARC
  5
2E68
  8
AM_0
 10
280.38397499816119
 20
460.77990605579203
 30
0.0
 40
2.0
 50
0.0
 51
90.000003000000945
  0
ARC
  5
2E6F
  8
AM_0
 10
306.98895499816132
 20
443.11199605579202
 30
0.0
 40
5.0
 50
271.49999999999949
 51
299.88701999999921
  0
LINE
  5
2E70
  8
AM_0
 10
308.38400499816117
 20
458.71298605579199
 30
0.0
 11
321.96597499816119
 21
461.27136605579187
 31
0.0
  0
LINE
  5
2E71
  8
AM_0
 10
306.38397499816119
 20
456.24227605579199
 30
0.0
 11
309.38397499816119
 21
456.24227605579199
 31
0.0
  0
LINE
  5
2E72
  8
AM_0
 10
306.38397499816119
 20
444.69522605579198
 30
0.0
 11
309.38397499816119
 21
444.69522605579198
 31
0.0
  0
LINE
  5
2E73
  8
AM_0
 10
306.38397499816119
 20
447.58199605579188
 30
0.0
 11
309.38397499816119
 21
447.58199605579188
 31
0.0
  0
LINE
  5
2E74
  8
AM_0
 10
306.38397499816119
 20
453.35549605579189
 30
0.0
 11
309.38397499816119
 21
453.35549605579189
 31
0.0
  0
LINE
  5
2E75
  8
AM_0
 10
306.38397499816119
 20
457.24227605579199
 30
0.0
 11
306.38397499816119
 21
443.69522605579198
 31
0.0
  0
LINE
  5
2E76
  8
AM_0
 10
305.38397499816119
 20
458.71298605579199
 30
0.0
 11
305.38397499816119
 21
438.06826605579192
 31
0.0
  0
LINE
  5
2E77
  8
AM_0
 10
307.11984499816123
 20
438.11370605579202
 30
0.0
 11
294.38400499816117
 21
437.78021605579181
 31
0.0
  0
LINE
  5
2E78
  8
AM_0
 10
297.38397499816119
 20
434.63619605579203
 30
0.0
 11
290.38397499816119
 21
430.96353605579168
 31
0.0
  0
ARC
  5
2E79
  8
AM_0
 10
289.38400499816117
 20
439.91183605579198
 30
0.0
 40
2.0
 50
180.00001000000091
 51
268.5000000000004
  0
LINE
  5
2E7A
  8
AM_0
 10
294.38397499816119
 20
437.78021605579181
 30
0.0
 11
289.33163499816129
 21
437.91250605579188
 31
0.0
  0
LINE
  5
2E7B
  8
AM_0
 10
294.78698499816119
 20
437.79077605579198
 30
0.0
 11
290.38397499816119
 21
435.480656055792
 31
0.0
  0
LINE
  5
2E7C
  8
AM_0
 10
290.38397499816119
 20
430.96353605579168
 30
0.0
 11
290.38397499816119
 21
435.48062605579202
 31
0.0
  0
ARC
  5
2E7D
  8
AM_0
 10
285.38400499816129
 20
441.56893605579188
 30
0.0
 40
2.0
 50
0.0
 51
90.000003000000945
  0
LINE
  5
2E7E
  8
AM_0
 10
297.38397499816119
 20
437.85876605579188
 30
0.0
 11
297.38397499816119
 21
434.63619605579203
 31
0.0
  0
LINE
  5
2E7F
  8
AM_0
 10
305.38397499816119
 20
443.69522605579198
 30
0.0
 11
306.38397499816119
 21
443.69522605579198
 31
0.0
  0
LINE
  5
2E80
  8
AM_0
 10
305.38397499816119
 20
458.71298605579199
 30
0.0
 11
308.38397499816119
 21
458.71298605579199
 31
0.0
  0
LINE
  5
2E81
  8
AM_0
 10
305.38397499816119
 20
457.24227605579199
 30
0.0
 11
306.38397499816119
 21
457.24227605579199
 31
0.0
  0
ARC
  5
2E82
  8
AM_0
 10
327.38397499816119
 20
448.68289605579201
 30
0.0
 40
3.0
 50
271.49999999999949
 51
0.0
  0
ARC
  5
2E83
  8
AM_0
 10
309.38397499816119
 20
448.58196605579201
 30
0.0
 40
1.0
 50
269.999989999999
 51
0.0000006832462478
  0
LINE
  5
2E84
  8
AM_0
 10
330.38397499816119
 20
436.77700605579201
 30
0.0
 11
330.38397499816119
 21
450.06118605579201
 31
0.0
  0
LINE
  5
2E85
  8
AM_0
 10
310.38394499816121
 20
445.69522605579198
 30
0.0
 11
310.38394499816121
 21
455.24224605579172
 31
0.0
  0
ARC
  5
2E86
  8
AM_0
 10
322.6086449981612
 20
440.55511605579181
 30
0.0
 40
5.0
 50
91.500001000001546
 51
119.8870199999991
  0
LINE
  5
2E87
  8
AM_0
 10
309.48040499816119
 20
438.776946055792
 30
0.0
 11
320.11718499816129
 21
444.89016605579201
 31
0.0
  0
ARC
  5
2E88
  8
AM_0
 10
309.38397499816119
 20
445.69522605579198
 30
0.0
 40
1.0
 50
269.999989999999
 51
0.0000006832462478
  0
ARC
  5
2E89
  8
AM_0
 10
309.38397499816119
 20
446.58199605579199
 30
0.0
 40
1.0
 50
0.0
 51
90.000003000000945
  0
LINE
  5
2E8A
  8
AM_0
 10
327.4625249981612
 20
445.68392605579203
 30
0.0
 11
322.47778499816121
 21
445.55337605579189
 31
0.0
  0
ARC
  5
2E8B
  8
AM_0
 10
309.38397499816119
 20
454.35549605579189
 30
0.0
 40
1.0
 50
269.999989999999
 51
0.0000006832462478
  0
ARC
  5
2E8C
  8
AM_0
 10
309.38397499816119
 20
452.355496055792
 30
0.0
 40
1.0
 50
0.0
 51
90.000003000000945
  0
ARC
  5
2E8D
  8
AM_0
 10
309.38397499816119
 20
455.24224605579172
 30
0.0
 40
1.0
 50
0.0
 51
90.000003000000945
  0
LINE
  5
2E8E
  8
AM_0
 10
361.38397499816108
 20
494.78024605579202
 30
0.0
 11
401.38397499816091
 21
494.78024605579202
 31
0.0
  0
LINE
  5
2E8F
  8
AM_0
 10
357.43630499816118
 20
459.20767605579198
 30
0.0
 11
356.38397499816108
 21
459.235226055792
 31
0.0
  0
CIRCLE
  5
2E90
  8
AM_0
 10
347.38397499816108
 20
443.78021605579198
 30
0.0
 40
6.0
  0
ARC
  5
2E93
  8
AM_0
 10
347.55801499816118
 20
454.98892605579198
 30
0.0
 40
5.0
 50
95.00000199999856
 51
153.73432999999969
  0
ARC
  5
2E94
  8
AM_0
 10
340.38400499816117
 20
458.52920605579197
 30
0.0
 40
3.0
 50
274.99999999999972
 51
0.0
  0
LINE
  5
2E95
  8
AM_0
 10
340.64547499816121
 20
455.54064605579191
 30
0.0
 11
334.9481849981612
 21
455.04220605579189
 31
0.0
  0
ARC
  5
2E96
  8
AM_0
 10
340.38400499816117
 20
464.75466605579197
 30
0.0
 40
3.0
 50
271.49999999999949
 51
0.0
  0
LINE
  5
2E97
  8
AM_0
 10
351.81976499816119
 20
460.38088605579179
 30
0.0
 11
347.12225499816122
 21
459.96990605579202
 31
0.0
  0
ARC
  5
2E98
  8
AM_0
 10
351.38397499816108
 20
465.361846055792
 30
0.0
 40
5.0
 50
274.99999999999972
 51
0.0
  0
LINE
  5
2E99
  8
AM_0
 10
359.38397499816108
 20
434.35204605579202
 30
0.0
 11
359.38397499816108
 21
457.20837605579197
 31
0.0
  0
ARC
  5
2E9A
  8
AM_0
 10
357.38397499816108
 20
434.35204605579202
 30
0.0
 40
2.0
 50
271.49999999999949
 51
0.0
  0
ARC
  5
2E9B
  8
AM_0
 10
357.38397499816108
 20
457.20837605579197
 30
0.0
 40
2.0
 50
0.0
 51
88.499997000000747
  0
LINE
  5
2E9C
  8
AM_0
 10
357.34909499816121
 20
482.20913605579182
 30
0.0
 11
358.41885499816118
 21
482.246526055792
 31
0.0
  0
ARC
  5
2E9D
  8
AM_0
 10
357.38397499816108
 20
481.20974605579198
 30
0.0
 40
1.0
 50
91.999998000000545
 51
180.00001000000091
  0
ARC
  5
2E9E
  8
AM_0
 10
358.38397499816108
 20
483.24587605579188
 30
0.0
 40
1.0
 50
272.0000000000004
 51
0.0
  0
LINE
  5
2E9F
  8
AM_0
 10
359.38397499816108
 20
493.78021605579198
 30
0.0
 11
361.38397499816108
 21
493.78021605579198
 31
0.0
  0
ARC
  5
2EA0
  8
AM_0
 10
335.38397499816119
 20
580.78341605579203
 30
0.0
 40
5.0
 50
88.499997000000747
 51
180.00001000000091
  0
ARC
  5
2EA1
  8
AM_0
 10
335.38397499816119
 20
567.499206055792
 30
0.0
 40
5.0
 50
180.00001000000091
 51
265.00001000000071
  0
LINE
  5
2EA2
  8
AM_0
 10
340.4625249981612
 20
555.80474605579195
 30
0.0
 11
321.96594499816121
 21
556.28909605579202
 31
0.0
  0
LINE
  5
2EA3
  8
AM_0
 10
297.38397499816119
 20
586.78021605579181
 30
0.0
 11
357.43633499816121
 21
585.20767605579204
 31
0.0
  0
ARC
  5
2EA4
  8
AM_0
 10
284.38397499816119
 20
571.99151605579209
 30
0.0
 40
2.0
 50
90.000003000000945
 51
180.00001000000091
  0
ARC
  5
2EA5
  8
AM_0
 10
309.38397499816119
 20
571.86520605579199
 30
0.0
 40
1.0
 50
0.0
 51
90.000003000000945
  0
ARC
  5
2EA6
  8
AM_0
 10
322.6086449981612
 20
577.00530605579195
 30
0.0
 40
5.0
 50
240.1129800000009
 51
268.5000000000004
  0
ARC
  5
2EA7
  8
AM_0
 10
277.38397499816119
 20
573.78021605579181
 30
0.0
 40
6.0
 50
359.4574799999985
 51
326.4427199999991
  0
LINE
  5
2EA8
  8
AM_0
 10
305.38397499816119
 20
558.84744605579203
 30
0.0
 11
305.38397499816119
 21
579.49215605579195
 31
0.0
  0
LINE
  5
2EA9
  8
AM_0
 10
306.38397499816119
 20
560.31814605579189
 30
0.0
 11
306.38397499816119
 21
573.86520605579165
 31
0.0
  0
LINE
  5
2EAA
  8
AM_0
 10
330.38397499816119
 20
567.499206055792
 30
0.0
 11
330.38397499816119
 21
580.78341605579203
 31
0.0
  0
LINE
  5
2EAC
  8
AM_0
 10
265.38397499816119
 20
583.99395605579218
 30
0.0
 11
265.38397499816119
 21
565.01589605579215
 31
0.0
  0
LINE
  5
2EAD
  8
AM_0
 10
256.38400499816117
 20
540.72015605579213
 30
0.0
 11
287.38400499816129
 21
540.72015605579213
 31
0.0
  0
LINE
  5
2EAE
  8
AM_0
 10
256.38400499816117
 20
554.78051605579208
 30
0.0
 11
287.38400499816129
 21
554.78051605579208
 31
0.0
  0
LINE
  5
2EB1
  8
AM_0
 10
282.38400499816117
 20
565.46105605579214
 30
0.0
 11
256.38403499816121
 21
564.78021605579181
 31
0.0
  0
ARC
  5
2EC4
  8
AM_0
 10
280.38397499816119
 20
556.78051605579185
 30
0.0
 40
2.0
 50
270.0
 51
0.0
  0
LINE
  5
2EC5
  8
AM_0
 10
282.38397499816119
 20
571.99151605579209
 30
0.0
 11
282.38397499816119
 21
556.78051605579185
 31
0.0
  0
LINE
  5
2EC6
  8
AM_0
 10
306.38397499816119
 20
564.20492605579204
 30
0.0
 11
309.38397499816119
 21
564.20492605579204
 31
0.0
  0
LINE
  5
2EC7
  8
AM_0
 10
306.38397499816119
 20
569.97842605579217
 30
0.0
 11
309.38397499816119
 21
569.97842605579217
 31
0.0
  0
LINE
  5
2EC8
  8
AM_0
 10
306.38397499816119
 20
561.31817605579204
 30
0.0
 11
309.38397499816119
 21
561.31817605579204
 31
0.0
  0
LINE
  5
2EC9
  8
AM_0
 10
308.38397499816119
 20
558.84747605579173
 30
0.0
 11
321.96594499816121
 21
556.28909605579202
 31
0.0
  0
LINE
  5
2ECA
  8
AM_0
 10
305.38397499816119
 20
558.84744605579203
 30
0.0
 11
308.38397499816119
 21
558.84744605579203
 31
0.0
  0
LINE
  5
2ECB
  8
AM_0
 10
305.38397499816119
 20
560.31814605579189
 30
0.0
 11
306.38397499816119
 21
560.31814605579189
 31
0.0
  0
ARC
  5
2ECC
  8
AM_0
 10
309.38397499816119
 20
563.20492605579204
 30
0.0
 40
1.0
 50
0.0
 51
90.000003000000945
  0
LINE
  5
2ECD
  8
AM_0
 10
310.38394499816121
 20
571.86520605579199
 30
0.0
 11
310.38394499816121
 21
562.31817605579204
 31
0.0
  0
ARC
  5
2ECE
  8
AM_0
 10
309.38397499816119
 20
562.31817605579204
 30
0.0
 40
1.0
 50
269.999989999999
 51
0.0000006832462478
  0
ARC
  5
2ECF
  8
AM_0
 10
309.38397499816119
 20
565.20492605579204
 30
0.0
 40
1.0
 50
269.999989999999
 51
0.0000006832462478
  0
ARC
  5
2ED0
  8
AM_0
 10
309.38397499816119
 20
570.97842605579206
 30
0.0
 40
1.0
 50
269.999989999999
 51
0.0000006832462478
  0
ARC
  5
2ED1
  8
AM_0
 10
309.38397499816119
 20
568.97845605579221
 30
0.0
 40
1.0
 50
0.0
 51
90.000003000000945
  0
LINE
  5
2ED2
  8
AM_0
 10
327.46249499816122
 20
571.87649605579213
 30
0.0
 11
322.47775499816117
 21
572.00701605579195
 31
0.0
  0
ARC
  5
2ED3
  8
AM_0
 10
327.38397499816119
 20
568.87753605579201
 30
0.0
 40
3.0
 50
0.0
 51
88.499997000000747
  0
LINE
  5
2ED4
  8
AM_0
 10
284.38397499816119
 20
573.99151605579175
 30
0.0
 11
285.38400499816129
 21
573.99151605579175
 31
0.0
  0
LINE
  5
2ED5
  8
AM_0
 10
267.33163499816118
 20
585.99325605579202
 30
0.0
 11
297.38400499816117
 21
586.78021605579181
 31
0.0
  0
ARC
  5
2ED7
  8
AM_0
 10
267.38397499816119
 20
583.99395605579218
 30
0.0
 40
2.0
 50
91.500001000001546
 51
180.00001000000091
  0
ARC
  5
2ED8
  8
AM_0
 10
306.98895499816132
 20
574.44842605579197
 30
0.0
 40
5.0
 50
60.112980000000888
 51
88.499997000000747
  0
LINE
  5
2ED9
  8
AM_0
 10
306.38397499816119
 20
572.86517605579195
 30
0.0
 11
309.38397499816119
 21
572.86517605579195
 31
0.0
  0
LINE
  5
2EDA
  8
AM_0
 10
307.11981499816119
 20
579.44671605579185
 30
0.0
 11
294.38397499816119
 21
579.7802160557917
 31
0.0
  0
LINE
  5
2EDB
  8
AM_0
 10
297.38397499816119
 20
582.92422605579213
 30
0.0
 11
290.38397499816119
 21
586.59692605579187
 31
0.0
  0
LINE
  5
2EDC
  8
AM_0
 10
294.78698499816119
 20
579.76965605579198
 30
0.0
 11
290.38400499816117
 21
582.07977605579219
 31
0.0
  0
LINE
  5
2EDD
  8
AM_0
 10
294.38397499816119
 20
579.7802160557917
 30
0.0
 11
289.33166499816122
 21
579.64791605579205
 31
0.0
  0
ARC
  5
2EDE
  8
AM_0
 10
285.38400499816129
 20
575.99151605579209
 30
0.0
 40
2.0
 50
270.0
 51
0.0
  0
ARC
  5
2EDF
  8
AM_0
 10
289.38400499816117
 20
577.64858605579207
 30
0.0
 40
2.0
 50
91.500001000001546
 51
180.00001000000091
  0
LINE
  5
2EE0
  8
AM_0
 10
290.38397499816119
 20
586.59689605579194
 30
0.0
 11
290.38397499816119
 21
582.07980605579201
 31
0.0
  0
LINE
  5
2EE1
  8
AM_0
 10
297.38397499816119
 20
579.701656055792
 30
0.0
 11
297.38397499816119
 21
582.92422605579213
 31
0.0
  0
LINE
  5
2EE2
  8
AM_0
 10
305.38397499816119
 20
573.86520605579165
 30
0.0
 11
306.38397499816119
 21
573.86520605579165
 31
0.0
  0
LINE
  5
2EE3
  8
AM_0
 10
309.48043499816117
 20
578.78344605579196
 30
0.0
 11
320.1171549981612
 21
572.6702560557917
 31
0.0
  0
CIRCLE
  5
2EE4
  8
AM_0
 10
347.38397499816108
 20
573.78021605579181
 30
0.0
 40
6.0
  0
LINE
  5
2EE5
  8
ﾁｭｳｼﾝｾﾝ1
 10
347.38397499816108
 20
583.78021605579181
 30
0.0
 11
347.38397499816108
 21
563.7802160557917
 31
0.0
  0
LINE
  5
2EE6
  8
AM_0
 10
359.38397499816108
 20
583.20837605579175
 30
0.0
 11
359.38397499816108
 21
560.35204605579202
 31
0.0
  0
LINE
  5
2EE7
  8
AM_0
 10
369.38397499816119
 20
504.78021605579193
 30
0.0
 11
401.38397499816091
 21
504.78021605579193
 31
0.0
  0
LINE
  5
2EE8
  8
AM_0
 10
361.38397499816108
 20
522.78024605579208
 30
0.0
 11
401.38397499816091
 21
522.78024605579208
 31
0.0
  0
LINE
  5
2EE9
  8
AM_0
 10
369.38397499816119
 20
512.78018605579177
 30
0.0
 11
401.38397499816091
 21
512.78018605579177
 31
0.0
  0
LINE
  5
2EEA
  8
AM_0
 10
357.34905499816108
 20
535.35125605579185
 30
0.0
 11
358.4188849981611
 21
535.31390605579202
 31
0.0
  0
ARC
  5
2EEB
  8
AM_0
 10
357.38397499816108
 20
536.35067605579195
 30
0.0
 40
1.0
 50
180.00001000000091
 51
267.99999999999972
  0
ARC
  5
2EEC
  8
AM_0
 10
369.38397499816119
 20
508.78018605579189
 30
0.0
 40
3.9999962
 50
90.000003000000945
 51
270.0
  0
LINE
  5
2EED
  8
AM_0
 10
369.38397499816119
 20
512.78018605579177
 30
0.0
 11
369.38397499816119
 21
504.78021605579193
 31
0.0
  0
LINE
  5
2EEE
  8
AM_0
 10
359.38397499816108
 20
523.78021605579204
 30
0.0
 11
361.38397499816108
 21
523.78021605579204
 31
0.0
  0
ARC
  5
2EEF
  8
AM_0
 10
358.38397499816108
 20
534.31451605579196
 30
0.0
 40
1.0
 50
0.0
 51
87.999999999999659
  0
LINE
  5
2EF0
  8
AM_0
 10
356.38400499816117
 20
558.3251660557919
 30
0.0
 11
357.43633499816121
 21
558.35272605579212
 31
0.0
  0
ARC
  5
2EF1
  8
AM_0
 10
340.38400499816117
 20
552.80575605579202
 30
0.0
 40
3.0
 50
0.0
 51
88.499997000000747
  0
ARC
  5
2EF2
  8
AM_0
 10
351.38397499816108
 20
552.19854605579212
 30
0.0
 40
5.0
 50
0.0
 51
85.000004000001198
  0
ARC
  5
2EF3
  8
AM_0
 10
347.55801499816118
 20
562.571476055792
 30
0.0
 40
5.0
 50
206.2656700000002
 51
265.00001000000071
  0
LINE
  5
2EF4
  8
AM_0
 10
340.64547499816121
 20
562.01980605579195
 30
0.0
 11
334.94821499816118
 21
562.51824605579213
 31
0.0
  0
ARC
  5
2EF5
  8
AM_0
 10
340.38400499816117
 20
559.03121605579179
 30
0.0
 40
3.0
 50
0.0
 51
85.000004000001198
  0
LINE
  5
2EF6
  8
AM_0
 10
351.81976499816119
 20
557.17953605579191
 30
0.0
 11
347.12225499816122
 21
557.59051605579202
 31
0.0
  0
ARC
  5
2EF7
  8
AM_0
 10
357.38397499816108
 20
560.35204605579202
 30
0.0
 40
2.0
 50
271.49999999999949
 51
0.0
  0
LINE
  5
2EF8
  8
ﾁｭｳｼﾝｾﾝ1
 10
337.38397499816119
 20
573.78021605579181
 30
0.0
 11
357.38397499816108
 21
573.78021605579181
 31
0.0
  0
ARC
  5
2EF9
  8
AM_0
 10
357.38397499816108
 20
583.20837605579175
 30
0.0
 40
2.0
 50
0.0
 51
88.499997000000747
  0
LINE
  5
2F6D
  8
ﾁｭｳｼﾝｾﾝ1
 10
277.38397499816119
 20
583.78021605579181
 30
0.0
 11
277.38397499816119
 21
563.7802160557917
 31
0.0
  0
LINE
  5
2F6E
  8
ﾁｭｳｼﾝｾﾝ1
 10
267.38397499816119
 20
573.78021605579181
 30
0.0
 11
287.38397499816119
 21
573.78021605579181
 31
0.0
  0
LINE
  5
2F75
  8
ﾁｭｳｼﾝｾﾝ1
 10
277.38397499816119
 20
453.78021605579193
 30
0.0
 11
277.38397499816119
 21
433.78021605579193
 31
0.0
  0
LINE
  5
2F76
  8
ﾁｭｳｼﾝｾﾝ1
 10
267.38397499816119
 20
443.78021605579198
 30
0.0
 11
287.38397499816119
 21
443.78021605579198
 31
0.0
  0
LINE
  5
2F7D
  8
ﾁｭｳｼﾝｾﾝ1
 10
347.38397499816108
 20
453.78021605579193
 30
0.0
 11
347.38397499816108
 21
433.78021605579193
 31
0.0
  0
LINE
  5
2F7E
  8
ﾁｭｳｼﾝｾﾝ1
 10
337.38397499816119
 20
443.78021605579198
 30
0.0
 11
357.38397499816108
 21
443.78021605579198
 31
0.0
  0
LINE
  5
34FE
  8
AM_0
 10
155.88400499816109
 20
443.18025055579187
 30
0.0
 11
237.8840049981612
 21
443.1802505557917
 31
0.0
  0
LINE
  5
34FF
  8
AM_0
 10
94.384004998161245
 20
574.38025055579158
 30
0.0
 11
237.88400499816129
 21
574.38025055579158
 31
0.0
  0
LINE
  5
3500
  8
AM_0
 10
92.384004998161245
 20
572.3802505557918
 30
0.0
 11
92.384004998161245
 21
445.18025055579182
 31
0.0
  0
LINE
  5
3501
  8
AM_0
 10
94.884004998161245
 20
574.38025055579158
 30
0.0
 11
94.884004998161146
 21
443.1802505557917
 31
0.0
  0
ARC
  5
3502
  8
AM_0
 10
1027.0701288079811
 20
508.78025055579161
 30
0.0
 40
940.68612380981915
 50
176.76392470776139
 51
183.2360752922385
  0
LINE
  5
3503
  8
AM_0
 10
87.884004998161245
 20
561.88211842717112
 30
0.0
 11
87.884004998161089
 21
455.67838268441238
 31
0.0
  0
ARC
  5
3504
  8
AM_0
 10
94.384004998161245
 20
445.18025055579182
 30
0.0
 40
2.0
 50
180.0
 51
270.0
1001
GENIUS_GENOBJ-N-FIL_13
1002
{
1000
OWNER
1000
GEN
1002
}
1001
GENIUS_GENODEF_13
1002
{
1000
HIER
1070
     0
1002
}
1002
{
1000
MANEDIT
1070
     0
1002
}
1002
{
1000
NOSEL
1070
     0
1002
}
1002
{
1000
BEHIND
1070
     0
1002
}
1002
{
1000
OTHER
1070
     0
1002
}
1002
{
1000
REACTOR
1002
}
  0
ARC
  5
3505
  8
AM_0
 10
89.884004998161075
 20
455.67838268441238
 30
0.0
 40
2.0
 50
180.0
 51
228.3664606634303
1001
GENIUS_GENODEF_13
1002
{
1000
HIER
1070
     0
1002
}
1002
{
1000
MANEDIT
1070
     0
1002
}
1002
{
1000
NOSEL
1070
     0
1002
}
1002
{
1000
BEHIND
1070
     0
1002
}
1002
{
1000
OTHER
1070
     0
1002
}
1002
{
1000
REACTOR
1002
}
1001
GENIUS_GENOBJ-N-FIL_13
1002
{
1000
OWNER
1000
GEN
1002
}
  0
LINE
  5
3506
  8
AM_0
 10
91.712732675821059
 20
451.37693706453882
 30
0.0
 11
88.55527732050129
 21
454.1835640470448
 31
0.0
  0
ARC
  5
3507
  8
AM_0
 10
90.384004998161245
 20
449.88211842717118
 30
0.0
 40
2.0
 50
0.0
 51
48.366460663430352
1001
GENIUS_GENOBJ-N-FIL_13
1002
{
1000
OWNER
1000
GEN
1002
}
1001
GENIUS_GENODEF_13
1002
{
1000
HIER
1070
     0
1002
}
1002
{
1000
MANEDIT
1070
     0
1002
}
1002
{
1000
NOSEL
1070
     0
1002
}
1002
{
1000
BEHIND
1070
     0
1002
}
1002
{
1000
OTHER
1070
     0
1002
}
1002
{
1000
REACTOR
1002
}
  0
LINE
  5
3508
  8
AM_0
 10
155.88400499816109
 20
446.5212775826127
 30
0.0
 11
155.884004998161
 21
429.7202513268536
 31
0.0
  0
LINE
  5
3509
  8
AM_0
 10
97.884004998161132
 20
446.5212775826127
 30
0.0
 11
97.884004998161132
 21
429.72025132685371
 31
0.0
  0
LINE
  5
350A
  8
AM_0
 10
153.88400499816109
 20
431.1278523255603
 30
0.0
 11
99.884004998161146
 21
431.1278523255603
 31
0.0
  0
LINE
  5
350B
  8
AM_0
 10
153.884004998161
 20
427.7202513268536
 30
0.0
 11
99.884004998161146
 21
427.7202513268536
 31
0.0
  0
ARC
  5
350C
  8
AM_0
 10
99.884004998161146
 20
433.1278523255603
 30
0.0
 40
2.0
 50
180.0
 51
270.0
1001
GENIUS_GENODEF_13
1002
{
1000
HIER
1070
     0
1002
}
1002
{
1000
MANEDIT
1070
     0
1002
}
1002
{
1000
NOSEL
1070
     0
1002
}
1002
{
1000
BEHIND
1070
     0
1002
}
1002
{
1000
OTHER
1070
     0
1002
}
1002
{
1000
REACTOR
1002
}
1001
GENIUS_GENOBJ-N-FIL_13
1002
{
1000
OWNER
1000
GEN
1002
}
  0
ARC
  5
350D
  8
AM_0
 10
99.884004998161146
 20
429.72025132685371
 30
0.0
 40
2.0
 50
180.0
 51
270.0
1001
GENIUS_GENOBJ-N-FIL_13
1002
{
1000
OWNER
1000
GEN
1002
}
1001
GENIUS_GENODEF_13
1002
{
1000
HIER
1070
     0
1002
}
1002
{
1000
MANEDIT
1070
     0
1002
}
1002
{
1000
NOSEL
1070
     0
1002
}
1002
{
1000
BEHIND
1070
     0
1002
}
1002
{
1000
OTHER
1070
     0
1002
}
1002
{
1000
REACTOR
1002
}
  0
ARC
  5
350E
  8
AM_0
 10
153.88400499816109
 20
433.1278523255603
 30
0.0
 40
2.0
 50
270.0
 51
0.0
1001
GENIUS_GENOBJ-N-FIL_13
1002
{
1000
OWNER
1000
GEN
1002
}
1001
GENIUS_GENODEF_13
1002
{
1000
HIER
1070
     0
1002
}
1002
{
1000
MANEDIT
1070
     0
1002
}
1002
{
1000
NOSEL
1070
     0
1002
}
1002
{
1000
BEHIND
1070
     0
1002
}
1002
{
1000
OTHER
1070
     0
1002
}
1002
{
1000
REACTOR
1002
}
  0
ARC
  5
350F
  8
AM_0
 10
153.884004998161
 20
429.7202513268536
 30
0.0
 40
2.0
 50
270.0
 51
0.0
1001
GENIUS_GENOBJ-N-FIL_13
1002
{
1000
OWNER
1000
GEN
1002
}
1001
GENIUS_GENODEF_13
1002
{
1000
HIER
1070
     0
1002
}
1002
{
1000
MANEDIT
1070
     0
1002
}
1002
{
1000
NOSEL
1070
     0
1002
}
1002
{
1000
BEHIND
1070
     0
1002
}
1002
{
1000
OTHER
1070
     0
1002
}
1002
{
1000
REACTOR
1002
}
  0
LINE
  5
3510
  8
AM_0
 10
128.3840049981612
 20
452.48945757632271
 30
0.0
 11
112.3840049981611
 21
452.48945757632271
 31
0.0
1001
GENIUS_GENOREF_13
1005
3538
  0
LINE
  5
3511
  8
AM_0N
 10
112.3840049981611
 20
448.93767328460382
 30
0.0
 11
128.38400499816109
 21
448.93767328460382
 31
0.0
1001
GENIUS_GENOREF_13
1005
0
  0
LINE
  5
3512
  8
AM_0
 10
128.3840049981612
 20
439.6306546230968
 30
0.0
 11
124.3840049981612
 21
439.6306546230968
 31
0.0
  0
LINE
  5
3513
  8
AM_0
 10
112.3840049981611
 20
448.52127758261281
 30
0.0
 11
99.884004998161146
 21
448.52127758261281
 31
0.0
  0
LINE
  5
3514
  8
AM_0
 10
94.384004998161245
 20
443.1802505557917
 30
0.0
 11
97.884004998161132
 21
443.1802505557917
 31
0.0
  0
ARC
  5
3515
  8
AM_0
 10
99.884004998161146
 20
446.5212775826127
 30
0.0
 40
2.0
 50
90.0
 51
180.0
1001
GENIUS_GENOBJ-N-FIL_13
1002
{
1000
OWNER
1000
GEN
1002
}
1001
GENIUS_GENODEF_13
1002
{
1000
HIER
1070
     0
1002
}
1002
{
1000
MANEDIT
1070
     0
1002
}
1002
{
1000
NOSEL
1070
     0
1002
}
1002
{
1000
BEHIND
1070
     0
1002
}
1002
{
1000
OTHER
1070
     0
1002
}
1002
{
1000
REACTOR
1002
}
  0
LINE
  5
3516
  8
AM_0
 10
112.3840049981611
 20
452.48945757632271
 30
0.0
 11
112.3840049981611
 21
439.6306546230968
 31
0.0
  0
LINE
  5
3517
  8
AM_0
 10
124.3840049981612
 20
448.93767328460399
 30
0.0
 11
124.3840049981612
 21
439.6306546230968
 31
0.0
  0
LINE
  5
3518
  8
AM_0
 10
116.3840049981611
 20
448.93767328460382
 30
0.0
 11
116.3840049981611
 21
439.6306546230968
 31
0.0
  0
LINE
  5
3519
  8
AM_0
 10
124.3840049981612
 20
444.906717421606
 30
0.0
 11
116.3840049981611
 21
444.906717421606
 31
0.0
  0
LINE
  5
351A
  8
AM_0
 10
116.3840049981611
 20
439.6306546230968
 30
0.0
 11
112.3840049981611
 21
439.6306546230968
 31
0.0
  0
ARC
  5
351B
  8
AM_0N
 10
118.8658920811709
 20
448.05409277437201
 30
0.0
 40
1.1999999999999991
 50
184.99999999999969
 51
246.4528627629231
1001
GENIUS_GENOREF_13
1005
0
  0
LINE
  5
351C
  8
AM_0N
 10
117.6704584434608
 20
447.94950588307489
 30
0.0
 11
117.58400499816111
 21
448.93767328460382
 31
0.0
1001
GENIUS_GENOREF_13
1005
0
  0
LINE
  5
351D
  8
AM_0N
 10
123.0975515528615
 20
447.94950588307489
 30
0.0
 11
123.1840049981611
 21
448.93767328460382
 31
0.0
1001
GENIUS_GENOREF_13
1005
0
  0
ARC
  5
351E
  8
AM_0N
 10
121.90211791515139
 20
448.05409277437201
 30
0.0
 40
1.1999999999999991
 50
293.54713723707698
 51
355.00000000000023
1001
GENIUS_GENOREF_13
1005
0
  0
LINE
  5
351F
  8
AM_3N
  6
AM_ISO02W050X2
 10
121.8840049981611
 20
446.76797727751909
 30
0.0
 11
120.3840049981611
 21
448.6553873060779
 31
0.0
1001
GENIUS_GENOREF_13
1005
0
  0
LINE
  5
3520
  8
AM_3N
  6
AM_ISO02W050X2
 10
120.6365049981611
 20
448.33767328460391
 30
0.0
 11
120.13150499816111
 21
448.33767328460391
 31
0.0
1001
GENIUS_GENOREF_13
1005
0
  0
LINE
  5
3521
  8
AM_3N
  6
AM_ISO02W050X2
 10
118.8840049981611
 20
446.76797727751909
 30
0.0
 11
120.3840049981611
 21
448.6553873060779
 31
0.0
1001
GENIUS_GENOREF_13
1005
0
  0
LINE
  5
3522
  8
AM_3N
  6
AM_ISO02W050X2
 10
120.6365049981611
 20
446.54405297965479
 30
0.0
 11
120.6365049981611
 21
448.33767328460391
 31
0.0
1001
GENIUS_GENOREF_13
1005
0
  0
LINE
  5
3523
  8
AM_3N
  6
AM_ISO02W050X2
 10
120.13150499816111
 20
446.54405297965479
 30
0.0
 11
120.13150499816111
 21
448.33767328460391
 31
0.0
1001
GENIUS_GENOREF_13
1005
0
  0
ARC
  5
3524
  8
AM_0N
 10
120.3840049981611
 20
451.53767328460401
 30
0.0
 40
5.0
 50
246.4528627629231
 51
293.54713723707698
1001
GENIUS_GENOREF_13
1005
0
  0
LINE
  5
3525
  8
AM_0
 10
153.88400499816109
 20
448.52127758261281
 30
0.0
 11
128.38400499816109
 21
448.52127758261281
 31
0.0
  0
LINE
  5
3526
  8
AM_0
 10
128.38400499816109
 20
452.48945757632271
 30
0.0
 11
128.3840049981612
 21
439.6306546230968
 31
0.0
  0
ARC
  5
3527
  8
AM_0
 10
153.88400499816109
 20
446.5212775826127
 30
0.0
 40
2.0
 50
0.0
 51
90.0
1001
GENIUS_GENODEF_13
1002
{
1000
HIER
1070
     0
1002
}
1002
{
1000
MANEDIT
1070
     0
1002
}
1002
{
1000
NOSEL
1070
     0
1002
}
1002
{
1000
BEHIND
1070
     0
1002
}
1002
{
1000
OTHER
1070
     0
1002
}
1002
{
1000
REACTOR
1002
}
1001
GENIUS_GENOBJ-N-FIL_13
1002
{
1000
OWNER
1000
GEN
1002
}
  0
LINE
  5
3528
  8
AM_0
 10
76.884004998161231
 20
525.78025055579178
 30
0.0
 11
76.884004998161103
 21
491.78025055579189
 31
0.0
  0
ARC
  5
3529
  8
AM_0
 10
79.884004998161103
 20
491.78025055579189
 30
0.0
 40
3.0
 50
180.0
 51
270.0
1001
GENIUS_GENODEF_13
1002
{
1000
HIER
1070
     0
1002
}
1002
{
1000
MANEDIT
1070
     0
1002
}
1002
{
1000
NOSEL
1070
     0
1002
}
1002
{
1000
BEHIND
1070
     0
1002
}
1002
{
1000
OTHER
1070
     0
1002
}
1002
{
1000
REACTOR
1002
}
1001
GENIUS_GENOBJ-N-FIL_13
1002
{
1000
OWNER
1000
GEN
1002
}
  0
LINE
  5
352A
  8
AM_0
 10
79.884004998161103
 20
488.78025055579172
 30
0.0
 11
86.596639799203317
 21
488.78025055579172
 31
0.0
  0
ARC
  5
352B
  8
AM_0
 10
79.884004998161231
 20
525.78025055579178
 30
0.0
 40
3.0
 50
90.0
 51
180.0
1001
GENIUS_GENOBJ-N-FIL_13
1002
{
1000
OWNER
1000
GEN
1002
}
1001
GENIUS_GENODEF_13
1002
{
1000
HIER
1070
     0
1002
}
1002
{
1000
MANEDIT
1070
     0
1002
}
1002
{
1000
NOSEL
1070
     0
1002
}
1002
{
1000
BEHIND
1070
     0
1002
}
1002
{
1000
OTHER
1070
     0
1002
}
1002
{
1000
REACTOR
1002
}
  0
LINE
  5
352C
  8
AM_0
 10
79.884004998161231
 20
528.78025055579178
 30
0.0
 11
86.596639799203317
 21
528.78025055579178
 31
0.0
  0
ARC
  5
352D
  8
AM_0
 10
90.384004998161245
 20
567.67838268441255
 30
0.0
 40
2.0
 50
311.63353933656958
 51
0.0
1001
GENIUS_GENOBJ-N-FIL_13
1002
{
1000
OWNER
1000
GEN
1002
}
1001
GENIUS_GENODEF_13
1002
{
1000
HIER
1070
     0
1002
}
1002
{
1000
MANEDIT
1070
     0
1002
}
1002
{
1000
NOSEL
1070
     0
1002
}
1002
{
1000
BEHIND
1070
     0
1002
}
1002
{
1000
OTHER
1070
     0
1002
}
1002
{
1000
REACTOR
1002
}
  0
ARC
  5
352E
  8
AM_0
 10
89.884004998161259
 20
561.88211842717112
 30
0.0
 40
2.0
 50
131.63353933656961
 51
180.0
1001
GENIUS_GENODEF_13
1002
{
1000
HIER
1070
     0
1002
}
1002
{
1000
MANEDIT
1070
     0
1002
}
1002
{
1000
NOSEL
1070
     0
1002
}
1002
{
1000
BEHIND
1070
     0
1002
}
1002
{
1000
OTHER
1070
     0
1002
}
1002
{
1000
REACTOR
1002
}
1001
GENIUS_GENOBJ-N-FIL_13
1002
{
1000
OWNER
1000
GEN
1002
}
  0
LINE
  5
352F
  8
AM_0
 10
91.712732675821059
 20
566.18356404704491
 30
0.0
 11
88.55527732050129
 21
563.37693706453865
 31
0.0
  0
ARC
  5
3530
  8
AM_0
 10
94.384004998161245
 20
572.3802505557918
 30
0.0
 40
2.0
 50
90.0
 51
180.0
1001
GENIUS_GENOBJ-N-FIL_13
1002
{
1000
OWNER
1000
GEN
1002
}
1001
GENIUS_GENODEF_13
1002
{
1000
HIER
1070
     0
1002
}
1002
{
1000
MANEDIT
1070
     0
1002
}
1002
{
1000
NOSEL
1070
     0
1002
}
1002
{
1000
BEHIND
1070
     0
1002
}
1002
{
1000
OTHER
1070
     0
1002
}
1002
{
1000
REACTOR
1002
}
  0
LINE
  5
3531
  8
AM_0
 10
256.38400499816117
 20
571.78025055579178
 30
0.0
 11
256.38400499816117
 21
445.78025055579201
 31
0.0
  0
LINE
  5
3532
  8
AM_0
 10
237.8840049981612
 20
574.78025055579201
 30
0.0
 11
237.8840049981612
 21
442.78025055579189
 31
0.0
  0
LINE
  5
3533
  8
AM_0
 10
249.3840049981612
 20
574.78025055579201
 30
0.0
 11
249.3840049981612
 21
442.78025055579189
 31
0.0
  0
LINE
  5
3534
  8
AM_0
 10
237.8840049981612
 20
442.78025055579189
 30
0.0
 11
249.3840049981612
 21
442.78025055579189
 31
0.0
  0
LINE
  5
3535
  8
AM_0
 10
256.38400499816117
 20
445.78025055579201
 30
0.0
 11
249.3840049981612
 21
442.78025055579189
 31
0.0
  0
LINE
  5
3536
  8
AM_0
 10
237.8840049981612
 20
574.78025055579201
 30
0.0
 11
249.3840049981612
 21
574.78025055579201
 31
0.0
  0
LINE
  5
3537
  8
AM_0
 10
249.3840049981612
 20
574.78025055579201
 30
0.0
 11
256.38400499816117
 21
571.78025055579178
 31
0.0
  0
POINT
  5
3538
  8
0
 10
-29.49023360314721
 20
7.237358295978364
 30
0.0
1001
GENIUS_GENOLIS_13
1002
{
1000
ENT
1005
0
1005
0
1005
0
1005
3510
1002
}
1001
GENIUS_GENOENT_13
1002
{
1000
MYREF
1005
3538
1002
}
1002
{
1000
GRP
1005
0
1002
}
1001
GENIUS_GENOBJ-NBEHI-BHB_13
1002
{
1000
OWNER
1000
genbehi
1002
}
1001
GENIUS_GENBH_13
1002
{
1000
FGO
1005
0
1002
}
1001
GENIUS_GENODEF_13
1002
{
1000
HIER
1070
     1
1002
}
1002
{
1000
MANEDIT
1070
     1
1002
}
1002
{
1000
NOSEL
1070
     1
1002
}
1002
{
1000
BEHIND
1070
     0
1002
}
1002
{
1000
OTHER
1070
     1
1002
}
1002
{
1000
REACTOR
1002
}
  0
LINE
  5
381F
  8
AM_0
 10
361.38395499816119
 20
306.46541773801169
 30
0.0
 11
401.38397499816091
 21
306.46541773801169
 31
0.0
  0
LINE
  5
3820
  8
AM_0
 10
361.38395499816119
 20
278.46540073801168
 30
0.0
 11
401.38397499816091
 21
278.46540073801168
 31
0.0
  0
LINE
  5
3821
  8
AM_0
 10
369.38393499816118
 20
309.46541773801169
 30
0.0
 11
401.38397499816091
 21
309.46541773801169
 31
0.0
  0
LINE
  5
3822
  8
ﾁｭｳｼﾝｾﾝ1
 10
403.84490499816093
 20
292.4653717380117
 30
0.0
 11
274.34699499816122
 21
292.4653717380117
 31
0.0
  0
LINE
  5
3824
  8
AM_0
 10
155.8839849981612
 20
297.46540073801168
 30
0.0
 11
155.8839849981612
 21
253.46540073801171
 31
0.0
  0
LINE
  5
3825
  8
AM_0
 10
97.883984998161225
 20
297.46540073801168
 30
0.0
 11
97.883984998161225
 21
253.46540073801171
 31
0.0
  0
LINE
  5
3826
  8
AM_0
 10
76.883984998161225
 20
289.46540073801168
 30
0.0
 11
76.883984998161225
 21
255.46540073801171
 31
0.0
  0
LINE
  5
3827
  8
AM_0
 10
237.8839849981612
 20
338.46540073801168
 30
0.0
 11
237.88398499816111
 21
206.46540073801171
 31
0.0
  0
LINE
  5
3828
  8
AM_0
 10
249.3839849981612
 20
338.46540073801168
 30
0.0
 11
249.3839849981612
 21
206.46540073801171
 31
0.0
  0
LINE
  5
3829
  8
AM_0
 10
94.883984998161225
 20
338.0654007380117
 30
0.0
 11
94.883984998161225
 21
206.8654007380116
 31
0.0
  0
LINE
  5
382A
  8
AM_0
 10
92.383984998161282
 20
336.06540073801182
 30
0.0
 11
92.383984998161225
 21
208.8654007380116
 31
0.0
  0
LINE
  5
382B
  8
AM_0
 10
87.883984998161225
 20
325.56726860939119
 30
0.0
 11
87.883984998161225
 21
219.3635328666322
 31
0.0
  0
ARC
  5
382C
  8
AM_0
 10
1027.07010880798
 20
272.4654007380114
 30
0.0
 40
940.68612380981915
 50
176.76392470776159
 51
183.2360752922383
  0
LINE
  5
382E
  8
AM_0
 10
361.38395499816119
 20
307.46537773801168
 30
0.0
 11
361.38395499816119
 21
277.4653717380117
 31
0.0
  0
LINE
  5
382F
  8
AM_0
 10
287.38400499816112
 20
313.9597177380117
 30
0.0
 11
287.38400499816112
 21
209.5953127380117
 31
0.0
  0
LINE
  5
3830
  8
AM_0
 10
343.38395499816119
 20
337.31147773801172
 30
0.0
 11
343.38395499816119
 21
228.50618773801159
 31
0.0
  0
LINE
  5
3831
  8
AM_0
 10
330.38393499816118
 20
302.25620773801171
 30
0.0
 11
330.38393499816118
 21
214.4653837380117
 31
0.0
  0
LINE
  5
3832
  8
AM_0
 10
297.38393499816118
 20
279.68164873801157
 30
0.0
 11
297.38393499816118
 21
242.98986073801171
 31
0.0
  0
LINE
  5
3833
  8
AM_0
 10
356.38397499816108
 20
322.71641773801173
 30
0.0
 11
356.38397499816108
 21
213.20995273801171
 31
0.0
  0
LINE
  5
3834
  8
AM_0
 10
294.38393499816118
 20
343.46537773801168
 30
0.0
 11
294.38393499816118
 21
228.32253373801171
 31
0.0
  0
LINE
  5
3835
  8
AM_0
 10
359.38397499816108
 20
267.12009673801168
 30
0.0
 11
359.38397499816108
 21
317.81066773801172
 31
0.0
  0
LINE
  5
3836
  8
AM_0
 10
256.38398499816111
 20
209.46540073801171
 30
0.0
 11
256.38398499816111
 21
335.46540073801168
 31
0.0
  0
LINE
  5
3837
  8
AM_0
 10
120.8839849981611
 20
238.46540073801171
 30
0.0
 11
143.88398499816111
 21
238.46540073801171
 31
0.0
  0
LINE
  5
3838
  8
AM_0
 10
98.883984998161225
 20
252.46540073801171
 30
0.0
 11
154.8839849981612
 21
252.46540073801171
 31
0.0
  0
LINE
  5
3839
  8
AM_0
 10
120.8839849981611
 20
232.96540073801171
 30
0.0
 11
143.8839849981612
 21
232.96540073801171
 31
0.0
  0
LINE
  5
383A
  8
AM_0
 10
120.8839849981611
 20
224.0654007380117
 30
0.0
 11
143.8839849981612
 21
224.0654007380117
 31
0.0
  0
LINE
  5
383B
  8
AM_0
 10
120.8839849981611
 20
229.26540073801161
 30
0.0
 11
143.8839849981612
 21
229.26540073801181
 31
0.0
  0
LINE
  5
383C
  8
AM_0
 10
120.8839849981611
 20
220.5654007380117
 30
0.0
 11
143.8839849981612
 21
220.5654007380117
 31
0.0
  0
LINE
  5
383D
  8
AM_0
 10
120.8839849981611
 20
216.26540073801161
 30
0.0
 11
143.8839849981612
 21
216.26540073801161
 31
0.0
  0
LINE
  5
383E
  8
AM_0
 10
120.8839849981611
 20
210.1654007380117
 30
0.0
 11
143.8839849981612
 21
210.1654007380117
 31
0.0
  0
LINE
  5
383F
  8
AM_0
 10
120.8839849981611
 20
212.76540073801161
 30
0.0
 11
143.8839849981612
 21
212.76540073801161
 31
0.0
  0
LINE
  5
3840
  8
AM_0
 10
94.383984998161225
 20
206.8654007380116
 30
0.0
 11
237.88398499816111
 21
206.8654007380116
 31
0.0
  0
LINE
  5
3841
  8
ﾁｭｳｼﾝｾﾝ1
 10
73.057452700633789
 20
272.46540073801168
 30
0.0
 11
282.00961832440862
 21
272.46540073801168
 31
0.0
  0
LINE
  5
3842
  8
AM_0
 10
119.8839849981611
 20
237.46540073801171
 30
0.0
 11
119.8839849981611
 21
233.96540073801171
 31
0.0
  0
ARC
  5
3843
  8
AM_0
 10
90.383984998161225
 20
213.56726860939111
 30
0.0
 40
2.0
 50
0.0
 51
48.36646066343252
1001
GENIUS_GENOBJ-N-FIL_13
1002
{
1000
OWNER
1000
GEN
1002
}
1001
GENIUS_GENODEF_13
1002
{
1000
HIER
1070
     0
1002
}
1002
{
1000
MANEDIT
1070
     0
1002
}
1002
{
1000
NOSEL
1070
     0
1002
}
1002
{
1000
BEHIND
1070
     0
1002
}
1002
{
1000
OTHER
1070
     0
1002
}
1002
{
1000
REACTOR
1002
}
  0
ARC
  5
3844
  8
AM_0
 10
94.383984998161225
 20
208.8654007380116
 30
0.0
 40
2.0
 50
180.0
 51
270.0
1001
GENIUS_GENOBJ-N-FIL_13
1002
{
1000
OWNER
1000
GEN
1002
}
1001
GENIUS_GENODEF_13
1002
{
1000
HIER
1070
     0
1002
}
1002
{
1000
MANEDIT
1070
     0
1002
}
1002
{
1000
NOSEL
1070
     0
1002
}
1002
{
1000
BEHIND
1070
     0
1002
}
1002
{
1000
OTHER
1070
     0
1002
}
1002
{
1000
REACTOR
1002
}
  0
LINE
  5
3845
  8
AM_0
 10
91.712712675821081
 20
215.06208724675861
 30
0.0
 11
88.555257320501426
 21
217.86871422926481
 31
0.0
  0
ARC
  5
3846
  8
AM_0
 10
89.883984998161225
 20
219.3635328666322
 30
0.0
 40
2.0
 50
180.0
 51
228.36646066343241
1001
GENIUS_GENODEF_13
1002
{
1000
HIER
1070
     0
1002
}
1002
{
1000
MANEDIT
1070
     0
1002
}
1002
{
1000
NOSEL
1070
     0
1002
}
1002
{
1000
BEHIND
1070
     0
1002
}
1002
{
1000
OTHER
1070
     0
1002
}
1002
{
1000
REACTOR
1002
}
1001
GENIUS_GENOBJ-N-FIL_13
1002
{
1000
OWNER
1000
GEN
1002
}
  0
LINE
  5
3847
  8
AM_0
 10
119.8839849981611
 20
211.76540073801161
 30
0.0
 11
119.8839849981611
 21
211.1654007380117
 31
0.0
  0
ARC
  5
3848
  8
AM_0
 10
120.8839849981611
 20
211.76540073801161
 30
0.0
 40
1.0
 50
90.0
 51
180.0
1001
GENIUS_GENOBJ-N-FIL_13
1002
{
1000
OWNER
1000
GEN
1002
}
1001
GENIUS_GENODEF_13
1002
{
1000
HIER
1070
     0
1002
}
1002
{
1000
MANEDIT
1070
     0
1002
}
1002
{
1000
NOSEL
1070
     0
1002
}
1002
{
1000
BEHIND
1070
     0
1002
}
1002
{
1000
OTHER
1070
     0
1002
}
1002
{
1000
REACTOR
1002
}
  0
ARC
  5
3849
  8
AM_0
 10
120.8839849981611
 20
211.1654007380117
 30
0.0
 40
1.0
 50
180.0
 51
270.0
1001
GENIUS_GENODEF_13
1002
{
1000
HIER
1070
     0
1002
}
1002
{
1000
MANEDIT
1070
     0
1002
}
1002
{
1000
NOSEL
1070
     0
1002
}
1002
{
1000
BEHIND
1070
     0
1002
}
1002
{
1000
OTHER
1070
     0
1002
}
1002
{
1000
REACTOR
1002
}
1001
GENIUS_GENOBJ-N-FIL_13
1002
{
1000
OWNER
1000
GEN
1002
}
  0
ARC
  5
384A
  8
AM_0
 10
120.8839849981611
 20
225.0654007380117
 30
0.0
 40
1.0
 50
180.0
 51
270.0
1001
GENIUS_GENOBJ-N-FIL_13
1002
{
1000
OWNER
1000
GEN
1002
}
1001
GENIUS_GENODEF_13
1002
{
1000
HIER
1070
     0
1002
}
1002
{
1000
MANEDIT
1070
     0
1002
}
1002
{
1000
NOSEL
1070
     0
1002
}
1002
{
1000
BEHIND
1070
     0
1002
}
1002
{
1000
OTHER
1070
     0
1002
}
1002
{
1000
REACTOR
1002
}
  0
LINE
  5
384B
  8
AM_0
 10
119.8839849981611
 20
219.5654007380117
 30
0.0
 11
119.8839849981611
 21
217.26540073801169
 31
0.0
  0
ARC
  5
384C
  8
AM_0
 10
120.8839849981611
 20
219.5654007380117
 30
0.0
 40
1.0
 50
90.0
 51
180.0
1001
GENIUS_GENODEF_13
1002
{
1000
HIER
1070
     0
1002
}
1002
{
1000
MANEDIT
1070
     0
1002
}
1002
{
1000
NOSEL
1070
     0
1002
}
1002
{
1000
BEHIND
1070
     0
1002
}
1002
{
1000
OTHER
1070
     0
1002
}
1002
{
1000
REACTOR
1002
}
1001
GENIUS_GENOBJ-N-FIL_13
1002
{
1000
OWNER
1000
GEN
1002
}
  0
ARC
  5
384D
  8
AM_0
 10
120.8839849981611
 20
217.26540073801169
 30
0.0
 40
1.0
 50
180.0
 51
270.0
1001
GENIUS_GENOBJ-N-FIL_13
1002
{
1000
OWNER
1000
GEN
1002
}
1001
GENIUS_GENODEF_13
1002
{
1000
HIER
1070
     0
1002
}
1002
{
1000
MANEDIT
1070
     0
1002
}
1002
{
1000
NOSEL
1070
     0
1002
}
1002
{
1000
BEHIND
1070
     0
1002
}
1002
{
1000
OTHER
1070
     0
1002
}
1002
{
1000
REACTOR
1002
}
  0
ARC
  5
384E
  8
AM_0
 10
120.8839849981611
 20
233.96540073801171
 30
0.0
 40
1.0
 50
180.0
 51
270.0
1001
GENIUS_GENODEF_13
1002
{
1000
HIER
1070
     0
1002
}
1002
{
1000
MANEDIT
1070
     0
1002
}
1002
{
1000
NOSEL
1070
     0
1002
}
1002
{
1000
BEHIND
1070
     0
1002
}
1002
{
1000
OTHER
1070
     0
1002
}
1002
{
1000
REACTOR
1002
}
1001
GENIUS_GENOBJ-N-FIL_13
1002
{
1000
OWNER
1000
GEN
1002
}
  0
ARC
  5
384F
  8
AM_0
 10
120.8839849981611
 20
228.26540073801161
 30
0.0
 40
1.0
 50
90.0
 51
180.0
1001
GENIUS_GENODEF_13
1002
{
1000
HIER
1070
     0
1002
}
1002
{
1000
MANEDIT
1070
     0
1002
}
1002
{
1000
NOSEL
1070
     0
1002
}
1002
{
1000
BEHIND
1070
     0
1002
}
1002
{
1000
OTHER
1070
     0
1002
}
1002
{
1000
REACTOR
1002
}
1001
GENIUS_GENOBJ-N-FIL_13
1002
{
1000
OWNER
1000
GEN
1002
}
  0
LINE
  5
3850
  8
AM_0
 10
119.8839849981611
 20
228.26540073801161
 30
0.0
 11
119.8839849981611
 21
225.0654007380117
 31
0.0
  0
LINE
  5
3851
  8
AM_0
 10
79.883984998161225
 20
252.46540073801171
 30
0.0
 11
86.596619799203381
 21
252.46540073801171
 31
0.0
  0
ARC
  5
3852
  8
AM_0
 10
79.883984998161225
 20
255.46540073801171
 30
0.0
 40
3.0
 50
180.0
 51
270.0
1001
GENIUS_GENODEF_13
1002
{
1000
HIER
1070
     0
1002
}
1002
{
1000
MANEDIT
1070
     0
1002
}
1002
{
1000
NOSEL
1070
     0
1002
}
1002
{
1000
BEHIND
1070
     0
1002
}
1002
{
1000
OTHER
1070
     0
1002
}
1002
{
1000
REACTOR
1002
}
1001
GENIUS_GENOBJ-N-FIL_13
1002
{
1000
OWNER
1000
GEN
1002
}
  0
ARC
  5
3853
  8
AM_0
 10
98.883984998161225
 20
253.46540073801171
 30
0.0
 40
1.0
 50
180.0
 51
270.0
1001
GENIUS_GENOBJ-N-FIL_13
1002
{
1000
OWNER
1000
GEN
1002
}
1001
GENIUS_GENODEF_13
1002
{
1000
HIER
1070
     0
1002
}
1002
{
1000
MANEDIT
1070
     0
1002
}
1002
{
1000
NOSEL
1070
     0
1002
}
1002
{
1000
BEHIND
1070
     0
1002
}
1002
{
1000
OTHER
1070
     0
1002
}
1002
{
1000
REACTOR
1002
}
  0
LINE
  5
3854
  8
AM_0
 10
114.3839849981612
 20
244.46540073801171
 30
0.0
 11
126.3839849981612
 21
244.46540073801171
 31
0.0
  0
ARC
  5
3855
  8
AM_0
 10
114.3839849981612
 20
246.46540073801171
 30
0.0
 40
2.0
 50
180.0
 51
270.0
1001
GENIUS_GENOBJ-N-FIL_13
1002
{
1000
OWNER
1000
GEN
1002
}
1001
GENIUS_GENODEF_13
1002
{
1000
HIER
1070
     0
1002
}
1002
{
1000
MANEDIT
1070
     0
1002
}
1002
{
1000
NOSEL
1070
     0
1002
}
1002
{
1000
BEHIND
1070
     0
1002
}
1002
{
1000
OTHER
1070
     0
1002
}
1002
{
1000
REACTOR
1002
}
  0
LINE
  5
3856
  8
AM_0
 10
116.3839849981612
 20
244.46540073801171
 30
0.0
 11
116.3839849981612
 21
252.46540073801171
 31
0.0
  0
LINE
  5
3857
  8
AM_0
 10
112.3839849981612
 20
246.46540073801171
 30
0.0
 11
112.3839849981612
 21
252.46540073801171
 31
0.0
  0
ARC
  5
3858
  8
AM_0
 10
126.3839849981612
 20
246.46540073801171
 30
0.0
 40
2.0
 50
270.0
 51
0.0
1001
GENIUS_GENOBJ-N-FIL_13
1002
{
1000
OWNER
1000
GEN
1002
}
1001
GENIUS_GENODEF_13
1002
{
1000
HIER
1070
     0
1002
}
1002
{
1000
MANEDIT
1070
     0
1002
}
1002
{
1000
NOSEL
1070
     0
1002
}
1002
{
1000
BEHIND
1070
     0
1002
}
1002
{
1000
OTHER
1070
     0
1002
}
1002
{
1000
REACTOR
1002
}
  0
LINE
  5
3859
  8
AM_0
 10
124.3839849981612
 20
244.46540073801171
 30
0.0
 11
124.3839849981612
 21
252.46540073801171
 31
0.0
  0
CIRCLE
  5
385A
  8
AM_0N
 10
120.3839849981612
 20
248.46540073801171
 30
0.0
 40
2.799999999999998
  0
ARC
  5
385B
  8
AM_0
 10
120.8839849981611
 20
237.46540073801171
 30
0.0
 40
1.0
 50
90.0
 51
180.0
1001
GENIUS_GENODEF_13
1002
{
1000
HIER
1070
     0
1002
}
1002
{
1000
MANEDIT
1070
     0
1002
}
1002
{
1000
NOSEL
1070
     0
1002
}
1002
{
1000
BEHIND
1070
     0
1002
}
1002
{
1000
OTHER
1070
     0
1002
}
1002
{
1000
REACTOR
1002
}
1001
GENIUS_GENOBJ-N-FIL_13
1002
{
1000
OWNER
1000
GEN
1002
}
  0
LINE
  5
385C
  8
AM_0N
 10
120.1314849981612
 20
249.9439959327828
 30
0.0
 11
120.63648499816119
 21
249.9439959327828
 31
0.0
  0
LINE
  5
385D
  8
AM_0N
 10
120.63648499816119
 20
246.98680554324051
 30
0.0
 11
120.63648499816119
 21
248.2129007380116
 31
0.0
  0
LINE
  5
385E
  8
AM_0N
 10
120.1314849981612
 20
246.98680554324051
 30
0.0
 11
120.1314849981612
 21
248.2129007380116
 31
0.0
  0
LINE
  5
385F
  8
AM_0N
 10
121.8625801929323
 20
248.2129007380116
 30
0.0
 11
120.63648499816119
 21
248.2129007380116
 31
0.0
  0
LINE
  5
3860
  8
AM_0N
 10
121.8625801929323
 20
248.71790073801171
 30
0.0
 11
120.63648499816119
 21
248.71790073801171
 31
0.0
  0
LINE
  5
3861
  8
AM_0N
 10
121.8625801929323
 20
248.71790073801171
 30
0.0
 11
121.8625801929323
 21
248.2129007380116
 31
0.0
  0
LINE
  5
3862
  8
AM_0N
 10
120.1314849981612
 20
246.98680554324051
 30
0.0
 11
120.63648499816119
 21
246.98680554324051
 31
0.0
  0
LINE
  5
3863
  8
AM_0N
 10
120.1314849981612
 20
248.71790073801171
 30
0.0
 11
120.1314849981612
 21
249.9439959327828
 31
0.0
  0
LINE
  5
3864
  8
AM_0N
 10
120.63648499816119
 20
248.71790073801171
 30
0.0
 11
120.63648499816119
 21
249.9439959327828
 31
0.0
  0
LINE
  5
3865
  8
AM_0N
 10
118.90538980338999
 20
248.71790073801171
 30
0.0
 11
118.90538980338999
 21
248.2129007380116
 31
0.0
  0
LINE
  5
3866
  8
AM_0N
 10
120.1314849981612
 20
248.2129007380116
 30
0.0
 11
118.90538980338999
 21
248.2129007380116
 31
0.0
  0
LINE
  5
3867
  8
AM_0N
 10
120.1314849981612
 20
248.71790073801171
 30
0.0
 11
118.90538980338999
 21
248.71790073801171
 31
0.0
  0
LINE
  5
3868
  8
AM_0
 10
128.3839849981612
 20
246.46540073801171
 30
0.0
 11
128.3839849981612
 21
252.46540073801171
 31
0.0
  0
LINE
  5
386A
  8
AM_0
 10
256.38398499816111
 20
226.46538673801169
 30
0.0
 11
287.38400499816112
 21
226.46538673801169
 31
0.0
  0
LINE
  5
386B
  8
AM_0
 10
256.38398499816111
 20
240.52837273801171
 30
0.0
 11
287.38400499816112
 21
240.52837273801171
 31
0.0
  0
LINE
  5
386C
  8
AM_0
 10
267.38393499816118
 20
209.46540073801171
 30
0.0
 11
286.33334499816118
 21
209.46540073801171
 31
0.0
  0
LINE
  5
386D
  8
AM_0
 10
265.38398499816122
 20
197.46540073801171
 30
0.0
 11
290.38400499816112
 21
197.46540073801171
 31
0.0
  0
LINE
  5
386E
  8
AM_0
 10
256.38398499816111
 20
216.46538473801169
 30
0.0
 11
279.46247499816121
 21
215.8610617380117
 31
0.0
  0
LINE
  5
3870
  8
AM_0
 10
150.58504799816109
 20
187.35408386114651
 30
0.0
 11
150.5910749981613
 21
193.6508057611467
 31
0.0
  0
LINE
  5
3871
  8
AM_0
 10
147.59548499816131
 20
192.2775076753
 30
0.0
 11
147.60146999816109
 21
185.9807563753001
 31
0.0
  0
LINE
  5
3872
  8
AM_0
 10
144.16943999816121
 20
185.97822377530011
 30
0.0
 11
144.16341299816111
 21
192.2749456753001
 31
0.0
  0
LINE
  5
3873
  8
AM_0
 10
141.1739339981612
 20
187.35408386114651
 30
0.0
 11
141.1679069981611
 21
193.6508057611467
 31
0.0
  0
LINE
  5
3874
  8
ﾁｭｳｼﾝｾﾝ
 10
145.8839849981612
 20
253.7857719463787
 30
0.0
 11
145.8839849981612
 21
177.19172351131269
 31
0.0
  0
LINE
  5
3875
  8
AM_0
 10
150.02464199816109
 20
187.3529309611466
 30
0.0
 11
151.05950099816121
 21
183.54788636114651
 31
0.0
  0
ARC
  5
3876
  8
AM_0
 10
148.83005699816101
 20
182.9465177611464
 30
0.0
 40
2.3091486599999991
 50
249.12780385311081
 51
15.094728000000879
  0
CIRCLE
  5
3877
  8
ｽﾝﾎ_ｳｾﾝ
 10
145.8839849981612
 20
181.57059257530011
 30
0.0
 40
1.5050001119999981
  0
ARC
  5
3878
  8
AM_0
 10
142.92892499816131
 20
182.9465177611464
 30
0.0
 40
2.3091486599999991
 50
164.90527199999909
 51
290.87219614688911
  0
LINE
  5
3879
  8
AM_0
 10
141.7343399981612
 20
187.35290996114651
 30
0.0
 11
142.89009599816109
 21
187.3518410611465
 31
0.0
  0
ARC
  5
387A
  8
ｽﾝﾎ_ｳｾﾝ
 10
142.88847899816119
 20
182.94645266114651
 30
0.0
 40
1.5050001119999981
 50
34.081774240380142
 51
298.90870486052683
  0
LINE
  5
387B
  8
AM_0
 10
141.7343399981612
 20
187.3529309611466
 30
0.0
 11
140.69948099816119
 21
183.54788636114651
 31
0.0
  0
LINE
  5
387C
  8
AM_0
 10
141.7343399981612
 20
187.35290996114651
 30
0.0
 11
141.17397599816121
 21
187.3540628611465
 31
0.0
  0
LINE
  5
387D
  8
AM_0
 10
150.02464199816109
 20
187.35290996114651
 30
0.0
 11
150.58500599816119
 21
187.3540628611465
 31
0.0
  0
LINE
  5
387E
  8
AM_0
 10
147.60151199816099
 20
185.9807878753
 30
0.0
 11
147.04137899816129
 21
185.97494567530021
 31
0.0
  0
LINE
  5
387F
  8
AM_0
 10
147.7131509981613
 20
187.3507826611465
 30
0.0
 11
147.59045452143971
 21
186.9315845372366
 31
0.0
  0
LINE
  5
3880
  8
AM_0
 10
148.86888599816109
 20
187.3518410611465
 30
0.0
 11
147.59085564482001
 21
187.3506590972861
 31
0.0
  0
LINE
  5
3881
  8
AM_0
 10
147.31123851340311
 20
185.97763027659249
 30
0.0
 11
147.16493184601359
 21
185.47776685651749
 31
0.0
  0
LINE
  5
3882
  8
AM_0
 10
144.72984599816121
 20
185.97704987530011
 30
0.0
 11
144.16948199816119
 21
185.9782027753001
 31
0.0
  0
LINE
  5
3883
  8
AM_0
 10
144.72984599816121
 20
185.97704987530011
 30
0.0
 11
145.88560199816109
 21
185.9759809753001
 31
0.0
  0
LINE
  5
3884
  8
AM_0
 10
144.04583099816111
 20
187.3507826611465
 30
0.0
 11
144.16852747488261
 21
186.9315845372366
 31
0.0
  0
LINE
  5
3885
  8
AM_0
 10
142.89009599816109
 20
187.3518410611465
 30
0.0
 11
144.16812635150231
 21
187.3506590972861
 31
0.0
  0
LINE
  5
3886
  8
AM_0
 10
144.44774348291921
 20
185.97763027659249
 30
0.0
 11
144.5940501503087
 21
185.47776685651749
 31
0.0
  0
LINE
  5
3887
  8
AM_0
 10
145.88560199816109
 20
185.9759809753001
 30
0.0
 11
147.04137899816129
 21
185.97491207530001
 31
0.0
  0
LINE
  5
3888
  8
AM_0
 10
147.041336998161
 20
185.9749225753001
 30
0.0
 11
148.14110699816129
 21
182.21750807530009
 31
0.0
  0
LINE
  5
3889
  8
AM_0
 10
144.72984599816121
 20
185.97707087530009
 30
0.0
 11
143.69498699816111
 21
182.1720262753
 31
0.0
  0
ARC
  5
388A
  8
ｽﾝﾎ_ｳｾﾝ
 10
148.8705029981611
 20
182.94645266114651
 30
0.0
 40
1.5050001119999981
 50
241.0912951394732
 51
145.91822575961979
  0
LINE
  5
388B
  8
AM_0
 10
150.02464199816109
 20
187.35290996114651
 30
0.0
 11
148.86888599816109
 21
187.3518410611465
 31
0.0
  0
LINE
  5
388C
  8
AM_0
 10
144.88398499816111
 20
237.46540073801171
 30
0.0
 11
144.88398499816111
 21
233.96540073801171
 31
0.0
  0
LINE
  5
388D
  8
AM_0
 10
141.1679069981611
 20
193.6508057611467
 30
0.0
 11
144.5999802107491
 21
193.65209201114661
 31
0.0
  0
POLYLINE
  5
388E
  8
AM_4
 66
     1
 10
0.0
 20
0.0
 30
0.0
 70
     4
  0
VERTEX
  5
388F
  8
AM_4
 10
141.88398499816111
 20
197.6403003725847
 30
0.0
 70
    16
  0
VERTEX
  5
3890
  8
AM_4
 10
141.88398499816111
 20
197.6403003725847
 30
0.0
 70
     8
  0
VERTEX
  5
3891
  8
AM_4
 10
142.97500022257381
 20
198.22209034867211
 30
0.0
 70
     8
  0
VERTEX
  5
3892
  8
AM_4
 10
144.0085371961475
 20
198.25255995129959
 30
0.0
 70
     8
  0
VERTEX
  5
3893
  8
AM_4
 10
145.0003328693854
 20
197.9262048766401
 30
0.0
 70
     8
  0
VERTEX
  5
3894
  8
AM_4
 10
145.96612419279151
 20
197.43752082086641
 30
0.0
 70
     8
  0
VERTEX
  5
3895
  8
AM_4
 10
146.9216481168686
 20
196.98100348015129
 30
0.0
 70
     8
  0
VERTEX
  5
3896
  8
AM_4
 10
147.88264159212031
 20
196.75114855066761
 30
0.0
 70
     8
  0
VERTEX
  5
3897
  8
AM_4
 10
148.86484156904999
 20
196.94245172858811
 30
0.0
 70
     8
  0
VERTEX
  5
3898
  8
AM_4
 10
149.8839849981612
 20
197.7494087100859
 30
0.0
 70
     8
  0
VERTEX
  5
3899
  8
AM_4
 10
144.88398499816111
 20
200.09971920336241
 30
0.0
 70
    16
  0
VERTEX
  5
389A
  8
AM_4
 10
147.10302285050869
 20
194.60376662472439
 30
0.0
 70
    16
  0
VERTEX
  5
389B
  8
AM_4
 10
149.88398499816111
 20
197.7494087100859
 30
0.0
 70
    16
  0
SEQEND
  5
389C
  8
AM_4
  0
LINE
  5
389D
  8
AM_0
 10
141.8839849981612
 20
197.6403003725847
 30
0.0
 11
141.8839849981612
 21
193.65107412818611
 31
0.0
  0
LINE
  5
389E
  8
AM_0
 10
149.87499699816121
 20
197.74229201861499
 30
0.0
 11
149.87499699816121
 21
193.65107412818611
 31
0.0
  0
LINE
  5
389F
  8
AM_0
 10
147.15900299816099
 20
193.6533677611464
 30
0.0
 11
147.1576931409281
 21
192.27528167345011
 31
0.0
  0
LINE
  5
38A0
  8
AM_0
 10
144.5999789981613
 20
193.6533677611464
 30
0.0
 11
144.6012888553943
 21
192.27528167345011
 31
0.0
  0
LINE
  5
38A1
  8
AM_0
 10
144.16345499816109
 20
192.2749561753001
 30
0.0
 11
147.5955269981612
 21
192.2775076753
 31
0.0
  0
LINE
  5
38A2
  8
AM_0
 10
146.8839849981612
 20
196.9989976573373
 30
0.0
 11
146.8839849981612
 21
192.27697869472681
 31
0.0
  0
LINE
  5
38A3
  8
AM_0
 10
144.8839849981612
 20
197.96448969600809
 30
0.0
 11
144.8839849981612
 21
192.275491837808
 31
0.0
  0
LINE
  5
38A4
  8
AM_0
 10
143.8839849981612
 20
198.24888804010911
 30
0.0
 11
143.8839849981612
 21
193.6518236751335
 31
0.0
  0
LINE
  5
38A5
  8
AM_0
 10
147.88264159212031
 20
196.75114855066761
 30
0.0
 11
147.87499699816121
 21
193.6518236751335
 31
0.0
  0
LINE
  5
38A6
  8
AM_0
 10
150.5910749981613
 20
193.6508057611467
 30
0.0
 11
147.1590017855732
 21
193.65209201114661
 31
0.0
  0
ARC
  5
38A7
  8
AM_0
 10
143.8839849981612
 20
211.76540073801161
 30
0.0
 40
1.0
 50
0.0
 51
90.0
1001
GENIUS_GENODEF_13
1002
{
1000
HIER
1070
     0
1002
}
1002
{
1000
MANEDIT
1070
     0
1002
}
1002
{
1000
NOSEL
1070
     0
1002
}
1002
{
1000
BEHIND
1070
     0
1002
}
1002
{
1000
OTHER
1070
     0
1002
}
1002
{
1000
REACTOR
1002
}
1001
GENIUS_GENOBJ-N-FIL_13
1002
{
1000
OWNER
1000
GEN
1002
}
  0
LINE
  5
38A8
  8
AM_0
 10
144.8839849981612
 20
211.76540073801161
 30
0.0
 11
144.8839849981612
 21
211.1654007380117
 31
0.0
  0
ARC
  5
38A9
  8
AM_0
 10
143.8839849981612
 20
211.1654007380117
 30
0.0
 40
1.0
 50
270.0
 51
0.0
1001
GENIUS_GENOBJ-N-FIL_13
1002
{
1000
OWNER
1000
GEN
1002
}
1001
GENIUS_GENODEF_13
1002
{
1000
HIER
1070
     0
1002
}
1002
{
1000
MANEDIT
1070
     0
1002
}
1002
{
1000
NOSEL
1070
     0
1002
}
1002
{
1000
BEHIND
1070
     0
1002
}
1002
{
1000
OTHER
1070
     0
1002
}
1002
{
1000
REACTOR
1002
}
  0
ARC
  5
38AA
  8
AM_0
 10
143.8839849981612
 20
225.0654007380117
 30
0.0
 40
1.0
 50
270.0
 51
0.0
1001
GENIUS_GENODEF_13
1002
{
1000
HIER
1070
     0
1002
}
1002
{
1000
MANEDIT
1070
     0
1002
}
1002
{
1000
NOSEL
1070
     0
1002
}
1002
{
1000
BEHIND
1070
     0
1002
}
1002
{
1000
OTHER
1070
     0
1002
}
1002
{
1000
REACTOR
1002
}
1001
GENIUS_GENOBJ-N-FIL_13
1002
{
1000
OWNER
1000
GEN
1002
}
  0
LINE
  5
38AB
  8
AM_0
 10
144.8839849981612
 20
219.5654007380117
 30
0.0
 11
144.8839849981612
 21
217.26540073801169
 31
0.0
  0
ARC
  5
38AC
  8
AM_0
 10
143.8839849981612
 20
219.5654007380117
 30
0.0
 40
1.0
 50
0.0
 51
90.0
1001
GENIUS_GENODEF_13
1002
{
1000
HIER
1070
     0
1002
}
1002
{
1000
MANEDIT
1070
     0
1002
}
1002
{
1000
NOSEL
1070
     0
1002
}
1002
{
1000
BEHIND
1070
     0
1002
}
1002
{
1000
OTHER
1070
     0
1002
}
1002
{
1000
REACTOR
1002
}
1001
GENIUS_GENOBJ-N-FIL_13
1002
{
1000
OWNER
1000
GEN
1002
}
  0
ARC
  5
38AD
  8
AM_0
 10
143.8839849981612
 20
217.26540073801169
 30
0.0
 40
1.0
 50
270.0
 51
0.0
1001
GENIUS_GENODEF_13
1002
{
1000
HIER
1070
     0
1002
}
1002
{
1000
MANEDIT
1070
     0
1002
}
1002
{
1000
NOSEL
1070
     0
1002
}
1002
{
1000
BEHIND
1070
     0
1002
}
1002
{
1000
OTHER
1070
     0
1002
}
1002
{
1000
REACTOR
1002
}
1001
GENIUS_GENOBJ-N-FIL_13
1002
{
1000
OWNER
1000
GEN
1002
}
  0
ARC
  5
38AE
  8
AM_0
 10
143.8839849981612
 20
233.96540073801171
 30
0.0
 40
1.0
 50
270.0
 51
0.0
1001
GENIUS_GENODEF_13
1002
{
1000
HIER
1070
     0
1002
}
1002
{
1000
MANEDIT
1070
     0
1002
}
1002
{
1000
NOSEL
1070
     0
1002
}
1002
{
1000
BEHIND
1070
     0
1002
}
1002
{
1000
OTHER
1070
     0
1002
}
1002
{
1000
REACTOR
1002
}
1001
GENIUS_GENOBJ-N-FIL_13
1002
{
1000
OWNER
1000
GEN
1002
}
  0
ARC
  5
38AF
  8
AM_0
 10
143.8839849981612
 20
228.26540073801169
 30
0.0
 40
1.0
 50
0.0
 51
90.0
1001
GENIUS_GENODEF_13
1002
{
1000
HIER
1070
     0
1002
}
1002
{
1000
MANEDIT
1070
     0
1002
}
1002
{
1000
NOSEL
1070
     0
1002
}
1002
{
1000
BEHIND
1070
     0
1002
}
1002
{
1000
OTHER
1070
     0
1002
}
1002
{
1000
REACTOR
1002
}
1001
GENIUS_GENOBJ-N-FIL_13
1002
{
1000
OWNER
1000
GEN
1002
}
  0
LINE
  5
38B0
  8
AM_0
 10
144.88398499816111
 20
228.26540073801169
 30
0.0
 11
144.8839849981612
 21
225.0654007380117
 31
0.0
  0
LINE
  5
38B1
  8
AM_0
 10
149.8839849981612
 20
252.46540073801171
 30
0.0
 11
149.8839849981612
 21
243.5689664925913
 31
0.0
  0
LINE
  5
38B2
  8
AM_0
 10
146.8839849981612
 20
252.46540073801171
 30
0.0
 11
146.8839849981612
 21
242.8185554398429
 31
0.0
  0
LINE
  5
38B3
  8
AM_0
 10
144.8839849981612
 20
252.46540073801171
 30
0.0
 11
144.8839849981612
 21
243.78404747851371
 31
0.0
  0
LINE
  5
38B4
  8
AM_0
 10
141.8839849981612
 20
252.46540073801171
 30
0.0
 11
141.8839849981612
 21
243.4598581550901
 31
0.0
  0
LINE
  5
38B5
  8
AM_0
 10
143.8839849981612
 20
252.46540073801171
 30
0.0
 11
143.8839849981612
 21
244.06844582261451
 31
0.0
  0
LINE
  5
38B6
  8
AM_0
 10
147.8839849981612
 20
252.46540073801171
 30
0.0
 11
147.8839849981612
 21
242.5709679884886
 31
0.0
  0
POLYLINE
  5
38B7
  8
AM_4
 66
     1
 10
0.0
 20
0.0
 30
0.0
 70
     4
  0
VERTEX
  5
38B8
  8
AM_4
 10
141.8839849981612
 20
243.4598581550901
 30
0.0
 70
    16
  0
VERTEX
  5
38B9
  8
AM_4
 10
141.8839849981612
 20
243.4598581550901
 30
0.0
 70
     8
  0
VERTEX
  5
38BA
  8
AM_4
 10
142.9750002225739
 20
244.0416481311776
 30
0.0
 70
     8
  0
VERTEX
  5
38BB
  8
AM_4
 10
144.00853719614761
 20
244.07211773380519
 30
0.0
 70
     8
  0
VERTEX
  5
38BC
  8
AM_4
 10
145.0003328693856
 20
243.74576265914561
 30
0.0
 70
     8
  0
VERTEX
  5
38BD
  8
AM_4
 10
145.9661241927916
 20
243.25707860337201
 30
0.0
 70
     8
  0
VERTEX
  5
38BE
  8
AM_4
 10
146.92164811686871
 20
242.80056126265669
 30
0.0
 70
     8
  0
VERTEX
  5
38BF
  8
AM_4
 10
147.88264159212039
 20
242.57070633317309
 30
0.0
 70
     8
  0
VERTEX
  5
38C0
  8
AM_4
 10
148.8648415690501
 20
242.76200951109371
 30
0.0
 70
     8
  0
VERTEX
  5
38C1
  8
AM_4
 10
149.88398499816131
 20
243.5689664925915
 30
0.0
 70
     8
  0
VERTEX
  5
38C2
  8
AM_4
 10
144.8839849981612
 20
245.9192769858679
 30
0.0
 70
    16
  0
VERTEX
  5
38C3
  8
AM_4
 10
147.10302285050881
 20
240.42332440723001
 30
0.0
 70
    16
  0
VERTEX
  5
38C4
  8
AM_4
 10
149.8839849981612
 20
243.5689664925915
 30
0.0
 70
    16
  0
SEQEND
  5
38C5
  8
AM_4
  0
ARC
  5
38C6
  8
AM_0
 10
143.88398499816111
 20
237.46540073801171
 30
0.0
 40
1.0
 50
0.0
 51
90.0
1001
GENIUS_GENOBJ-N-FIL_13
1002
{
1000
OWNER
1000
GEN
1002
}
1001
GENIUS_GENODEF_13
1002
{
1000
HIER
1070
     0
1002
}
1002
{
1000
MANEDIT
1070
     0
1002
}
1002
{
1000
NOSEL
1070
     0
1002
}
1002
{
1000
BEHIND
1070
     0
1002
}
1002
{
1000
OTHER
1070
     0
1002
}
1002
{
1000
REACTOR
1002
}
  0
ARC
  5
38C7
  8
AM_0
 10
154.8839849981612
 20
253.46540073801171
 30
0.0
 40
1.0
 50
270.0
 51
0.0
1001
GENIUS_GENOBJ-N-FIL_13
1002
{
1000
OWNER
1000
GEN
1002
}
1001
GENIUS_GENODEF_13
1002
{
1000
HIER
1070
     0
1002
}
1002
{
1000
MANEDIT
1070
     0
1002
}
1002
{
1000
NOSEL
1070
     0
1002
}
1002
{
1000
BEHIND
1070
     0
1002
}
1002
{
1000
OTHER
1070
     0
1002
}
1002
{
1000
REACTOR
1002
}
  0
LINE
  5
38C8
  8
AM_0
 10
227.88398499816111
 20
237.46540073801171
 30
0.0
 11
227.88398499816111
 21
233.96540073801171
 31
0.0
  0
LINE
  5
38C9
  8
AM_0
 10
202.88398499816111
 20
237.46540073801171
 30
0.0
 11
202.88398499816111
 21
233.96540073801171
 31
0.0
  0
LINE
  5
38CA
  8
AM_0
 10
203.88398499816111
 20
212.76540073801161
 30
0.0
 11
226.8839849981612
 21
212.76540073801161
 31
0.0
  0
LINE
  5
38CB
  8
AM_0
 10
203.88398499816111
 20
210.1654007380117
 30
0.0
 11
226.8839849981612
 21
210.1654007380117
 31
0.0
  0
LINE
  5
38CC
  8
AM_0
 10
202.8839849981612
 20
211.76540073801161
 30
0.0
 11
202.88398499816111
 21
211.1654007380117
 31
0.0
  0
ARC
  5
38CD
  8
AM_0
 10
203.88398499816111
 20
211.76540073801161
 30
0.0
 40
1.0
 50
90.0
 51
180.0
1001
GENIUS_GENOBJ-N-FIL_13
1002
{
1000
OWNER
1000
GEN
1002
}
1001
GENIUS_GENODEF_13
1002
{
1000
HIER
1070
     0
1002
}
1002
{
1000
MANEDIT
1070
     0
1002
}
1002
{
1000
NOSEL
1070
     0
1002
}
1002
{
1000
BEHIND
1070
     0
1002
}
1002
{
1000
OTHER
1070
     0
1002
}
1002
{
1000
REACTOR
1002
}
  0
ARC
  5
38CE
  8
AM_0
 10
203.88398499816111
 20
211.1654007380117
 30
0.0
 40
1.0
 50
180.0
 51
270.0
1001
GENIUS_GENODEF_13
1002
{
1000
HIER
1070
     0
1002
}
1002
{
1000
MANEDIT
1070
     0
1002
}
1002
{
1000
NOSEL
1070
     0
1002
}
1002
{
1000
BEHIND
1070
     0
1002
}
1002
{
1000
OTHER
1070
     0
1002
}
1002
{
1000
REACTOR
1002
}
1001
GENIUS_GENOBJ-N-FIL_13
1002
{
1000
OWNER
1000
GEN
1002
}
  0
ARC
  5
38CF
  8
AM_0
 10
226.8839849981612
 20
211.76540073801161
 30
0.0
 40
1.0
 50
0.0
 51
90.0
1001
GENIUS_GENODEF_13
1002
{
1000
HIER
1070
     0
1002
}
1002
{
1000
MANEDIT
1070
     0
1002
}
1002
{
1000
NOSEL
1070
     0
1002
}
1002
{
1000
BEHIND
1070
     0
1002
}
1002
{
1000
OTHER
1070
     0
1002
}
1002
{
1000
REACTOR
1002
}
1001
GENIUS_GENOBJ-N-FIL_13
1002
{
1000
OWNER
1000
GEN
1002
}
  0
LINE
  5
38D0
  8
AM_0
 10
227.8839849981612
 20
211.76540073801161
 30
0.0
 11
227.8839849981612
 21
211.1654007380117
 31
0.0
  0
ARC
  5
38D1
  8
AM_0
 10
226.8839849981612
 20
211.1654007380117
 30
0.0
 40
1.0
 50
270.0
 51
0.0
1001
GENIUS_GENOBJ-N-FIL_13
1002
{
1000
OWNER
1000
GEN
1002
}
1001
GENIUS_GENODEF_13
1002
{
1000
HIER
1070
     0
1002
}
1002
{
1000
MANEDIT
1070
     0
1002
}
1002
{
1000
NOSEL
1070
     0
1002
}
1002
{
1000
BEHIND
1070
     0
1002
}
1002
{
1000
OTHER
1070
     0
1002
}
1002
{
1000
REACTOR
1002
}
  0
LINE
  5
38D2
  8
AM_0
 10
203.88398499816111
 20
232.96540073801171
 30
0.0
 11
226.8839849981612
 21
232.96540073801171
 31
0.0
  0
LINE
  5
38D3
  8
AM_0
 10
203.88398499816111
 20
229.26540073801161
 30
0.0
 11
226.8839849981612
 21
229.26540073801181
 31
0.0
  0
LINE
  5
38D4
  8
AM_0
 10
203.88398499816111
 20
224.0654007380117
 30
0.0
 11
226.8839849981612
 21
224.0654007380117
 31
0.0
  0
LINE
  5
38D5
  8
AM_0
 10
203.88398499816111
 20
220.5654007380117
 30
0.0
 11
226.8839849981612
 21
220.5654007380117
 31
0.0
  0
LINE
  5
38D6
  8
AM_0
 10
203.88398499816111
 20
216.26540073801161
 30
0.0
 11
226.8839849981612
 21
216.26540073801161
 31
0.0
  0
ARC
  5
38D7
  8
AM_0
 10
203.88398499816111
 20
225.0654007380117
 30
0.0
 40
1.0
 50
180.0
 51
270.0
1001
GENIUS_GENOBJ-N-FIL_13
1002
{
1000
OWNER
1000
GEN
1002
}
1001
GENIUS_GENODEF_13
1002
{
1000
HIER
1070
     0
1002
}
1002
{
1000
MANEDIT
1070
     0
1002
}
1002
{
1000
NOSEL
1070
     0
1002
}
1002
{
1000
BEHIND
1070
     0
1002
}
1002
{
1000
OTHER
1070
     0
1002
}
1002
{
1000
REACTOR
1002
}
  0
LINE
  5
38D8
  8
AM_0
 10
202.88398499816111
 20
219.5654007380117
 30
0.0
 11
202.88398499816111
 21
217.26540073801169
 31
0.0
  0
ARC
  5
38D9
  8
AM_0
 10
203.88398499816111
 20
219.5654007380117
 30
0.0
 40
1.0
 50
90.0
 51
180.0
1001
GENIUS_GENODEF_13
1002
{
1000
HIER
1070
     0
1002
}
1002
{
1000
MANEDIT
1070
     0
1002
}
1002
{
1000
NOSEL
1070
     0
1002
}
1002
{
1000
BEHIND
1070
     0
1002
}
1002
{
1000
OTHER
1070
     0
1002
}
1002
{
1000
REACTOR
1002
}
1001
GENIUS_GENOBJ-N-FIL_13
1002
{
1000
OWNER
1000
GEN
1002
}
  0
ARC
  5
38DA
  8
AM_0
 10
203.88398499816111
 20
217.26540073801169
 30
0.0
 40
1.0
 50
180.0
 51
270.0
1001
GENIUS_GENOBJ-N-FIL_13
1002
{
1000
OWNER
1000
GEN
1002
}
1001
GENIUS_GENODEF_13
1002
{
1000
HIER
1070
     0
1002
}
1002
{
1000
MANEDIT
1070
     0
1002
}
1002
{
1000
NOSEL
1070
     0
1002
}
1002
{
1000
BEHIND
1070
     0
1002
}
1002
{
1000
OTHER
1070
     0
1002
}
1002
{
1000
REACTOR
1002
}
  0
ARC
  5
38DB
  8
AM_0
 10
203.88398499816111
 20
233.96540073801171
 30
0.0
 40
1.0
 50
180.0
 51
270.0
1001
GENIUS_GENODEF_13
1002
{
1000
HIER
1070
     0
1002
}
1002
{
1000
MANEDIT
1070
     0
1002
}
1002
{
1000
NOSEL
1070
     0
1002
}
1002
{
1000
BEHIND
1070
     0
1002
}
1002
{
1000
OTHER
1070
     0
1002
}
1002
{
1000
REACTOR
1002
}
1001
GENIUS_GENOBJ-N-FIL_13
1002
{
1000
OWNER
1000
GEN
1002
}
  0
ARC
  5
38DC
  8
AM_0
 10
203.88398499816111
 20
228.26540073801161
 30
0.0
 40
1.0
 50
90.0
 51
180.0
1001
GENIUS_GENODEF_13
1002
{
1000
HIER
1070
     0
1002
}
1002
{
1000
MANEDIT
1070
     0
1002
}
1002
{
1000
NOSEL
1070
     0
1002
}
1002
{
1000
BEHIND
1070
     0
1002
}
1002
{
1000
OTHER
1070
     0
1002
}
1002
{
1000
REACTOR
1002
}
1001
GENIUS_GENOBJ-N-FIL_13
1002
{
1000
OWNER
1000
GEN
1002
}
  0
LINE
  5
38DD
  8
AM_0
 10
202.88398499816111
 20
228.26540073801161
 30
0.0
 11
202.88398499816111
 21
225.0654007380117
 31
0.0
  0
ARC
  5
38DE
  8
AM_0
 10
226.8839849981612
 20
225.0654007380117
 30
0.0
 40
1.0
 50
270.0
 51
0.0
1001
GENIUS_GENODEF_13
1002
{
1000
HIER
1070
     0
1002
}
1002
{
1000
MANEDIT
1070
     0
1002
}
1002
{
1000
NOSEL
1070
     0
1002
}
1002
{
1000
BEHIND
1070
     0
1002
}
1002
{
1000
OTHER
1070
     0
1002
}
1002
{
1000
REACTOR
1002
}
1001
GENIUS_GENOBJ-N-FIL_13
1002
{
1000
OWNER
1000
GEN
1002
}
  0
ARC
  5
38DF
  8
AM_0
 10
226.8839849981612
 20
219.5654007380117
 30
0.0
 40
1.0
 50
0.0
 51
90.0
1001
GENIUS_GENODEF_13
1002
{
1000
HIER
1070
     0
1002
}
1002
{
1000
MANEDIT
1070
     0
1002
}
1002
{
1000
NOSEL
1070
     0
1002
}
1002
{
1000
BEHIND
1070
     0
1002
}
1002
{
1000
OTHER
1070
     0
1002
}
1002
{
1000
REACTOR
1002
}
1001
GENIUS_GENOBJ-N-FIL_13
1002
{
1000
OWNER
1000
GEN
1002
}
  0
LINE
  5
38E0
  8
AM_0
 10
227.8839849981612
 20
219.5654007380117
 30
0.0
 11
227.8839849981612
 21
217.26540073801169
 31
0.0
  0
ARC
  5
38E1
  8
AM_0
 10
226.8839849981612
 20
217.26540073801169
 30
0.0
 40
1.0
 50
270.0
 51
0.0
1001
GENIUS_GENODEF_13
1002
{
1000
HIER
1070
     0
1002
}
1002
{
1000
MANEDIT
1070
     0
1002
}
1002
{
1000
NOSEL
1070
     0
1002
}
1002
{
1000
BEHIND
1070
     0
1002
}
1002
{
1000
OTHER
1070
     0
1002
}
1002
{
1000
REACTOR
1002
}
1001
GENIUS_GENOBJ-N-FIL_13
1002
{
1000
OWNER
1000
GEN
1002
}
  0
ARC
  5
38E2
  8
AM_0
 10
226.8839849981612
 20
233.96540073801171
 30
0.0
 40
1.0
 50
270.0
 51
0.0
1001
GENIUS_GENODEF_13
1002
{
1000
HIER
1070
     0
1002
}
1002
{
1000
MANEDIT
1070
     0
1002
}
1002
{
1000
NOSEL
1070
     0
1002
}
1002
{
1000
BEHIND
1070
     0
1002
}
1002
{
1000
OTHER
1070
     0
1002
}
1002
{
1000
REACTOR
1002
}
1001
GENIUS_GENOBJ-N-FIL_13
1002
{
1000
OWNER
1000
GEN
1002
}
  0
ARC
  5
38E3
  8
AM_0
 10
226.8839849981612
 20
228.26540073801169
 30
0.0
 40
1.0
 50
0.0
 51
90.0
1001
GENIUS_GENODEF_13
1002
{
1000
HIER
1070
     0
1002
}
1002
{
1000
MANEDIT
1070
     0
1002
}
1002
{
1000
NOSEL
1070
     0
1002
}
1002
{
1000
BEHIND
1070
     0
1002
}
1002
{
1000
OTHER
1070
     0
1002
}
1002
{
1000
REACTOR
1002
}
1001
GENIUS_GENOBJ-N-FIL_13
1002
{
1000
OWNER
1000
GEN
1002
}
  0
LINE
  5
38E4
  8
AM_0
 10
227.8839849981612
 20
228.26540073801169
 30
0.0
 11
227.8839849981612
 21
225.0654007380117
 31
0.0
  0
LINE
  5
38E5
  8
AM_0
 10
256.38398499816111
 20
209.46540073801171
 30
0.0
 11
249.3839849981612
 21
206.46540073801171
 31
0.0
  0
LINE
  5
38E6
  8
AM_0
 10
237.8839849981612
 20
206.46540073801171
 30
0.0
 11
249.3839849981612
 21
206.46540073801171
 31
0.0
  0
LINE
  5
38E7
  8
AM_0
 10
265.38398499816122
 20
207.46538473801169
 30
0.0
 11
265.38398499816122
 21
197.46540073801171
 31
0.0
  0
ARC
  5
38E8
  8
AM_0
 10
267.38393499816118
 20
207.46538473801169
 30
0.0
 40
2.00000007
 50
90.00000299999769
 51
180.00001000000091
  0
LINE
  5
38E9
  8
AM_0
 10
203.88398499816111
 20
250.46540073801171
 30
0.0
 11
226.8839849981612
 21
250.46540073801171
 31
0.0
  0
LINE
  5
38EA
  8
AM_0
 10
203.88398499816111
 20
243.96540073801171
 30
0.0
 11
226.88398499816111
 21
243.96540073801171
 31
0.0
  0
LINE
  5
38EB
  8
AM_0
 10
203.88398499816111
 20
238.46540073801171
 30
0.0
 11
226.88398499816111
 21
238.46540073801171
 31
0.0
  0
LINE
  5
38EC
  8
AM_0
 10
202.88398499816111
 20
249.46540073801171
 30
0.0
 11
202.88398499816111
 21
244.96540073801171
 31
0.0
  0
ARC
  5
38ED
  8
AM_0
 10
203.88398499816111
 20
244.96540073801171
 30
0.0
 40
1.0
 50
180.0
 51
270.0
1001
GENIUS_GENODEF_13
1002
{
1000
HIER
1070
     0
1002
}
1002
{
1000
MANEDIT
1070
     0
1002
}
1002
{
1000
NOSEL
1070
     0
1002
}
1002
{
1000
BEHIND
1070
     0
1002
}
1002
{
1000
OTHER
1070
     0
1002
}
1002
{
1000
REACTOR
1002
}
1001
GENIUS_GENOBJ-N-FIL_13
1002
{
1000
OWNER
1000
GEN
1002
}
  0
ARC
  5
38EE
  8
AM_0
 10
203.88398499816111
 20
237.46540073801171
 30
0.0
 40
1.0
 50
90.0
 51
180.0
1001
GENIUS_GENODEF_13
1002
{
1000
HIER
1070
     0
1002
}
1002
{
1000
MANEDIT
1070
     0
1002
}
1002
{
1000
NOSEL
1070
     0
1002
}
1002
{
1000
BEHIND
1070
     0
1002
}
1002
{
1000
OTHER
1070
     0
1002
}
1002
{
1000
REACTOR
1002
}
1001
GENIUS_GENOBJ-N-FIL_13
1002
{
1000
OWNER
1000
GEN
1002
}
  0
ARC
  5
38EF
  8
AM_0
 10
203.88398499816111
 20
249.46540073801171
 30
0.0
 40
1.0
 50
90.0
 51
180.0
1001
GENIUS_GENOBJ-N-FIL_13
1002
{
1000
OWNER
1000
GEN
1002
}
1001
GENIUS_GENODEF_13
1002
{
1000
HIER
1070
     0
1002
}
1002
{
1000
MANEDIT
1070
     0
1002
}
1002
{
1000
NOSEL
1070
     0
1002
}
1002
{
1000
BEHIND
1070
     0
1002
}
1002
{
1000
OTHER
1070
     0
1002
}
1002
{
1000
REACTOR
1002
}
  0
LINE
  5
38F0
  8
AM_0
 10
227.8839849981612
 20
249.46540073801171
 30
0.0
 11
227.88398499816111
 21
244.96540073801171
 31
0.0
  0
ARC
  5
38F1
  8
AM_0
 10
226.88398499816111
 20
244.96540073801171
 30
0.0
 40
1.0
 50
270.0
 51
0.0
1001
GENIUS_GENODEF_13
1002
{
1000
HIER
1070
     0
1002
}
1002
{
1000
MANEDIT
1070
     0
1002
}
1002
{
1000
NOSEL
1070
     0
1002
}
1002
{
1000
BEHIND
1070
     0
1002
}
1002
{
1000
OTHER
1070
     0
1002
}
1002
{
1000
REACTOR
1002
}
1001
GENIUS_GENOBJ-N-FIL_13
1002
{
1000
OWNER
1000
GEN
1002
}
  0
ARC
  5
38F2
  8
AM_0
 10
226.88398499816111
 20
237.46540073801171
 30
0.0
 40
1.0
 50
0.0
 51
90.0
1001
GENIUS_GENOBJ-N-FIL_13
1002
{
1000
OWNER
1000
GEN
1002
}
1001
GENIUS_GENODEF_13
1002
{
1000
HIER
1070
     0
1002
}
1002
{
1000
MANEDIT
1070
     0
1002
}
1002
{
1000
NOSEL
1070
     0
1002
}
1002
{
1000
BEHIND
1070
     0
1002
}
1002
{
1000
OTHER
1070
     0
1002
}
1002
{
1000
REACTOR
1002
}
  0
ARC
  5
38F3
  8
AM_0
 10
226.8839849981612
 20
249.46540073801171
 30
0.0
 40
1.0
 50
0.0
 51
90.0
1001
GENIUS_GENOBJ-N-FIL_13
1002
{
1000
OWNER
1000
GEN
1002
}
1001
GENIUS_GENODEF_13
1002
{
1000
HIER
1070
     0
1002
}
1002
{
1000
MANEDIT
1070
     0
1002
}
1002
{
1000
NOSEL
1070
     0
1002
}
1002
{
1000
BEHIND
1070
     0
1002
}
1002
{
1000
OTHER
1070
     0
1002
}
1002
{
1000
REACTOR
1002
}
  0
ARC
  5
38F5
  8
AM_0
 10
335.38397499816119
 20
214.4653837380117
 30
0.0
 40
5.0000001000000003
 50
180.00001000000091
 51
270.0
  0
ARC
  5
38F6
  8
AM_0
 10
333.38393499816118
 20
197.46540073801171
 30
0.0
 40
1.0000000199999981
 50
0.0
 51
90.00000299999769
  0
LINE
  5
38F7
  8
AM_0
 10
330.38393499816118
 20
224.50620373801169
 30
0.0
 11
339.38393499816118
 21
224.50620373801169
 31
0.0
  0
LINE
  5
38F8
  8
AM_0
 10
291.22451499816111
 20
213.42786373801169
 30
0.0
 11
297.27509499816119
 21
241.95232573801169
 31
0.0
  0
LINE
  5
38F9
  8
AM_0
 10
291.38393499816118
 20
198.46538473801161
 30
0.0
 11
333.38393499816118
 21
198.46538473801161
 31
0.0
  0
ARC
  5
38FA
  8
AM_0
 10
279.38393499816118
 20
212.86206673801169
 30
0.0
 40
3.0
 50
0.0
 51
88.499997000000747
  0
LINE
  5
38FB
  8
AM_0
 10
282.38393499816118
 20
221.2496257380117
 30
0.0
 11
282.38393499816118
 21
209.46540073801171
 31
0.0
  0
LINE
  5
38FC
  8
ﾁｭｳｼﾝｾﾝ1
 10
277.38398499816122
 20
214.01085673801171
 30
0.0
 11
277.38398499816111
 21
192.9199297380114
 31
0.0
  0
LINE
  5
38FD
  8
ｶｸﾚｾﾝ2
 10
271.38398499816122
 20
209.46540073801171
 30
0.0
 11
271.38398499816122
 21
197.46540073801171
 31
0.0
  0
LINE
  5
38FE
  8
ｶｸﾚｾﾝ2
 10
283.38398499816111
 20
209.46540073801171
 30
0.0
 11
283.38398499816111
 21
197.46540073801171
 31
0.0
  0
ARC
  5
38FF
  8
AM_0
 10
291.38393499816118
 20
197.46540073801171
 30
0.0
 40
1.0000000199999981
 50
90.00000299999769
 51
180.00001000000091
  0
LINE
  5
3900
  8
AM_0
 10
290.38400499816112
 20
197.46540073801171
 30
0.0
 11
290.38400499816112
 21
197.46540073801171
 31
0.0
  0
ARC
  5
3901
  8
AM_0
 10
286.33334499816118
 20
214.4653837380117
 30
0.0
 40
5.0000001000000003
 50
270.0
 51
348.0238700000001
  0
LINE
  5
3902
  8
AM_0
 10
282.38393499816118
 20
223.24964173801169
 30
0.0
 11
287.38400499816112
 21
223.24964173801169
 31
0.0
  0
ARC
  5
3903
  8
AM_0
 10
280.38398499816122
 20
221.2496257380117
 30
0.0
 40
2.00000007
 50
0.0
 51
90.00000299999769
  0
ARC
  5
3904
  8
AM_0
 10
292.38398499816122
 20
242.98986073801171
 30
0.0
 40
5.0000001000000003
 50
348.0238700000001
 51
0.0
  0
LINE
  5
3905
  8
ﾁｭｳｼﾝｾﾝ1
 10
347.38397499816131
 20
214.01085673801171
 30
0.0
 11
347.38397499816108
 21
192.9199297380114
 31
0.0
  0
LINE
  5
3906
  8
AM_0
 10
335.38397499816119
 20
209.46540073801171
 30
0.0
 11
357.38393499816118
 21
209.46540073801171
 31
0.0
  0
LINE
  5
3907
  8
AM_0
 10
334.38395499816119
 20
197.46540073801171
 30
0.0
 11
359.38397499816108
 21
197.46540073801171
 31
0.0
  0
LINE
  5
3908
  8
ｶｸﾚｾﾝ2
 10
341.38397499816119
 20
209.46540073801171
 30
0.0
 11
341.38397499816119
 21
197.46540073801171
 31
0.0
  0
LINE
  5
3909
  8
AM_0
 10
334.38395499816119
 20
197.46540073801171
 30
0.0
 11
334.38395499816119
 21
197.46540073801171
 31
0.0
  0
LINE
  5
390A
  8
ｶｸﾚｾﾝ2
 10
353.38397499816108
 20
209.46540073801171
 30
0.0
 11
353.38397499816108
 21
197.46540073801171
 31
0.0
  0
LINE
  5
390B
  8
AM_0
 10
359.38397499816108
 20
207.46538473801169
 30
0.0
 11
359.38397499816108
 21
197.46540073801171
 31
0.0
  0
ARC
  5
390C
  8
AM_0
 10
357.38393499816118
 20
207.46538473801169
 30
0.0
 40
2.00000007
 50
0.0
 51
90.00000299999769
  0
ARC
  5
390D
  8
AM_0
 10
361.38395499816119
 20
213.20995273801171
 30
0.0
 40
5.0000001000000003
 50
179.999989999999
 51
235.15011000000041
  0
ARC
  5
390E
  8
AM_0
 10
339.38393499816118
 20
228.50618773801159
 30
0.0
 40
4.000000199999997
 50
270.0
 51
0.0
  0
ARC
  5
390F
  8
AM_0
 10
357.38393499816118
 20
267.12009673801168
 30
0.0
 40
2.00000007
 50
300.00000000000051
 51
0.0
  0
ARC
  5
3910
  8
AM_0
 10
358.38395499816119
 20
263.07862273801169
 30
0.0
 40
2.00000007
 50
120.0000000000005
 51
180.00001000000091
  0
LINE
  5
3911
  8
AM_0
 10
357.38393499816118
 20
264.81067873801169
 30
0.0
 11
358.38395499816119
 21
265.38800773801159
 31
0.0
  0
LINE
  5
3912
  8
AM_0
 10
359.38397499816108
 20
277.4653717380117
 30
0.0
 11
361.38395499816119
 21
277.4653717380117
 31
0.0
  0
LINE
  5
3913
  8
AM_0
 10
94.383984998161296
 20
338.06540073801182
 30
0.0
 11
237.8839849981612
 21
338.0654007380117
 31
0.0
  0
LINE
  5
3914
  8
AM_0
 10
98.883984998161225
 20
298.46540073801168
 30
0.0
 11
154.8839849981612
 21
298.46540073801168
 31
0.0
1001
GENIUS_GENOREF_13
1005
39E2
  0
LINE
  5
3916
  8
AM_0
 10
79.883984998161225
 20
292.46540073801168
 30
0.0
 11
86.596619799203381
 21
292.46540073801168
 31
0.0
  0
ARC
  5
3917
  8
AM_0
 10
79.883984998161225
 20
289.46540073801168
 30
0.0
 40
3.0
 50
90.0
 51
180.0
1001
GENIUS_GENOBJ-N-FIL_13
1002
{
1000
OWNER
1000
GEN
1002
}
1001
GENIUS_GENODEF_13
1002
{
1000
HIER
1070
     0
1002
}
1002
{
1000
MANEDIT
1070
     0
1002
}
1002
{
1000
NOSEL
1070
     0
1002
}
1002
{
1000
BEHIND
1070
     0
1002
}
1002
{
1000
OTHER
1070
     0
1002
}
1002
{
1000
REACTOR
1002
}
  0
ARC
  5
3918
  8
AM_0
 10
98.883984998161225
 20
297.46540073801168
 30
0.0
 40
1.0
 50
90.0
 51
180.0
1001
GENIUS_GENODEF_13
1002
{
1000
HIER
1070
     0
1002
}
1002
{
1000
MANEDIT
1070
     0
1002
}
1002
{
1000
NOSEL
1070
     0
1002
}
1002
{
1000
BEHIND
1070
     0
1002
}
1002
{
1000
OTHER
1070
     0
1002
}
1002
{
1000
REACTOR
1002
}
1001
GENIUS_GENOBJ-N-FIL_13
1002
{
1000
OWNER
1000
GEN
1002
}
  0
LINE
  5
3919
  8
AM_0
 10
128.3839849981612
 20
304.46540073801168
 30
0.0
 11
128.3839849981612
 21
298.46540073801168
 31
0.0
  0
LINE
  5
391A
  8
AM_0
 10
124.3839849981612
 20
306.46540073801168
 30
0.0
 11
124.3839849981612
 21
298.46540073801168
 31
0.0
  0
LINE
  5
391B
  8
AM_0
 10
112.3839849981612
 20
304.46540073801168
 30
0.0
 11
112.3839849981612
 21
298.46540073801168
 31
0.0
  0
LINE
  5
391C
  8
AM_0
 10
116.3839849981612
 20
306.46540073801168
 30
0.0
 11
116.3839849981612
 21
298.46540073801168
 31
0.0
  0
CIRCLE
  5
391D
  8
AM_0N
 10
120.3839849981612
 20
302.46540073801168
 30
0.0
 40
2.799999999999998
1001
GENIUS_GENOREF_13
1005
0
  0
LINE
  5
391E
  8
AM_0
 10
114.3839849981612
 20
306.46540073801168
 30
0.0
 11
126.3839849981612
 21
306.46540073801168
 31
0.0
1001
GENIUS_GENOREF_13
1005
39E2
  0
ARC
  5
391F
  8
AM_0
 10
114.3839849981612
 20
304.46540073801168
 30
0.0
 40
2.0
 50
90.0
 51
180.0
1001
GENIUS_GENOBJ-N-FIL_13
1002
{
1000
OWNER
1000
GEN
1002
}
1001
GENIUS_GENODEF_13
1002
{
1000
HIER
1070
     0
1002
}
1002
{
1000
MANEDIT
1070
     0
1002
}
1002
{
1000
NOSEL
1070
     0
1002
}
1002
{
1000
BEHIND
1070
     0
1002
}
1002
{
1000
OTHER
1070
     0
1002
}
1002
{
1000
REACTOR
1002
}
  0
LINE
  5
3920
  8
AM_0N
 10
120.1314849981612
 20
303.9439959327828
 30
0.0
 11
120.63648499816119
 21
303.9439959327828
 31
0.0
1001
GENIUS_GENOREF_13
1005
0
  0
LINE
  5
3921
  8
AM_0N
 10
121.8625801929323
 20
302.21290073801163
 30
0.0
 11
121.8625801929323
 21
302.71790073801168
 31
0.0
1001
GENIUS_GENOREF_13
1005
0
  0
LINE
  5
3922
  8
AM_0N
 10
121.8625801929323
 20
302.21290073801163
 30
0.0
 11
120.63648499816119
 21
302.21290073801163
 31
0.0
1001
GENIUS_GENOREF_13
1005
0
  0
LINE
  5
3923
  8
AM_0N
 10
121.8625801929323
 20
302.71790073801168
 30
0.0
 11
120.63648499816119
 21
302.71790073801168
 31
0.0
1001
GENIUS_GENOREF_13
1005
0
  0
LINE
  5
3924
  8
AM_0N
 10
120.1314849981612
 20
300.98680554324062
 30
0.0
 11
120.63648499816119
 21
300.98680554324062
 31
0.0
1001
GENIUS_GENOREF_13
1005
0
  0
LINE
  5
3925
  8
AM_0N
 10
120.63648499816119
 20
302.21290073801163
 30
0.0
 11
120.63648499816119
 21
300.98680554324062
 31
0.0
1001
GENIUS_GENOREF_13
1005
0
  0
LINE
  5
3926
  8
AM_0N
 10
120.1314849981612
 20
302.21290073801163
 30
0.0
 11
120.1314849981612
 21
300.98680554324062
 31
0.0
1001
GENIUS_GENOREF_13
1005
0
  0
LINE
  5
3927
  8
AM_0N
 10
120.1314849981612
 20
303.9439959327828
 30
0.0
 11
120.1314849981612
 21
302.71790073801168
 31
0.0
1001
GENIUS_GENOREF_13
1005
0
  0
LINE
  5
3928
  8
AM_0N
 10
120.63648499816119
 20
303.9439959327828
 30
0.0
 11
120.63648499816119
 21
302.71790073801168
 31
0.0
1001
GENIUS_GENOREF_13
1005
0
  0
LINE
  5
3929
  8
AM_0N
 10
118.90538980338999
 20
302.21290073801163
 30
0.0
 11
118.90538980338999
 21
302.71790073801168
 31
0.0
1001
GENIUS_GENOREF_13
1005
0
  0
LINE
  5
392A
  8
AM_0N
 10
120.1314849981612
 20
302.21290073801163
 30
0.0
 11
118.90538980338999
 21
302.21290073801163
 31
0.0
1001
GENIUS_GENOREF_13
1005
0
  0
LINE
  5
392B
  8
AM_0N
 10
120.1314849981612
 20
302.71790073801168
 30
0.0
 11
118.90538980338999
 21
302.71790073801168
 31
0.0
1001
GENIUS_GENOREF_13
1005
0
  0
ARC
  5
392C
  8
AM_0
 10
126.3839849981612
 20
304.46540073801168
 30
0.0
 40
2.0
 50
0.0
 51
90.0
1001
GENIUS_GENOBJ-N-FIL_13
1002
{
1000
OWNER
1000
GEN
1002
}
1001
GENIUS_GENODEF_13
1002
{
1000
HIER
1070
     0
1002
}
1002
{
1000
MANEDIT
1070
     0
1002
}
1002
{
1000
NOSEL
1070
     0
1002
}
1002
{
1000
BEHIND
1070
     0
1002
}
1002
{
1000
OTHER
1070
     0
1002
}
1002
{
1000
REACTOR
1002
}
  0
ARC
  5
392D
  8
AM_0
 10
90.383984998161225
 20
331.36353286663223
 30
0.0
 40
2.0
 50
311.63353933656748
 51
0.0
1001
GENIUS_GENOBJ-N-FIL_13
1002
{
1000
OWNER
1000
GEN
1002
}
1001
GENIUS_GENODEF_13
1002
{
1000
HIER
1070
     0
1002
}
1002
{
1000
MANEDIT
1070
     0
1002
}
1002
{
1000
NOSEL
1070
     0
1002
}
1002
{
1000
BEHIND
1070
     0
1002
}
1002
{
1000
OTHER
1070
     0
1002
}
1002
{
1000
REACTOR
1002
}
  0
LINE
  5
392E
  8
AM_0
 10
91.712712675821081
 20
329.86871422926481
 30
0.0
 11
88.555257320501426
 21
327.06208724675849
 31
0.0
  0
ARC
  5
392F
  8
AM_0
 10
89.883984998161225
 20
325.56726860939119
 30
0.0
 40
2.0
 50
131.63353933656751
 51
180.0
1001
GENIUS_GENODEF_13
1002
{
1000
HIER
1070
     0
1002
}
1002
{
1000
MANEDIT
1070
     0
1002
}
1002
{
1000
NOSEL
1070
     0
1002
}
1002
{
1000
BEHIND
1070
     0
1002
}
1002
{
1000
OTHER
1070
     0
1002
}
1002
{
1000
REACTOR
1002
}
1001
GENIUS_GENOBJ-N-FIL_13
1002
{
1000
OWNER
1000
GEN
1002
}
  0
ARC
  5
3930
  8
AM_0
 10
94.383984998161296
 20
336.06540073801182
 30
0.0
 40
2.0
 50
90.0
 51
180.0
1001
GENIUS_GENOBJ-N-FIL_13
1002
{
1000
OWNER
1000
GEN
1002
}
1001
GENIUS_GENODEF_13
1002
{
1000
HIER
1070
     0
1002
}
1002
{
1000
MANEDIT
1070
     0
1002
}
1002
{
1000
NOSEL
1070
     0
1002
}
1002
{
1000
BEHIND
1070
     0
1002
}
1002
{
1000
OTHER
1070
     0
1002
}
1002
{
1000
REACTOR
1002
}
  0
LINE
  5
3931
  8
AM_0
 10
256.38398499816111
 20
304.40237773801169
 30
0.0
 11
282.38393499816118
 21
304.40237773801169
 31
0.0
  0
LINE
  5
3932
  8
AM_0
 10
256.38398499816111
 20
318.4653877380116
 30
0.0
 11
282.38393499816118
 21
318.4653877380116
 31
0.0
  0
LINE
  5
3933
  8
AM_0
 10
256.38398499816111
 20
328.46537773801168
 30
0.0
 11
282.51485499816118
 21
329.14964773801171
 31
0.0
  0
ARC
  5
3934
  8
AM_0
 10
154.8839849981612
 20
297.46540073801168
 30
0.0
 40
1.0
 50
0.0
 51
90.0
1001
GENIUS_GENODEF_13
1002
{
1000
HIER
1070
     0
1002
}
1002
{
1000
MANEDIT
1070
     0
1002
}
1002
{
1000
NOSEL
1070
     0
1002
}
1002
{
1000
BEHIND
1070
     0
1002
}
1002
{
1000
OTHER
1070
     0
1002
}
1002
{
1000
REACTOR
1002
}
1001
GENIUS_GENOBJ-N-FIL_13
1002
{
1000
OWNER
1000
GEN
1002
}
  0
LINE
  5
3935
  8
AM_0
 10
249.3839849981612
 20
338.46540073801168
 30
0.0
 11
256.38398499816111
 21
335.46540073801168
 31
0.0
  0
LINE
  5
3936
  8
AM_0
 10
237.88398499816111
 20
338.46540073801168
 30
0.0
 11
249.3839849981612
 21
338.46540073801168
 31
0.0
  0
ARC
  5
3937
  8
AM_0
 10
338.38397499816119
 20
302.25620773801171
 30
0.0
 40
8.0000000999999976
 50
90.00000299999769
 51
180.00001000000091
  0
LINE
  5
3938
  8
AM_0
 10
308.38400499816112
 20
323.99282773801173
 30
0.0
 11
343.38395499816119
 21
323.99282773801173
 31
0.0
  0
LINE
  5
3939
  8
AM_0
 10
294.38399499816131
 20
343.46537773801168
 30
0.0
 11
338.51486499816122
 21
342.30977773801169
 31
0.0
  0
LINE
  5
393A
  8
AM_0
 10
305.38400499816112
 20
328.99217773801172
 30
0.0
 11
305.38400499816112
 21
306.09011773801171
 31
0.0
  0
LINE
  5
393B
  8
AM_0
 10
282.38393499816118
 20
322.13255773801171
 30
0.0
 11
282.38393499816118
 21
302.49341773801171
 31
0.0
  0
LINE
  5
393C
  8
AM_0
 10
306.38393499816118
 20
323.98289773801167
 30
0.0
 11
306.38393499816118
 21
310.43585773801169
 31
0.0
  0
LINE
  5
393D
  8
AM_0
 10
310.38392499816121
 20
312.43586773801172
 30
0.0
 11
310.38392499816121
 21
321.9828877380117
 31
0.0
  0
LINE
  5
393E
  8
AM_0
 10
297.38393499816118
 20
279.68164873801157
 30
0.0
 11
308.38400499816112
 21
279.68164873801157
 31
0.0
  0
ARC
  5
393F
  8
AM_0
 10
280.38398499816122
 20
302.49341773801171
 30
0.0
 40
2.00000007
 50
270.0
 51
0.0
  0
ARC
  5
3940
  8
AM_0
 10
284.38400499816112
 20
317.95973773801171
 30
0.0
 40
2.00000007
 50
179.999989999999
 51
270.0
  0
LINE
  5
3941
  8
AM_0
 10
282.38393499816118
 20
300.49341673801172
 30
0.0
 11
287.38400499816112
 21
300.49341673801172
 31
0.0
  0
ARC
  5
3942
  8
AM_0
 10
285.38393499816118
 20
313.9597177380117
 30
0.0
 40
2.00000007
 50
0.0
 51
90.00000299999769
  0
LINE
  5
3943
  8
AM_0
 10
284.38400499816112
 20
315.95972773801168
 30
0.0
 11
285.38393499816118
 21
315.95972773801168
 31
0.0
  0
LINE
  5
3944
  8
AM_0
 10
321.21359499816123
 20
305.81408773801172
 30
0.0
 11
308.38394499816121
 21
279.68164873801157
 31
0.0
  0
LINE
  5
3945
  8
AM_0
 10
308.38400499816112
 20
305.81408773801172
 30
0.0
 11
308.38400499816112
 21
279.68164873801157
 31
0.0
  0
LINE
  5
3946
  8
AM_0
 10
308.38400499816112
 20
305.81408773801172
 30
0.0
 11
331.21868499816122
 21
305.81408773801172
 31
0.0
  0
ARC
  5
3947
  8
AM_0
 10
306.38393499816118
 20
303.09011773801171
 30
0.0
 40
2.00000007
 50
0.0
 51
90.00000299999769
  0
ARC
  5
3948
  8
AM_0
 10
306.38393499816118
 20
306.09011773801171
 30
0.0
 40
1.0000000199999981
 50
179.999989999999
 51
270.0
  0
LINE
  5
3949
  8
AM_0
 10
305.38400499816112
 20
310.43585773801169
 30
0.0
 11
306.38393499816118
 21
310.43585773801169
 31
0.0
  0
LINE
  5
394A
  8
AM_0
 10
306.38393499816118
 20
320.09609773801162
 30
0.0
 11
309.38393499816118
 21
320.09609773801162
 31
0.0
  0
LINE
  5
394B
  8
AM_0
 10
306.38393499816118
 20
314.32259773801172
 30
0.0
 11
309.38393499816118
 21
314.32259773801172
 31
0.0
  0
LINE
  5
394C
  8
AM_0
 10
306.38393499816118
 20
311.43584773801172
 30
0.0
 11
309.38393499816118
 21
311.43584773801172
 31
0.0
  0
ARC
  5
394D
  8
AM_0
 10
309.38393499816118
 20
312.43586773801172
 30
0.0
 40
1.0000000199999981
 50
270.0
 51
0.0
  0
ARC
  5
394E
  8
AM_0
 10
309.38393499816118
 20
313.3226077380117
 30
0.0
 40
1.0000000199999981
 50
0.0
 51
90.00000299999769
  0
ARC
  5
394F
  8
AM_0
 10
309.38393499816118
 20
321.09611773801169
 30
0.0
 40
1.0000000199999981
 50
270.0
 51
0.0
  0
ARC
  5
3950
  8
AM_0
 10
309.38393499816118
 20
319.09613773801169
 30
0.0
 40
1.0000000199999981
 50
0.0
 51
90.00000299999769
  0
ARC
  5
3951
  8
AM_0
 10
309.38393499816118
 20
315.32261773801167
 30
0.0
 40
1.0000000199999981
 50
270.0
 51
0.0
  0
ARC
  5
3952
  8
AM_0
 10
289.38398499816122
 20
341.46539773801169
 30
0.0
 40
2.00000007
 50
90.00000299999769
 51
180.00001000000091
  0
ARC
  5
3953
  8
AM_0
 10
284.38400499816112
 20
322.13255773801171
 30
0.0
 40
2.00000007
 50
90.00000299999769
 51
180.00001000000091
  0
ARC
  5
3954
  8
AM_0
 10
282.38393499816118
 20
334.1479177380117
 30
0.0
 40
5.0000001000000003
 50
271.50000000000267
 51
0.0
  0
LINE
  5
3955
  8
AM_0
 10
287.38400499816112
 20
341.46539773801169
 30
0.0
 11
287.38400499816112
 21
326.1325177380117
 31
0.0
  0
ARC
  5
3956
  8
AM_0
 10
285.38393499816118
 20
326.1325177380117
 30
0.0
 40
2.00000007
 50
270.0
 51
0.0
  0
LINE
  5
3957
  8
AM_0
 10
284.38400499816112
 20
324.13253773801171
 30
0.0
 11
285.38393499816118
 21
324.13253773801171
 31
0.0
  0
LINE
  5
3958
  8
AM_0
 10
289.38398499816122
 20
343.46537773801168
 30
0.0
 11
294.38393499816118
 21
343.46537773801168
 31
0.0
  0
LINE
  5
3959
  8
AM_0
 10
308.38394499816121
 20
343.0202377380117
 30
0.0
 11
321.96590499816102
 21
323.99282773801173
 31
0.0
  0
LINE
  5
395A
  8
AM_0
 10
308.38400499816112
 20
343.0202377380117
 30
0.0
 11
308.38400499816112
 21
323.99282773801173
 31
0.0
  0
LINE
  5
395B
  8
AM_0
 10
306.38393499816118
 20
322.98287773801172
 30
0.0
 11
309.38393499816118
 21
322.98287773801172
 31
0.0
  0
ARC
  5
395C
  8
AM_0
 10
306.38393499816118
 20
331.99217773801172
 30
0.0
 40
2.00000007
 50
270.0
 51
0.0
  0
ARC
  5
395D
  8
AM_0
 10
306.38393499816118
 20
328.99217773801172
 30
0.0
 40
1.0000000199999981
 50
90.00000299999769
 51
180.00001000000091
  0
LINE
  5
395E
  8
AM_0
 10
305.38400499816112
 20
323.98289773801167
 30
0.0
 11
306.38393499816118
 21
323.98289773801167
 31
0.0
  0
ARC
  5
395F
  8
AM_0
 10
309.38393499816118
 20
321.9828877380117
 30
0.0
 40
1.0000000199999981
 50
0.0
 51
90.00000299999769
  0
LINE
  5
3960
  8
AM_0
 10
338.38397499816119
 20
310.2561877380117
 30
0.0
 11
343.38395499816119
 21
310.2561877380117
 31
0.0
  0
LINE
  5
3961
  8
AM_0
 10
359.38397499816108
 20
307.46537773801168
 30
0.0
 11
361.38395499816119
 21
307.46537773801168
 31
0.0
  0
ARC
  5
3962
  8
AM_0
 10
357.38393499816118
 20
317.81066773801172
 30
0.0
 40
2.00000007
 50
0.0
 51
60.000002000001302
  0
ARC
  5
3963
  8
AM_0
 10
358.38395499816119
 20
321.85214773801158
 30
0.0
 40
2.00000007
 50
179.999989999999
 51
240.00000999999969
  0
LINE
  5
3964
  8
AM_0
 10
357.3839649981611
 20
320.12009773801168
 30
0.0
 11
358.38395499816119
 21
319.54274773801171
 31
0.0
  0
LINE
  5
3965
  8
AM_0
 10
369.38393499816118
 20
309.46541773801169
 30
0.0
 11
369.38393499816118
 21
306.46541773801169
 31
0.0
  0
LINE
  5
3966
  8
AM_0
 10
347.9481849981612
 20
326.20340773801172
 30
0.0
 11
353.64545499816109
 21
325.70495773801167
 31
0.0
  0
ARC
  5
3967
  8
AM_0
 10
348.38393499816118
 20
331.18439773801163
 30
0.0
 40
5.0000001000000003
 50
179.999989999999
 51
265.00000000000028
  0
ARC
  5
3968
  8
AM_0
 10
338.38397499816119
 20
337.31147773801172
 30
0.0
 40
5.0000001000000003
 50
0.0
 51
88.499997000000747
  0
ARC
  5
3969
  8
AM_0
 10
353.38397499816108
 20
322.71641773801173
 30
0.0
 40
3.0
 50
0.0
 51
84.999996999998572
  0
ARC
  5
396B
  8
AM_0
 10
740.0943957592176
 20
264.43943346278962
 30
0.0
 40
264.99999999999989
 50
173.53019364652329
 51
181.46980635347501
  0
ARC
  5
396F
  8
AM_0
 10
556.26952298815615
 20
292.46537173801158
 30
0.0
 40
14.000001299999999
 50
106.6015400000023
 51
73.398451999997818
  0
ARC
  5
3970
  8
AM_0
 10
556.26952298815615
 20
292.46537173801158
 30
0.0
 40
26.500002599999998
 50
270.0
 51
90.00000299999769
  0
ARC
  5
3971
  8
AM_0
 10
556.26952298815615
 20
277.46537173801158
 30
0.0
 40
48.0
 50
0.0
 51
180.00001000000091
  0
ARC
  5
3972
  8
AM_0
 10
556.26952298815615
 20
292.46537173801158
 30
0.0
 40
26.500002599999998
 50
90.00000299999769
 51
270.0
  0
LINE
  5
3973
  8
AM_0
 10
401.38397499816091
 20
309.46541773801169
 30
0.0
 11
401.38397499816091
 21
278.46540073801168
 31
0.0
  0
LINE
  5
3974
  8
AM_0
 10
503.26956398815628
 20
307.71794773801167
 30
0.0
 11
503.26956398815628
 21
246.46538473801161
 31
0.0
  0
LINE
  5
3975
  8
AM_0
 10
609.26952398815615
 20
307.71794773801167
 30
0.0
 11
609.26952398815615
 21
246.46538473801161
 31
0.0
  0
LINE
  5
3976
  8
AM_0
 10
478.26951398815601
 20
209.46538573801161
 30
0.0
 11
489.03795398815618
 21
312.0955477380117
 31
0.0
  0
LINE
  5
3977
  8
AM_0
 10
634.26952298815615
 20
209.46537073801159
 30
0.0
 11
623.50110698815615
 21
312.0955477380117
 31
0.0
  0
LINE
  5
3978
  8
ﾁｭｳｼﾝｾﾝ1
 10
556.26952298815615
 20
347.81202027786162
 30
0.0
 11
556.26952298815615
 21
193.23108673801161
 31
0.0
  0
ARC
  5
397D
  8
AM_0
 10
537.26952098815627
 20
246.46538473801161
 30
0.0
 40
34.000002000000002
 50
179.999989999999
 51
211.4669699999979
  0
ARC
  5
397E
  8
AM_0
 10
503.26956398815628
 20
214.46538373801161
 30
0.0
 40
5.0000001000000003
 50
270.0
 51
0.0
  0
LINE
  5
397F
  8
ﾁｭｳｼﾝｾﾝ1
 10
490.48928043891198
 20
272.46540073801162
 30
0.0
 11
622.04976553740028
 21
272.46540073801162
 31
0.0
  0
LINE
  5
3980
  8
AM_0
 10
506.26956398815622
 20
209.4654007380116
 30
0.0
 11
480.2695239881561
 21
209.4654007380116
 31
0.0
  0
LINE
  5
3981
  8
AM_0
 10
478.26951398815601
 20
197.4654007380116
 30
0.0
 11
508.26951398815589
 21
197.4654007380116
 31
0.0
  0
LINE
  5
3983
  8
ﾁｭｳｼﾝｾﾝ1
 10
491.26953398815618
 20
214.0108567380116
 30
0.0
 11
491.26953398815618
 21
192.9199297380114
 31
0.0
  0
LINE
  5
3984
  8
AM_0
 10
478.26951398815601
 20
197.4654007380116
 30
0.0
 11
478.26951398815601
 21
209.4654007380116
 31
0.0
  0
LINE
  5
3985
  8
ｶｸﾚｾﾝ2
 10
485.26956398815622
 20
209.4654007380116
 30
0.0
 11
485.26956398815622
 21
197.4654007380116
 31
0.0
  0
ARC
  5
3986
  8
AM_0
 10
480.2695239881561
 20
207.4653997380116
 30
0.0
 40
2.00000007
 50
90.00000299999769
 51
180.00001000000091
  0
LINE
  5
3987
  8
ｶｸﾚｾﾝ2
 10
497.26956398815622
 20
209.4654007380116
 30
0.0
 11
497.26956398815622
 21
197.4654007380116
 31
0.0
  0
ARC
  5
3988
  8
AM_0
 10
480.17994073576313
 20
257.77039531172608
 30
0.0
 40
5.0
 50
181.46980635347501
 51
267.50000000000148
1001
GENIUS_GENOBJ-N-FIL_13
1002
{
1000
OWNER
1000
GEN
1002
}
1001
GENIUS_GENODEF_13
1002
{
1000
HIER
1070
     0
1002
}
1002
{
1000
MANEDIT
1070
     0
1002
}
1002
{
1000
NOSEL
1070
     0
1002
}
1002
{
1000
BEHIND
1070
     0
1002
}
1002
{
1000
OTHER
1070
     0
1002
}
1002
{
1000
REACTOR
1002
}
  0
LINE
  5
3989
  8
AM_0
 10
479.96184379893612
 20
252.77515420381681
 30
0.0
 11
482.8007734368793
 21
252.1857069546312
 31
0.0
  0
LINE
  5
398A
  8
AM_0
 10
522.26952098815605
 20
214.46538373801161
 30
0.0
 11
590.26953698815612
 21
214.46538373801161
 31
0.0
  0
LINE
  5
398B
  8
AM_0
 10
603.26952398815615
 20
198.4653997380116
 30
0.0
 11
509.26956398815611
 21
198.4653997380116
 31
0.0
  0
LINE
  5
398C
  8
AM_0
 10
508.26951398815589
 20
277.46537173801158
 30
0.0
 11
508.26951398815589
 21
214.46538373801161
 31
0.0
  0
ARC
  5
398D
  8
AM_0
 10
522.26952098815605
 20
209.4654007380116
 30
0.0
 40
5.0000001000000003
 50
90.00000299999769
 51
180.00001000000091
  0
LINE
  5
398E
  8
AM_0
 10
522.80821598815623
 20
206.7696757380117
 30
0.0
 11
523.56181898815623
 21
201.0455857380116
 31
0.0
  0
LINE
  5
398F
  8
AM_0
 10
527.38866098815618
 20
210.28434073801159
 30
0.0
 11
522.80824598815605
 21
206.76966073801159
 31
0.0
  0
ARC
  5
3990
  8
AM_0
 10
514.26951998815605
 20
203.4654007380116
 30
0.0
 40
3.0
 50
270.0
 51
0.0
  0
LINE
  5
3991
  8
AM_0
 10
508.26951398815589
 20
197.4654007380116
 30
0.0
 11
508.26951398815589
 21
207.4653997380116
 31
0.0
  0
ARC
  5
3992
  8
AM_0
 10
510.26952098815622
 20
198.4653997380116
 30
0.0
 40
2.00000007
 50
90.00000299999769
 51
180.00001000000091
  0
ARC
  5
3993
  8
AM_0
 10
509.26956398815611
 20
197.4654007380116
 30
0.0
 40
1.0000000199999981
 50
90.00000299999769
 51
180.00001000000091
  0
LINE
  5
3994
  8
AM_0
 10
514.26951998815605
 20
200.4654007380116
 30
0.0
 11
510.26952098815622
 21
200.4654007380116
 31
0.0
  0
ARC
  5
3995
  8
AM_0
 10
506.26956398815622
 20
207.4653997380116
 30
0.0
 40
2.00000007
 50
0.0
 51
90.00000299999769
  0
LINE
  5
3996
  8
AM_0
 10
517.26951998815616
 20
209.4654007380116
 30
0.0
 11
517.26951998815616
 21
203.4654007380116
 31
0.0
  0
CIRCLE
  5
3997
  8
AM_0
 10
528.14223098815614
 20
204.56024773801161
 30
0.0
 40
4.9999998000000003
  0
LINE
  5
3998
  8
AM_0
 10
533.47624598815605
 20
202.35083773801159
 30
0.0
 11
532.72267598815586
 21
208.0749427380116
 31
0.0
  0
LINE
  5
3999
  8
AM_0
 10
528.89583398815626
 20
198.8361427380116
 30
0.0
 11
533.47627898815631
 21
202.3508227380116
 31
0.0
  0
LINE
  5
399A
  8
AM_0
 10
523.56184898815582
 20
201.04555573801159
 30
0.0
 11
528.89586398815618
 21
198.83612773801161
 31
0.0
  0
LINE
  5
399B
  8
AM_0
 10
532.72267598815586
 20
208.0749277380117
 30
0.0
 11
527.38866098815618
 21
210.28434073801159
 31
0.0
  0
ARC
  5
399C
  8
AM_0
 10
575.26953698815612
 20
246.46538473801161
 30
0.0
 40
34.000002000000002
 50
328.53301999999962
 51
0.0
  0
LINE
  5
399D
  8
AM_0
 10
604.26952298815615
 20
277.46537173801158
 30
0.0
 11
604.26952298815615
 21
214.46538373801161
 31
0.0
  0
ARC
  5
399E
  8
AM_0
 10
606.26952398815627
 20
207.4653997380116
 30
0.0
 40
2.00000007
 50
90.00000299999769
 51
180.00001000000091
  0
ARC
  5
399F
  8
AM_0
 10
609.26952398815615
 20
214.46538373801161
 30
0.0
 40
5.0000001000000003
 50
179.999989999999
 51
270.0
  0
LINE
  5
39A0
  8
AM_0
 10
634.26952298815615
 20
197.4654007380116
 30
0.0
 11
604.26952298815615
 21
197.4654007380116
 31
0.0
  0
ARC
  5
39A1
  8
AM_0
 10
590.26953698815612
 20
209.4654007380116
 30
0.0
 40
5.0000001000000003
 50
0.0
 51
90.00000299999769
  0
LINE
  5
39A2
  8
AM_0
 10
588.97720898815612
 20
201.04555573801159
 30
0.0
 11
589.73081198815612
 21
206.76966073801159
 31
0.0
  0
LINE
  5
39A3
  8
AM_0
 10
589.73082698815631
 20
206.76964573801169
 30
0.0
 11
585.15039698815599
 21
210.28434073801159
 31
0.0
  0
CIRCLE
  5
39A4
  8
AM_0
 10
584.39676398815618
 20
204.56024773801161
 30
0.0
 40
4.9999998000000003
  0
LINE
  5
39A5
  8
AM_0
 10
579.81635198815593
 20
208.0749277380117
 30
0.0
 11
579.06276698815611
 21
202.3508227380116
 31
0.0
  0
LINE
  5
39A6
  8
AM_0
 10
579.06279698815615
 20
202.35080773801161
 30
0.0
 11
583.64320898815618
 21
198.83612773801161
 31
0.0
  0
LINE
  5
39A7
  8
AM_0
 10
583.64322398815625
 20
198.83612773801161
 30
0.0
 11
588.97723898815605
 21
201.04555573801159
 31
0.0
  0
LINE
  5
39A8
  8
AM_0
 10
585.15041198815607
 20
210.28434073801159
 30
0.0
 11
579.81639698815593
 21
208.07491273801159
 31
0.0
  0
ARC
  5
39A9
  8
AM_0
 10
598.26952298815627
 20
203.4654007380116
 30
0.0
 40
3.0
 50
179.999989999999
 51
270.0
  0
LINE
  5
39AA
  8
AM_0
 10
604.26952298815615
 20
197.4654007380116
 30
0.0
 11
604.26952298815615
 21
207.4653997380116
 31
0.0
  0
ARC
  5
39AB
  8
AM_0
 10
602.26953698815612
 20
198.4653997380116
 30
0.0
 40
2.00000007
 50
0.0
 51
90.00000299999769
  0
ARC
  5
39AC
  8
AM_0
 10
603.26952398815615
 20
197.4654007380116
 30
0.0
 40
1.0000000199999981
 50
0.0
 51
90.00000299999769
  0
LINE
  5
39AD
  8
AM_0
 10
602.26953698815612
 20
200.4654007380116
 30
0.0
 11
598.26952298815627
 21
200.4654007380116
 31
0.0
  0
LINE
  5
39AE
  8
AM_0
 10
595.26952298815615
 20
209.4654007380116
 30
0.0
 11
595.26952298815615
 21
203.4654007380116
 31
0.0
  0
LINE
  5
39AF
  8
ﾁｭｳｼﾝｾﾝ1
 10
621.269538988156
 20
214.0108567380116
 30
0.0
 11
621.269538988156
 21
192.9199297380114
 31
0.0
  0
LINE
  5
39B0
  8
AM_0
 10
606.26952398815627
 20
209.4654007380116
 30
0.0
 11
632.26953998815611
 21
209.4654007380116
 31
0.0
  0
LINE
  5
39B1
  8
ｶｸﾚｾﾝ2
 10
615.26952398815627
 20
209.4654007380116
 30
0.0
 11
615.26952398815627
 21
197.4654007380116
 31
0.0
  0
LINE
  5
39B2
  8
AM_0
 10
634.26952298815615
 20
197.4654007380116
 30
0.0
 11
634.26952298815615
 21
209.4654007380116
 31
0.0
  0
LINE
  5
39B3
  8
ｶｸﾚｾﾝ2
 10
627.26953898815611
 20
209.4654007380116
 30
0.0
 11
627.26953898815611
 21
197.4654007380116
 31
0.0
  0
ARC
  5
39B4
  8
AM_0
 10
632.26953998815611
 20
207.4653997380116
 30
0.0
 40
2.00000007
 50
0.0
 51
90.00000299999769
  0
ARC
  5
39B5
  8
AM_0
 10
556.26952298815615
 20
233.4654007380116
 30
0.0
 40
110.000004
 50
58.263836000000381
 51
121.736169999997
  0
ARC
  5
39B6
  8
AM_0
 10
511.20228998815622
 20
328.30178773801163
 30
0.0
 40
5.0000001000000003
 50
115.4175599999964
 51
205.0629700000004
  0
ARC
  5
39B7
  8
AM_0
 10
493.99125398815619
 20
320.25311773801161
 30
0.0
 40
13.9999986
 50
266.80063999999902
 51
25.062969000000368
  0
ARC
  5
39BA
  8
AM_0
 10
508.92876398815622
 20
310.00853773801163
 30
0.0
 40
20.000000700000001
 50
121.736169999997
 51
174.01019000000019
  0
CIRCLE
  5
39BB
  8
AM_0
 10
497.9580639881562
 20
317.20934773801162
 30
0.0
 40
4.9999998000000003
  0
LINE
  5
39BC
  8
AM_0
 10
497.20449398815617
 20
322.93349773801162
 30
0.0
 11
492.62406398815602
 21
319.41881773801163
 31
0.0
  0
LINE
  5
39BD
  8
AM_0
 10
502.53849398815601
 20
320.72402773801161
 30
0.0
 11
497.20449398815617
 21
322.9334677380117
 31
0.0
  0
ARC
  5
39BE
  8
AM_0
 10
556.26952298815615
 20
272.46540073801162
 30
0.0
 40
74.0
 50
157.639706873769
 51
159.39189950030541
  0
ARC
  5
39BF
  8
AM_0
 10
556.26952298815615
 20
272.46540073801162
 30
0.0
 40
71.000000999999983
 50
152.99941999999919
 51
174.01019000000019
  0
ARC
  5
39C0
  8
AM_0
 10
481.75023868091512
 20
293.73613128867288
 30
0.0
 40
5.0
 50
87.500000000001435
 51
173.53019364652329
1001
GENIUS_GENODEF_13
1002
{
1000
HIER
1070
     0
1002
}
1002
{
1000
MANEDIT
1070
     0
1002
}
1002
{
1000
NOSEL
1070
     0
1002
}
1002
{
1000
BEHIND
1070
     0
1002
}
1002
{
1000
OTHER
1070
     0
1002
}
1002
{
1000
REACTOR
1002
}
1001
GENIUS_GENOBJ-N-FIL_13
1002
{
1000
OWNER
1000
GEN
1002
}
  0
LINE
  5
39C1
  8
AM_0
 10
481.9683356177415
 20
298.7313723965824
 30
0.0
 11
487.60987723138788
 21
298.4850573702729
 31
0.0
  0
ARC
  5
39C2
  8
AM_0
 10
492.93087398815618
 20
301.28272573801161
 30
0.0
 40
5.0000001000000003
 50
86.800639000002292
 51
174.01019000000019
  0
ARC
  5
39C3
  8
AM_0
 10
508.26951398815589
 20
307.71794773801167
 30
0.0
 40
5.0000001000000003
 50
138.71940999999791
 51
180.00001000000091
  0
ARC
  5
39C4
  8
AM_0
 10
495.68139398815629
 20
303.33734773801172
 30
0.0
 40
3.0
 50
95.70573799999886
 51
152.99941999999919
  0
LINE
  5
39C5
  8
AM_0
 10
493.37763398815599
 20
313.69466773801162
 30
0.0
 11
498.7116639881562
 21
311.48525773801163
 31
0.0
  0
LINE
  5
39C6
  8
AM_0
 10
492.6240339881561
 20
319.41881773801163
 30
0.0
 11
493.37763398815599
 21
313.6946977380116
 31
0.0
  0
LINE
  5
39C7
  8
AM_0
 10
503.29209398815601
 20
314.99996773801172
 30
0.0
 11
502.53849398815601
 21
320.72405773801171
 31
0.0
  0
LINE
  5
39C8
  8
AM_0
 10
498.7116639881562
 20
311.48528773801161
 30
0.0
 11
503.29209398815601
 21
314.99996773801172
 31
0.0
  0
ARC
  5
39C9
  8
AM_0
 10
556.26952298815615
 20
272.46540073801162
 30
0.0
 40
71.000000999999983
 50
47.99935899999911
 51
132.0006499999993
  0
LINE
  5
39CA
  8
ﾁｭｳｼﾝｾﾝ1
 10
513.58128264003085
 20
292.46537173801158
 30
0.0
 11
598.95776333628169
 21
292.46537173801158
 31
0.0
  0
CIRCLE
  5
39CB
  8
AM_0
 10
556.26952298815615
 20
292.46537173801158
 30
0.0
 40
3.0
  0
CIRCLE
  5
39CC
  8
AM_5
 10
556.26952298815615
 20
292.46537173801158
 30
0.0
 40
4.000000199999997
  0
LINE
  5
39CD
  8
AM_0
 10
552.26952098815605
 20
302.46539773801157
 30
0.0
 11
560.26950698815585
 21
302.46539773801157
 31
0.0
  0
LINE
  5
39CE
  8
AM_0
 10
552.26952098815605
 20
309.46541773801169
 30
0.0
 11
560.26950698815585
 21
309.46541773801169
 31
0.0
  0
LINE
  5
39CF
  8
AM_0
 10
552.26952098815605
 20
302.46539773801157
 30
0.0
 11
552.26952098815605
 21
309.46541773801169
 31
0.0
  0
LINE
  5
39D0
  8
AM_0
 10
560.26950698815585
 20
302.46539773801157
 30
0.0
 11
560.26950698815585
 21
309.46541773801169
 31
0.0
  0
ARC
  5
39D1
  8
AM_0
 10
510.76808498815598
 20
322.99871773801158
 30
0.0
 40
3.0
 50
132.0006499999993
 51
189.2943400000016
  0
ARC
  5
39D2
  8
AM_0
 10
603.61029698815628
 20
310.00853773801163
 30
0.0
 40
20.000000700000001
 50
5.9898155000000548
 51
58.263836000000381
  0
ARC
  5
39D3
  8
AM_0
 10
618.54779798815605
 20
320.25311773801161
 30
0.0
 40
13.9999986
 50
154.93704000000099
 51
273.19937000000078
  0
CIRCLE
  5
39D4
  8
AM_0
 10
614.58099998815612
 20
317.20928773801171
 30
0.0
 40
4.9999998000000003
  0
LINE
  5
39D5
  8
AM_0
 10
619.91504798815606
 20
319.4186977380117
 30
0.0
 11
615.3346179881562
 21
322.93337773801159
 31
0.0
  0
LINE
  5
39D6
  8
AM_0
 10
615.3346179881562
 20
322.93340773801168
 30
0.0
 11
610.00060298815606
 21
320.72399773801158
 31
0.0
  0
ARC
  5
39D7
  8
AM_0
 10
556.26952298815615
 20
272.46540073801162
 30
0.0
 40
71.000000999999983
 50
5.9898141999996781
 51
27.00057300000061
  0
ARC
  5
39D8
  8
AM_0
 10
619.60819298815625
 20
301.28272573801161
 30
0.0
 40
5.0000001000000003
 50
5.9898155000000548
 51
93.199358999997784
  0
ARC
  5
39D9
  8
AM_0
 10
604.26952298815615
 20
307.71794773801167
 30
0.0
 40
5.0000001000000003
 50
0.0
 51
41.280591000002673
  0
ARC
  5
39DA
  8
AM_0
 10
616.85765798815612
 20
303.33734773801172
 30
0.0
 40
3.0
 50
27.00057300000061
 51
84.294261000002294
  0
LINE
  5
39DB
  8
AM_0
 10
613.82742998815627
 20
311.48519773801161
 30
0.0
 11
619.16145998815625
 21
313.6946077380116
 31
0.0
  0
LINE
  5
39DC
  8
AM_0
 10
610.00057298815625
 20
320.72396773801159
 30
0.0
 11
609.2469849881561
 21
314.99987773801161
 31
0.0
  0
LINE
  5
39DD
  8
AM_0
 10
609.24699998815606
 20
314.99984773801162
 30
0.0
 11
613.82742998815627
 21
311.48516773801163
 31
0.0
  0
LINE
  5
39DE
  8
AM_0
 10
619.91498498815599
 20
319.41881773801163
 30
0.0
 11
619.16139998815606
 21
313.69466773801162
 31
0.0
  0
ARC
  5
39DF
  8
AM_0
 10
601.33676798815611
 20
328.30178773801163
 30
0.0
 40
5.0000001000000003
 50
334.9370299999996
 51
64.582444000001303
  0
ARC
  5
39E0
  8
AM_0
 10
601.77098798815609
 20
322.99871773801158
 30
0.0
 40
3.0
 50
350.70567000000091
 51
47.99935899999911
  0
ARC
  5
39E1
  8
AM_0
 10
145.92443099816131
 20
181.57065767530011
 30
0.0
 40
2.3091486599999991
 50
164.90527199999909
 51
16.267320000001838
  0
POINT
  5
39E2
  8
0
 10
56.764365898058522
 20
531.47634828799369
 30
0.0
1001
GENIUS_GENOLIS_13
1002
{
1000
ENT
1005
0
1005
3914
1005
391E
1002
}
1001
GENIUS_GENOENT_13
1002
{
1000
MYREF
1005
39E2
1002
}
1002
{
1000
GRP
1005
0
1002
}
1001
GENIUS_GENOBJ-NBEHI-BHB_13
1002
{
1000
OWNER
1000
genbehi
1002
}
1001
GENIUS_GENBH_13
1002
{
1000
FGO
1005
0
1002
}
1001
GENIUS_GENODEF_13
1002
{
1000
HIER
1070
     1
1002
}
1002
{
1000
MANEDIT
1070
     1
1002
}
1002
{
1000
NOSEL
1070
     1
1002
}
1002
{
1000
BEHIND
1070
     0
1002
}
1002
{
1000
OTHER
1070
     1
1002
}
1002
{
1000
REACTOR
1002
}
  0
TEXT
  5
4178
  8
AM_0
 10
479.75035069413377
 20
523.38030284654928
 30
0.0
 40
10.0
  1
VX02-080S~VX02-100S
  0
ENDSEC
  0
EOF
