  0
SECTION
  2
HEADER
  9
$ACADVER
  1
AC1009
  9
$INSBASE
 10
0.0
 20
0.0
 30
0.0
  9
$EXTMIN
 10
54.553664922716727
 20
168.86933986432291
 30
-0.0015258207003583
  9
$EXTMAX
 10
686.19340443758006
 20
607.97820651830716
 30
0.0000000349246037
  9
$LIMMIN
 10
0.0
 20
0.0
  9
$LIMMAX
 10
853.5
 20
555.00000000000011
  9
$ORTHOMODE
 70
     0
  9
$REGENMODE
 70
     1
  9
$FILLMODE
 70
     1
  9
$QTEXTMODE
 70
     0
  9
$MIRRTEXT
 70
     1
  9
$DRAGMODE
 70
     2
  9
$LTSCALE
 40
3.0
  9
$OSMODE
 70
   551
  9
$ATTMODE
 70
     1
  9
$TEXTSIZE
 40
2.5
  9
$TRACEWID
 40
1.0
  9
$TEXTSTYLE
  7
STANDARD
  9
$CLAYER
  8
AM_0
  9
$CELTYPE
  6
BYLAYER
  9
$CECOLOR
 62
   256
  9
$DIMSCALE
 40
1.0
  9
$DIMASZ
 40
2.5
  9
$DIMEXO
 40
1.0
  9
$DIMDLI
 40
8.0
  9
$DIMRND
 40
0.0
  9
$DIMDLE
 40
0.0
  9
$DIMEXE
 40
0.6
  9
$DIMTP
 40
0.1
  9
$DIMTM
 40
0.1
  9
$DIMTXT
 40
2.5
  9
$DIMCEN
 40
0.0
  9
$DIMTSZ
 40
0.0
  9
$DIMTOL
 70
     0
  9
$DIMLIM
 70
     0
  9
$DIMTIH
 70
     0
  9
$DIMTOH
 70
     0
  9
$DIMSE1
 70
     0
  9
$DIMSE2
 70
     0
  9
$DIMTAD
 70
     1
  9
$DIMZIN
 70
     8
  9
$DIMBLK
  1

  9
$DIMASO
 70
     1
  9
$DIMSHO
 70
     1
  9
$DIMPOST
  1

  9
$DIMAPOST
  1
"
  9
$DIMALT
 70
     0
  9
$DIMALTD
 70
     2
  9
$DIMALTF
 40
0.0393701
  9
$DIMLFAC
 40
1.0
  9
$DIMTOFL
 70
     1
  9
$DIMTVP
 40
0.0
  9
$DIMTIX
 70
     0
  9
$DIMSOXD
 70
     0
  9
$DIMSAH
 70
     0
  9
$DIMBLK1
  1

  9
$DIMBLK2
  1

  9
$DIMSTYLE
  2
AM_ISO
  9
$DIMCLRD
 70
   256
  9
$DIMCLRE
 70
   256
  9
$DIMCLRT
 70
     4
  9
$DIMTFAC
 40
0.71
  9
$DIMGAP
 40
0.8
  9
$LUNITS
 70
     2
  9
$LUPREC
 70
     2
  9
$SKETCHINC
 40
1.0
  9
$FILLETRAD
 40
15.0
  9
$AUNITS
 70
     0
  9
$AUPREC
 70
     0
  9
$MENU
  1
.
  9
$ELEVATION
 40
0.0
  9
$PELEVATION
 40
0.0
  9
$THICKNESS
 40
0.0
  9
$LIMCHECK
 70
     0
  9
$BLIPMODE
 70
     0
  9
$CHAMFERA
 40
6.0
  9
$CHAMFERB
 40
3.0
  9
$SKPOLY
 70
     0
  9
$TDCREATE
 40
2452065.752856805
  9
$TDUPDATE
 40
2458541.5672751968
  9
$TDINDWG
 40
0.0784549421
  9
$TDUSRTIMER
 40
0.0784547338
  9
$USRTIMER
 70
     1
  9
$ANGBASE
 50
0.0
  9
$ANGDIR
 70
     0
  9
$PDMODE
 70
     0
  9
$PDSIZE
 40
0.0
  9
$PLINEWID
 40
0.0
  9
$COORDS
 70
     1
  9
$SPLFRAME
 70
     0
  9
$SPLINETYPE
 70
     6
  9
$SPLINESEGS
 70
     8
  9
$ATTDIA
 70
     1
  9
$ATTREQ
 70
     1
  9
$HANDLING
 70
     1
  9
$HANDSEED
  5
39C0
  9
$SURFTAB1
 70
     6
  9
$SURFTAB2
 70
     6
  9
$SURFTYPE
 70
     6
  9
$SURFU
 70
     6
  9
$SURFV
 70
     6
  9
$UCSNAME
  2

  9
$UCSORG
 10
0.0
 20
0.0
 30
0.0
  9
$UCSXDIR
 10
1.0
 20
0.0
 30
0.0
  9
$UCSYDIR
 10
0.0
 20
1.0
 30
0.0
  9
$PUCSNAME
  2

  9
$PUCSORG
 10
0.0
 20
0.0
 30
0.0
  9
$PUCSXDIR
 10
1.0
 20
0.0
 30
0.0
  9
$PUCSYDIR
 10
0.0
 20
1.0
 30
0.0
  9
$USERI1
 70
     0
  9
$USERI2
 70
     0
  9
$USERI3
 70
     0
  9
$USERI4
 70
     0
  9
$USERI5
 70
     0
  9
$USERR1
 40
0.0
  9
$USERR2
 40
0.0
  9
$USERR3
 40
0.0
  9
$USERR4
 40
0.0
  9
$USERR5
 40
0.0
  9
$WORLDVIEW
 70
     1
  9
$SHADEDGE
 70
     3
  9
$SHADEDIF
 70
    70
  9
$TILEMODE
 70
     1
  9
$MAXACTVP
 70
    64
  9
$PLIMCHECK
 70
     0
  9
$PEXTMIN
 10
1.0000000000000000E+020
 20
1.0000000000000000E+020
 30
1.0000000000000000E+020
  9
$PEXTMAX
 10
-1.0000000000000000E+020
 20
-1.0000000000000000E+020
 30
-1.0000000000000000E+020
  9
$PLIMMIN
 10
0.0
 20
0.0
  9
$PLIMMAX
 10
420.0
 20
297.0
  9
$UNITMODE
 70
     0
  9
$VISRETAIN
 70
     1
  9
$PLINEGEN
 70
     0
  9
$PSLTSCALE
 70
     1
  0
ENDSEC
  0
SECTION
  2
TABLES
  0
TABLE
  2
VPORT
 70
     1
  0
VPORT
  2
*ACTIVE
 70
     0
 10
0.0
 20
0.0
 11
1.0
 21
1.0
 12
370.3735346801484
 22
388.42377319131498
 13
0.0
 23
0.0
 14
7.5
 24
7.5
 15
30.0
 25
30.0
 16
0.0
 26
0.0
 36
1.0
 17
0.0
 27
0.0
 37
0.0
 40
442.12334399943489
 41
1.7571592210767459
 42
50.0
 43
0.0
 44
0.0
 50
0.0
 51
0.0
 71
     0
 72
   100
 73
     1
 74
     3
 75
     0
 76
     0
 77
     0
 78
     0
  0
ENDTAB
  0
TABLE
  2
LTYPE
 70
    20
  0
LTYPE
  2
CONTINUOUS
 70
     0
  3
Solid line
 72
    65
 73
     0
 40
0.0
  0
LTYPE
  2
AM_ISO02W050
 70
     0
  3
__ __ __ __ __ __ __ __ __ __ __ __ __ __ __
 72
    65
 73
     2
 40
7.5
 49
6.0
 49
-1.5
  0
LTYPE
  2
AM_ISO08W050
 70
     0
  3
____ . ____ . ____ . ____ . ____ . ____ . ____
 72
    65
 73
     4
 40
18.0
 49
12.0
 49
-1.5
 49
3.0
 49
-1.5
  0
LTYPE
  2
AM_ISO09W050
 70
     0
  3
_____ . . _____ . . _____ . . ____ .. ____
 72
    65
 73
     6
 40
22.5
 49
12.0
 49
-1.5
 49
3.0
 49
-1.5
 49
3.0
 49
-1.5
  0
LTYPE
  2
AMCONSTR
 70
     0
  3
_______________________
 72
    65
 73
     2
 40
9999.0
 49
9999.0
 49
0.0
  0
LTYPE
  2
AM_ISO08W050X2
 70
     0
  3
__ . __ . __ . __ . __ . __
 72
    65
 73
     4
 40
9.0
 49
6.0
 49
-0.75
 49
1.5
 49
-0.75
  0
LTYPE
  2
AM_ISO02W050X2
 70
     0
  3
 _ _ _ _ _ _ _ _ _ _ _ _
 72
    65
 73
     2
 40
3.75
 49
3.0
 49
-0.75
  0
LTYPE
  2
AMZIGZAG
 70
     0
  3
/\/-/\/-/\/-/\/-/\/-/\/
 72
    65
 73
     2
 40
11.0001
 49
0.0001
 49
-11.0
  0
LTYPE
  2
CENTER
 70
     0
  3
__ . __
 72
    65
 73
     4
 40
7.0
 49
4.0
 49
-1.0
 49
1.0
 49
-1.0
  0
LTYPE
  2
PHANTOM2
 70
     0
  3
Phantom (.5x) ___ _ _ ___ _ _ ___ _ _ ___ _ _
 72
    65
 73
     6
 40
31.75
 49
15.875
 49
-3.174999999999998
 49
3.174999999999998
 49
-3.174999999999998
 49
3.174999999999998
 49
-3.174999999999998
  0
LTYPE
  2
GEN3B
 70
     0
  3
 - - - - -
 72
    65
 73
     2
 40
1.0
 49
0.5
 49
-0.5
  0
LTYPE
  2
GEN7A
 70
     0
  3
__ . __ . __
 72
    65
 73
     4
 40
7.375
 49
4.75
 49
-0.875
 49
0.875
 49
-0.875
  0
LTYPE
  2
GEN7
 70
     0
  3
____ . ____ . ____ . ____ . ____ . ____ . ____
 72
    65
 73
     4
 40
14.25
 49
9.75
 49
-1.5
 49
1.5
 49
-1.5
  0
LTYPE
  2
HIDDEN
 70
     0
  3
Hidden __ __ __ __ __ __ __ __ __ __ __ __ __ _
 72
    65
 73
     2
 40
9.5249999999999986
 49
6.349999999999997
 49
-3.174999999999998
  0
LTYPE
  2
CENTER2
 70
     0
  3
Center (.5x) ___ _ ___ _ ___ _ ___ _ ___ _ ___
 72
    65
 73
     4
 40
1.125
 49
0.75
 49
-0.125
 49
0.125
 49
-0.125
  0
LTYPE
  2
HIDDEN2
 70
     0
  3
Hidden (.5x) _ _ _ _ _ _ _ _ _ _ _ _ _ _ _ _ _
 72
    65
 73
     2
 40
0.1875
 49
0.125
 49
-0.0625
  0
LTYPE
  2
AMZIGZAG2
 70
     0
  3
/\/-/\/-/\/-/\/-/\/-/\/
 72
    65
 73
     2
 40
0.4401
 49
0.0001
 49
-0.4400000000000001
  0
LTYPE
  2
ACANSTGB
 70
     0
  3
__ . . __ . .
 72
    65
 73
     6
 40
0.35433070866
 49
0.15748031496
 49
-0.03937007874
 49
0.03937007874
 49
-0.03937007874
 49
0.03937007874
 49
-0.03937007874
  0
LTYPE
  2
ACANSTGL
 70
     0
  3
_ _ _ _ _
 72
    65
 73
     2
 40
0.11811023622
 49
0.07874015748
 49
-0.03937007874
  0
ENDTAB
  0
TABLE
  2
LAYER
 70
    11
  0
LAYER
  2
0
 70
     0
 62
     7
  6
CONTINUOUS
  0
LAYER
  2
AM_0
 70
     0
 62
     7
  6
CONTINUOUS
  0
LAYER
  2
AM_5
 70
     0
 62
     2
  6
CONTINUOUS
  0
LAYER
  2
DEFPOINTS
 70
     0
 62
     7
  6
CONTINUOUS
  0
LAYER
  2
ｶｸﾚｾﾝ2
 70
     0
 62
     3
  6
GEN3B
  0
LAYER
  2
ﾁｭｳｼﾝｾﾝ1
 70
     0
 62
     1
  6
GEN7A
  0
LAYER
  2
AM_0N
 70
     0
 62
     7
  6
CONTINUOUS
  0
LAYER
  2
AM_3N
 70
     0
 62
     3
  6
AM_ISO02W050
  0
LAYER
  2
ｽﾝﾎ_ｳｾﾝ
 70
     0
 62
     2
  6
CONTINUOUS
  0
LAYER
  2
ﾁｭｳｼﾝｾﾝ
 70
     0
 62
     1
  6
GEN7
  0
LAYER
  2
AM_4
 70
     0
 62
     2
  6
CONTINUOUS
  0
ENDTAB
  0
TABLE
  2
STYLE
 70
     5
  0
STYLE
  2
STANDARD
 70
     0
 40
0.0
 41
0.8299999999999999
 50
0.0
 71
     0
 42
2.5
  3
txt.shx
  4
bigfont.shx
  0
STYLE
  2
ANNOTATIVE
 70
     0
 40
0.0
 41
1.0
 50
0.0
 71
     0
 42
0.2
  3
txt
  4

  0
STYLE
  2

 70
     1
 40
0.0
 41
1.0
 50
0.0
 71
     0
 42
2.5
  3
genltshp.shx
  4

  0
STYLE
  2
ACANSTS
 70
     0
 40
0.0
 41
1.0
 50
0.0
 71
     0
 42
2.5
  3
romans.shx
  4
extfont.shx
  0
STYLE
  2
ACANSGDT
 70
     0
 40
0.0
 41
1.0
 50
0.0
 71
     0
 42
2.5
  3
amgdt.shx
  4

  0
ENDTAB
  0
TABLE
  2
VIEW
 70
     6
  0
VIEW
  2
AM_VIEW1
 70
     0
 40
277.50000000000011
 10
249.64779005524869
 20
416.24999999999989
 41
499.2955801104971
 11
0.0
 21
0.0
 31
1.0
 12
0.0
 22
0.0
 32
0.0
 42
50.0
 43
0.0
 44
0.0
 50
0.0
 71
     0
  0
VIEW
  2
AM_VIEW2
 70
     0
 40
277.50000000000011
 10
603.85220994475117
 20
416.24999999999989
 41
499.2955801104971
 11
0.0
 21
0.0
 31
1.0
 12
0.0
 22
0.0
 32
0.0
 42
50.0
 43
0.0
 44
0.0
 50
0.0
 71
     0
  0
VIEW
  2
AM_VIEW3
 70
     0
 40
277.50000000000011
 10
249.64779005524869
 20
138.75
 41
499.2955801104971
 11
0.0
 21
0.0
 31
1.0
 12
0.0
 22
0.0
 32
0.0
 42
50.0
 43
0.0
 44
0.0
 50
0.0
 71
     0
  0
VIEW
  2
AM_VIEW4
 70
     0
 40
277.50000000000011
 10
603.85220994475117
 20
138.75
 41
499.2955801104971
 11
0.0
 21
0.0
 31
1.0
 12
0.0
 22
0.0
 32
0.0
 42
50.0
 43
0.0
 44
0.0
 50
0.0
 71
     0
  0
VIEW
  2
AM_VIEW5
 70
     0
 40
277.50000000000011
 10
426.75
 20
277.50000000000011
 41
499.2955801104971
 11
0.0
 21
0.0
 31
1.0
 12
0.0
 22
0.0
 32
0.0
 42
50.0
 43
0.0
 44
0.0
 50
0.0
 71
     0
  0
VIEW
  2
AM_VIEW6
 70
     0
 40
554.99445000000014
 10
426.75
 20
277.5
 41
998.5811743093924
 11
0.0
 21
0.0
 31
1.0
 12
0.0
 22
0.0
 32
0.0
 42
50.0
 43
0.0
 44
0.0
 50
0.0
 71
     0
  0
ENDTAB
  0
TABLE
  2
UCS
 70
     0
  0
ENDTAB
  0
TABLE
  2
APPID
 70
    97
  0
APPID
  2
ACAD
 70
     0
  0
APPID
  2
ACADANNOTATIVE
 70
     0
  0
APPID
  2
MCAD_NO_VIS
 70
     0
  0
APPID
  2
ACAD_TEMP_GRAPHIC
 70
     0
  0
APPID
  2
ACATTRIBSERVICES
 70
     0
  0
APPID
  2
GENIUS_GENREC_14
 70
     0
  0
APPID
  2
GENIUS_GENOBJ-N-REC_13
 70
     0
  0
APPID
  2
GENIUS_GENODEF_13
 70
     0
  0
APPID
  2
GENIUS_GENOLIS_13
 70
     0
  0
APPID
  2
GENIUS_GENOBJ-N-TIT_13
 70
     0
  0
APPID
  2
GENIUS_GENOENT_13
 70
     0
  0
APPID
  2
GENIUS_GENTITLE_13
 70
     0
  0
APPID
  2
GENIUS_GENOREF_13
 70
     0
  0
APPID
  2
GENIUS_GENSCREG_15
 70
     0
  0
APPID
  2
GENIUS_GENOBJ-N-SDF_13
 70
     0
  0
APPID
  2
GENIUS_GENFIL_13
 70
     0
  0
APPID
  2
GENIUS_GENOBJ-N-CHA_13
 70
     0
  0
APPID
  2
GENIUS_GENDTOL_13
 70
     0
  0
APPID
  2
GENIUS_GENOBJ-N-FIL_13
 70
     0
  0
APPID
  2
AD_DRAW
 70
     0
  0
APPID
  2
DESIGNERASSEMBLIES
 70
     0
  0
APPID
  2
ASURF_PCURVE_APPNAME
 70
     0
  0
APPID
  2
GENIUS_GE3SECT_13
 70
     0
  0
APPID
  2
GENIUS_GENCFG_13
 70
     0
  0
APPID
  2
GENIUS_GE3CFG0_13
 70
     0
  0
APPID
  2
GENIUS_GENCFG0_13
 70
     0
  0
APPID
  2
GENIUS_GENCFG1_13
 70
     0
  0
APPID
  2
GENIUS_GENCFG2_13
 70
     0
  0
APPID
  2
GENIUS_GENCFG3_13
 70
     0
  0
APPID
  2
GENIUS_GENCFG4_13
 70
     0
  0
APPID
  2
GENIUS_GEVCFG0_13
 70
     0
  0
APPID
  2
GENIUS_GENHINW_13
 70
     0
  0
APPID
  2
GENIUS_FIRSTVISTXT_14
 70
     0
  0
APPID
  2
GENIUS_GENOBJ-N-LEADER_13
 70
     0
  0
APPID
  2
GEV_VCCNULL_SWITCH_OFF
 70
     0
  0
APPID
  2
GENIUS_GEFCFG0_13
 70
     0
  0
APPID
  2
GENIUS_GENZVEED_13
 70
     0
  0
APPID
  2
GENIUS_GENSCREG_13
 70
     0
  0
APPID
  2
GENIUS_DUMCFG0_13
 70
     0
  0
APPID
  2
GEVID936201362
 70
     0
  0
APPID
  2
GEVDC
 70
     0
  0
APPID
  2
GEVCON
 70
     0
  0
APPID
  2
VCC
 70
     0
  0
APPID
  2
GEVPT
 70
     0
  0
APPID
  2
GEVIT
 70
     0
  0
APPID
  2
GENBH
 70
     0
  0
APPID
  2
GEVMK
 70
     0
  0
APPID
  2
GENIUS_GENBH_13
 70
     0
  0
APPID
  2
GENIUS_GENOBJ-NBEHI-BHF_13
 70
     0
  0
APPID
  2
GENIUS_GENOBJ-NBEHI-BHB_13
 70
     0
  0
APPID
  2
GENIUS_GENOBJ-F-DESC_13
 70
     0
  0
APPID
  2
GENIUS_GEFDESC_14
 70
     0
  0
APPID
  2
GENIUS_GENOBJ-F-PART_13
 70
     0
  0
APPID
  2
GENIUS_GEFSTDP_13
 70
     0
  0
APPID
  2
GENIUS_GEFPARTINS_13
 70
     0
  0
APPID
  2
GENIUS_GENTRA_14
 70
     0
  0
APPID
  2
GENIUS_GENINF13_13
 70
     0
  0
APPID
  2
GENIUS_GENOBJ-N-INFOPT_13
 70
     0
  0
APPID
  2
GENIUS_GENOBJ-N-RSSYM_13
 70
     0
  0
APPID
  2
GENIUS_GENSYMENT_13
 70
     0
  0
APPID
  2
GENIUS_GENSCSYM_13
 70
     0
  0
APPID
  2
GENIUS_GEFINFNAM_13
 70
     0
  0
APPID
  2
GENIUS_GENOBJ-N-CEN_13
 70
     0
  0
APPID
  2
GENIUS_GENOBJ-N-CRS_13
 70
     0
  0
APPID
  2
GENIUS_GENOBJ-N-CRC_13
 70
     0
  0
APPID
  2
GENIUS_GENCRC_14
 70
     0
  0
APPID
  2
GEVID942827039
 70
     0
  0
APPID
  2
GEVID942827040
 70
     0
  0
APPID
  2
GEVID942827041
 70
     0
  0
APPID
  2
GENIUS_GENOBJ-F-SCPASSM_13
 70
     0
  0
APPID
  2
GENIUS_GENDIMSH_14
 70
     0
  0
APPID
  2
GEVID942827042
 70
     0
  0
APPID
  2
GEVID946020473
 70
     0
  0
APPID
  2
GEVID946020474
 70
     0
  0
APPID
  2
GEVID946020475
 70
     0
  0
APPID
  2
GENIUS_GENOBJ-N-HTC_13
 70
     0
  0
APPID
  2
GENIUS_GENHATCH_13
 70
     0
  0
APPID
  2
GEVID948854295
 70
     0
  0
APPID
  2
GEVID939402019
 70
     0
  0
APPID
  2
GEVID952919491
 70
     0
  0
APPID
  2
GEVID952919492
 70
     0
  0
APPID
  2
GENIUS_GEFWELD_13
 70
     0
  0
APPID
  2
GENIUS_GENOBJ-F-WELS_13
 70
     0
  0
APPID
  2
GEVID952919493
 70
     0
  0
APPID
  2
GENIUS_GENOBJ-N-RSBK_13
 70
     0
  0
APPID
  2
GENIUS_GENOBJ-N-LIB_13
 70
     0
  0
APPID
  2
GENIUS_GENSCALE_13
 70
     0
  0
APPID
  2
GEVID986376691
 70
     0
  0
APPID
  2
DCO15
 70
     0
  0
APPID
  2
ACADM_DIM_EDIT
 70
     0
  0
APPID
  2
AMDT_DM_ADJ
 70
     0
  0
APPID
  2
ACAD_DSTYLE_DIMJAG
 70
     0
  0
APPID
  2
ACAD_DSTYLE_DIMBREAK
 70
     0
  0
APPID
  2
ACAD_NAV_VCDISPLAY
 70
     0
  0
APPID
  2
ACADANNOPO
 70
     0
  0
APPID
  2
ACAD_EXEMPT_FROM_CAD_STANDARDS
 70
     0
  0
APPID
  2
ACAD_MLEADERVER
 70
     0
  0
ENDTAB
  0
TABLE
  2
DIMSTYLE
 70
     9
  0
DIMSTYLE
  2
STANDARD
 70
     0
  3

  4

  5

  6

  7

 40
1.0
 41
0.18
 42
0.0625
 43
0.38
 44
0.18
 45
0.0
 46
0.0
 47
0.0
 48
0.0
140
0.18
141
0.09
142
0.0
143
25.399999999999999
144
1.0
145
0.0
146
1.0
147
0.09
 71
     0
 72
     0
 73
     1
 74
     1
 75
     0
 76
     0
 77
     0
 78
     0
170
     0
171
     2
172
     0
173
     0
174
     0
175
     0
176
     0
177
     0
178
     0
  0
DIMSTYLE
  2
ANNOTATIVE
 70
     0
  3

  4

  5

  6

  7

 40
1.0
 41
0.18
 42
0.0625
 43
0.38
 44
0.18
 45
0.0
 46
0.0
 47
0.0
 48
0.0
140
0.18
141
0.09
142
0.0
143
25.399999999999999
144
1.0
145
0.0
146
1.0
147
0.09
 71
     0
 72
     0
 73
     1
 74
     1
 75
     0
 76
     0
 77
     0
 78
     0
170
     0
171
     2
172
     0
173
     0
174
     0
175
     0
176
     0
177
     0
178
     0
  0
DIMSTYLE
  2
AM_ISO
 70
     0
  3

  4
"
  5

  6

  7

 40
1.0
 41
2.5
 42
1.0
 43
8.0
 44
0.6
 45
0.0
 46
0.0
 47
0.1
 48
0.1
140
2.5
141
0.0
142
0.0
143
0.0393701
144
1.0
145
0.0
146
0.71
147
0.8
 71
     0
 72
     0
 73
     0
 74
     0
 75
     0
 76
     0
 77
     1
 78
     8
170
     0
171
     2
172
     1
173
     0
174
     0
175
     0
176
   256
177
   256
178
     4
  0
DIMSTYLE
  2
AM_ANSI
 70
     0
  3

  4
mm
  5

  6

  7

 40
1.0
 41
0.12
 42
0.05
 43
0.5
 44
0.1
 45
0.0
 46
0.0
 47
0.1
 48
0.1
140
0.12
141
0.0
142
0.0
143
25.399999999999999
144
1.0
145
0.0
146
0.71
147
0.06
 71
     0
 72
     0
 73
     1
 74
     1
 75
     0
 76
     0
 77
     0
 78
     7
170
     0
171
     2
172
     0
173
     0
174
     0
175
     0
176
   256
177
   256
178
     2
  0
DIMSTYLE
  2
AM_ANSI$3
 70
     0
  3

  4
mm
  5

  6

  7

 40
1.0
 41
0.12
 42
0.05
 43
0.5
 44
0.1
 45
0.0
 46
0.0
 47
0.1
 48
0.1
140
0.12
141
0.0
142
0.0
143
25.399999999999999
144
1.0
145
0.0
146
0.71
147
0.06
 71
     0
 72
     0
 73
     1
 74
     1
 75
     0
 76
     0
 77
     0
 78
     7
170
     0
171
     2
172
     0
173
     0
174
     0
175
     0
176
   256
177
   256
178
     2
  0
DIMSTYLE
  2
AM_ANSI$4
 70
     0
  3

  4
mm
  5

  6

  7

 40
1.0
 41
0.12
 42
0.05
 43
0.5
 44
0.1
 45
0.0
 46
0.0
 47
0.1
 48
0.1
140
0.12
141
0.0
142
0.0
143
25.399999999999999
144
1.0
145
0.0
146
0.71
147
0.06
 71
     0
 72
     0
 73
     1
 74
     1
 75
     0
 76
     0
 77
     0
 78
     7
170
     0
171
     2
172
     0
173
     0
174
     0
175
     0
176
   256
177
   256
178
     2
  0
DIMSTYLE
  2
AM_ANSI$7
 70
     0
  3

  4
mm
  5

  6

  7

 40
1.0
 41
0.12
 42
0.05
 43
0.5
 44
0.1
 45
0.0
 46
0.0
 47
0.1
 48
0.1
140
0.12
141
0.0
142
0.0
143
25.399999999999999
144
1.0
145
0.0
146
0.71
147
0.06
 71
     0
 72
     0
 73
     1
 74
     1
 75
     0
 76
     0
 77
     0
 78
     7
170
     0
171
     2
172
     0
173
     0
174
     0
175
     0
176
   256
177
   256
178
     2
  0
DIMSTYLE
  2
AM_ANSI$SF
 70
     0
  3

  4
mm
  5

  6

  7

 40
1.0
 41
0.12
 42
0.05
 43
0.5
 44
0.1
 45
0.0
 46
0.0
 47
0.1
 48
0.1
140
0.12
141
0.0
142
0.0
143
25.399999999999999
144
1.0
145
0.0
146
0.71
147
0.06
 71
     0
 72
     0
 73
     1
 74
     1
 75
     1
 76
     1
 77
     0
 78
     7
170
     0
171
     2
172
     0
173
     0
174
     0
175
     0
176
   256
177
   256
178
     2
  0
DIMSTYLE
  2
AM_ANSI$SH
 70
     0
  3

  4
mm
  5

  6
GENAXEH
  7

 40
1.0
 41
0.12
 42
0.05
 43
0.5
 44
0.1
 45
0.0
 46
0.0
 47
0.1
 48
0.1
140
0.12
141
0.0
142
0.0
143
25.399999999999999
144
1.0
145
0.0
146
0.71
147
0.06
 71
     0
 72
     0
 73
     1
 74
     1
 75
     1
 76
     1
 77
     0
 78
     7
170
     0
171
     2
172
     0
173
     1
174
     0
175
     0
176
   256
177
   256
178
     2
  0
ENDTAB
  0
ENDSEC
  0
SECTION
  2
BLOCKS
  0
BLOCK
  8
0
  2
$MODEL_SPACE
 70
     0
 10
0.0
 20
0.0
 30
0.0
  3
$MODEL_SPACE
  1

  0
ENDBLK
  5
384E
  8
0
  0
BLOCK
 67
     1
  8
0
  2
$PAPER_SPACE
 70
     0
 10
0.0
 20
0.0
 30
0.0
  3
$PAPER_SPACE
  1

  0
ENDBLK
  5
384A
 67
     1
  8
0
  0
BLOCK
  8
0
  2
*U2
 70
     1
 10
0.0
 20
0.0
 30
0.0
  3
*U2
  1

  0
TEXT
  5
369C
  8
AM_0
 10
546.62472844323452
 20
147.89482887004871
 30
0.0
 40
12.0
  1
VX02-200S
 41
0.8299999999999999
  0
ENDBLK
  5
369E
  8
0
  0
BLOCK
  8
0
  2
GENAXEH
 70
     0
 10
0.0
 20
0.0
 30
0.0
  3
GENAXEH
  1

  0
LINE
  5
391F
  8
0
 10
-1.0
 20
0.0
 30
0.0
 11
1.0
 21
0.0
 31
0.0
  0
ENDBLK
  5
3921
  8
0
  0
BLOCK
  8
0
  2
_ACMFILLEDHALF
 70
     0
 10
0.0
 20
0.0
 30
0.0
  3
_ACMFILLEDHALF
  1

  0
TRACE
  5
392F
  8
AM_0
 62
     0
 10
-0.8
 20
0.0
 30
0.0
 11
-1.0
 21
0.166666666
 31
0.0
 12
0.0
 22
0.0
 32
0.0
 13
0.0
 23
0.0
 33
0.0
  0
LINE
  5
3930
  8
AM_0
 62
     0
 10
-1.0
 20
0.0
 30
0.0
 11
-0.8
 21
0.0
 31
0.0
  0
ENDBLK
  5
392E
  8
0
  0
ENDSEC
  0
SECTION
  2
ENTITIES
  0
LINE
  5
27C1
  8
ﾁｭｳｼﾝｾﾝ1
 10
54.567510185799541
 20
517.95274632626786
 30
0.0
 11
408.58902228823598
 21
517.95274632626786
 31
0.0
  0
ARC
  5
294C
  8
AM_0
 10
371.88199228823618
 20
517.95271632626782
 30
0.0
 40
3.9999962
 50
90.000003000000945
 51
270.0
  0
LINE
  5
2950
  8
AM_0
 10
275.88199228823618
 20
446.86256632626771
 30
0.0
 11
275.88199228823618
 21
589.04292632626789
 31
0.0
  0
LINE
  5
2951
  8
AM_0
 10
268.88202228823621
 20
439.08775632626771
 30
0.0
 11
268.88202228823621
 21
596.81773632626789
 31
0.0
  0
LINE
  5
2952
  8
AM_0
 10
343.88202228823621
 20
462.78120632626792
 30
0.0
 11
343.88202228823621
 21
573.12428632626791
 31
0.0
  0
LINE
  5
2953
  8
AM_0
 10
358.88202228823621
 20
545.97859632626785
 30
0.0
 11
358.88202228823621
 21
489.92689632626758
 31
0.0
  0
LINE
  5
2954
  8
AM_0
 10
355.88202228823621
 20
463.82572632626773
 30
0.0
 11
355.88202228823621
 21
572.0797563262679
 31
0.0
  0
LINE
  5
2955
  8
AM_0
 10
282.88202228823621
 20
435.70179632626758
 30
0.0
 11
282.88202228823621
 21
600.20369632626785
 31
0.0
  0
LINE
  5
2956
  8
AM_0
 10
371.88199228823618
 20
521.95271632626782
 30
0.0
 11
371.88199228823618
 21
513.95274632626786
 31
0.0
  0
LINE
  5
2957
  8
AM_0
 10
361.88202228823621
 20
532.95274632626786
 30
0.0
 11
361.88202228823621
 21
502.95274632626757
 31
0.0
  0
LINE
  5
2958
  8
AM_0
 10
403.88199228823601
 20
531.95277632626755
 30
0.0
 11
403.88199228823601
 21
503.95277632626789
 31
0.0
  0
LINE
  5
2959
  8
AM_0
 10
258.97147228823621
 20
486.01576632626762
 30
0.0
 11
258.97147228823621
 21
549.88975632626773
 31
0.0
  0
POLYLINE
  5
295A
  8
AM_0
 66
     1
 10
0.0
 20
0.0
 30
0.0
  0
VERTEX
  5
295B
  8
AM_0
 10
282.88202228823621
 20
479.67765632626759
 30
0.0
 42
-0.059991193
  0
VERTEX
  5
295C
  8
AM_0
 10
308.47083228823629
 20
463.74544632626771
 30
0.0
 42
-0.30883796
  0
VERTEX
  5
295D
  8
AM_0
 10
317.88199228823618
 20
447.80470632626759
 30
0.0
 42
-0.25905842
  0
VERTEX
  5
295E
  8
AM_0
 10
283.43232228823621
 20
428.01664632626779
 30
0.0
  0
SEQEND
  5
295F
  8
AM_0
  0
LINE
  5
2960
  8
AM_0
 10
285.88202228823621
 20
427.95274632626757
 30
0.0
 11
355.96054228823618
 21
429.78782632626792
 31
0.0
  0
ARC
  5
2961
  8
AM_0
 10
271.88202228823621
 20
439.08775632626771
 30
0.0
 40
3.0
 50
180.00001000000091
 51
267.99999999999972
  0
ARC
  5
2962
  8
AM_0
 10
263.88202228823621
 20
442.95274632626791
 30
0.0
 40
6.0
 50
33.557261999999668
 51
326.44274000000007
  0
LINE
  5
2964
  8
AM_0
 10
248.8820222882361
 20
431.84407632626773
 30
0.0
 11
248.8820222882361
 21
450.73664632626787
 31
0.0
  0
LINE
  5
2965
  8
AM_0
 10
251.80350228823619
 20
428.84510632626768
 30
0.0
 11
285.88202228823621
 21
427.95274632626757
 31
0.0
  0
ARC
  5
2966
  8
AM_0
 10
251.88202228823619
 20
431.84407632626773
 30
0.0
 40
3.0
 50
180.00001000000091
 51
268.5000000000004
  0
LINE
  5
2967
  8
AM_0
 10
282.88202228823621
 20
437.8453863262676
 30
0.0
 11
269.15137228823619
 21
437.8453863262676
 31
0.0
  0
LINE
  5
2968
  8
AM_0
 10
282.88202228823621
 20
435.70179632626758
 30
0.0
 11
271.77731228823632
 21
436.08958632626758
 31
0.0
  0
ARC
  5
2969
  8
AM_0
 10
280.88202228823621
 20
429.08540632626779
 30
0.0
 40
1.0
 50
270.0
 51
0.0
  0
ARC
  5
296A
  8
AM_0
 10
280.88202228823621
 20
433.08540632626779
 30
0.0
 40
5.0
 50
268.5000000000004
 51
0.0000006832462478
  0
LINE
  5
296B
  8
AM_0
 10
282.88202228823621
 20
435.70179632626758
 30
0.0
 11
285.88202228823621
 21
435.70179632626758
 31
0.0
  0
ARC
  5
296C
  8
AM_0
 10
282.88202228823621
 20
432.42854632626762
 30
0.0
 40
1.0
 50
109.4712199999996
 51
180.00001000000091
  0
ARC
  5
296D
  8
AM_0
 10
280.88202228823621
 20
438.08540632626779
 30
0.0
 40
5.0
 50
289.4712300000017
 51
331.52876000000032
  0
LINE
  5
296E
  8
AM_0
 10
281.88202228823621
 20
429.08540632626779
 30
0.0
 11
281.88202228823621
 21
432.42854632626762
 31
0.0
  0
LINE
  5
296F
  8
AM_0
 10
285.88202228823621
 20
433.08540632626779
 30
0.0
 11
285.88202228823621
 21
435.70179632626758
 31
0.0
  0
ARC
  5
2970
  8
AM_0
 10
263.88199228823618
 20
450.62120632626778
 30
0.0
 40
5.0
 50
0.0
 51
49.999999999999922
  0
ARC
  5
2971
  8
AM_0
 10
265.02582228823621
 20
473.95271632626759
 30
0.0
 40
2.0
 50
269.999989999999
 51
35.173260999998369
  0
LINE
  5
2974
  8
AM_0
 10
258.97147228823621
 20
486.0157063262676
 30
0.0
 11
266.66065228823618
 21
475.1047863262678
 31
0.0
  0
LINE
  5
2975
  8
AM_0
 10
257.25089228823617
 20
461.32875632626769
 30
0.0
 11
239.38202228823619
 21
461.95274632626757
 31
0.0
  0
LINE
  5
2976
  8
AM_0
 10
239.38202228823619
 20
471.9527463262678
 30
0.0
 11
265.02582228823621
 21
471.9527463262678
 31
0.0
  0
LINE
  5
297D
  8
AM_0
 10
260.29031228823618
 20
460.16203632626792
 30
0.0
 11
267.0959822882362
 21
454.45140632626789
 31
0.0
  0
LINE
  5
297E
  8
AM_0
 10
251.1055622882362
 20
453.63441632626763
 30
0.0
 11
263.96365228823618
 21
457.0797263262678
 31
0.0
  0
ARC
  5
297F
  8
AM_0
 10
251.88202228823619
 20
450.73664632626787
 30
0.0
 40
3.0
 50
105.00000000000161
 51
180.00001000000091
  0
LINE
  5
2980
  8
AM_0
 10
258.97147228823621
 20
460.95875632626758
 30
0.0
 11
258.97147228823621
 21
471.9527463262678
 31
0.0
  0
ARC
  5
2981
  8
AM_0
 10
257.07639228823621
 20
456.33180632626772
 30
0.0
 40
5.0
 50
49.99999699999762
 51
87.999999999999659
  0
LINE
  5
2982
  8
AM_0
 10
239.38202228823619
 20
486.01576632626762
 30
0.0
 11
258.97147228823621
 21
486.01576632626762
 31
0.0
  0
POLYLINE
  5
2989
  8
AM_0
 66
     1
 10
0.0
 20
0.0
 30
0.0
  0
VERTEX
  5
298A
  8
AM_0
 10
284.14556228823619
 20
438.02376632626761
 30
0.0
 42
0.021277534
  0
VERTEX
  5
298B
  8
AM_0
 10
294.97570228823622
 20
440.0802863262677
 30
0.0
 42
0.020622971
  0
VERTEX
  5
298C
  8
AM_0
 10
305.1004622882362
 20
442.89732632626789
 30
0.0
 42
0.022709
  0
VERTEX
  5
298D
  8
AM_0
 10
315.90738228823619
 20
446.94288632626768
 30
0.0
  0
SEQEND
  5
298E
  8
AM_0
  0
LINE
  5
298F
  8
AM_0
 10
268.88202228823621
 20
458.64424632626771
 30
0.0
 11
275.88199228823618
 21
458.64424632626771
 31
0.0
  0
LINE
  5
2990
  8
AM_0
 10
282.88202228823621
 20
479.67765632626759
 30
0.0
 11
275.88199228823618
 21
479.67765632626759
 31
0.0
  0
CIRCLE
  5
2991
  8
AM_0
 10
343.88202228823621
 20
442.95274632626791
 30
0.0
 40
6.0
  0
LINE
  5
2992
  8
AM_0
 10
325.88202228823621
 20
434.13282632626789
 30
0.0
 11
325.88202228823621
 21
449.59864632626778
 31
0.0
  0
LINE
  5
2994
  8
AM_0
 10
358.88202228823621
 20
432.78678632626759
 30
0.0
 11
358.88202228823621
 21
459.95274632626791
 31
0.0
  0
ARC
  5
2995
  8
AM_0
 10
330.88202228823621
 20
434.13282632626789
 30
0.0
 40
5.0
 50
180.00001000000091
 51
271.49999999999949
  0
ARC
  5
2996
  8
AM_0
 10
355.88202228823621
 20
432.78678632626759
 30
0.0
 40
3.0
 50
271.49999999999949
 51
0.0
  0
LINE
  5
2997
  8
AM_0
 10
361.88202228823621
 20
503.95277632626789
 30
0.0
 11
403.88199228823601
 21
503.95277632626789
 31
0.0
  0
ARC
  5
2998
  8
AM_0
 10
338.88202228823621
 20
462.78120632626792
 30
0.0
 40
5.0
 50
272.0000000000004
 51
0.0
  0
ARC
  5
299A
  8
AM_0
 10
333.88202228823621
 20
449.59864632626778
 30
0.0
 40
8.0
 50
91.999998000000545
 51
180.00001000000091
  0
LINE
  5
299B
  8
AM_0
 10
339.05652228823618
 20
457.78422632626763
 30
0.0
 11
333.60281228823618
 21
457.59379632626792
 31
0.0
  0
ARC
  5
299C
  8
AM_0
 10
352.8820222882361
 20
466.70173632626791
 30
0.0
 40
3.0
 50
274.99999999999972
 51
0.0
  0
ARC
  5
299D
  8
AM_0
 10
347.78384228823609
 20
458.2251463262678
 30
0.0
 40
5.0
 50
95.00000199999856
 51
152.896189999999
  0
LINE
  5
299E
  8
AM_0
 10
353.14346228823621
 20
463.71315632626772
 30
0.0
 11
347.3480522882362
 21
463.20613632626771
 31
0.0
  0
ARC
  5
299F
  8
AM_0
 10
356.88202228823621
 20
463.82572632626773
 30
0.0
 40
1.0
 50
180.00001000000091
 51
255.5224900000002
  0
ARC
  5
29A0
  8
AM_0
 10
355.88202228823621
 20
459.95274632626791
 30
0.0
 40
3.0
 50
0.0
 51
75.522487999998262
  0
ARC
  5
29A1
  8
AM_0
 10
357.88202228823621
 20
489.92689632626758
 30
0.0
 40
1.0
 50
271.49999999999949
 51
0.0
  0
ARC
  5
29A2
  8
AM_0
 10
356.88202228823621
 20
487.90004632626773
 30
0.0
 40
1.0
 50
91.500001000001546
 51
180.00001000000091
  0
LINE
  5
29A3
  8
AM_0
 10
356.85584228823609
 20
488.89970632626762
 30
0.0
 11
357.90820228823623
 21
488.92726632626773
 31
0.0
  0
LINE
  5
29A4
  8
AM_0
 10
358.88202228823621
 20
502.95274632626757
 30
0.0
 11
361.88202228823621
 21
502.95274632626757
 31
0.0
  0
LINE
  5
29A5
  8
AM_0
 10
371.88199228823618
 20
513.95274632626786
 30
0.0
 11
403.88199228823601
 21
513.95274632626786
 31
0.0
  0
POLYLINE
  5
29A6
  8
AM_0
 66
     1
 10
0.0
 20
0.0
 30
0.0
  0
VERTEX
  5
29A7
  8
AM_0
 10
282.88202228823621
 20
556.22782632626775
 30
0.0
 42
0.059991175
  0
VERTEX
  5
29A8
  8
AM_0
 10
308.47083228823629
 20
572.1600363262678
 30
0.0
 42
0.30883786
  0
VERTEX
  5
29A9
  8
AM_0
 10
317.88199228823618
 20
588.10078632626789
 30
0.0
 42
0.25905849
  0
VERTEX
  5
29AA
  8
AM_0
 10
283.43234228823621
 20
607.88883632626755
 30
0.0
  0
SEQEND
  5
29AB
  8
AM_0
  0
LINE
  5
29AC
  8
AM_0
 10
285.88202228823621
 20
607.95274632626786
 30
0.0
 11
355.96054228823618
 21
606.11766632626791
 31
0.0
  0
POLYLINE
  5
29AD
  8
AM_0
 66
     1
 10
0.0
 20
0.0
 30
0.0
  0
VERTEX
  5
29AE
  8
AM_0
 10
284.14556228823619
 20
597.88172632626765
 30
0.0
 42
-0.021277534
  0
VERTEX
  5
29AF
  8
AM_0
 10
294.97570228823622
 20
595.8252063262679
 30
0.0
 42
-0.020622971
  0
VERTEX
  5
29B0
  8
AM_0
 10
305.1004622882362
 20
593.00816632626777
 30
0.0
 42
-0.022709
  0
VERTEX
  5
29B1
  8
AM_0
 10
315.90738228823619
 20
588.96260632626775
 30
0.0
  0
SEQEND
  5
29B2
  8
AM_0
  0
ARC
  5
29B3
  8
AM_0
 10
263.88202228823621
 20
592.95274632626786
 30
0.0
 40
6.0
 50
33.557261999999668
 51
326.44274000000007
  0
LINE
  5
29B5
  8
AM_0
 10
248.8820222882361
 20
604.06138632626755
 30
0.0
 11
248.8820222882361
 21
585.16883632626775
 31
0.0
  0
ARC
  5
29B6
  8
AM_0
 10
263.88199228823618
 20
585.28428632626776
 30
0.0
 40
5.0
 50
310.0
 51
0.0
  0
ARC
  5
29B7
  8
AM_0
 10
265.02582228823621
 20
561.95274632626786
 30
0.0
 40
2.0
 50
324.82673000000062
 51
90.000003000000945
  0
LINE
  5
29BA
  8
AM_0
 10
266.66065228823618
 20
560.80064632626772
 30
0.0
 11
258.97150228823608
 21
549.88975632626773
 31
0.0
  0
LINE
  5
29BB
  8
AM_0
 10
239.38202228823619
 20
549.88975632626773
 30
0.0
 11
258.97147228823621
 21
549.88975632626773
 31
0.0
  0
LINE
  5
29C1
  8
AM_0
 10
257.25086228823631
 20
574.57673632626791
 30
0.0
 11
239.38202228823619
 21
573.95274632626786
 31
0.0
  0
LINE
  5
29C2
  8
AM_0
 10
239.38202228823619
 20
563.95274632626786
 30
0.0
 11
265.02582228823621
 21
563.95274632626786
 31
0.0
  0
LINE
  5
29D1
  8
AM_0
 10
260.29035228823608
 20
575.74345632626785
 30
0.0
 11
267.09595228823622
 21
581.45402632626781
 31
0.0
  0
LINE
  5
29D2
  8
AM_0
 10
258.97147228823621
 20
563.95274632626786
 30
0.0
 11
258.97147228823621
 21
574.94673632626757
 31
0.0
  0
ARC
  5
29D3
  8
AM_0
 10
257.07636228823623
 20
579.57368632626776
 30
0.0
 40
5.0
 50
272.0000000000004
 51
310.0
  0
LINE
  5
29D4
  8
AM_0
 10
251.10559228823621
 20
582.27107632626758
 30
0.0
 11
263.96365228823618
 21
578.82576632626785
 31
0.0
  0
ARC
  5
29D5
  8
AM_0
 10
251.88202228823619
 20
585.16883632626775
 30
0.0
 40
3.0
 50
180.00001000000091
 51
254.99999000000111
  0
LINE
  5
29D6
  8
AM_0
 10
282.88202228823621
 20
556.22782632626775
 30
0.0
 11
275.88199228823618
 21
556.22782632626775
 31
0.0
  0
LINE
  5
29D7
  8
AM_0
 10
268.88202228823621
 20
577.26124632626784
 30
0.0
 11
275.88199228823618
 21
577.26124632626784
 31
0.0
  0
LINE
  5
29D8
  8
AM_0
 10
251.80350228823619
 20
607.06034632626779
 30
0.0
 11
285.88202228823621
 21
607.95271632626782
 31
0.0
  0
ARC
  5
29D9
  8
AM_0
 10
251.88202228823619
 20
604.06138632626755
 30
0.0
 40
3.0
 50
91.500001000001546
 51
180.00001000000091
  0
LINE
  5
29DA
  8
AM_0
 10
282.88202228823621
 20
598.06010632626817
 30
0.0
 11
269.15137228823619
 21
598.06010632626817
 31
0.0
  0
LINE
  5
29DB
  8
AM_0
 10
282.88199228823618
 20
600.20369632626785
 30
0.0
 11
271.77731228823632
 21
599.81590632626785
 31
0.0
  0
ARC
  5
29DC
  8
AM_0
 10
271.88202228823621
 20
596.81773632626789
 30
0.0
 40
3.0
 50
91.999998000000545
 51
180.00001000000091
  0
ARC
  5
29DD
  8
AM_0
 10
280.88202228823621
 20
602.82008632626787
 30
0.0
 40
5.0
 50
0.0
 51
91.500001000001546
  0
LINE
  5
29DE
  8
AM_0
 10
281.88202228823621
 20
606.82008632626787
 30
0.0
 11
281.88202228823621
 21
603.47694632626758
 31
0.0
  0
LINE
  5
29DF
  8
AM_0
 10
282.88202228823621
 20
600.20369632626785
 30
0.0
 11
285.88202228823621
 21
600.20369632626785
 31
0.0
  0
ARC
  5
29E0
  8
AM_0
 10
282.88202228823621
 20
603.47694632626758
 30
0.0
 40
1.0
 50
180.00001000000091
 51
250.52876999999819
  0
ARC
  5
29E1
  8
AM_0
 10
280.88202228823621
 20
597.82008632626776
 30
0.0
 40
5.0
 50
28.471238999999589
 51
70.528778999998195
  0
LINE
  5
29E2
  8
AM_0
 10
285.88202228823621
 20
602.82008632626787
 30
0.0
 11
285.88202228823621
 21
600.20369632626785
 31
0.0
  0
ARC
  5
29E3
  8
AM_0
 10
280.88202228823621
 20
606.82008632626787
 30
0.0
 40
1.0
 50
0.0
 51
90.000003000000945
  0
CIRCLE
  5
29E4
  8
AM_0
 10
343.88202228823621
 20
592.95274632626786
 30
0.0
 40
6.0
  0
LINE
  5
29E5
  8
AM_0
 10
325.88202228823621
 20
586.30683632626756
 30
0.0
 11
325.88202228823621
 21
601.77265632626768
 31
0.0
  0
LINE
  5
29E6
  8
ﾁｭｳｼﾝｾﾝ1
 10
343.88202228823621
 20
603.95274632626786
 30
0.0
 11
343.88202228823621
 21
581.95274632626786
 31
0.0
  0
LINE
  5
29E7
  8
AM_0
 10
358.88202228823621
 20
603.11869632626781
 30
0.0
 11
358.88202228823621
 21
575.95274632626786
 31
0.0
  0
LINE
  5
29E8
  8
AM_0
 10
361.88202228823621
 20
531.95277632626755
 30
0.0
 11
403.88199228823601
 21
531.95277632626755
 31
0.0
  0
LINE
  5
29E9
  8
AM_0
 10
358.88202228823621
 20
532.95274632626786
 30
0.0
 11
361.88202228823621
 21
532.95274632626786
 31
0.0
  0
ARC
  5
29EA
  8
AM_0
 10
357.88202228823621
 20
545.97859632626785
 30
0.0
 40
1.0
 50
0.0
 51
88.499997000000747
  0
ARC
  5
29EB
  8
AM_0
 10
356.88202228823621
 20
548.00544632626793
 30
0.0
 40
1.0
 50
180.00001000000091
 51
268.5000000000004
  0
LINE
  5
29EC
  8
AM_0
 10
356.85587228823618
 20
547.00581632626768
 30
0.0
 11
357.90820228823623
 21
546.97825632626791
 31
0.0
  0
ARC
  5
29ED
  8
AM_0
 10
338.88202228823621
 20
573.12428632626791
 30
0.0
 40
5.0
 50
0.0
 51
87.999999999999659
  0
LINE
  5
29EE
  8
ﾁｭｳｼﾝｾﾝ1
 10
332.88202228823621
 20
592.95274632626786
 30
0.0
 11
354.8820222882361
 21
592.95274632626786
 31
0.0
  0
ARC
  5
29EF
  8
AM_0
 10
333.88202228823621
 20
586.30683632626756
 30
0.0
 40
8.0
 50
180.00001000000091
 51
267.99999999999972
  0
LINE
  5
29F0
  8
AM_0
 10
339.0564922882362
 20
578.12126632626746
 30
0.0
 11
333.60281228823618
 21
578.31169632626779
 31
0.0
  0
ARC
  5
29F1
  8
AM_0
 10
352.8820222882361
 20
569.20375632626781
 30
0.0
 40
3.0
 50
0.0
 51
85.000004000001198
  0
ARC
  5
29F2
  8
AM_0
 10
347.78384228823609
 20
577.68034632626791
 30
0.0
 40
5.0
 50
207.10381000000089
 51
265.00001000000071
  0
LINE
  5
29F3
  8
AM_0
 10
353.14349228823619
 20
572.19233632626776
 30
0.0
 11
347.3480522882362
 21
572.69938632626781
 31
0.0
  0
ARC
  5
29F4
  8
AM_0
 10
356.88202228823621
 20
572.0797563262679
 30
0.0
 40
1.0
 50
104.4775099999998
 51
180.00001000000091
  0
ARC
  5
29F5
  8
AM_0
 10
355.88202228823621
 20
575.95274632626786
 30
0.0
 40
3.0
 50
284.47750999999982
 51
0.0
  0
LINE
  5
29F6
  8
AM_0
 10
371.88199228823618
 20
521.95271632626782
 30
0.0
 11
403.88199228823601
 21
521.95271632626782
 31
0.0
  0
ARC
  5
29F7
  8
AM_0
 10
330.88202228823621
 20
601.77265632626768
 30
0.0
 40
5.0
 50
88.499997000000747
 51
180.00001000000091
  0
ARC
  5
29F8
  8
AM_0
 10
355.88202228823621
 20
603.11869632626781
 30
0.0
 40
3.0
 50
0.0
 51
88.499997000000747
  0
LINE
  5
2A7A
  8
ﾁｭｳｼﾝｾﾝ1
 10
263.88202228823621
 20
603.95274632626786
 30
0.0
 11
263.88202228823621
 21
581.95274632626786
 31
0.0
  0
LINE
  5
2A7B
  8
ﾁｭｳｼﾝｾﾝ1
 10
252.8820222882361
 20
592.95274632626786
 30
0.0
 11
274.88202228823621
 21
592.95274632626786
 31
0.0
  0
LINE
  5
2A82
  8
ﾁｭｳｼﾝｾﾝ1
 10
263.88202228823621
 20
453.9527463262678
 30
0.0
 11
263.88202228823621
 21
431.95274632626769
 31
0.0
  0
LINE
  5
2A83
  8
ﾁｭｳｼﾝｾﾝ1
 10
252.8820222882361
 20
442.95274632626791
 30
0.0
 11
274.88202228823621
 21
442.95274632626791
 31
0.0
  0
LINE
  5
2A8A
  8
ﾁｭｳｼﾝｾﾝ1
 10
343.88202228823621
 20
453.9527463262678
 30
0.0
 11
343.88202228823621
 21
431.95274632626769
 31
0.0
  0
LINE
  5
2A8B
  8
ﾁｭｳｼﾝｾﾝ1
 10
332.88202228823621
 20
442.95274632626791
 30
0.0
 11
354.8820222882361
 21
442.95274632626791
 31
0.0
  0
LINE
  5
2FD9
  8
AM_0
 10
77.3820222882362
 20
583.55278082626762
 30
0.0
 11
220.8820222882363
 21
583.55278082626762
 31
0.0
  0
LINE
  5
2FDA
  8
AM_0
 10
138.8820222882361
 20
452.35278082626758
 30
0.0
 11
220.88202228823619
 21
452.35278082626752
 31
0.0
  0
LINE
  5
2FDB
  8
AM_0
 10
70.882022288236215
 20
571.05464869764671
 30
0.0
 11
70.882022288236087
 21
464.85091295488792
 31
0.0
  0
ARC
  5
2FDC
  8
AM_0
 10
1010.068146098056
 20
517.95278082626726
 30
0.0
 40
940.68612380981915
 50
176.76392470776139
 51
183.2360752922385
  0
LINE
  5
2FDD
  8
AM_0
 10
77.8820222882362
 20
583.55278082626762
 30
0.0
 11
77.882022288236072
 21
452.35278082626752
 31
0.0
  0
LINE
  5
2FDE
  8
AM_0
 10
75.3820222882362
 20
581.55278082626762
 30
0.0
 11
75.3820222882362
 21
454.35278082626729
 31
0.0
  0
ARC
  5
2FDF
  8
AM_0
 10
77.3820222882362
 20
454.35278082626729
 30
0.0
 40
2.0
 50
180.0
 51
270.0
1001
GENIUS_GENOBJ-N-FIL_13
1002
{
1000
OWNER
1000
GEN
1002
}
1001
GENIUS_GENODEF_13
1002
{
1000
HIER
1070
     0
1002
}
1002
{
1000
MANEDIT
1070
     0
1002
}
1002
{
1000
NOSEL
1070
     0
1002
}
1002
{
1000
BEHIND
1070
     0
1002
}
1002
{
1000
OTHER
1070
     0
1002
}
1002
{
1000
REACTOR
1002
}
  0
ARC
  5
2FE0
  8
AM_0
 10
73.3820222882362
 20
459.054648697647
 30
0.0
 40
2.0
 50
0.0
 51
48.36646066343252
1001
GENIUS_GENOBJ-N-FIL_13
1002
{
1000
OWNER
1000
GEN
1002
}
1001
GENIUS_GENODEF_13
1002
{
1000
HIER
1070
     0
1002
}
1002
{
1000
MANEDIT
1070
     0
1002
}
1002
{
1000
NOSEL
1070
     0
1002
}
1002
{
1000
BEHIND
1070
     0
1002
}
1002
{
1000
OTHER
1070
     0
1002
}
1002
{
1000
REACTOR
1002
}
  0
LINE
  5
2FE1
  8
AM_0
 10
74.710749965896014
 20
460.5494673350143
 30
0.0
 11
71.553294610576302
 21
463.35609431752067
 31
0.0
  0
ARC
  5
2FE2
  8
AM_0
 10
72.882022288236072
 20
464.85091295488792
 30
0.0
 40
2.0
 50
180.0
 51
228.36646066343241
1001
GENIUS_GENODEF_13
1002
{
1000
HIER
1070
     0
1002
}
1002
{
1000
MANEDIT
1070
     0
1002
}
1002
{
1000
NOSEL
1070
     0
1002
}
1002
{
1000
BEHIND
1070
     0
1002
}
1002
{
1000
OTHER
1070
     0
1002
}
1002
{
1000
REACTOR
1002
}
1001
GENIUS_GENOBJ-N-FIL_13
1002
{
1000
OWNER
1000
GEN
1002
}
  0
ARC
  5
2FE3
  8
AM_0
 10
136.8820222882361
 20
442.30038259603612
 30
0.0
 40
2.0
 50
270.0
 51
0.0
1001
GENIUS_GENOBJ-N-FIL_13
1002
{
1000
OWNER
1000
GEN
1002
}
1001
GENIUS_GENODEF_13
1002
{
1000
HIER
1070
     0
1002
}
1002
{
1000
MANEDIT
1070
     0
1002
}
1002
{
1000
NOSEL
1070
     0
1002
}
1002
{
1000
BEHIND
1070
     0
1002
}
1002
{
1000
OTHER
1070
     0
1002
}
1002
{
1000
REACTOR
1002
}
  0
ARC
  5
2FE4
  8
AM_0
 10
82.882022288236072
 20
442.30038259603612
 30
0.0
 40
2.0
 50
180.0
 51
270.0
1001
GENIUS_GENODEF_13
1002
{
1000
HIER
1070
     0
1002
}
1002
{
1000
MANEDIT
1070
     0
1002
}
1002
{
1000
NOSEL
1070
     0
1002
}
1002
{
1000
BEHIND
1070
     0
1002
}
1002
{
1000
OTHER
1070
     0
1002
}
1002
{
1000
REACTOR
1002
}
1001
GENIUS_GENOBJ-N-FIL_13
1002
{
1000
OWNER
1000
GEN
1002
}
  0
LINE
  5
2FE5
  8
AM_0
 10
80.882022288236058
 20
455.69380785308852
 30
0.0
 11
80.882022288236058
 21
438.89278159732942
 31
0.0
  0
LINE
  5
2FE6
  8
AM_0
 10
138.8820222882361
 20
455.69380785308852
 30
0.0
 11
138.88202228823599
 21
438.89278159732942
 31
0.0
  0
LINE
  5
2FE7
  8
AM_0
 10
136.88202228823599
 20
436.89278159732908
 30
0.0
 11
82.882022288236072
 21
436.89278159732942
 31
0.0
  0
LINE
  5
2FE8
  8
AM_0
 10
136.8820222882361
 20
440.300382596036
 30
0.0
 11
82.882022288236072
 21
440.300382596036
 31
0.0
  0
ARC
  5
2FE9
  8
AM_0
 10
82.882022288236072
 20
438.89278159732942
 30
0.0
 40
2.0
 50
180.0
 51
270.0
1001
GENIUS_GENOBJ-N-FIL_13
1002
{
1000
OWNER
1000
GEN
1002
}
1001
GENIUS_GENODEF_13
1002
{
1000
HIER
1070
     0
1002
}
1002
{
1000
MANEDIT
1070
     0
1002
}
1002
{
1000
NOSEL
1070
     0
1002
}
1002
{
1000
BEHIND
1070
     0
1002
}
1002
{
1000
OTHER
1070
     0
1002
}
1002
{
1000
REACTOR
1002
}
  0
ARC
  5
2FEA
  8
AM_0
 10
136.88202228823599
 20
438.89278159732942
 30
0.0
 40
2.0
 50
270.0
 51
0.0
1001
GENIUS_GENOBJ-N-FIL_13
1002
{
1000
OWNER
1000
GEN
1002
}
1001
GENIUS_GENODEF_13
1002
{
1000
HIER
1070
     0
1002
}
1002
{
1000
MANEDIT
1070
     0
1002
}
1002
{
1000
NOSEL
1070
     0
1002
}
1002
{
1000
BEHIND
1070
     0
1002
}
1002
{
1000
OTHER
1070
     0
1002
}
1002
{
1000
REACTOR
1002
}
  0
LINE
  5
2FEB
  8
AM_0
 10
111.3820222882361
 20
448.80318489357279
 30
0.0
 11
107.3820222882362
 21
448.80318489357279
 31
0.0
  0
LINE
  5
2FEC
  8
AM_0N
 10
95.382022288236101
 20
458.11020355507958
 30
0.0
 11
111.3820222882361
 21
458.11020355507958
 31
0.0
1001
GENIUS_GENOREF_13
1005
0
  0
LINE
  5
2FED
  8
AM_0
 10
111.3820222882361
 20
461.6619878467987
 30
0.0
 11
95.382022288236101
 21
461.6619878467987
 31
0.0
1001
GENIUS_GENOREF_13
1005
3013
  0
LINE
  5
2FEE
  8
AM_0
 10
95.382022288236101
 20
457.69380785308852
 30
0.0
 11
82.882022288236072
 21
457.69380785308852
 31
0.0
  0
LINE
  5
2FEF
  8
AM_0
 10
77.3820222882362
 20
452.35278082626752
 30
0.0
 11
80.882022288236058
 21
452.35278082626752
 31
0.0
  0
ARC
  5
2FF0
  8
AM_0
 10
82.882022288236072
 20
455.69380785308852
 30
0.0
 40
2.0
 50
90.0
 51
180.0
1001
GENIUS_GENOBJ-N-FIL_13
1002
{
1000
OWNER
1000
GEN
1002
}
1001
GENIUS_GENODEF_13
1002
{
1000
HIER
1070
     0
1002
}
1002
{
1000
MANEDIT
1070
     0
1002
}
1002
{
1000
NOSEL
1070
     0
1002
}
1002
{
1000
BEHIND
1070
     0
1002
}
1002
{
1000
OTHER
1070
     0
1002
}
1002
{
1000
REACTOR
1002
}
  0
LINE
  5
2FF1
  8
AM_0
 10
99.382022288236115
 20
458.11020355507958
 30
0.0
 11
99.382022288236115
 21
448.80318489357279
 31
0.0
  0
LINE
  5
2FF2
  8
AM_0
 10
107.3820222882362
 20
458.11020355507958
 30
0.0
 11
107.3820222882362
 21
448.80318489357279
 31
0.0
  0
LINE
  5
2FF3
  8
AM_0
 10
95.382022288236101
 20
461.6619878467987
 30
0.0
 11
95.382022288236101
 21
448.80318489357279
 31
0.0
  0
LINE
  5
2FF4
  8
AM_0
 10
99.382022288236115
 20
448.80318489357279
 30
0.0
 11
95.382022288236101
 21
448.80318489357279
 31
0.0
  0
ARC
  5
2FF5
  8
AM_0N
 10
101.8639093712458
 20
457.22662304484783
 30
0.0
 40
1.1999999999999991
 50
184.99999999999969
 51
246.4528627629243
1001
GENIUS_GENOREF_13
1005
0
  0
LINE
  5
2FF6
  8
AM_0
 10
107.3820222882362
 20
454.07924769208182
 30
0.0
 11
99.382022288236115
 21
454.07924769208182
 31
0.0
  0
LINE
  5
2FF7
  8
AM_0N
 10
100.6684757335358
 20
457.1220361535506
 30
0.0
 11
100.5820222882361
 21
458.11020355507958
 31
0.0
1001
GENIUS_GENOREF_13
1005
0
  0
ARC
  5
2FF8
  8
AM_0N
 10
103.3820222882361
 20
460.7102035550796
 30
0.0
 40
5.0
 50
246.4528627629243
 51
293.54713723707567
1001
GENIUS_GENOREF_13
1005
0
  0
LINE
  5
2FF9
  8
AM_3N
  6
AM_ISO02W050X2
 10
103.1295222882361
 20
455.71658325013038
 30
0.0
 11
103.1295222882361
 21
457.51020355507973
 31
0.0
1001
GENIUS_GENOREF_13
1005
0
  0
LINE
  5
2FFA
  8
AM_3N
  6
AM_ISO02W050X2
 10
103.6345222882361
 20
455.71658325013038
 30
0.0
 11
103.6345222882361
 21
457.51020355507973
 31
0.0
1001
GENIUS_GENOREF_13
1005
0
  0
LINE
  5
2FFB
  8
AM_3N
  6
AM_ISO02W050X2
 10
101.8820222882361
 20
455.94050754799508
 30
0.0
 11
103.3820222882361
 21
457.8279175765536
 31
0.0
1001
GENIUS_GENOREF_13
1005
0
  0
LINE
  5
2FFC
  8
AM_3N
  6
AM_ISO02W050X2
 10
103.6345222882361
 20
457.51020355507973
 30
0.0
 11
103.1295222882361
 21
457.51020355507973
 31
0.0
1001
GENIUS_GENOREF_13
1005
0
  0
LINE
  5
2FFD
  8
AM_3N
  6
AM_ISO02W050X2
 10
104.8820222882361
 20
455.94050754799508
 30
0.0
 11
103.3820222882361
 21
457.8279175765536
 31
0.0
1001
GENIUS_GENOREF_13
1005
0
  0
ARC
  5
2FFE
  8
AM_0N
 10
104.90013520522641
 20
457.22662304484783
 30
0.0
 40
1.1999999999999991
 50
293.54713723707567
 51
355.00000000000023
1001
GENIUS_GENOREF_13
1005
0
  0
LINE
  5
2FFF
  8
AM_0N
 10
106.0955688429364
 20
457.1220361535506
 30
0.0
 11
106.1820222882361
 21
458.11020355507958
 31
0.0
1001
GENIUS_GENOREF_13
1005
0
  0
LINE
  5
3000
  8
AM_0
 10
136.8820222882361
 20
457.69380785308852
 30
0.0
 11
111.3820222882361
 21
457.69380785308852
 31
0.0
  0
LINE
  5
3001
  8
AM_0
 10
111.3820222882361
 20
461.66198784679841
 30
0.0
 11
111.3820222882361
 21
448.80318489357279
 31
0.0
  0
ARC
  5
3002
  8
AM_0
 10
136.8820222882361
 20
455.69380785308852
 30
0.0
 40
2.0
 50
0.0
 51
90.0
1001
GENIUS_GENODEF_13
1002
{
1000
HIER
1070
     0
1002
}
1002
{
1000
MANEDIT
1070
     0
1002
}
1002
{
1000
NOSEL
1070
     0
1002
}
1002
{
1000
BEHIND
1070
     0
1002
}
1002
{
1000
OTHER
1070
     0
1002
}
1002
{
1000
REACTOR
1002
}
1001
GENIUS_GENOBJ-N-FIL_13
1002
{
1000
OWNER
1000
GEN
1002
}
  0
LINE
  5
3003
  8
AM_0
 10
59.8820222882362
 20
534.95278082626714
 30
0.0
 11
59.882022288236101
 21
500.95278082626731
 31
0.0
  0
ARC
  5
3004
  8
AM_0
 10
62.882022288236101
 20
500.95278082626731
 30
0.0
 40
3.0
 50
180.0
 51
270.0
1001
GENIUS_GENODEF_13
1002
{
1000
HIER
1070
     0
1002
}
1002
{
1000
MANEDIT
1070
     0
1002
}
1002
{
1000
NOSEL
1070
     0
1002
}
1002
{
1000
BEHIND
1070
     0
1002
}
1002
{
1000
OTHER
1070
     0
1002
}
1002
{
1000
REACTOR
1002
}
1001
GENIUS_GENOBJ-N-FIL_13
1002
{
1000
OWNER
1000
GEN
1002
}
  0
LINE
  5
3005
  8
AM_0
 10
62.882022288236101
 20
497.9527808262676
 30
0.0
 11
69.594657089278314
 21
497.9527808262676
 31
0.0
  0
ARC
  5
3006
  8
AM_0
 10
62.882022288236207
 20
534.95278082626714
 30
0.0
 40
3.0
 50
90.0
 51
180.0
1001
GENIUS_GENOBJ-N-FIL_13
1002
{
1000
OWNER
1000
GEN
1002
}
1001
GENIUS_GENODEF_13
1002
{
1000
HIER
1070
     0
1002
}
1002
{
1000
MANEDIT
1070
     0
1002
}
1002
{
1000
NOSEL
1070
     0
1002
}
1002
{
1000
BEHIND
1070
     0
1002
}
1002
{
1000
OTHER
1070
     0
1002
}
1002
{
1000
REACTOR
1002
}
  0
LINE
  5
3007
  8
AM_0
 10
62.882022288236207
 20
537.95278082626737
 30
0.0
 11
69.594657089278314
 21
537.95278082626737
 31
0.0
  0
LINE
  5
3008
  8
AM_0
 10
74.710749965896014
 20
575.35609431752061
 30
0.0
 11
71.553294610576302
 21
572.54946733501436
 31
0.0
  0
ARC
  5
3009
  8
AM_0
 10
72.8820222882362
 20
571.05464869764671
 30
0.0
 40
2.0
 50
131.63353933656751
 51
180.0
1001
GENIUS_GENODEF_13
1002
{
1000
HIER
1070
     0
1002
}
1002
{
1000
MANEDIT
1070
     0
1002
}
1002
{
1000
NOSEL
1070
     0
1002
}
1002
{
1000
BEHIND
1070
     0
1002
}
1002
{
1000
OTHER
1070
     0
1002
}
1002
{
1000
REACTOR
1002
}
1001
GENIUS_GENOBJ-N-FIL_13
1002
{
1000
OWNER
1000
GEN
1002
}
  0
ARC
  5
300A
  8
AM_0
 10
73.3820222882362
 20
576.85091295488803
 30
0.0
 40
2.0
 50
311.63353933656748
 51
0.0
1001
GENIUS_GENOBJ-N-FIL_13
1002
{
1000
OWNER
1000
GEN
1002
}
1001
GENIUS_GENODEF_13
1002
{
1000
HIER
1070
     0
1002
}
1002
{
1000
MANEDIT
1070
     0
1002
}
1002
{
1000
NOSEL
1070
     0
1002
}
1002
{
1000
BEHIND
1070
     0
1002
}
1002
{
1000
OTHER
1070
     0
1002
}
1002
{
1000
REACTOR
1002
}
  0
ARC
  5
300B
  8
AM_0
 10
77.3820222882362
 20
581.55278082626762
 30
0.0
 40
2.0
 50
90.0
 51
180.0
1001
GENIUS_GENOBJ-N-FIL_13
1002
{
1000
OWNER
1000
GEN
1002
}
1001
GENIUS_GENODEF_13
1002
{
1000
HIER
1070
     0
1002
}
1002
{
1000
MANEDIT
1070
     0
1002
}
1002
{
1000
NOSEL
1070
     0
1002
}
1002
{
1000
BEHIND
1070
     0
1002
}
1002
{
1000
OTHER
1070
     0
1002
}
1002
{
1000
REACTOR
1002
}
  0
LINE
  5
300C
  8
AM_0
 10
232.3820222882361
 20
583.95278082626737
 30
0.0
 11
232.3820222882361
 21
451.9527808262676
 31
0.0
  0
LINE
  5
300D
  8
AM_0
 10
220.88202228823619
 20
583.95278082626737
 30
0.0
 11
220.88202228823619
 21
451.9527808262676
 31
0.0
  0
LINE
  5
300E
  8
AM_0
 10
220.88202228823619
 20
451.9527808262676
 30
0.0
 11
232.3820222882361
 21
451.9527808262676
 31
0.0
  0
LINE
  5
300F
  8
AM_0
 10
239.38202228823619
 20
454.95278082626737
 30
0.0
 11
232.3820222882361
 21
451.9527808262676
 31
0.0
  0
LINE
  5
3010
  8
AM_0
 10
220.88202228823619
 20
583.95278082626737
 30
0.0
 11
232.3820222882361
 21
583.95278082626737
 31
0.0
  0
LINE
  5
3011
  8
AM_0
 10
232.3820222882361
 20
583.95278082626737
 30
0.0
 11
239.38202228823619
 21
580.9527808262676
 31
0.0
  0
LINE
  5
3012
  8
AM_0
 10
239.38202228823619
 20
580.95278082626714
 30
0.0
 11
239.38202228823619
 21
454.95278082626737
 31
0.0
  0
POINT
  5
3013
  8
0
 10
-46.492216313072213
 20
16.409888566454072
 30
0.0
1001
GENIUS_GENOLIS_13
1002
{
1000
ENT
1005
0
1005
0
1005
0
1005
2FED
1002
}
1001
GENIUS_GENOENT_13
1002
{
1000
MYREF
1005
3013
1002
}
1002
{
1000
GRP
1005
0
1002
}
1001
GENIUS_GENOBJ-NBEHI-BHB_13
1002
{
1000
OWNER
1000
genbehi
1002
}
1001
GENIUS_GENBH_13
1002
{
1000
FGO
1005
0
1002
}
1001
GENIUS_GENODEF_13
1002
{
1000
HIER
1070
     1
1002
}
1002
{
1000
MANEDIT
1070
     1
1002
}
1002
{
1000
NOSEL
1070
     1
1002
}
1002
{
1000
BEHIND
1070
     0
1002
}
1002
{
1000
OTHER
1070
     1
1002
}
1002
{
1000
REACTOR
1002
}
  0
LINE
  5
32AC
  8
AM_0
 10
371.88198228823597
 20
304.38068339581082
 30
0.0
 11
403.88199228823601
 21
304.38068339581082
 31
0.0
  0
LINE
  5
32AD
  8
ﾁｭｳｼﾝｾﾝ1
 10
253.46580228823609
 20
287.38065239581073
 30
0.0
 11
408.82977228823597
 21
287.38065239581073
 31
0.0
  0
LINE
  5
32AE
  8
AM_0
 10
361.88199228823601
 20
273.38065139581067
 30
0.0
 11
403.88199228823601
 21
273.38065139581067
 31
0.0
  0
LINE
  5
32AF
  8
AM_0
 10
361.88199228823601
 20
301.38068339581082
 30
0.0
 11
403.88199228823601
 21
301.38068339581082
 31
0.0
  0
LINE
  5
32B1
  8
AM_0
 10
138.88206228823611
 20
289.18066539581071
 30
0.0
 11
138.88206228823611
 21
245.18066539581079
 31
0.0
  0
LINE
  5
32B2
  8
AM_0
 10
80.882062288236114
 20
289.18066539581071
 30
0.0
 11
80.882062288236114
 21
245.18066539581079
 31
0.0
  0
LINE
  5
32B3
  8
AM_0
 10
59.882062288236071
 20
281.18066539581071
 30
0.0
 11
59.882062288236071
 21
247.18066539581079
 31
0.0
  0
LINE
  5
32B4
  8
AM_0
 10
220.88206228823611
 20
330.18066539581082
 30
0.0
 11
220.882062288236
 21
198.18066539581071
 31
0.0
  0
LINE
  5
32B5
  8
AM_0
 10
232.38206228823611
 20
330.18066539581082
 30
0.0
 11
232.38206228823611
 21
198.18066539581071
 31
0.0
  0
LINE
  5
32B6
  8
AM_0
 10
77.882062288236114
 20
329.78066539581067
 30
0.0
 11
77.882062288236114
 21
198.58066539581071
 31
0.0
  0
LINE
  5
32B7
  8
AM_0
 10
75.38206228823617
 20
327.78066539581079
 30
0.0
 11
75.382062288236028
 21
200.58066539581071
 31
0.0
  0
LINE
  5
32B8
  8
AM_0
 10
70.882062288236071
 20
317.28253326719027
 30
0.0
 11
70.882062288236071
 21
211.07879752443131
 31
0.0
  0
ARC
  5
32B9
  8
AM_0
 10
1010.068186098055
 20
264.18066539581048
 30
0.0
 40
940.68612380981915
 50
176.76392470776159
 51
183.2360752922383
  0
POLYLINE
  5
32BB
  8
AM_0
 66
     1
 10
0.0
 20
0.0
 30
0.0
  0
VERTEX
  5
32BC
  8
AM_0
 10
285.881972288236
 20
196.3806503958107
 30
0.0
 42
0.12791153
  0
VERTEX
  5
32BD
  8
AM_0
 10
291.97608228823589
 20
198.0460673958107
 30
0.0
 42
0.075873116
  0
VERTEX
  5
32BE
  8
AM_0
 10
296.957462288236
 20
202.0049663958107
 30
0.0
 42
0.04391337
  0
VERTEX
  5
32BF
  8
AM_0
 10
300.89823228823599
 20
207.02208239581071
 30
0.0
 42
0.028464649
  0
VERTEX
  5
32C0
  8
AM_0
 10
304.09038228823601
 20
212.5487063958108
 30
0.0
 42
0.020370658
  0
VERTEX
  5
32C1
  8
AM_0
 10
306.73710228823597
 20
218.36105339581081
 30
0.0
 42
0.01565625
  0
VERTEX
  5
32C2
  8
AM_0
 10
308.96214228823601
 20
224.3476703958107
 30
0.0
 42
0.012688908
  0
VERTEX
  5
32C3
  8
AM_0
 10
310.84650228823602
 20
230.45077439581081
 30
0.0
 42
0.010707695
  0
VERTEX
  5
32C4
  8
AM_0
 10
312.44481228823599
 20
236.63619839581071
 30
0.0
 42
0.009324549
  0
VERTEX
  5
32C5
  8
AM_0
 10
313.79475228823611
 20
242.88011639581069
 30
0.0
 42
0.0083349477
  0
VERTEX
  5
32C6
  8
AM_0
 10
314.92413228823602
 20
249.1691183958107
 30
0.0
 42
0.0076122067
  0
VERTEX
  5
32C7
  8
AM_0
 10
315.85281228823601
 20
255.4912913958108
 30
0.0
 42
0.0070829649
  0
VERTEX
  5
32C8
  8
AM_0
 10
316.59555228823598
 20
261.83805239581068
 30
0.0
 42
0.0067007814
  0
VERTEX
  5
32C9
  8
AM_0
 10
317.16333228823601
 20
268.20310139581068
 30
0.0
 42
0.0064353086
  0
VERTEX
  5
32CA
  8
AM_0
 10
317.56386228823601
 20
274.58108939581081
 30
0.0
 42
0.0062673647
  0
VERTEX
  5
32CB
  8
AM_0
 10
317.80242228823602
 20
280.96724039581068
 30
0.0
 42
0.0061857305
  0
VERTEX
  5
32CC
  8
AM_0
 10
317.88198228823597
 20
287.35723439581068
 30
0.0
  0
SEQEND
  5
32CD
  8
AM_0
  0
LINE
  5
32CE
  8
AM_0
 10
258.97146228823601
 20
232.2436733958107
 30
0.0
 11
258.97146228823601
 21
296.11768139581079
 31
0.0
  0
LINE
  5
32CF
  8
AM_0
 10
275.88198228823597
 20
295.3298723958107
 30
0.0
 11
275.88198228823597
 21
204.63667739581081
 31
0.0
  0
LINE
  5
32D0
  8
AM_0
 10
239.38206228823611
 20
201.18066539581071
 30
0.0
 11
239.38206228823611
 21
327.18066539581082
 31
0.0
  0
LINE
  5
32D1
  8
AM_0
 10
268.88199228823612
 20
337.03914839581068
 30
0.0
 11
268.88199228823612
 21
196.3806503958107
 31
0.0
  0
LINE
  5
32D2
  8
AM_0
 10
282.88206228823611
 20
345.1806683958107
 30
0.0
 11
282.88206228823611
 21
217.52351939581081
 31
0.0
  0
LINE
  5
32D3
  8
AM_0
 10
358.88199228823612
 20
259.35481739581081
 30
0.0
 11
358.88199228823612
 21
315.40650839581082
 31
0.0
  0
LINE
  5
32D4
  8
AM_0
 10
343.88199228823612
 20
213.99396239581071
 30
0.0
 11
343.88199228823612
 21
338.71251839581072
 31
0.0
  0
LINE
  5
32D5
  8
AM_0
 10
325.88199228823612
 20
201.38064839581079
 30
0.0
 11
325.88199228823612
 21
308.61396839581067
 31
0.0
  0
LINE
  5
32D6
  8
AM_0
 10
355.88199228823601
 20
198.25363439581071
 30
0.0
 11
355.88199228823601
 21
323.63166839581078
 31
0.0
  0
LINE
  5
32D7
  8
AM_0
 10
361.88199228823601
 20
302.38065239581078
 30
0.0
 11
361.88199228823601
 21
272.38065239581073
 31
0.0
  0
LINE
  5
32D8
  8
AM_0
 10
103.882062288236
 20
230.18066539581071
 30
0.0
 11
126.882062288236
 21
230.18066539581071
 31
0.0
  0
LINE
  5
32D9
  8
AM_0
 10
81.882062288236114
 20
244.18066539581071
 30
0.0
 11
137.88206228823611
 21
244.18066539581071
 31
0.0
  0
LINE
  5
32DA
  8
AM_0
 10
103.882062288236
 20
224.68066539581071
 30
0.0
 11
126.882062288236
 21
224.68066539581071
 31
0.0
  0
LINE
  5
32DB
  8
AM_0
 10
103.882062288236
 20
215.78066539581079
 30
0.0
 11
126.882062288236
 21
215.78066539581079
 31
0.0
  0
LINE
  5
32DC
  8
AM_0
 10
103.882062288236
 20
220.98066539581069
 30
0.0
 11
126.882062288236
 21
220.9806653958108
 31
0.0
  0
LINE
  5
32DD
  8
AM_0
 10
103.882062288236
 20
212.2806653958107
 30
0.0
 11
126.882062288236
 21
212.2806653958107
 31
0.0
  0
LINE
  5
32DE
  8
AM_0
 10
103.882062288236
 20
207.98066539581069
 30
0.0
 11
126.882062288236
 21
207.98066539581069
 31
0.0
  0
LINE
  5
32DF
  8
AM_0
 10
103.882062288236
 20
201.88066539581081
 30
0.0
 11
126.882062288236
 21
201.88066539581081
 31
0.0
  0
LINE
  5
32E0
  8
AM_0
 10
103.882062288236
 20
204.48066539581069
 30
0.0
 11
126.8820622882361
 21
204.48066539581069
 31
0.0
  0
LINE
  5
32E1
  8
AM_0
 10
77.382062288236114
 20
198.58066539581071
 30
0.0
 11
220.882062288236
 21
198.58066539581071
 31
0.0
  0
LINE
  5
32E2
  8
ﾁｭｳｼﾝｾﾝ1
 10
54.567510185799499
 20
264.18066839581081
 30
0.0
 11
263.12977552452912
 21
264.18066839581081
 31
0.0
  0
ARC
  5
32E3
  8
AM_0
 10
109.3820622882361
 20
238.18066539581071
 30
0.0
 40
2.0
 50
270.0
 51
0.0
1001
GENIUS_GENOBJ-N-FIL_13
1002
{
1000
OWNER
1000
GEN
1002
}
1001
GENIUS_GENODEF_13
1002
{
1000
HIER
1070
     0
1002
}
1002
{
1000
MANEDIT
1070
     0
1002
}
1002
{
1000
NOSEL
1070
     0
1002
}
1002
{
1000
BEHIND
1070
     0
1002
}
1002
{
1000
OTHER
1070
     0
1002
}
1002
{
1000
REACTOR
1002
}
  0
LINE
  5
32E4
  8
AM_0
 10
107.3820622882361
 20
236.18066539581071
 30
0.0
 11
107.3820622882361
 21
244.18066539581071
 31
0.0
  0
ARC
  5
32E5
  8
AM_0
 10
97.382062288236142
 20
238.18066539581071
 30
0.0
 40
2.0
 50
180.0
 51
270.0
1001
GENIUS_GENOBJ-N-FIL_13
1002
{
1000
OWNER
1000
GEN
1002
}
1001
GENIUS_GENODEF_13
1002
{
1000
HIER
1070
     0
1002
}
1002
{
1000
MANEDIT
1070
     0
1002
}
1002
{
1000
NOSEL
1070
     0
1002
}
1002
{
1000
BEHIND
1070
     0
1002
}
1002
{
1000
OTHER
1070
     0
1002
}
1002
{
1000
REACTOR
1002
}
  0
LINE
  5
32E6
  8
AM_0
 10
99.382062288236128
 20
236.18066539581071
 30
0.0
 11
99.382062288236128
 21
244.18066539581071
 31
0.0
  0
ARC
  5
32E7
  8
AM_0
 10
72.882062288236028
 20
211.07879752443131
 30
0.0
 40
2.0
 50
180.0
 51
228.36646066343241
1001
GENIUS_GENODEF_13
1002
{
1000
HIER
1070
     0
1002
}
1002
{
1000
MANEDIT
1070
     0
1002
}
1002
{
1000
NOSEL
1070
     0
1002
}
1002
{
1000
BEHIND
1070
     0
1002
}
1002
{
1000
OTHER
1070
     0
1002
}
1002
{
1000
REACTOR
1002
}
1001
GENIUS_GENOBJ-N-FIL_13
1002
{
1000
OWNER
1000
GEN
1002
}
  0
ARC
  5
32E8
  8
AM_0
 10
77.382062288236114
 20
200.58066539581071
 30
0.0
 40
2.0
 50
180.0
 51
270.0
1001
GENIUS_GENOBJ-N-FIL_13
1002
{
1000
OWNER
1000
GEN
1002
}
1001
GENIUS_GENODEF_13
1002
{
1000
HIER
1070
     0
1002
}
1002
{
1000
MANEDIT
1070
     0
1002
}
1002
{
1000
NOSEL
1070
     0
1002
}
1002
{
1000
BEHIND
1070
     0
1002
}
1002
{
1000
OTHER
1070
     0
1002
}
1002
{
1000
REACTOR
1002
}
  0
ARC
  5
32E9
  8
AM_0
 10
73.382062288236028
 20
205.2825332671901
 30
0.0
 40
2.0
 50
0.0
 51
48.36646066343252
1001
GENIUS_GENOBJ-N-FIL_13
1002
{
1000
OWNER
1000
GEN
1002
}
1001
GENIUS_GENODEF_13
1002
{
1000
HIER
1070
     0
1002
}
1002
{
1000
MANEDIT
1070
     0
1002
}
1002
{
1000
NOSEL
1070
     0
1002
}
1002
{
1000
BEHIND
1070
     0
1002
}
1002
{
1000
OTHER
1070
     0
1002
}
1002
{
1000
REACTOR
1002
}
  0
LINE
  5
32EA
  8
AM_0
 10
74.710789965895955
 20
206.77735190455761
 30
0.0
 11
71.553334610576272
 21
209.58397888706381
 31
0.0
  0
LINE
  5
32EB
  8
AM_0
 10
102.882062288236
 20
203.4806653958106
 30
0.0
 11
102.882062288236
 21
202.88066539581069
 31
0.0
  0
ARC
  5
32EC
  8
AM_0
 10
103.882062288236
 20
203.4806653958106
 30
0.0
 40
1.0
 50
90.0
 51
180.0
1001
GENIUS_GENOBJ-N-FIL_13
1002
{
1000
OWNER
1000
GEN
1002
}
1001
GENIUS_GENODEF_13
1002
{
1000
HIER
1070
     0
1002
}
1002
{
1000
MANEDIT
1070
     0
1002
}
1002
{
1000
NOSEL
1070
     0
1002
}
1002
{
1000
BEHIND
1070
     0
1002
}
1002
{
1000
OTHER
1070
     0
1002
}
1002
{
1000
REACTOR
1002
}
  0
ARC
  5
32ED
  8
AM_0
 10
103.882062288236
 20
202.88066539581069
 30
0.0
 40
1.0
 50
180.0
 51
270.0
1001
GENIUS_GENODEF_13
1002
{
1000
HIER
1070
     0
1002
}
1002
{
1000
MANEDIT
1070
     0
1002
}
1002
{
1000
NOSEL
1070
     0
1002
}
1002
{
1000
BEHIND
1070
     0
1002
}
1002
{
1000
OTHER
1070
     0
1002
}
1002
{
1000
REACTOR
1002
}
1001
GENIUS_GENOBJ-N-FIL_13
1002
{
1000
OWNER
1000
GEN
1002
}
  0
LINE
  5
32EE
  8
AM_0
 10
102.882062288236
 20
211.2806653958107
 30
0.0
 11
102.882062288236
 21
208.98066539581069
 31
0.0
  0
ARC
  5
32EF
  8
AM_0
 10
103.882062288236
 20
211.2806653958107
 30
0.0
 40
1.0
 50
90.0
 51
180.0
1001
GENIUS_GENODEF_13
1002
{
1000
HIER
1070
     0
1002
}
1002
{
1000
MANEDIT
1070
     0
1002
}
1002
{
1000
NOSEL
1070
     0
1002
}
1002
{
1000
BEHIND
1070
     0
1002
}
1002
{
1000
OTHER
1070
     0
1002
}
1002
{
1000
REACTOR
1002
}
1001
GENIUS_GENOBJ-N-FIL_13
1002
{
1000
OWNER
1000
GEN
1002
}
  0
ARC
  5
32F0
  8
AM_0
 10
103.882062288236
 20
208.98066539581069
 30
0.0
 40
1.0
 50
180.0
 51
270.0
1001
GENIUS_GENOBJ-N-FIL_13
1002
{
1000
OWNER
1000
GEN
1002
}
1001
GENIUS_GENODEF_13
1002
{
1000
HIER
1070
     0
1002
}
1002
{
1000
MANEDIT
1070
     0
1002
}
1002
{
1000
NOSEL
1070
     0
1002
}
1002
{
1000
BEHIND
1070
     0
1002
}
1002
{
1000
OTHER
1070
     0
1002
}
1002
{
1000
REACTOR
1002
}
  0
LINE
  5
32F1
  8
AM_0
 10
97.382062288236142
 20
236.18066539581071
 30
0.0
 11
109.3820622882361
 21
236.18066539581071
 31
0.0
  0
LINE
  5
32F2
  8
AM_0
 10
102.882062288236
 20
229.18066539581071
 30
0.0
 11
102.882062288236
 21
225.68066539581071
 31
0.0
  0
ARC
  5
32F3
  8
AM_0
 10
103.882062288236
 20
225.68066539581071
 30
0.0
 40
1.0
 50
180.0
 51
270.0
1001
GENIUS_GENODEF_13
1002
{
1000
HIER
1070
     0
1002
}
1002
{
1000
MANEDIT
1070
     0
1002
}
1002
{
1000
NOSEL
1070
     0
1002
}
1002
{
1000
BEHIND
1070
     0
1002
}
1002
{
1000
OTHER
1070
     0
1002
}
1002
{
1000
REACTOR
1002
}
1001
GENIUS_GENOBJ-N-FIL_13
1002
{
1000
OWNER
1000
GEN
1002
}
  0
ARC
  5
32F4
  8
AM_0
 10
103.882062288236
 20
219.9806653958106
 30
0.0
 40
1.0
 50
90.0
 51
180.0
1001
GENIUS_GENODEF_13
1002
{
1000
HIER
1070
     0
1002
}
1002
{
1000
MANEDIT
1070
     0
1002
}
1002
{
1000
NOSEL
1070
     0
1002
}
1002
{
1000
BEHIND
1070
     0
1002
}
1002
{
1000
OTHER
1070
     0
1002
}
1002
{
1000
REACTOR
1002
}
1001
GENIUS_GENOBJ-N-FIL_13
1002
{
1000
OWNER
1000
GEN
1002
}
  0
ARC
  5
32F5
  8
AM_0
 10
103.882062288236
 20
216.7806653958107
 30
0.0
 40
1.0
 50
180.0
 51
270.0
1001
GENIUS_GENOBJ-N-FIL_13
1002
{
1000
OWNER
1000
GEN
1002
}
1001
GENIUS_GENODEF_13
1002
{
1000
HIER
1070
     0
1002
}
1002
{
1000
MANEDIT
1070
     0
1002
}
1002
{
1000
NOSEL
1070
     0
1002
}
1002
{
1000
BEHIND
1070
     0
1002
}
1002
{
1000
OTHER
1070
     0
1002
}
1002
{
1000
REACTOR
1002
}
  0
LINE
  5
32F6
  8
AM_0
 10
102.882062288236
 20
219.9806653958106
 30
0.0
 11
102.882062288236
 21
216.7806653958107
 31
0.0
  0
ARC
  5
32F7
  8
AM_0
 10
103.882062288236
 20
229.18066539581071
 30
0.0
 40
1.0
 50
90.0
 51
180.0
1001
GENIUS_GENODEF_13
1002
{
1000
HIER
1070
     0
1002
}
1002
{
1000
MANEDIT
1070
     0
1002
}
1002
{
1000
NOSEL
1070
     0
1002
}
1002
{
1000
BEHIND
1070
     0
1002
}
1002
{
1000
OTHER
1070
     0
1002
}
1002
{
1000
REACTOR
1002
}
1001
GENIUS_GENOBJ-N-FIL_13
1002
{
1000
OWNER
1000
GEN
1002
}
  0
ARC
  5
32F8
  8
AM_0
 10
62.882062288236057
 20
247.18066539581079
 30
0.0
 40
3.0
 50
180.0
 51
270.0
1001
GENIUS_GENODEF_13
1002
{
1000
HIER
1070
     0
1002
}
1002
{
1000
MANEDIT
1070
     0
1002
}
1002
{
1000
NOSEL
1070
     0
1002
}
1002
{
1000
BEHIND
1070
     0
1002
}
1002
{
1000
OTHER
1070
     0
1002
}
1002
{
1000
REACTOR
1002
}
1001
GENIUS_GENOBJ-N-FIL_13
1002
{
1000
OWNER
1000
GEN
1002
}
  0
LINE
  5
32F9
  8
AM_0
 10
62.882062288236057
 20
244.18066539581071
 30
0.0
 11
69.59469708927827
 21
244.18066539581071
 31
0.0
  0
ARC
  5
32FA
  8
AM_0
 10
81.882062288236114
 20
245.18066539581079
 30
0.0
 40
1.0
 50
180.0
 51
270.0
1001
GENIUS_GENOBJ-N-FIL_13
1002
{
1000
OWNER
1000
GEN
1002
}
1001
GENIUS_GENODEF_13
1002
{
1000
HIER
1070
     0
1002
}
1002
{
1000
MANEDIT
1070
     0
1002
}
1002
{
1000
NOSEL
1070
     0
1002
}
1002
{
1000
BEHIND
1070
     0
1002
}
1002
{
1000
OTHER
1070
     0
1002
}
1002
{
1000
REACTOR
1002
}
  0
LINE
  5
32FB
  8
AM_0N
 10
104.8606574830071
 20
239.92816539581051
 30
0.0
 11
103.6345622882361
 21
239.92816539581051
 31
0.0
  0
LINE
  5
32FC
  8
AM_0N
 10
104.8606574830071
 20
240.43316539581079
 30
0.0
 11
103.6345622882361
 21
240.43316539581079
 31
0.0
  0
CIRCLE
  5
32FD
  8
AM_0N
 10
103.3820622882361
 20
240.18066539581071
 30
0.0
 40
2.799999999999998
  0
LINE
  5
32FE
  8
AM_0
 10
95.382062288236128
 20
238.18066539581071
 30
0.0
 11
95.382062288236128
 21
244.18066539581071
 31
0.0
  0
LINE
  5
32FF
  8
AM_0N
 10
103.1295622882361
 20
241.65926059058179
 30
0.0
 11
103.6345622882361
 21
241.65926059058179
 31
0.0
  0
LINE
  5
3300
  8
AM_0N
 10
103.6345622882361
 20
238.7020702010397
 30
0.0
 11
103.6345622882361
 21
239.92816539581051
 31
0.0
  0
LINE
  5
3301
  8
AM_0N
 10
103.1295622882361
 20
238.7020702010397
 30
0.0
 11
103.1295622882361
 21
239.92816539581051
 31
0.0
  0
LINE
  5
3302
  8
AM_0N
 10
103.1295622882361
 20
238.7020702010397
 30
0.0
 11
103.6345622882361
 21
238.7020702010397
 31
0.0
  0
LINE
  5
3303
  8
AM_0N
 10
103.1295622882361
 20
240.43316539581079
 30
0.0
 11
103.1295622882361
 21
241.65926059058179
 31
0.0
  0
LINE
  5
3304
  8
AM_0N
 10
103.6345622882361
 20
240.43316539581079
 30
0.0
 11
103.6345622882361
 21
241.65926059058179
 31
0.0
  0
LINE
  5
3305
  8
AM_0N
 10
101.903467093465
 20
240.43316539581079
 30
0.0
 11
101.903467093465
 21
239.92816539581051
 31
0.0
  0
LINE
  5
3306
  8
AM_0N
 10
103.1295622882361
 20
239.92816539581051
 30
0.0
 11
101.903467093465
 21
239.92816539581051
 31
0.0
  0
LINE
  5
3307
  8
AM_0N
 10
103.1295622882361
 20
240.43316539581079
 30
0.0
 11
101.903467093465
 21
240.43316539581079
 31
0.0
  0
LINE
  5
3308
  8
AM_0N
 10
104.8606574830071
 20
240.43316539581079
 30
0.0
 11
104.8606574830071
 21
239.92816539581051
 31
0.0
  0
LINE
  5
3309
  8
AM_0
 10
111.3820622882361
 20
238.18066539581071
 30
0.0
 11
111.3820622882361
 21
244.18066539581071
 31
0.0
  0
LINE
  5
330B
  8
AM_0
 10
239.38206228823611
 20
232.2436733958107
 30
0.0
 11
258.97146228823601
 21
232.2436733958107
 31
0.0
  0
LINE
  5
330C
  8
AM_0
 10
239.38206228823611
 20
218.18066939581081
 30
0.0
 11
265.02579228823612
 21
218.18066939581081
 31
0.0
  0
LINE
  5
330D
  8
AM_0
 10
239.38206228823611
 20
208.18065239581071
 30
0.0
 11
257.25090228823609
 21
207.5566583958107
 31
0.0
  0
LINE
  5
330E
  8
AM_0
 10
248.881982288236
 20
181.3806503958107
 30
0.0
 11
275.88198228823597
 21
181.3806503958107
 31
0.0
  0
LINE
  5
330F
  8
AM_0
 10
250.88199228823609
 20
196.3806503958107
 30
0.0
 11
276.3963322882359
 21
196.3806503958107
 31
0.0
  0
LINE
  5
3311
  8
ﾁｭｳｼﾝｾﾝ
 10
128.88206228823611
 20
245.5010366041777
 30
0.0
 11
128.88206228823611
 21
168.90698816911171
 31
0.0
  0
LINE
  5
3312
  8
AM_0
 10
248.881982288236
 20
194.3806643958107
 30
0.0
 11
248.881982288236
 21
181.3806503958107
 31
0.0
  0
CIRCLE
  5
3313
  8
ｽﾝﾎ_ｳｾﾝ
 10
128.88206228823611
 20
173.28585723309911
 30
0.0
 40
1.5050001119999981
  0
ARC
  5
3314
  8
AM_0
 10
128.92250828823609
 20
173.28592233309911
 30
0.0
 40
2.3091486599999991
 50
164.90527199999909
 51
16.267320000001838
  0
ARC
  5
3315
  8
AM_0
 10
125.9270022882362
 20
174.66178241894551
 30
0.0
 40
2.3091486599999991
 50
164.90527199999909
 51
290.87219614688911
  0
ARC
  5
3316
  8
AM_0
 10
131.82813428823599
 20
174.66178241894551
 30
0.0
 40
2.3091486599999991
 50
249.12780385311081
 51
15.094728000000879
  0
LINE
  5
3317
  8
AM_0
 10
133.58312528823609
 20
179.0693485189455
 30
0.0
 11
133.58915228823611
 21
185.3660704189457
 31
0.0
  0
LINE
  5
3318
  8
AM_0
 10
130.5935622882362
 20
183.99277233309911
 30
0.0
 11
130.59954728823601
 21
177.69602103309921
 31
0.0
  0
LINE
  5
3319
  8
AM_0
 10
127.167517288236
 20
177.69348843309911
 30
0.0
 11
127.161490288236
 21
183.99021033309921
 31
0.0
  0
LINE
  5
331A
  8
AM_0
 10
124.17201128823611
 20
179.0693485189455
 30
0.0
 11
124.165984288236
 21
185.3660704189457
 31
0.0
  0
LINE
  5
331B
  8
AM_0
 10
128.88367928823601
 20
177.69124563309919
 30
0.0
 11
130.03945628823621
 21
177.69017673309901
 31
0.0
  0
LINE
  5
331C
  8
AM_0
 10
127.7279232882361
 20
177.69231453309911
 30
0.0
 11
127.16755928823611
 21
177.6934674330991
 31
0.0
  0
LINE
  5
331D
  8
AM_0
 10
127.7279232882361
 20
177.69231453309911
 30
0.0
 11
128.88367928823601
 21
177.69124563309919
 31
0.0
  0
LINE
  5
331E
  8
AM_0
 10
127.043908288236
 20
179.06604731894541
 30
0.0
 11
127.1666047649575
 21
178.64684919503571
 31
0.0
  0
LINE
  5
331F
  8
AM_0
 10
125.888173288236
 20
179.06710571894561
 30
0.0
 11
127.1662036415772
 21
179.06592375508509
 31
0.0
  0
LINE
  5
3320
  8
AM_0
 10
127.4458207729941
 20
177.6928949343916
 30
0.0
 11
127.59212744038361
 21
177.19303151431649
 31
0.0
  0
LINE
  5
3321
  8
AM_0
 10
124.73241728823611
 20
179.06819561894551
 30
0.0
 11
123.6975582882361
 21
175.26315101894551
 31
0.0
  0
LINE
  5
3322
  8
AM_0
 10
124.73241728823611
 20
179.06817461894559
 30
0.0
 11
124.1720532882361
 21
179.06932751894561
 31
0.0
  0
LINE
  5
3323
  8
AM_0
 10
124.73241728823611
 20
179.06817461894559
 30
0.0
 11
125.888173288236
 21
179.06710571894561
 31
0.0
  0
LINE
  5
3324
  8
AM_0
 10
127.7279232882361
 20
177.69233553309911
 30
0.0
 11
126.6930642882361
 21
173.887290933099
 31
0.0
  0
ARC
  5
3325
  8
ｽﾝﾎ_ｳｾﾝ
 10
125.88655628823609
 20
174.66171731894559
 30
0.0
 40
1.5050001119999981
 50
34.081774240383801
 51
298.90870486052683
  0
LINE
  5
3326
  8
AM_0
 10
133.02271928823609
 20
179.06817461894559
 30
0.0
 11
133.583083288236
 21
179.06932751894561
 31
0.0
  0
LINE
  5
3327
  8
AM_0
 10
133.02271928823609
 20
179.06819561894551
 30
0.0
 11
134.0575782882361
 21
175.26315101894551
 31
0.0
  0
LINE
  5
3328
  8
AM_0
 10
130.5995892882359
 20
177.69605253309911
 30
0.0
 11
130.03945628823621
 21
177.69021033309909
 31
0.0
  0
LINE
  5
3329
  8
AM_0
 10
130.7112282882361
 20
179.06604731894541
 30
0.0
 11
130.5885318115146
 21
178.64684919503571
 31
0.0
  0
LINE
  5
332A
  8
AM_0
 10
131.86696328823609
 20
179.06710571894561
 30
0.0
 11
130.5889329348949
 21
179.06592375508509
 31
0.0
  0
LINE
  5
332B
  8
AM_0
 10
130.309315803478
 20
177.6928949343916
 30
0.0
 11
130.1630091360885
 21
177.19303151431649
 31
0.0
  0
LINE
  5
332C
  8
AM_0
 10
130.039414288236
 20
177.6901872330991
 30
0.0
 11
131.13918428823621
 21
173.93277273309911
 31
0.0
  0
ARC
  5
332D
  8
ｽﾝﾎ_ｳｾﾝ
 10
131.86858028823599
 20
174.66171731894559
 30
0.0
 40
1.5050001119999981
 50
241.0912951394732
 51
145.91822575961609
  0
LINE
  5
332E
  8
AM_0
 10
133.02271928823609
 20
179.06817461894559
 30
0.0
 11
131.86696328823609
 21
179.06710571894561
 31
0.0
  0
LINE
  5
332F
  8
AM_0
 10
127.161532288236
 20
183.9902208330991
 30
0.0
 11
130.59360428823609
 21
183.99277233309911
 31
0.0
  0
POLYLINE
  5
3330
  8
AM_4
 66
     1
 10
0.0
 20
0.0
 30
0.0
 70
     4
  0
VERTEX
  5
3331
  8
AM_4
 10
124.882062288236
 20
189.35556503038359
 30
0.0
 70
    16
  0
VERTEX
  5
3332
  8
AM_4
 10
124.882062288236
 20
189.35556503038359
 30
0.0
 70
     8
  0
VERTEX
  5
3333
  8
AM_4
 10
125.9730775126487
 20
189.93735500647111
 30
0.0
 70
     8
  0
VERTEX
  5
3334
  8
AM_4
 10
127.0066144862223
 20
189.9678246090985
 30
0.0
 70
     8
  0
VERTEX
  5
3335
  8
AM_4
 10
127.99841015946051
 20
189.6414695344391
 30
0.0
 70
     8
  0
VERTEX
  5
3336
  8
AM_4
 10
128.9642014828664
 20
189.15278547866541
 30
0.0
 70
     8
  0
VERTEX
  5
3337
  8
AM_4
 10
129.91972540694351
 20
188.6962681379504
 30
0.0
 70
     8
  0
VERTEX
  5
3338
  8
AM_4
 10
130.8807188821952
 20
188.46641320846661
 30
0.0
 70
     8
  0
VERTEX
  5
3339
  8
AM_4
 10
131.8629188591249
 20
188.65771638638711
 30
0.0
 70
     8
  0
VERTEX
  5
333A
  8
AM_4
 10
132.88206228823611
 20
189.46467336788501
 30
0.0
 70
     8
  0
VERTEX
  5
333B
  8
AM_4
 10
127.882062288236
 20
191.81498386116141
 30
0.0
 70
    16
  0
VERTEX
  5
333C
  8
AM_4
 10
130.10110014058361
 20
186.3190312825235
 30
0.0
 70
    16
  0
VERTEX
  5
333D
  8
AM_4
 10
132.882062288236
 20
189.46467336788501
 30
0.0
 70
    16
  0
SEQEND
  5
333E
  8
AM_4
  0
LINE
  5
333F
  8
AM_0
 10
127.59805628823619
 20
185.36863241894551
 30
0.0
 11
127.5993661454692
 21
183.99054633124911
 31
0.0
  0
LINE
  5
3340
  8
AM_0
 10
124.165984288236
 20
185.3660704189457
 30
0.0
 11
127.598057500824
 21
185.3673566689454
 31
0.0
  0
LINE
  5
3341
  8
AM_0
 10
127.882062288236
 20
189.67975435380711
 30
0.0
 11
127.8820622882361
 21
183.990756495607
 31
0.0
  0
LINE
  5
3342
  8
AM_0
 10
126.8820622882361
 20
189.9641526979083
 30
0.0
 11
126.8820622882361
 21
185.3670883329325
 31
0.0
  0
LINE
  5
3343
  8
AM_0
 10
124.8820622882361
 20
189.35556503038359
 30
0.0
 11
124.8820622882361
 21
185.36633878598511
 31
0.0
  0
LINE
  5
3344
  8
AM_0
 10
132.8730742882361
 20
189.45755667641399
 30
0.0
 11
132.87307428823601
 21
185.36633878598511
 31
0.0
  0
LINE
  5
3345
  8
AM_0
 10
130.1570802882359
 20
185.36863241894551
 30
0.0
 11
130.15577043100291
 21
183.99054633124911
 31
0.0
  0
LINE
  5
3346
  8
AM_0
 10
129.88206228823611
 20
188.7142623151363
 30
0.0
 11
129.88206228823611
 21
183.99224335252609
 31
0.0
  0
LINE
  5
3347
  8
AM_0
 10
130.8807188821952
 20
188.46641320846661
 30
0.0
 11
130.87307428823601
 21
185.3670883329325
 31
0.0
  0
LINE
  5
3348
  8
AM_0
 10
133.58915228823611
 20
185.3660704189457
 30
0.0
 11
130.15707907564811
 21
185.3673566689454
 31
0.0
  0
LINE
  5
3349
  8
AM_0
 10
186.882062288236
 20
242.18066539581071
 30
0.0
 11
209.88206228823611
 21
242.18066539581071
 31
0.0
  0
LINE
  5
334A
  8
AM_0
 10
186.882062288236
 20
235.68066539581071
 30
0.0
 11
209.882062288236
 21
235.68066539581071
 31
0.0
  0
LINE
  5
334B
  8
AM_0
 10
186.882062288236
 20
230.18066539581071
 30
0.0
 11
209.882062288236
 21
230.18066539581071
 31
0.0
  0
LINE
  5
334C
  8
AM_0
 10
186.882062288236
 20
224.68066539581071
 30
0.0
 11
209.88206228823611
 21
224.68066539581071
 31
0.0
  0
LINE
  5
334D
  8
AM_0
 10
186.882062288236
 20
220.98066539581069
 30
0.0
 11
209.88206228823611
 21
220.9806653958108
 31
0.0
  0
LINE
  5
334E
  8
AM_0
 10
186.882062288236
 20
215.78066539581079
 30
0.0
 11
209.88206228823611
 21
215.78066539581079
 31
0.0
  0
LINE
  5
334F
  8
AM_0
 10
186.882062288236
 20
212.2806653958107
 30
0.0
 11
209.88206228823611
 21
212.2806653958107
 31
0.0
  0
LINE
  5
3350
  8
AM_0
 10
186.882062288236
 20
207.98066539581069
 30
0.0
 11
209.88206228823611
 21
207.98066539581069
 31
0.0
  0
LINE
  5
3351
  8
AM_0
 10
186.882062288236
 20
204.48066539581069
 30
0.0
 11
209.88206228823611
 21
204.48066539581069
 31
0.0
  0
LINE
  5
3352
  8
AM_0
 10
186.882062288236
 20
201.88066539581081
 30
0.0
 11
209.88206228823611
 21
201.88066539581081
 31
0.0
  0
LINE
  5
3353
  8
AM_0
 10
185.882062288236
 20
241.18066539581079
 30
0.0
 11
185.882062288236
 21
236.68066539581071
 31
0.0
  0
LINE
  5
3354
  8
AM_0
 10
132.88206228823611
 20
244.18066539581071
 30
0.0
 11
132.882062288236
 21
235.28423115039041
 31
0.0
  0
LINE
  5
3355
  8
AM_0
 10
129.88206228823611
 20
244.18066539581071
 30
0.0
 11
129.88206228823611
 21
234.53382009764201
 31
0.0
  0
LINE
  5
3356
  8
AM_0
 10
127.8820622882361
 20
244.18066539581071
 30
0.0
 11
127.8820622882361
 21
235.49931213631271
 31
0.0
  0
LINE
  5
3357
  8
AM_0
 10
124.8820622882361
 20
244.18066539581071
 30
0.0
 11
124.8820622882361
 21
235.17512281288921
 31
0.0
  0
LINE
  5
3358
  8
AM_0
 10
126.8820622882361
 20
244.18066539581071
 30
0.0
 11
126.8820622882361
 21
235.7837104804137
 31
0.0
  0
LINE
  5
3359
  8
AM_0
 10
130.8820622882362
 20
244.18066539581071
 30
0.0
 11
130.8820622882362
 21
234.2862326462876
 31
0.0
  0
ARC
  5
335A
  8
AM_0
 10
126.8820622882361
 20
203.4806653958106
 30
0.0
 40
1.0
 50
0.0
 51
90.0
1001
GENIUS_GENODEF_13
1002
{
1000
HIER
1070
     0
1002
}
1002
{
1000
MANEDIT
1070
     0
1002
}
1002
{
1000
NOSEL
1070
     0
1002
}
1002
{
1000
BEHIND
1070
     0
1002
}
1002
{
1000
OTHER
1070
     0
1002
}
1002
{
1000
REACTOR
1002
}
1001
GENIUS_GENOBJ-N-FIL_13
1002
{
1000
OWNER
1000
GEN
1002
}
  0
LINE
  5
335B
  8
AM_0
 10
127.882062288236
 20
203.4806653958106
 30
0.0
 11
127.882062288236
 21
202.88066539581069
 31
0.0
  0
ARC
  5
335C
  8
AM_0
 10
126.882062288236
 20
202.88066539581069
 30
0.0
 40
1.0
 50
270.0
 51
0.0
1001
GENIUS_GENOBJ-N-FIL_13
1002
{
1000
OWNER
1000
GEN
1002
}
1001
GENIUS_GENODEF_13
1002
{
1000
HIER
1070
     0
1002
}
1002
{
1000
MANEDIT
1070
     0
1002
}
1002
{
1000
NOSEL
1070
     0
1002
}
1002
{
1000
BEHIND
1070
     0
1002
}
1002
{
1000
OTHER
1070
     0
1002
}
1002
{
1000
REACTOR
1002
}
  0
LINE
  5
335D
  8
AM_0
 10
127.882062288236
 20
211.2806653958107
 30
0.0
 11
127.882062288236
 21
208.98066539581069
 31
0.0
  0
ARC
  5
335E
  8
AM_0
 10
126.882062288236
 20
211.2806653958107
 30
0.0
 40
1.0
 50
0.0
 51
90.0
1001
GENIUS_GENODEF_13
1002
{
1000
HIER
1070
     0
1002
}
1002
{
1000
MANEDIT
1070
     0
1002
}
1002
{
1000
NOSEL
1070
     0
1002
}
1002
{
1000
BEHIND
1070
     0
1002
}
1002
{
1000
OTHER
1070
     0
1002
}
1002
{
1000
REACTOR
1002
}
1001
GENIUS_GENOBJ-N-FIL_13
1002
{
1000
OWNER
1000
GEN
1002
}
  0
ARC
  5
335F
  8
AM_0
 10
126.882062288236
 20
208.98066539581069
 30
0.0
 40
1.0
 50
270.0
 51
0.0
1001
GENIUS_GENODEF_13
1002
{
1000
HIER
1070
     0
1002
}
1002
{
1000
MANEDIT
1070
     0
1002
}
1002
{
1000
NOSEL
1070
     0
1002
}
1002
{
1000
BEHIND
1070
     0
1002
}
1002
{
1000
OTHER
1070
     0
1002
}
1002
{
1000
REACTOR
1002
}
1001
GENIUS_GENOBJ-N-FIL_13
1002
{
1000
OWNER
1000
GEN
1002
}
  0
LINE
  5
3360
  8
AM_0
 10
127.882062288236
 20
229.18066539581071
 30
0.0
 11
127.882062288236
 21
225.68066539581071
 31
0.0
  0
ARC
  5
3361
  8
AM_0
 10
126.882062288236
 20
225.68066539581071
 30
0.0
 40
1.0
 50
270.0
 51
0.0
1001
GENIUS_GENODEF_13
1002
{
1000
HIER
1070
     0
1002
}
1002
{
1000
MANEDIT
1070
     0
1002
}
1002
{
1000
NOSEL
1070
     0
1002
}
1002
{
1000
BEHIND
1070
     0
1002
}
1002
{
1000
OTHER
1070
     0
1002
}
1002
{
1000
REACTOR
1002
}
1001
GENIUS_GENOBJ-N-FIL_13
1002
{
1000
OWNER
1000
GEN
1002
}
  0
ARC
  5
3362
  8
AM_0
 10
126.882062288236
 20
219.9806653958108
 30
0.0
 40
1.0
 50
0.0
 51
90.0
1001
GENIUS_GENODEF_13
1002
{
1000
HIER
1070
     0
1002
}
1002
{
1000
MANEDIT
1070
     0
1002
}
1002
{
1000
NOSEL
1070
     0
1002
}
1002
{
1000
BEHIND
1070
     0
1002
}
1002
{
1000
OTHER
1070
     0
1002
}
1002
{
1000
REACTOR
1002
}
1001
GENIUS_GENOBJ-N-FIL_13
1002
{
1000
OWNER
1000
GEN
1002
}
  0
ARC
  5
3363
  8
AM_0
 10
126.882062288236
 20
216.7806653958107
 30
0.0
 40
1.0
 50
270.0
 51
0.0
1001
GENIUS_GENODEF_13
1002
{
1000
HIER
1070
     0
1002
}
1002
{
1000
MANEDIT
1070
     0
1002
}
1002
{
1000
NOSEL
1070
     0
1002
}
1002
{
1000
BEHIND
1070
     0
1002
}
1002
{
1000
OTHER
1070
     0
1002
}
1002
{
1000
REACTOR
1002
}
1001
GENIUS_GENOBJ-N-FIL_13
1002
{
1000
OWNER
1000
GEN
1002
}
  0
LINE
  5
3364
  8
AM_0
 10
127.882062288236
 20
219.9806653958108
 30
0.0
 11
127.882062288236
 21
216.7806653958107
 31
0.0
  0
POLYLINE
  5
3365
  8
AM_4
 66
     1
 10
0.0
 20
0.0
 30
0.0
 70
     4
  0
VERTEX
  5
3366
  8
AM_4
 10
124.8820622882361
 20
235.17512281288921
 30
0.0
 70
    16
  0
VERTEX
  5
3367
  8
AM_4
 10
124.8820622882361
 20
235.17512281288921
 30
0.0
 70
     8
  0
VERTEX
  5
3368
  8
AM_4
 10
125.9730775126488
 20
235.75691278897659
 30
0.0
 70
     8
  0
VERTEX
  5
3369
  8
AM_4
 10
127.0066144862225
 20
235.78738239160421
 30
0.0
 70
     8
  0
VERTEX
  5
336A
  8
AM_4
 10
127.9984101594606
 20
235.46102731694461
 30
0.0
 70
     8
  0
VERTEX
  5
336B
  8
AM_4
 10
128.96420148286651
 20
234.97234326117101
 30
0.0
 70
     8
  0
VERTEX
  5
336C
  8
AM_4
 10
129.9197254069436
 20
234.5158259204558
 30
0.0
 70
     8
  0
VERTEX
  5
336D
  8
AM_4
 10
130.88071888219531
 20
234.28597099097209
 30
0.0
 70
     8
  0
VERTEX
  5
336E
  8
AM_4
 10
131.86291885912499
 20
234.47727416889279
 30
0.0
 70
     8
  0
VERTEX
  5
336F
  8
AM_4
 10
132.8820622882362
 20
235.2842311503905
 30
0.0
 70
     8
  0
VERTEX
  5
3370
  8
AM_4
 10
127.8820622882361
 20
237.63454164366689
 30
0.0
 70
    16
  0
VERTEX
  5
3371
  8
AM_4
 10
130.1011001405837
 20
232.13858906502901
 30
0.0
 70
    16
  0
VERTEX
  5
3372
  8
AM_4
 10
132.88206228823611
 20
235.2842311503905
 30
0.0
 70
    16
  0
SEQEND
  5
3373
  8
AM_4
  0
ARC
  5
3374
  8
AM_0
 10
126.882062288236
 20
229.18066539581071
 30
0.0
 40
1.0
 50
0.0
 51
90.0
1001
GENIUS_GENOBJ-N-FIL_13
1002
{
1000
OWNER
1000
GEN
1002
}
1001
GENIUS_GENODEF_13
1002
{
1000
HIER
1070
     0
1002
}
1002
{
1000
MANEDIT
1070
     0
1002
}
1002
{
1000
NOSEL
1070
     0
1002
}
1002
{
1000
BEHIND
1070
     0
1002
}
1002
{
1000
OTHER
1070
     0
1002
}
1002
{
1000
REACTOR
1002
}
  0
LINE
  5
3375
  8
AM_0
 10
185.882062288236
 20
203.4806653958106
 30
0.0
 11
185.882062288236
 21
202.88066539581069
 31
0.0
  0
ARC
  5
3376
  8
AM_0
 10
186.882062288236
 20
203.4806653958106
 30
0.0
 40
1.0
 50
90.0
 51
180.0
1001
GENIUS_GENOBJ-N-FIL_13
1002
{
1000
OWNER
1000
GEN
1002
}
1001
GENIUS_GENODEF_13
1002
{
1000
HIER
1070
     0
1002
}
1002
{
1000
MANEDIT
1070
     0
1002
}
1002
{
1000
NOSEL
1070
     0
1002
}
1002
{
1000
BEHIND
1070
     0
1002
}
1002
{
1000
OTHER
1070
     0
1002
}
1002
{
1000
REACTOR
1002
}
  0
ARC
  5
3377
  8
AM_0
 10
186.882062288236
 20
202.88066539581069
 30
0.0
 40
1.0
 50
180.0
 51
270.0
1001
GENIUS_GENODEF_13
1002
{
1000
HIER
1070
     0
1002
}
1002
{
1000
MANEDIT
1070
     0
1002
}
1002
{
1000
NOSEL
1070
     0
1002
}
1002
{
1000
BEHIND
1070
     0
1002
}
1002
{
1000
OTHER
1070
     0
1002
}
1002
{
1000
REACTOR
1002
}
1001
GENIUS_GENOBJ-N-FIL_13
1002
{
1000
OWNER
1000
GEN
1002
}
  0
LINE
  5
3378
  8
AM_0
 10
185.882062288236
 20
211.2806653958107
 30
0.0
 11
185.882062288236
 21
208.98066539581069
 31
0.0
  0
ARC
  5
3379
  8
AM_0
 10
186.882062288236
 20
211.2806653958107
 30
0.0
 40
1.0
 50
90.0
 51
180.0
1001
GENIUS_GENODEF_13
1002
{
1000
HIER
1070
     0
1002
}
1002
{
1000
MANEDIT
1070
     0
1002
}
1002
{
1000
NOSEL
1070
     0
1002
}
1002
{
1000
BEHIND
1070
     0
1002
}
1002
{
1000
OTHER
1070
     0
1002
}
1002
{
1000
REACTOR
1002
}
1001
GENIUS_GENOBJ-N-FIL_13
1002
{
1000
OWNER
1000
GEN
1002
}
  0
ARC
  5
337A
  8
AM_0
 10
186.882062288236
 20
208.98066539581069
 30
0.0
 40
1.0
 50
180.0
 51
270.0
1001
GENIUS_GENOBJ-N-FIL_13
1002
{
1000
OWNER
1000
GEN
1002
}
1001
GENIUS_GENODEF_13
1002
{
1000
HIER
1070
     0
1002
}
1002
{
1000
MANEDIT
1070
     0
1002
}
1002
{
1000
NOSEL
1070
     0
1002
}
1002
{
1000
BEHIND
1070
     0
1002
}
1002
{
1000
OTHER
1070
     0
1002
}
1002
{
1000
REACTOR
1002
}
  0
LINE
  5
337B
  8
AM_0
 10
185.882062288236
 20
229.18066539581071
 30
0.0
 11
185.882062288236
 21
225.68066539581071
 31
0.0
  0
ARC
  5
337C
  8
AM_0
 10
186.882062288236
 20
225.68066539581071
 30
0.0
 40
1.0
 50
180.0
 51
270.0
1001
GENIUS_GENODEF_13
1002
{
1000
HIER
1070
     0
1002
}
1002
{
1000
MANEDIT
1070
     0
1002
}
1002
{
1000
NOSEL
1070
     0
1002
}
1002
{
1000
BEHIND
1070
     0
1002
}
1002
{
1000
OTHER
1070
     0
1002
}
1002
{
1000
REACTOR
1002
}
1001
GENIUS_GENOBJ-N-FIL_13
1002
{
1000
OWNER
1000
GEN
1002
}
  0
ARC
  5
337D
  8
AM_0
 10
186.882062288236
 20
219.9806653958106
 30
0.0
 40
1.0
 50
90.0
 51
180.0
1001
GENIUS_GENODEF_13
1002
{
1000
HIER
1070
     0
1002
}
1002
{
1000
MANEDIT
1070
     0
1002
}
1002
{
1000
NOSEL
1070
     0
1002
}
1002
{
1000
BEHIND
1070
     0
1002
}
1002
{
1000
OTHER
1070
     0
1002
}
1002
{
1000
REACTOR
1002
}
1001
GENIUS_GENOBJ-N-FIL_13
1002
{
1000
OWNER
1000
GEN
1002
}
  0
ARC
  5
337E
  8
AM_0
 10
186.882062288236
 20
216.7806653958107
 30
0.0
 40
1.0
 50
180.0
 51
270.0
1001
GENIUS_GENOBJ-N-FIL_13
1002
{
1000
OWNER
1000
GEN
1002
}
1001
GENIUS_GENODEF_13
1002
{
1000
HIER
1070
     0
1002
}
1002
{
1000
MANEDIT
1070
     0
1002
}
1002
{
1000
NOSEL
1070
     0
1002
}
1002
{
1000
BEHIND
1070
     0
1002
}
1002
{
1000
OTHER
1070
     0
1002
}
1002
{
1000
REACTOR
1002
}
  0
LINE
  5
337F
  8
AM_0
 10
185.882062288236
 20
219.9806653958106
 30
0.0
 11
185.882062288236
 21
216.7806653958107
 31
0.0
  0
ARC
  5
3380
  8
AM_0
 10
186.882062288236
 20
236.68066539581071
 30
0.0
 40
1.0
 50
180.0
 51
270.0
1001
GENIUS_GENODEF_13
1002
{
1000
HIER
1070
     0
1002
}
1002
{
1000
MANEDIT
1070
     0
1002
}
1002
{
1000
NOSEL
1070
     0
1002
}
1002
{
1000
BEHIND
1070
     0
1002
}
1002
{
1000
OTHER
1070
     0
1002
}
1002
{
1000
REACTOR
1002
}
1001
GENIUS_GENOBJ-N-FIL_13
1002
{
1000
OWNER
1000
GEN
1002
}
  0
ARC
  5
3381
  8
AM_0
 10
186.882062288236
 20
229.18066539581071
 30
0.0
 40
1.0
 50
90.0
 51
180.0
1001
GENIUS_GENODEF_13
1002
{
1000
HIER
1070
     0
1002
}
1002
{
1000
MANEDIT
1070
     0
1002
}
1002
{
1000
NOSEL
1070
     0
1002
}
1002
{
1000
BEHIND
1070
     0
1002
}
1002
{
1000
OTHER
1070
     0
1002
}
1002
{
1000
REACTOR
1002
}
1001
GENIUS_GENOBJ-N-FIL_13
1002
{
1000
OWNER
1000
GEN
1002
}
  0
ARC
  5
3382
  8
AM_0
 10
137.88206228823611
 20
245.18066539581079
 30
0.0
 40
1.0
 50
270.0
 51
0.0
1001
GENIUS_GENOBJ-N-FIL_13
1002
{
1000
OWNER
1000
GEN
1002
}
1001
GENIUS_GENODEF_13
1002
{
1000
HIER
1070
     0
1002
}
1002
{
1000
MANEDIT
1070
     0
1002
}
1002
{
1000
NOSEL
1070
     0
1002
}
1002
{
1000
BEHIND
1070
     0
1002
}
1002
{
1000
OTHER
1070
     0
1002
}
1002
{
1000
REACTOR
1002
}
  0
ARC
  5
3383
  8
AM_0
 10
186.882062288236
 20
241.18066539581079
 30
0.0
 40
1.0
 50
90.0
 51
180.0
1001
GENIUS_GENOBJ-N-FIL_13
1002
{
1000
OWNER
1000
GEN
1002
}
1001
GENIUS_GENODEF_13
1002
{
1000
HIER
1070
     0
1002
}
1002
{
1000
MANEDIT
1070
     0
1002
}
1002
{
1000
NOSEL
1070
     0
1002
}
1002
{
1000
BEHIND
1070
     0
1002
}
1002
{
1000
OTHER
1070
     0
1002
}
1002
{
1000
REACTOR
1002
}
  0
LINE
  5
3384
  8
AM_0
 10
210.882062288236
 20
241.18066539581079
 30
0.0
 11
210.882062288236
 21
236.68066539581071
 31
0.0
  0
LINE
  5
3385
  8
AM_0
 10
220.88206228823611
 20
198.18066539581071
 30
0.0
 11
232.38206228823611
 21
198.18066539581071
 31
0.0
  0
ARC
  5
3386
  8
AM_0
 10
209.88206228823611
 20
203.4806653958106
 30
0.0
 40
1.0
 50
0.0
 51
90.0
1001
GENIUS_GENODEF_13
1002
{
1000
HIER
1070
     0
1002
}
1002
{
1000
MANEDIT
1070
     0
1002
}
1002
{
1000
NOSEL
1070
     0
1002
}
1002
{
1000
BEHIND
1070
     0
1002
}
1002
{
1000
OTHER
1070
     0
1002
}
1002
{
1000
REACTOR
1002
}
1001
GENIUS_GENOBJ-N-FIL_13
1002
{
1000
OWNER
1000
GEN
1002
}
  0
LINE
  5
3387
  8
AM_0
 10
210.88206228823611
 20
203.4806653958106
 30
0.0
 11
210.88206228823611
 21
202.88066539581069
 31
0.0
  0
ARC
  5
3388
  8
AM_0
 10
209.88206228823611
 20
202.88066539581069
 30
0.0
 40
1.0
 50
270.0
 51
0.0
1001
GENIUS_GENOBJ-N-FIL_13
1002
{
1000
OWNER
1000
GEN
1002
}
1001
GENIUS_GENODEF_13
1002
{
1000
HIER
1070
     0
1002
}
1002
{
1000
MANEDIT
1070
     0
1002
}
1002
{
1000
NOSEL
1070
     0
1002
}
1002
{
1000
BEHIND
1070
     0
1002
}
1002
{
1000
OTHER
1070
     0
1002
}
1002
{
1000
REACTOR
1002
}
  0
ARC
  5
3389
  8
AM_0
 10
209.88206228823611
 20
211.2806653958107
 30
0.0
 40
1.0
 50
0.0
 51
90.0
1001
GENIUS_GENODEF_13
1002
{
1000
HIER
1070
     0
1002
}
1002
{
1000
MANEDIT
1070
     0
1002
}
1002
{
1000
NOSEL
1070
     0
1002
}
1002
{
1000
BEHIND
1070
     0
1002
}
1002
{
1000
OTHER
1070
     0
1002
}
1002
{
1000
REACTOR
1002
}
1001
GENIUS_GENOBJ-N-FIL_13
1002
{
1000
OWNER
1000
GEN
1002
}
  0
LINE
  5
338A
  8
AM_0
 10
210.88206228823611
 20
211.2806653958107
 30
0.0
 11
210.88206228823611
 21
208.98066539581069
 31
0.0
  0
ARC
  5
338B
  8
AM_0
 10
209.88206228823611
 20
208.98066539581069
 30
0.0
 40
1.0
 50
270.0
 51
0.0
1001
GENIUS_GENODEF_13
1002
{
1000
HIER
1070
     0
1002
}
1002
{
1000
MANEDIT
1070
     0
1002
}
1002
{
1000
NOSEL
1070
     0
1002
}
1002
{
1000
BEHIND
1070
     0
1002
}
1002
{
1000
OTHER
1070
     0
1002
}
1002
{
1000
REACTOR
1002
}
1001
GENIUS_GENOBJ-N-FIL_13
1002
{
1000
OWNER
1000
GEN
1002
}
  0
LINE
  5
338C
  8
AM_0
 10
210.882062288236
 20
229.18066539581071
 30
0.0
 11
210.882062288236
 21
225.68066539581071
 31
0.0
  0
ARC
  5
338D
  8
AM_0
 10
209.88206228823611
 20
225.68066539581071
 30
0.0
 40
1.0
 50
270.0
 51
0.0
1001
GENIUS_GENODEF_13
1002
{
1000
HIER
1070
     0
1002
}
1002
{
1000
MANEDIT
1070
     0
1002
}
1002
{
1000
NOSEL
1070
     0
1002
}
1002
{
1000
BEHIND
1070
     0
1002
}
1002
{
1000
OTHER
1070
     0
1002
}
1002
{
1000
REACTOR
1002
}
1001
GENIUS_GENOBJ-N-FIL_13
1002
{
1000
OWNER
1000
GEN
1002
}
  0
ARC
  5
338E
  8
AM_0
 10
209.88206228823611
 20
219.9806653958108
 30
0.0
 40
1.0
 50
0.0
 51
90.0
1001
GENIUS_GENODEF_13
1002
{
1000
HIER
1070
     0
1002
}
1002
{
1000
MANEDIT
1070
     0
1002
}
1002
{
1000
NOSEL
1070
     0
1002
}
1002
{
1000
BEHIND
1070
     0
1002
}
1002
{
1000
OTHER
1070
     0
1002
}
1002
{
1000
REACTOR
1002
}
1001
GENIUS_GENOBJ-N-FIL_13
1002
{
1000
OWNER
1000
GEN
1002
}
  0
ARC
  5
338F
  8
AM_0
 10
209.88206228823611
 20
216.7806653958107
 30
0.0
 40
1.0
 50
270.0
 51
0.0
1001
GENIUS_GENODEF_13
1002
{
1000
HIER
1070
     0
1002
}
1002
{
1000
MANEDIT
1070
     0
1002
}
1002
{
1000
NOSEL
1070
     0
1002
}
1002
{
1000
BEHIND
1070
     0
1002
}
1002
{
1000
OTHER
1070
     0
1002
}
1002
{
1000
REACTOR
1002
}
1001
GENIUS_GENOBJ-N-FIL_13
1002
{
1000
OWNER
1000
GEN
1002
}
  0
LINE
  5
3390
  8
AM_0
 10
210.882062288236
 20
219.9806653958108
 30
0.0
 11
210.88206228823611
 21
216.7806653958107
 31
0.0
  0
ARC
  5
3391
  8
AM_0
 10
209.882062288236
 20
236.68066539581071
 30
0.0
 40
1.0
 50
270.0
 51
0.0
1001
GENIUS_GENODEF_13
1002
{
1000
HIER
1070
     0
1002
}
1002
{
1000
MANEDIT
1070
     0
1002
}
1002
{
1000
NOSEL
1070
     0
1002
}
1002
{
1000
BEHIND
1070
     0
1002
}
1002
{
1000
OTHER
1070
     0
1002
}
1002
{
1000
REACTOR
1002
}
1001
GENIUS_GENOBJ-N-FIL_13
1002
{
1000
OWNER
1000
GEN
1002
}
  0
ARC
  5
3392
  8
AM_0
 10
209.882062288236
 20
229.18066539581071
 30
0.0
 40
1.0
 50
0.0
 51
90.0
1001
GENIUS_GENOBJ-N-FIL_13
1002
{
1000
OWNER
1000
GEN
1002
}
1001
GENIUS_GENODEF_13
1002
{
1000
HIER
1070
     0
1002
}
1002
{
1000
MANEDIT
1070
     0
1002
}
1002
{
1000
NOSEL
1070
     0
1002
}
1002
{
1000
BEHIND
1070
     0
1002
}
1002
{
1000
OTHER
1070
     0
1002
}
1002
{
1000
REACTOR
1002
}
  0
LINE
  5
3393
  8
AM_0
 10
239.38206228823611
 20
201.18066539581071
 30
0.0
 11
232.38206228823611
 21
198.18066539581071
 31
0.0
  0
ARC
  5
3394
  8
AM_0
 10
250.88199228823609
 20
194.3806643958107
 30
0.0
 40
2.00000007
 50
90.00000299999769
 51
180.00001000000091
  0
ARC
  5
3395
  8
AM_0
 10
209.88206228823611
 20
241.18066539581079
 30
0.0
 40
1.0
 50
0.0
 51
90.0
1001
GENIUS_GENOBJ-N-FIL_13
1002
{
1000
OWNER
1000
GEN
1002
}
1001
GENIUS_GENODEF_13
1002
{
1000
HIER
1070
     0
1002
}
1002
{
1000
MANEDIT
1070
     0
1002
}
1002
{
1000
NOSEL
1070
     0
1002
}
1002
{
1000
BEHIND
1070
     0
1002
}
1002
{
1000
OTHER
1070
     0
1002
}
1002
{
1000
REACTOR
1002
}
  0
LINE
  5
3396
  8
ﾁｭｳｼﾝｾﾝ1
 10
263.88198228823597
 20
201.3806633958107
 30
0.0
 11
263.88198228823597
 21
176.38064939581071
 31
0.0
  0
LINE
  5
3397
  8
ﾁｭｳｼﾝｾﾝ1
 10
343.88196228823591
 20
201.3806633958107
 30
0.0
 11
343.88196228823591
 21
176.38064939581071
 31
0.0
  0
LINE
  5
3398
  8
ｶｸﾚｾﾝ2
 10
337.88199228823612
 20
196.3806503958107
 30
0.0
 11
337.88199228823612
 21
181.3806503958107
 31
0.0
  0
LINE
  5
3399
  8
ｶｸﾚｾﾝ2
 10
269.88198228823597
 20
196.3806503958107
 30
0.0
 11
269.88198228823597
 21
181.3806503958107
 31
0.0
  0
LINE
  5
339A
  8
ｶｸﾚｾﾝ2
 10
257.88198228823597
 20
196.3806503958107
 30
0.0
 11
257.88198228823597
 21
181.3806503958107
 31
0.0
  0
LINE
  5
339B
  8
ｶｸﾚｾﾝ2
 10
349.88199228823612
 20
196.3806503958107
 30
0.0
 11
349.88199228823612
 21
181.3806503958107
 31
0.0
  0
LINE
  5
339C
  8
AM_0
 10
358.88199228823612
 20
194.3806643958107
 30
0.0
 11
358.88199228823612
 21
181.3806503958107
 31
0.0
  0
LINE
  5
339E
  8
AM_0
 10
276.88206228823611
 20
182.38064939581071
 30
0.0
 11
330.88203228823602
 21
182.38064939581071
 31
0.0
  0
ARC
  5
339F
  8
AM_0
 10
276.88206228823611
 20
181.3806503958107
 30
0.0
 40
1.0000000199999981
 50
90.00000299999769
 51
180.00001000000091
  0
LINE
  5
33A0
  8
AM_0
 10
275.88198228823597
 20
181.3806503958107
 30
0.0
 11
275.88198228823597
 21
181.3806503958107
 31
0.0
  0
LINE
  5
33A1
  8
AM_0
 10
331.88199228823612
 20
181.3806503958107
 30
0.0
 11
358.88199228823612
 21
181.3806503958107
 31
0.0
  0
ARC
  5
33A2
  8
AM_0
 10
330.88203228823602
 20
181.3806503958107
 30
0.0
 40
1.0000000199999981
 50
0.0
 51
90.00000299999769
  0
LINE
  5
33A3
  8
AM_0
 10
331.88199228823612
 20
181.3806503958107
 30
0.0
 11
331.88199228823612
 21
181.3806503958107
 31
0.0
  0
LINE
  5
33A4
  8
AM_0
 10
285.882062288236
 20
233.84947739581079
 30
0.0
 11
285.882062288236
 21
269.16931739581082
 31
0.0
  0
LINE
  5
33A5
  8
AM_0
 10
258.97146228823601
 20
207.49657139581069
 30
0.0
 11
258.97146228823601
 21
218.18066939581081
 31
0.0
  0
LINE
  5
33A6
  8
AM_0
 10
285.79482228823599
 20
232.9200023958108
 30
0.0
 11
279.344102288236
 21
198.8229713958107
 31
0.0
  0
LINE
  5
33A7
  8
AM_0
 10
270.88206228823611
 20
202.63667639581081
 30
0.0
 11
273.88206228823611
 21
202.63667639581081
 31
0.0
  0
LINE
  5
33A8
  8
AM_0
 10
260.290382288236
 20
206.3899283958107
 30
0.0
 11
267.095972288236
 21
200.6793413958107
 31
0.0
  0
ARC
  5
33A9
  8
AM_0
 10
270.88206228823611
 20
200.63669339581079
 30
0.0
 40
2.00000007
 50
90.00000299999769
 51
180.00001000000091
  0
ARC
  5
33AA
  8
AM_0
 10
263.88198228823597
 20
196.84912439581069
 30
0.0
 40
5.0000001000000003
 50
0.0
 51
49.999999999997392
  0
ARC
  5
33AB
  8
AM_0
 10
257.07639228823609
 20
202.55971139581069
 30
0.0
 40
5.0000001000000003
 50
49.999999999997392
 51
88.000000000002899
  0
ARC
  5
33AC
  8
AM_0
 10
276.3963322882359
 20
199.3806503958107
 30
0.0
 40
3.0
 50
270.0
 51
349.28687999999892
  0
ARC
  5
33AD
  8
AM_0
 10
273.88206228823611
 20
204.63667739581081
 30
0.0
 40
2.00000007
 50
270.0
 51
0.0
  0
LINE
  5
33AE
  8
AM_0
 10
258.97146228823601
 20
232.24364039581079
 30
0.0
 11
266.660612288236
 21
221.33273639581071
 31
0.0
  0
ARC
  5
33AF
  8
AM_0
 10
265.02579228823612
 20
220.18065239581071
 30
0.0
 40
2.00000007
 50
270.0
 51
35.173271000000142
  0
ARC
  5
33B0
  8
AM_0
 10
280.88199228823601
 20
233.84947739581079
 30
0.0
 40
5.0000001000000003
 50
349.28687999999892
 51
0.0
  0
LINE
  5
33B1
  8
AM_0
 10
330.88203228823602
 20
196.3806503958107
 30
0.0
 11
356.88198228823597
 21
196.3806503958107
 31
0.0
  0
LINE
  5
33B2
  8
AM_0
 10
325.88199228823612
 20
208.9939463958107
 30
0.0
 11
338.88198228823597
 21
208.9939463958107
 31
0.0
  0
ARC
  5
33B3
  8
AM_0
 10
330.88203228823602
 20
201.38064839581079
 30
0.0
 40
5.0000001000000003
 50
179.999989999999
 51
270.0
  0
ARC
  5
33B4
  8
AM_0
 10
338.88198228823597
 20
213.99396239581071
 30
0.0
 40
5.0000001000000003
 50
270.0
 51
0.0
  0
ARC
  5
33B5
  8
AM_0
 10
357.88203228823602
 20
198.25363439581071
 30
0.0
 40
2.00000007
 50
179.999989999999
 51
255.52248999999699
  0
ARC
  5
33B6
  8
AM_0
 10
356.88198228823597
 20
194.3806643958107
 30
0.0
 40
2.00000007
 50
0.0
 51
90.00000299999769
  0
ARC
  5
33B7
  8
AM_0
 10
357.88203228823602
 20
259.35481739581081
 30
0.0
 40
1.0000000199999981
 50
271.50000000000267
 51
0.0
  0
ARC
  5
33B8
  8
AM_0
 10
356.88198228823597
 20
257.32793339581082
 30
0.0
 40
1.0000000199999981
 50
91.500001000001546
 51
180.00001000000091
  0
LINE
  5
33B9
  8
AM_0
 10
356.85582228823608
 20
258.3275963958107
 30
0.0
 11
357.90819228823608
 21
258.3551543958107
 31
0.0
  0
LINE
  5
33BA
  8
AM_0
 10
358.88199228823612
 20
272.38065239581073
 30
0.0
 11
361.88199228823601
 21
272.38065239581073
 31
0.0
  0
LINE
  5
33BB
  8
AM_0
 10
77.38206228823617
 20
329.7806653958109
 30
0.0
 11
220.88206228823611
 21
329.78066539581067
 31
0.0
  0
LINE
  5
33BC
  8
AM_0
 10
81.882062288236114
 20
290.18066539581082
 30
0.0
 11
137.88206228823611
 21
290.18066539581082
 31
0.0
1001
GENIUS_GENOREF_13
1005
346E
  0
ARC
  5
33BE
  8
AM_0
 10
62.882062288236057
 20
281.18066539581071
 30
0.0
 40
3.0
 50
90.0
 51
180.0
1001
GENIUS_GENOBJ-N-FIL_13
1002
{
1000
OWNER
1000
GEN
1002
}
1001
GENIUS_GENODEF_13
1002
{
1000
HIER
1070
     0
1002
}
1002
{
1000
MANEDIT
1070
     0
1002
}
1002
{
1000
NOSEL
1070
     0
1002
}
1002
{
1000
BEHIND
1070
     0
1002
}
1002
{
1000
OTHER
1070
     0
1002
}
1002
{
1000
REACTOR
1002
}
  0
LINE
  5
33BF
  8
AM_0
 10
62.882062288236057
 20
284.18066539581082
 30
0.0
 11
69.59469708927827
 21
284.18066539581082
 31
0.0
  0
ARC
  5
33C0
  8
AM_0
 10
81.882062288236114
 20
289.18066539581071
 30
0.0
 40
1.0
 50
90.0
 51
180.0
1001
GENIUS_GENODEF_13
1002
{
1000
HIER
1070
     0
1002
}
1002
{
1000
MANEDIT
1070
     0
1002
}
1002
{
1000
NOSEL
1070
     0
1002
}
1002
{
1000
BEHIND
1070
     0
1002
}
1002
{
1000
OTHER
1070
     0
1002
}
1002
{
1000
REACTOR
1002
}
1001
GENIUS_GENOBJ-N-FIL_13
1002
{
1000
OWNER
1000
GEN
1002
}
  0
ARC
  5
33C1
  8
AM_0
 10
72.882062288236028
 20
317.28253326719027
 30
0.0
 40
2.0
 50
131.63353933656751
 51
180.0
1001
GENIUS_GENODEF_13
1002
{
1000
HIER
1070
     0
1002
}
1002
{
1000
MANEDIT
1070
     0
1002
}
1002
{
1000
NOSEL
1070
     0
1002
}
1002
{
1000
BEHIND
1070
     0
1002
}
1002
{
1000
OTHER
1070
     0
1002
}
1002
{
1000
REACTOR
1002
}
1001
GENIUS_GENOBJ-N-FIL_13
1002
{
1000
OWNER
1000
GEN
1002
}
  0
LINE
  5
33C2
  8
AM_0
 10
74.710789965895955
 20
321.58397888706378
 30
0.0
 11
71.553334610576272
 21
318.77735190455758
 31
0.0
  0
ARC
  5
33C3
  8
AM_0
 10
73.382062288236028
 20
323.07879752443131
 30
0.0
 40
2.0
 50
311.63353933656748
 51
0.0
1001
GENIUS_GENOBJ-N-FIL_13
1002
{
1000
OWNER
1000
GEN
1002
}
1001
GENIUS_GENODEF_13
1002
{
1000
HIER
1070
     0
1002
}
1002
{
1000
MANEDIT
1070
     0
1002
}
1002
{
1000
NOSEL
1070
     0
1002
}
1002
{
1000
BEHIND
1070
     0
1002
}
1002
{
1000
OTHER
1070
     0
1002
}
1002
{
1000
REACTOR
1002
}
  0
LINE
  5
33C4
  8
AM_0N
 10
104.8606574830071
 20
293.92816539581048
 30
0.0
 11
103.6345622882361
 21
293.92816539581048
 31
0.0
1001
GENIUS_GENOREF_13
1005
0
  0
LINE
  5
33C5
  8
AM_0N
 10
104.8606574830071
 20
294.43316539581082
 30
0.0
 11
103.6345622882361
 21
294.43316539581082
 31
0.0
1001
GENIUS_GENOREF_13
1005
0
  0
LINE
  5
33C6
  8
AM_0
 10
97.382062288236142
 20
298.18066539581082
 30
0.0
 11
109.3820622882361
 21
298.18066539581082
 31
0.0
1001
GENIUS_GENOREF_13
1005
346E
  0
CIRCLE
  5
33C7
  8
AM_0N
 10
103.3820622882361
 20
294.18066539581082
 30
0.0
 40
2.799999999999998
1001
GENIUS_GENOREF_13
1005
0
  0
LINE
  5
33C8
  8
AM_0
 10
95.382062288236128
 20
296.18066539581082
 30
0.0
 11
95.382062288236128
 21
290.18066539581082
 31
0.0
  0
LINE
  5
33C9
  8
AM_0
 10
99.382062288236128
 20
298.18066539581082
 30
0.0
 11
99.382062288236128
 21
290.18066539581082
 31
0.0
  0
ARC
  5
33CA
  8
AM_0
 10
97.382062288236142
 20
296.18066539581082
 30
0.0
 40
2.0
 50
90.0
 51
180.0
1001
GENIUS_GENOBJ-N-FIL_13
1002
{
1000
OWNER
1000
GEN
1002
}
1001
GENIUS_GENODEF_13
1002
{
1000
HIER
1070
     0
1002
}
1002
{
1000
MANEDIT
1070
     0
1002
}
1002
{
1000
NOSEL
1070
     0
1002
}
1002
{
1000
BEHIND
1070
     0
1002
}
1002
{
1000
OTHER
1070
     0
1002
}
1002
{
1000
REACTOR
1002
}
  0
LINE
  5
33CB
  8
AM_0N
 10
103.1295622882361
 20
295.65926059058182
 30
0.0
 11
103.6345622882361
 21
295.65926059058182
 31
0.0
1001
GENIUS_GENOREF_13
1005
0
  0
LINE
  5
33CC
  8
AM_0N
 10
103.1295622882361
 20
292.7020702010397
 30
0.0
 11
103.6345622882361
 21
292.7020702010397
 31
0.0
1001
GENIUS_GENOREF_13
1005
0
  0
LINE
  5
33CD
  8
AM_0N
 10
103.6345622882361
 20
293.92816539581048
 30
0.0
 11
103.6345622882361
 21
292.7020702010397
 31
0.0
1001
GENIUS_GENOREF_13
1005
0
  0
LINE
  5
33CE
  8
AM_0N
 10
103.1295622882361
 20
293.92816539581048
 30
0.0
 11
103.1295622882361
 21
292.7020702010397
 31
0.0
1001
GENIUS_GENOREF_13
1005
0
  0
LINE
  5
33CF
  8
AM_0N
 10
103.1295622882361
 20
295.65926059058182
 30
0.0
 11
103.1295622882361
 21
294.43316539581082
 31
0.0
1001
GENIUS_GENOREF_13
1005
0
  0
LINE
  5
33D0
  8
AM_0N
 10
103.6345622882361
 20
295.65926059058182
 30
0.0
 11
103.6345622882361
 21
294.43316539581082
 31
0.0
1001
GENIUS_GENOREF_13
1005
0
  0
LINE
  5
33D1
  8
AM_0N
 10
101.903467093465
 20
293.92816539581048
 30
0.0
 11
101.903467093465
 21
294.43316539581082
 31
0.0
1001
GENIUS_GENOREF_13
1005
0
  0
LINE
  5
33D2
  8
AM_0N
 10
103.1295622882361
 20
293.92816539581048
 30
0.0
 11
101.903467093465
 21
293.92816539581048
 31
0.0
1001
GENIUS_GENOREF_13
1005
0
  0
LINE
  5
33D3
  8
AM_0N
 10
103.1295622882361
 20
294.43316539581082
 30
0.0
 11
101.903467093465
 21
294.43316539581082
 31
0.0
1001
GENIUS_GENOREF_13
1005
0
  0
LINE
  5
33D4
  8
AM_0
 10
111.3820622882361
 20
296.18066539581082
 30
0.0
 11
111.3820622882361
 21
290.18066539581082
 31
0.0
  0
LINE
  5
33D5
  8
AM_0
 10
107.3820622882361
 20
298.18066539581082
 30
0.0
 11
107.3820622882361
 21
290.18066539581082
 31
0.0
  0
ARC
  5
33D6
  8
AM_0
 10
109.3820622882361
 20
296.18066539581082
 30
0.0
 40
2.0
 50
0.0
 51
90.0
1001
GENIUS_GENOBJ-N-FIL_13
1002
{
1000
OWNER
1000
GEN
1002
}
1001
GENIUS_GENODEF_13
1002
{
1000
HIER
1070
     0
1002
}
1002
{
1000
MANEDIT
1070
     0
1002
}
1002
{
1000
NOSEL
1070
     0
1002
}
1002
{
1000
BEHIND
1070
     0
1002
}
1002
{
1000
OTHER
1070
     0
1002
}
1002
{
1000
REACTOR
1002
}
  0
LINE
  5
33D7
  8
AM_0N
 10
104.8606574830071
 20
293.92816539581048
 30
0.0
 11
104.8606574830071
 21
294.43316539581082
 31
0.0
1001
GENIUS_GENOREF_13
1005
0
  0
ARC
  5
33D8
  8
AM_0
 10
77.38206228823617
 20
327.78066539581079
 30
0.0
 40
2.0
 50
90.0
 51
180.0
1001
GENIUS_GENOBJ-N-FIL_13
1002
{
1000
OWNER
1000
GEN
1002
}
1001
GENIUS_GENODEF_13
1002
{
1000
HIER
1070
     0
1002
}
1002
{
1000
MANEDIT
1070
     0
1002
}
1002
{
1000
NOSEL
1070
     0
1002
}
1002
{
1000
BEHIND
1070
     0
1002
}
1002
{
1000
OTHER
1070
     0
1002
}
1002
{
1000
REACTOR
1002
}
  0
LINE
  5
33D9
  8
AM_0
 10
239.38206228823611
 20
296.11768139581079
 30
0.0
 11
258.97146228823601
 21
296.11768139581079
 31
0.0
  0
LINE
  5
33DA
  8
AM_0
 10
239.38206228823611
 20
310.18065839581072
 30
0.0
 11
265.02579228823612
 21
310.18065839581072
 31
0.0
  0
LINE
  5
33DB
  8
AM_0
 10
239.38200228823601
 20
320.18067839581067
 30
0.0
 11
257.25090228823609
 21
320.80467839581081
 31
0.0
  0
ARC
  5
33DC
  8
AM_0
 10
137.88206228823611
 20
289.18066539581071
 30
0.0
 40
1.0
 50
0.0
 51
90.0
1001
GENIUS_GENODEF_13
1002
{
1000
HIER
1070
     0
1002
}
1002
{
1000
MANEDIT
1070
     0
1002
}
1002
{
1000
NOSEL
1070
     0
1002
}
1002
{
1000
BEHIND
1070
     0
1002
}
1002
{
1000
OTHER
1070
     0
1002
}
1002
{
1000
REACTOR
1002
}
1001
GENIUS_GENOBJ-N-FIL_13
1002
{
1000
OWNER
1000
GEN
1002
}
  0
LINE
  5
33DD
  8
AM_0
 10
220.882062288236
 20
330.18066539581082
 30
0.0
 11
232.38206228823611
 21
330.18066539581082
 31
0.0
  0
LINE
  5
33DE
  8
AM_0
 10
232.38206228823611
 20
330.18066539581082
 30
0.0
 11
239.38206228823611
 21
327.18066539581082
 31
0.0
  0
LINE
  5
33DF
  8
AM_0
 10
282.88206228823611
 20
345.1806683958107
 30
0.0
 11
339.01290228823598
 21
343.71084839581067
 31
0.0
  0
POLYLINE
  5
33E0
  8
AM_0
 66
     1
 10
0.0
 20
0.0
 30
0.0
  0
VERTEX
  5
33E1
  8
AM_0
 10
317.88198228823597
 20
304.68066839581081
 30
0.0
 42
0.029628731
  0
VERTEX
  5
33E2
  8
AM_0
 10
317.69034228823602
 20
307.90995839581069
 30
0.0
 42
0.029327543
  0
VERTEX
  5
33E3
  8
AM_0
 10
317.12067228823588
 20
311.09088839581068
 30
0.0
 42
0.028837186
  0
VERTEX
  5
33E4
  8
AM_0
 10
316.18479228823611
 20
314.1866183958108
 30
0.0
 42
0.028139479
  0
VERTEX
  5
33E5
  8
AM_0
 10
314.90241228823601
 20
317.15715839581082
 30
0.0
 42
0.027280614
  0
VERTEX
  5
33E6
  8
AM_0
 10
313.29993228823611
 20
319.96656839581073
 30
0.0
 42
0.026363464
  0
VERTEX
  5
33E7
  8
AM_0
 10
311.40531228823602
 20
322.58898839581082
 30
0.0
 42
0.025439158
  0
VERTEX
  5
33E8
  8
AM_0
 10
309.24774228823611
 20
325.00359839581068
 30
0.0
 42
0.024503424
  0
VERTEX
  5
33E9
  8
AM_0
 10
306.86133228823599
 20
327.19011839581083
 30
0.0
 42
0.023638789
  0
VERTEX
  5
33EA
  8
AM_0
 10
304.27578228823597
 20
329.1372383958107
 30
0.0
 42
0.022857682
  0
VERTEX
  5
33EB
  8
AM_0
 10
301.52052228823612
 20
330.83604839581068
 30
0.0
 42
0.022175457
  0
VERTEX
  5
33EC
  8
AM_0
 10
298.62345228823602
 20
332.28036839581068
 30
0.0
 42
0.021601125
  0
VERTEX
  5
33ED
  8
AM_0
 10
295.61103228823612
 20
333.46605839581082
 30
0.0
 42
0.021139333
  0
VERTEX
  5
33EE
  8
AM_0
 10
292.50819228823599
 20
334.3904183958108
 30
0.0
 42
0.020791974
  0
VERTEX
  5
33EF
  8
AM_0
 10
289.33878228823602
 20
335.05176839581083
 30
0.0
 42
0.020559394
  0
VERTEX
  5
33F0
  8
AM_0
 10
286.12566228823607
 20
335.4491783958108
 30
0.0
 42
0.020441745
  0
VERTEX
  5
33F1
  8
AM_0
 10
282.89103228823598
 20
335.58216839581081
 30
0.0
  0
SEQEND
  5
33F2
  8
AM_0
  0
LINE
  5
33F3
  8
AM_0
 10
275.88198228823597
 20
343.00485839581069
 30
0.0
 11
275.88198228823597
 21
320.5147583958107
 31
0.0
  0
LINE
  5
33F4
  8
AM_0
 10
260.29032228823598
 20
321.97140839581073
 30
0.0
 11
267.09591228823609
 21
327.68199839581069
 31
0.0
  0
POLYLINE
  5
33F5
  8
AM_0
 66
     1
 10
0.0
 20
0.0
 30
0.0
  0
VERTEX
  5
33F6
  8
AM_0
 10
315.96102228823599
 20
306.55940339581082
 30
0.0
 42
0.032705737
  0
VERTEX
  5
33F7
  8
AM_0
 10
314.01489228823613
 20
307.3079183958107
 30
0.0
 42
0.016814103
  0
VERTEX
  5
33F8
  8
AM_0
 10
312.00408228823602
 20
307.87011839581072
 30
0.0
 42
0.010836057
  0
VERTEX
  5
33F9
  8
AM_0
 10
309.96465228823598
 20
308.32296839581068
 30
0.0
 42
0.007863161
  0
VERTEX
  5
33FA
  8
AM_0
 10
307.91028228823598
 20
308.70006839581072
 30
0.0
 42
0.0061455438
  0
VERTEX
  5
33FB
  8
AM_0
 10
305.84601228823601
 20
309.01995839581082
 30
0.0
 42
0.0050541015
  0
VERTEX
  5
33FC
  8
AM_0
 10
303.77439228823607
 20
309.29385839581079
 30
0.0
 42
0.0043145835
  0
VERTEX
  5
33FD
  8
AM_0
 10
301.69662228823597
 20
309.52920839581071
 30
0.0
 42
0.0037842963
  0
VERTEX
  5
33FE
  8
AM_0
 10
299.617472288236
 20
309.73074839581079
 30
0.0
 42
0.003403486
  0
VERTEX
  5
33FF
  8
AM_0
 10
297.53343228823599
 20
309.9026183958108
 30
0.0
 42
0.0031173927
  0
VERTEX
  5
3400
  8
AM_0
 10
295.44693228823598
 20
310.04736839581068
 30
0.0
 42
0.0029018743
  0
VERTEX
  5
3401
  8
AM_0
 10
293.35884228823602
 20
310.16700839581068
 30
0.0
 42
0.0027404553
  0
VERTEX
  5
3402
  8
AM_0
 10
291.26952228823598
 20
310.26309839581069
 30
0.0
 42
0.0026217012
  0
VERTEX
  5
3403
  8
AM_0
 10
289.17921228823587
 20
310.33683839581067
 30
0.0
 42
0.0025380412
  0
VERTEX
  5
3404
  8
AM_0
 10
287.08824228823602
 20
310.38897839581068
 30
0.0
 42
0.0024845601
  0
VERTEX
  5
3405
  8
AM_0
 10
284.99682228823599
 20
310.42014839581071
 30
0.0
 42
0.002458447
  0
VERTEX
  5
3406
  8
AM_0
 10
282.90513228823602
 20
310.43064839581069
 30
0.0
  0
SEQEND
  5
3407
  8
AM_0
  0
LINE
  5
3408
  8
AM_0
 10
266.660612288236
 20
307.02855839581082
 30
0.0
 11
258.97146228823601
 21
296.11768139581079
 31
0.0
  0
LINE
  5
3409
  8
AM_0
 10
268.88199228823612
 20
290.85275939581072
 30
0.0
 11
273.88206228823611
 21
290.85275939581072
 31
0.0
  0
LINE
  5
340A
  8
AM_0
 10
270.88206228823611
 20
297.3298703958107
 30
0.0
 11
273.88206228823611
 21
297.3298703958107
 31
0.0
  0
ARC
  5
340B
  8
AM_0
 10
270.88206228823611
 20
299.3298713958107
 30
0.0
 40
2.00000007
 50
179.999989999999
 51
270.0
  0
ARC
  5
340C
  8
AM_0
 10
273.88206228823611
 20
288.85275839581078
 30
0.0
 40
2.00000007
 50
0.0
 51
90.00000299999769
  0
ARC
  5
340D
  8
AM_0
 10
273.88206228823611
 20
295.3298723958107
 30
0.0
 40
2.00000007
 50
0.0
 51
90.00000299999769
  0
LINE
  5
340E
  8
AM_0
 10
270.88206228823611
 20
318.51474839581073
 30
0.0
 11
273.88206228823611
 21
318.51474839581073
 31
0.0
  0
LINE
  5
340F
  8
AM_0
 10
258.97146228823601
 20
310.18065839581072
 30
0.0
 11
258.97146228823601
 21
320.8647683958107
 31
0.0
  0
ARC
  5
3410
  8
AM_0
 10
265.02579228823612
 20
308.18067839581079
 30
0.0
 40
2.00000007
 50
324.82673000000062
 51
90.00000299999769
  0
ARC
  5
3411
  8
AM_0
 10
257.07639228823609
 20
325.80159839581069
 30
0.0
 40
5.0000001000000003
 50
271.9999999999971
 51
310.00000000000261
  0
ARC
  5
3412
  8
AM_0
 10
270.88206228823611
 20
316.51473839581081
 30
0.0
 40
2.00000007
 50
90.00000299999769
 51
180.00001000000091
  0
ARC
  5
3413
  8
AM_0
 10
273.88206228823611
 20
320.5147583958107
 30
0.0
 40
2.00000007
 50
270.0
 51
0.0
  0
LINE
  5
3414
  8
AM_0
 10
317.88198228823597
 20
304.68067139581069
 30
0.0
 11
317.88198228823597
 21
287.38065239581073
 31
0.0
  0
ARC
  5
3415
  8
AM_0
 10
271.88199228823612
 20
337.03914839581068
 30
0.0
 40
3.0
 50
91.999998000000545
 51
180.00001000000091
  0
ARC
  5
3416
  8
AM_0
 10
263.88198228823597
 20
331.51221839581069
 30
0.0
 40
5.0000001000000003
 50
310.00000000000261
 51
0.0
  0
LINE
  5
3417
  8
AM_0
 10
277.81224228823601
 20
345.00360839581077
 30
0.0
 11
282.88200228823598
 21
345.1806683958107
 31
0.0
  0
ARC
  5
3418
  8
AM_0
 10
272.88198228823609
 20
343.07772839581082
 30
0.0
 40
3.0
 50
271.9999999999971
 51
0.0
  0
ARC
  5
3419
  8
AM_0
 10
277.88199228823612
 20
343.00485839581069
 30
0.0
 40
2.00000007
 50
91.999998000000545
 51
180.00001000000091
  0
LINE
  5
341A
  8
AM_0
 10
271.77726228823599
 20
340.0373183958107
 30
0.0
 11
272.98665228823597
 21
340.07952839581083
 31
0.0
  0
LINE
  5
341B
  8
AM_0
 10
275.88198228823597
 20
343.00485839581069
 30
0.0
 11
275.88198228823597
 21
343.07772839581082
 31
0.0
  0
ARC
  5
341C
  8
AM_0
 10
352.88199228823612
 20
323.63166839581078
 30
0.0
 40
3.0
 50
0.0
 51
84.999996999998572
  0
LINE
  5
341D
  8
AM_0
 10
335.88198228823597
 20
318.61392839581077
 30
0.0
 11
343.88199228823612
 21
318.61392839581077
 31
0.0
  0
ARC
  5
341E
  8
AM_0
 10
335.88198228823597
 20
308.61396839581067
 30
0.0
 40
10.000000200000001
 50
90.00000299999769
 51
180.00001000000091
  0
LINE
  5
341F
  8
AM_0
 10
371.88198228823597
 20
304.38068339581082
 30
0.0
 11
371.88198228823597
 21
301.38068339581082
 31
0.0
  0
LINE
  5
3420
  8
AM_0
 10
358.88199228823612
 20
302.38065239581078
 30
0.0
 11
361.88199228823601
 21
302.38065239581078
 31
0.0
  0
ARC
  5
3421
  8
AM_0
 10
357.88203228823602
 20
315.40650839581082
 30
0.0
 40
1.0000000199999981
 50
0.0
 51
88.499997000000747
  0
ARC
  5
3422
  8
AM_0
 10
356.88198228823597
 20
317.43336839581082
 30
0.0
 40
1.0000000199999981
 50
179.999989999999
 51
268.50000999999878
  0
LINE
  5
3423
  8
AM_0
 10
356.85585228823612
 20
316.43370839581081
 30
0.0
 11
357.90819228823608
 21
316.40616839581082
 31
0.0
  0
ARC
  5
3424
  8
AM_0
 10
348.88203228823591
 20
332.01219839581069
 30
0.0
 40
5.0000001000000003
 50
179.999989999999
 51
265.00000000000028
  0
LINE
  5
3425
  8
AM_0
 10
348.44619228823609
 20
327.03120839581072
 30
0.0
 11
353.14347228823601
 21
326.62023839581082
 31
0.0
  0
ARC
  5
3426
  8
AM_0
 10
338.88198228823597
 20
338.71251839581072
 30
0.0
 40
5.0000001000000003
 50
0.0
 51
88.499997000000747
  0
CIRCLE
  5
342A
  8
AM_0
 10
588.95472844323444
 20
287.38065239581073
 30
0.0
 40
29.000001000000001
  0
ARC
  5
342B
  8
AM_0
 10
588.95472844323444
 20
272.38065239581073
 30
0.0
 40
54.000003000000007
 50
0.0
 51
180.00001000000091
  0
ARC
  5
342C
  8
AM_0
 10
588.95472844323444
 20
264.18066839581081
 30
0.0
 40
81.000003000000007
 50
7.0485986000011911
 51
172.9514000000006
  0
ARC
  5
342D
  8
AM_0
 10
588.95472844323444
 20
287.38065239581073
 30
0.0
 40
14.000001299999999
 50
106.6015400000023
 51
73.398451999997818
  0
LINE
  5
342E
  8
AM_0
 10
678.95473144323444
 20
196.38066539581069
 30
0.0
 11
671.16359344323473
 21
303.5903693958108
 31
0.0
  0
LINE
  5
342F
  8
AM_0
 10
498.95471044323477
 20
196.3806503958107
 30
0.0
 11
506.74589044323471
 21
303.5903693958108
 31
0.0
  0
LINE
  5
3430
  8
ﾁｭｳｼﾝｾﾝ1
 10
588.95472844323444
 20
177.84591839581071
 30
0.0
 11
588.95472844323444
 21
349.7411795201827
 31
0.0
  0
LINE
  5
3431
  8
AM_0
 10
648.95473144323444
 20
235.18065239581071
 30
0.0
 11
648.95473144323444
 21
316.63062839581067
 31
0.0
  0
LINE
  5
3432
  8
AM_0
 10
528.95474344323475
 20
235.18065239581071
 30
0.0
 11
528.95474344323475
 21
316.63062839581067
 31
0.0
  0
LINE
  5
3433
  8
AM_0
 10
403.88199228823601
 20
304.38068339581082
 30
0.0
 11
403.88199228823601
 21
273.38065139581067
 31
0.0
  0
LINE
  5
3436
  8
ﾁｭｳｼﾝｾﾝ1
 10
502.5980004432347
 20
264.18066839581081
 30
0.0
 11
676.46478844323474
 21
264.18066839581081
 31
0.0
  0
LINE
  5
3437
  8
AM_0
 10
643.95473044323467
 20
181.38066539581069
 30
0.0
 11
678.95473144323444
 21
181.38066539581069
 31
0.0
  0
LINE
  5
3438
  8
AM_0
 10
645.95473144323478
 20
196.3806503958107
 30
0.0
 11
676.95473344323443
 21
196.3806503958107
 31
0.0
  0
LINE
  5
3439
  8
AM_0
 10
531.95474344323475
 20
196.3806503958107
 30
0.0
 11
500.95472044323458
 21
196.3806503958107
 31
0.0
  0
LINE
  5
343A
  8
AM_0
 10
533.95471144323483
 20
181.38066539581069
 30
0.0
 11
498.95474044323481
 21
181.38066539581069
 31
0.0
  0
LINE
  5
343B
  8
ﾁｭｳｼﾝｾﾝ1
 10
513.95474044323475
 20
176.38064939581071
 30
0.0
 11
513.95474044323475
 21
201.3806633958107
 31
0.0
  0
LINE
  5
343C
  8
ｶｸﾚｾﾝ2
 10
507.95474044323458
 20
196.3806503958107
 30
0.0
 11
507.95474044323458
 21
181.38066539581069
 31
0.0
  0
LINE
  5
343D
  8
ｶｸﾚｾﾝ2
 10
519.95474044323475
 20
196.3806503958107
 30
0.0
 11
519.95474044323475
 21
181.38066539581069
 31
0.0
  0
LINE
  5
343E
  8
AM_0
 10
498.95474044323481
 20
181.38066539581069
 30
0.0
 11
498.95474044323481
 21
196.3806503958107
 31
0.0
  0
LINE
  5
3440
  8
AM_0
 10
498.95471044323477
 20
196.38066539581069
 30
0.0
 11
508.56689044323451
 21
274.12027439581072
 31
0.0
  0
ARC
  5
3441
  8
AM_0
 10
500.95472044323458
 20
194.3806643958107
 30
0.0
 40
2.00000007
 50
90.00000299999769
 51
180.00001000000091
  0
ARC
  5
3442
  8
AM_0
 10
551.95471444323482
 20
189.3806633958107
 30
0.0
 40
5.0000001000000003
 50
90.00000299999769
 51
180.00001000000091
  0
ARC
  5
3443
  8
AM_0
 10
625.95473044323478
 20
189.3806633958107
 30
0.0
 40
5.0000001000000003
 50
0.0
 51
90.00000299999769
  0
LINE
  5
3444
  8
AM_0
 10
643.95473044323467
 20
181.38066539581069
 30
0.0
 11
643.95473044323467
 21
194.3806643958107
 31
0.0
  0
LINE
  5
3445
  8
AM_0
 10
533.95471144323483
 20
181.38066539581069
 30
0.0
 11
533.95471144323483
 21
194.3806643958107
 31
0.0
  0
ARC
  5
3446
  8
AM_0
 10
588.95472844323444
 20
264.18063839581072
 30
0.0
 40
81.000003000000007
 50
265.9727499999974
 51
274.0272500000026
  0
LINE
  5
3447
  8
AM_0
 10
641.95473244323478
 20
183.38064839581071
 30
0.0
 11
535.95474244323475
 21
183.38064839581071
 31
0.0
  0
ARC
  5
3448
  8
AM_0
 10
535.95474244323475
 20
181.38066539581069
 30
0.0
 40
2.00000007
 50
90.00000299999769
 51
180.00001000000091
  0
ARC
  5
3449
  8
AM_0
 10
541.95474244323475
 20
188.3806643958107
 30
0.0
 40
5.0000001000000003
 50
270.0
 51
0.0
  0
LINE
  5
344A
  8
AM_0
 10
546.95474344323475
 20
188.3806643958107
 30
0.0
 11
546.95474344323475
 21
189.3806633958107
 31
0.0
  0
ARC
  5
344B
  8
AM_0
 10
635.95473244323443
 20
188.3806643958107
 30
0.0
 40
5.0000001000000003
 50
179.999989999999
 51
270.0
  0
LINE
  5
344C
  8
AM_0
 10
630.95473144323466
 20
188.3806643958107
 30
0.0
 11
630.95473144323466
 21
189.3806633958107
 31
0.0
  0
ARC
  5
344D
  8
AM_0
 10
641.95473244323478
 20
181.38066539581069
 30
0.0
 40
2.00000007
 50
0.0
 51
90.00000299999769
  0
LINE
  5
344E
  8
AM_0
 10
551.95471444323482
 20
194.3806643958107
 30
0.0
 11
625.95473044323478
 21
194.3806643958107
 31
0.0
  0
LINE
  5
344F
  8
AM_0
 10
534.95474344323475
 20
201.3806633958107
 30
0.0
 11
534.95474344323475
 21
272.38065239581073
 31
0.0
  0
ARC
  5
3450
  8
AM_0
 10
588.95472844323444
 20
235.18065239581071
 30
0.0
 40
60.000002999999992
 50
180.00001000000091
 51
205.8419300000003
  0
ARC
  5
3451
  8
AM_0
 10
529.95474244323475
 20
201.3806633958107
 30
0.0
 40
5.0000001000000003
 50
270.0
 51
0.0
  0
ARC
  5
3452
  8
AM_0
 10
531.95474344323475
 20
194.3806643958107
 30
0.0
 40
2.00000007
 50
0.0
 51
90.00000299999769
  0
LINE
  5
3453
  8
AM_0
 10
642.95473144323478
 20
201.3806633958107
 30
0.0
 11
642.95473144323478
 21
272.38065239581073
 31
0.0
  0
ARC
  5
3454
  8
AM_0
 10
588.95472844323444
 20
235.18065239581071
 30
0.0
 40
60.000002999999992
 50
334.15806999999973
 51
0.0
  0
ARC
  5
3455
  8
AM_0
 10
647.95473244323443
 20
201.3806633958107
 30
0.0
 40
5.0000001000000003
 50
179.999989999999
 51
270.0
  0
ARC
  5
3456
  8
AM_0
 10
645.95473144323478
 20
194.3806643958107
 30
0.0
 40
2.00000007
 50
90.00000299999769
 51
180.00001000000091
  0
LINE
  5
3458
  8
AM_0
 10
678.95473144323444
 20
181.38066539581069
 30
0.0
 11
678.95473144323444
 21
196.3806503958107
 31
0.0
  0
LINE
  5
3459
  8
ｶｸﾚｾﾝ2
 10
669.95473144323444
 20
196.3806503958107
 30
0.0
 11
669.95473144323444
 21
181.38066539581069
 31
0.0
  0
LINE
  5
345A
  8
ｶｸﾚｾﾝ2
 10
657.95473144323444
 20
196.3806503958107
 30
0.0
 11
657.95473144323444
 21
181.38066539581069
 31
0.0
  0
LINE
  5
345B
  8
ﾁｭｳｼﾝｾﾝ1
 10
663.95471644323482
 20
176.38064939581071
 30
0.0
 11
663.95471644323482
 21
201.3806633958107
 31
0.0
  0
LINE
  5
345D
  8
AM_0
 10
678.95473144323444
 20
196.3806503958107
 30
0.0
 11
669.34256344323467
 21
274.12027439581072
 31
0.0
  0
ARC
  5
345E
  8
AM_0
 10
676.95473344323443
 20
194.3806643958107
 30
0.0
 40
2.00000007
 50
0.0
 51
90.00000299999769
  0
LINE
  5
345F
  8
AM_0
 10
662.76060844323479
 20
316.5346883958108
 30
0.0
 11
627.20160244323483
 21
335.58219839581079
 31
0.0
  0
LINE
  5
3460
  8
AM_0
 10
515.14883044323483
 20
316.5346883958108
 30
0.0
 11
550.70785744323484
 21
335.58216839581081
 31
0.0
  0
ARC
  5
3463
  8
AM_0
 10
522.70379044323465
 20
302.43067139581069
 30
0.0
 40
16.000000499999999
 50
118.1761400000037
 51
175.84351000000129
  0
CIRCLE
  5
3464
  8
AM_0
 10
588.95472844323444
 20
287.38065239581073
 30
0.0
 40
3.0
  0
CIRCLE
  5
3465
  8
AM_5
 10
588.95472844323444
 20
287.38065239581073
 30
0.0
 40
4.000000199999997
  0
LINE
  5
3466
  8
ﾁｭｳｼﾝｾﾝ1
 10
538.9326919440548
 20
287.38065239581073
 30
0.0
 11
638.97676494241443
 21
287.38065239581073
 31
0.0
  0
LINE
  5
3467
  8
AM_0
 10
584.95471444323482
 20
297.38065139581067
 30
0.0
 11
592.95471544323482
 21
297.38065139581067
 31
0.0
  0
LINE
  5
3468
  8
AM_0
 10
584.95471444323482
 20
304.38068339581082
 30
0.0
 11
592.95471544323482
 21
304.38068339581082
 31
0.0
  0
ARC
  5
3469
  8
AM_0
 10
533.95471144323483
 20
316.63062839581067
 30
0.0
 40
5.0000001000000003
 50
136.35948999999979
 51
180.00001000000091
  0
LINE
  5
346A
  8
AM_0
 10
584.95471444323482
 20
297.38065139581067
 30
0.0
 11
584.95471444323482
 21
304.38068339581082
 31
0.0
  0
LINE
  5
346B
  8
AM_0
 10
592.95471544323482
 20
297.38065139581067
 30
0.0
 11
592.95471544323482
 21
304.38068339581082
 31
0.0
  0
ARC
  5
346C
  8
AM_0
 10
643.95473044323467
 20
316.63062839581067
 30
0.0
 40
5.0000001000000003
 50
0.0
 51
43.64050000000065
  0
ARC
  5
346D
  8
AM_0
 10
655.20567844323443
 20
302.43067139581069
 30
0.0
 40
16.000000499999999
 50
4.1564916000008019
 51
61.82385999999628
  0
POINT
  5
346E
  8
0
 10
58.055172802104607
 20
506.4641897282022
 30
0.0
1001
GENIUS_GENOLIS_13
1002
{
1000
ENT
1005
0
1005
33BC
1005
33C6
1002
}
1001
GENIUS_GENOENT_13
1002
{
1000
MYREF
1005
346E
1002
}
1002
{
1000
GRP
1005
0
1002
}
1001
GENIUS_GENOBJ-NBEHI-BHB_13
1002
{
1000
OWNER
1000
genbehi
1002
}
1001
GENIUS_GENBH_13
1002
{
1000
FGO
1005
0
1002
}
1001
GENIUS_GENODEF_13
1002
{
1000
HIER
1070
     1
1002
}
1002
{
1000
MANEDIT
1070
     1
1002
}
1002
{
1000
NOSEL
1070
     1
1002
}
1002
{
1000
BEHIND
1070
     0
1002
}
1002
{
1000
OTHER
1070
     1
1002
}
1002
{
1000
REACTOR
1002
}
  0
TEXT
  5
3959
  8
AM_0
 10
504.51663780108441
 20
537.31897838785869
 30
0.0
 40
10.0
  1
VX02-120S~VX02-200S
  0
ENDSEC
  0
EOF
