  0
SECTION
  2
HEADER
  9
$ACADVER
  1
AC1009
  9
$INSBASE
 10
0.0
 20
0.0
 30
0.0
  9
$EXTMIN
 10
-30.076983355237189
 20
161.13674026693519
 30
-0.0015258207003583
  9
$EXTMAX
 10
813.72865490500897
 20
703.3608446024441
 30
0.0000000349246037
  9
$LIMMIN
 10
0.0
 20
0.0
  9
$LIMMAX
 10
853.5
 20
555.00000000000011
  9
$ORTHOMODE
 70
     0
  9
$REGENMODE
 70
     1
  9
$FILLMODE
 70
     1
  9
$QTEXTMODE
 70
     0
  9
$MIRRTEXT
 70
     1
  9
$DRAGMODE
 70
     2
  9
$LTSCALE
 40
3.0
  9
$OSMODE
 70
   551
  9
$ATTMODE
 70
     1
  9
$TEXTSIZE
 40
2.5
  9
$TRACEWID
 40
1.0
  9
$TEXTSTYLE
  7
STANDARD
  9
$CLAYER
  8
AM_0
  9
$CELTYPE
  6
BYLAYER
  9
$CECOLOR
 62
   256
  9
$DIMSCALE
 40
1.0
  9
$DIMASZ
 40
2.5
  9
$DIMEXO
 40
1.0
  9
$DIMDLI
 40
8.0
  9
$DIMRND
 40
0.0
  9
$DIMDLE
 40
0.0
  9
$DIMEXE
 40
0.6
  9
$DIMTP
 40
0.1
  9
$DIMTM
 40
0.1
  9
$DIMTXT
 40
2.5
  9
$DIMCEN
 40
0.0
  9
$DIMTSZ
 40
0.0
  9
$DIMTOL
 70
     0
  9
$DIMLIM
 70
     0
  9
$DIMTIH
 70
     0
  9
$DIMTOH
 70
     0
  9
$DIMSE1
 70
     0
  9
$DIMSE2
 70
     0
  9
$DIMTAD
 70
     1
  9
$DIMZIN
 70
     8
  9
$DIMBLK
  1

  9
$DIMASO
 70
     1
  9
$DIMSHO
 70
     1
  9
$DIMPOST
  1

  9
$DIMAPOST
  1
"
  9
$DIMALT
 70
     0
  9
$DIMALTD
 70
     2
  9
$DIMALTF
 40
0.0393701
  9
$DIMLFAC
 40
1.0
  9
$DIMTOFL
 70
     1
  9
$DIMTVP
 40
0.0
  9
$DIMTIX
 70
     0
  9
$DIMSOXD
 70
     0
  9
$DIMSAH
 70
     0
  9
$DIMBLK1
  1

  9
$DIMBLK2
  1

  9
$DIMSTYLE
  2
AM_ISO
  9
$DIMCLRD
 70
   256
  9
$DIMCLRE
 70
   256
  9
$DIMCLRT
 70
     4
  9
$DIMTFAC
 40
0.71
  9
$DIMGAP
 40
0.8
  9
$LUNITS
 70
     2
  9
$LUPREC
 70
     2
  9
$SKETCHINC
 40
1.0
  9
$FILLETRAD
 40
15.0
  9
$AUNITS
 70
     0
  9
$AUPREC
 70
     0
  9
$MENU
  1
.
  9
$ELEVATION
 40
0.0
  9
$PELEVATION
 40
0.0
  9
$THICKNESS
 40
0.0
  9
$LIMCHECK
 70
     0
  9
$BLIPMODE
 70
     0
  9
$CHAMFERA
 40
6.0
  9
$CHAMFERB
 40
3.0
  9
$SKPOLY
 70
     0
  9
$TDCREATE
 40
2452065.7635588432
  9
$TDUPDATE
 40
2458541.5677084262
  9
$TDINDWG
 40
0.0979152662
  9
$TDUSRTIMER
 40
0.0979148843
  9
$USRTIMER
 70
     1
  9
$ANGBASE
 50
0.0
  9
$ANGDIR
 70
     0
  9
$PDMODE
 70
     0
  9
$PDSIZE
 40
0.0
  9
$PLINEWID
 40
0.0
  9
$COORDS
 70
     1
  9
$SPLFRAME
 70
     0
  9
$SPLINETYPE
 70
     6
  9
$SPLINESEGS
 70
     8
  9
$ATTDIA
 70
     1
  9
$ATTREQ
 70
     1
  9
$HANDLING
 70
     1
  9
$HANDSEED
  5
3A05
  9
$SURFTAB1
 70
     6
  9
$SURFTAB2
 70
     6
  9
$SURFTYPE
 70
     6
  9
$SURFU
 70
     6
  9
$SURFV
 70
     6
  9
$UCSNAME
  2

  9
$UCSORG
 10
0.0
 20
0.0
 30
0.0
  9
$UCSXDIR
 10
1.0
 20
0.0
 30
0.0
  9
$UCSYDIR
 10
0.0
 20
1.0
 30
0.0
  9
$PUCSNAME
  2

  9
$PUCSORG
 10
0.0
 20
0.0
 30
0.0
  9
$PUCSXDIR
 10
1.0
 20
0.0
 30
0.0
  9
$PUCSYDIR
 10
0.0
 20
1.0
 30
0.0
  9
$USERI1
 70
     0
  9
$USERI2
 70
     0
  9
$USERI3
 70
     0
  9
$USERI4
 70
     0
  9
$USERI5
 70
     0
  9
$USERR1
 40
0.0
  9
$USERR2
 40
0.0
  9
$USERR3
 40
0.0
  9
$USERR4
 40
0.0
  9
$USERR5
 40
0.0
  9
$WORLDVIEW
 70
     1
  9
$SHADEDGE
 70
     3
  9
$SHADEDIF
 70
    70
  9
$TILEMODE
 70
     1
  9
$MAXACTVP
 70
    64
  9
$PLIMCHECK
 70
     0
  9
$PEXTMIN
 10
1.0000000000000000E+020
 20
1.0000000000000000E+020
 30
1.0000000000000000E+020
  9
$PEXTMAX
 10
-1.0000000000000000E+020
 20
-1.0000000000000000E+020
 30
-1.0000000000000000E+020
  9
$PLIMMIN
 10
0.0
 20
0.0
  9
$PLIMMAX
 10
420.0
 20
297.0
  9
$UNITMODE
 70
     0
  9
$VISRETAIN
 70
     1
  9
$PLINEGEN
 70
     0
  9
$PSLTSCALE
 70
     1
  0
ENDSEC
  0
SECTION
  2
TABLES
  0
TABLE
  2
VPORT
 70
     1
  0
VPORT
  2
*ACTIVE
 70
     0
 10
0.0
 20
0.0
 11
1.0
 21
1.0
 12
391.825835774886
 22
432.24879243468962
 13
0.0
 23
0.0
 14
7.5
 24
7.5
 15
30.0
 25
30.0
 16
0.0
 26
0.0
 36
1.0
 17
0.0
 27
0.0
 37
0.0
 40
545.94646660783485
 41
1.7571592210767459
 42
50.0
 43
0.0
 44
0.0
 50
0.0
 51
0.0
 71
     0
 72
   100
 73
     1
 74
     3
 75
     0
 76
     0
 77
     0
 78
     0
  0
ENDTAB
  0
TABLE
  2
LTYPE
 70
    20
  0
LTYPE
  2
CONTINUOUS
 70
     0
  3
Solid line
 72
    65
 73
     0
 40
0.0
  0
LTYPE
  2
AM_ISO02W050
 70
     0
  3
__ __ __ __ __ __ __ __ __ __ __ __ __ __ __
 72
    65
 73
     2
 40
7.5
 49
6.0
 49
-1.5
  0
LTYPE
  2
AM_ISO08W050
 70
     0
  3
____ . ____ . ____ . ____ . ____ . ____ . ____
 72
    65
 73
     4
 40
18.0
 49
12.0
 49
-1.5
 49
3.0
 49
-1.5
  0
LTYPE
  2
AM_ISO09W050
 70
     0
  3
_____ . . _____ . . _____ . . ____ .. ____
 72
    65
 73
     6
 40
22.5
 49
12.0
 49
-1.5
 49
3.0
 49
-1.5
 49
3.0
 49
-1.5
  0
LTYPE
  2
AMCONSTR
 70
     0
  3
_______________________
 72
    65
 73
     2
 40
9999.0
 49
9999.0
 49
0.0
  0
LTYPE
  2
AM_ISO08W050X2
 70
     0
  3
__ . __ . __ . __ . __ . __
 72
    65
 73
     4
 40
9.0
 49
6.0
 49
-0.75
 49
1.5
 49
-0.75
  0
LTYPE
  2
AM_ISO02W050X2
 70
     0
  3
 _ _ _ _ _ _ _ _ _ _ _ _
 72
    65
 73
     2
 40
3.75
 49
3.0
 49
-0.75
  0
LTYPE
  2
AMZIGZAG
 70
     0
  3
/\/-/\/-/\/-/\/-/\/-/\/
 72
    65
 73
     2
 40
11.0001
 49
0.0001
 49
-11.0
  0
LTYPE
  2
CENTER
 70
     0
  3
__ . __
 72
    65
 73
     4
 40
7.0
 49
4.0
 49
-1.0
 49
1.0
 49
-1.0
  0
LTYPE
  2
PHANTOM2
 70
     0
  3
Phantom (.5x) ___ _ _ ___ _ _ ___ _ _ ___ _ _
 72
    65
 73
     6
 40
31.75
 49
15.875
 49
-3.174999999999998
 49
3.174999999999998
 49
-3.174999999999998
 49
3.174999999999998
 49
-3.174999999999998
  0
LTYPE
  2
GEN7
 70
     0
  3
____ . ____ . ____ . ____ . ____ . ____ . ____
 72
    65
 73
     4
 40
14.25
 49
9.75
 49
-1.5
 49
1.5
 49
-1.5
  0
LTYPE
  2
GEN3B
 70
     0
  3
 - - - - -
 72
    65
 73
     2
 40
1.0
 49
0.5
 49
-0.5
  0
LTYPE
  2
GEN7A
 70
     0
  3
__ . __ . __
 72
    65
 73
     4
 40
7.375
 49
4.75
 49
-0.875
 49
0.875
 49
-0.875
  0
LTYPE
  2
HIDDEN
 70
     0
  3
Hidden __ __ __ __ __ __ __ __ __ __ __ __ __ _
 72
    65
 73
     2
 40
9.5249999999999986
 49
6.349999999999997
 49
-3.174999999999998
  0
LTYPE
  2
CENTER2
 70
     0
  3
Center (.5x) ___ _ ___ _ ___ _ ___ _ ___ _ ___
 72
    65
 73
     4
 40
1.125
 49
0.75
 49
-0.125
 49
0.125
 49
-0.125
  0
LTYPE
  2
HIDDEN2
 70
     0
  3
Hidden (.5x) _ _ _ _ _ _ _ _ _ _ _ _ _ _ _ _ _
 72
    65
 73
     2
 40
0.1875
 49
0.125
 49
-0.0625
  0
LTYPE
  2
AMZIGZAG2
 70
     0
  3
/\/-/\/-/\/-/\/-/\/-/\/
 72
    65
 73
     2
 40
0.4401
 49
0.0001
 49
-0.4400000000000001
  0
LTYPE
  2
ACANSTGB
 70
     0
  3
__ . . __ . .
 72
    65
 73
     6
 40
0.35433070866
 49
0.15748031496
 49
-0.03937007874
 49
0.03937007874
 49
-0.03937007874
 49
0.03937007874
 49
-0.03937007874
  0
LTYPE
  2
ACANSTGL
 70
     0
  3
_ _ _ _ _
 72
    65
 73
     2
 40
0.11811023622
 49
0.07874015748
 49
-0.03937007874
  0
ENDTAB
  0
TABLE
  2
LAYER
 70
    11
  0
LAYER
  2
0
 70
     0
 62
     7
  6
CONTINUOUS
  0
LAYER
  2
AM_0
 70
     0
 62
     7
  6
CONTINUOUS
  0
LAYER
  2
AM_5
 70
     0
 62
     2
  6
CONTINUOUS
  0
LAYER
  2
DEFPOINTS
 70
     0
 62
     7
  6
CONTINUOUS
  0
LAYER
  2
ｶｸﾚｾﾝ2
 70
     0
 62
     3
  6
GEN3B
  0
LAYER
  2
ﾁｭｳｼﾝｾﾝ
 70
     0
 62
     1
  6
GEN7
  0
LAYER
  2
ﾁｭｳｼﾝｾﾝ1
 70
     0
 62
     1
  6
GEN7A
  0
LAYER
  2
AM_0N
 70
     0
 62
     7
  6
CONTINUOUS
  0
LAYER
  2
AM_3N
 70
     0
 62
     3
  6
AM_ISO02W050
  0
LAYER
  2
ｽﾝﾎ_ｳｾﾝ
 70
     0
 62
     2
  6
CONTINUOUS
  0
LAYER
  2
AM_4
 70
     0
 62
     2
  6
CONTINUOUS
  0
ENDTAB
  0
TABLE
  2
STYLE
 70
     5
  0
STYLE
  2
STANDARD
 70
     0
 40
0.0
 41
0.8299999999999999
 50
0.0
 71
     0
 42
2.5
  3
txt.shx
  4
bigfont.shx
  0
STYLE
  2
ANNOTATIVE
 70
     0
 40
0.0
 41
1.0
 50
0.0
 71
     0
 42
0.2
  3
txt
  4

  0
STYLE
  2

 70
     1
 40
0.0
 41
1.0
 50
0.0
 71
     0
 42
2.5
  3
genltshp.shx
  4

  0
STYLE
  2
ACANSTS
 70
     0
 40
0.0
 41
1.0
 50
0.0
 71
     0
 42
2.5
  3
romans.shx
  4
extfont.shx
  0
STYLE
  2
ACANSGDT
 70
     0
 40
0.0
 41
1.0
 50
0.0
 71
     0
 42
2.5
  3
amgdt.shx
  4

  0
ENDTAB
  0
TABLE
  2
VIEW
 70
     6
  0
VIEW
  2
AM_VIEW1
 70
     0
 40
277.50000000000011
 10
249.64779005524869
 20
416.24999999999989
 41
499.2955801104971
 11
0.0
 21
0.0
 31
1.0
 12
0.0
 22
0.0
 32
0.0
 42
50.0
 43
0.0
 44
0.0
 50
0.0
 71
     0
  0
VIEW
  2
AM_VIEW2
 70
     0
 40
277.50000000000011
 10
603.85220994475117
 20
416.24999999999989
 41
499.2955801104971
 11
0.0
 21
0.0
 31
1.0
 12
0.0
 22
0.0
 32
0.0
 42
50.0
 43
0.0
 44
0.0
 50
0.0
 71
     0
  0
VIEW
  2
AM_VIEW3
 70
     0
 40
277.50000000000011
 10
249.64779005524869
 20
138.75
 41
499.2955801104971
 11
0.0
 21
0.0
 31
1.0
 12
0.0
 22
0.0
 32
0.0
 42
50.0
 43
0.0
 44
0.0
 50
0.0
 71
     0
  0
VIEW
  2
AM_VIEW4
 70
     0
 40
277.50000000000011
 10
603.85220994475117
 20
138.75
 41
499.2955801104971
 11
0.0
 21
0.0
 31
1.0
 12
0.0
 22
0.0
 32
0.0
 42
50.0
 43
0.0
 44
0.0
 50
0.0
 71
     0
  0
VIEW
  2
AM_VIEW5
 70
     0
 40
277.50000000000011
 10
426.75
 20
277.50000000000011
 41
499.2955801104971
 11
0.0
 21
0.0
 31
1.0
 12
0.0
 22
0.0
 32
0.0
 42
50.0
 43
0.0
 44
0.0
 50
0.0
 71
     0
  0
VIEW
  2
AM_VIEW6
 70
     0
 40
554.99445000000014
 10
426.75
 20
277.5
 41
998.5811743093924
 11
0.0
 21
0.0
 31
1.0
 12
0.0
 22
0.0
 32
0.0
 42
50.0
 43
0.0
 44
0.0
 50
0.0
 71
     0
  0
ENDTAB
  0
TABLE
  2
UCS
 70
     0
  0
ENDTAB
  0
TABLE
  2
APPID
 70
    97
  0
APPID
  2
ACAD
 70
     0
  0
APPID
  2
ACADANNOTATIVE
 70
     0
  0
APPID
  2
MCAD_NO_VIS
 70
     0
  0
APPID
  2
ACAD_TEMP_GRAPHIC
 70
     0
  0
APPID
  2
ACATTRIBSERVICES
 70
     0
  0
APPID
  2
GENIUS_GENREC_14
 70
     0
  0
APPID
  2
GENIUS_GENOBJ-N-REC_13
 70
     0
  0
APPID
  2
GENIUS_GENODEF_13
 70
     0
  0
APPID
  2
GENIUS_GENOLIS_13
 70
     0
  0
APPID
  2
GENIUS_GENOBJ-N-TIT_13
 70
     0
  0
APPID
  2
GENIUS_GENOENT_13
 70
     0
  0
APPID
  2
GENIUS_GENTITLE_13
 70
     0
  0
APPID
  2
GENIUS_GENOREF_13
 70
     0
  0
APPID
  2
GENIUS_GENSCREG_15
 70
     0
  0
APPID
  2
GENIUS_GENOBJ-N-SDF_13
 70
     0
  0
APPID
  2
GENIUS_GENFIL_13
 70
     0
  0
APPID
  2
GENIUS_GENOBJ-N-CHA_13
 70
     0
  0
APPID
  2
GENIUS_GENDTOL_13
 70
     0
  0
APPID
  2
GENIUS_GENOBJ-N-FIL_13
 70
     0
  0
APPID
  2
AD_DRAW
 70
     0
  0
APPID
  2
DESIGNERASSEMBLIES
 70
     0
  0
APPID
  2
ASURF_PCURVE_APPNAME
 70
     0
  0
APPID
  2
GENIUS_GE3SECT_13
 70
     0
  0
APPID
  2
GENIUS_GENCFG_13
 70
     0
  0
APPID
  2
GENIUS_GE3CFG0_13
 70
     0
  0
APPID
  2
GENIUS_GENCFG0_13
 70
     0
  0
APPID
  2
GENIUS_GENCFG1_13
 70
     0
  0
APPID
  2
GENIUS_GENCFG2_13
 70
     0
  0
APPID
  2
GENIUS_GENCFG3_13
 70
     0
  0
APPID
  2
GENIUS_GENCFG4_13
 70
     0
  0
APPID
  2
GENIUS_GEVCFG0_13
 70
     0
  0
APPID
  2
GENIUS_GENHINW_13
 70
     0
  0
APPID
  2
GENIUS_FIRSTVISTXT_14
 70
     0
  0
APPID
  2
GENIUS_GENOBJ-N-LEADER_13
 70
     0
  0
APPID
  2
GEV_VCCNULL_SWITCH_OFF
 70
     0
  0
APPID
  2
GENIUS_GEFCFG0_13
 70
     0
  0
APPID
  2
GENIUS_GENZVEED_13
 70
     0
  0
APPID
  2
GENIUS_GENSCREG_13
 70
     0
  0
APPID
  2
GENIUS_DUMCFG0_13
 70
     0
  0
APPID
  2
GEVID936201362
 70
     0
  0
APPID
  2
GEVDC
 70
     0
  0
APPID
  2
GEVCON
 70
     0
  0
APPID
  2
VCC
 70
     0
  0
APPID
  2
GEVPT
 70
     0
  0
APPID
  2
GEVIT
 70
     0
  0
APPID
  2
GENBH
 70
     0
  0
APPID
  2
GEVMK
 70
     0
  0
APPID
  2
GENIUS_GENBH_13
 70
     0
  0
APPID
  2
GENIUS_GENOBJ-NBEHI-BHF_13
 70
     0
  0
APPID
  2
GENIUS_GENOBJ-NBEHI-BHB_13
 70
     0
  0
APPID
  2
GENIUS_GENOBJ-F-DESC_13
 70
     0
  0
APPID
  2
GENIUS_GEFDESC_14
 70
     0
  0
APPID
  2
GENIUS_GENOBJ-F-PART_13
 70
     0
  0
APPID
  2
GENIUS_GEFSTDP_13
 70
     0
  0
APPID
  2
GENIUS_GEFPARTINS_13
 70
     0
  0
APPID
  2
GENIUS_GENTRA_14
 70
     0
  0
APPID
  2
GENIUS_GENINF13_13
 70
     0
  0
APPID
  2
GENIUS_GENOBJ-N-INFOPT_13
 70
     0
  0
APPID
  2
GENIUS_GENOBJ-N-RSSYM_13
 70
     0
  0
APPID
  2
GENIUS_GENSYMENT_13
 70
     0
  0
APPID
  2
GENIUS_GENSCSYM_13
 70
     0
  0
APPID
  2
GENIUS_GEFINFNAM_13
 70
     0
  0
APPID
  2
GENIUS_GENOBJ-N-CEN_13
 70
     0
  0
APPID
  2
GENIUS_GENOBJ-N-CRS_13
 70
     0
  0
APPID
  2
GENIUS_GENOBJ-N-CRC_13
 70
     0
  0
APPID
  2
GENIUS_GENCRC_14
 70
     0
  0
APPID
  2
GEVID942827039
 70
     0
  0
APPID
  2
GEVID942827040
 70
     0
  0
APPID
  2
GEVID942827041
 70
     0
  0
APPID
  2
GENIUS_GENOBJ-F-SCPASSM_13
 70
     0
  0
APPID
  2
GENIUS_GENDIMSH_14
 70
     0
  0
APPID
  2
GEVID942827042
 70
     0
  0
APPID
  2
GEVID946020473
 70
     0
  0
APPID
  2
GEVID946020474
 70
     0
  0
APPID
  2
GEVID946020475
 70
     0
  0
APPID
  2
GENIUS_GENOBJ-N-HTC_13
 70
     0
  0
APPID
  2
GENIUS_GENHATCH_13
 70
     0
  0
APPID
  2
GEVID948854295
 70
     0
  0
APPID
  2
GEVID939402019
 70
     0
  0
APPID
  2
GEVID952919491
 70
     0
  0
APPID
  2
GEVID952919492
 70
     0
  0
APPID
  2
GENIUS_GEFWELD_13
 70
     0
  0
APPID
  2
GENIUS_GENOBJ-F-WELS_13
 70
     0
  0
APPID
  2
GEVID952919493
 70
     0
  0
APPID
  2
GENIUS_GENOBJ-N-RSBK_13
 70
     0
  0
APPID
  2
GENIUS_GENOBJ-N-LIB_13
 70
     0
  0
APPID
  2
GENIUS_GENSCALE_13
 70
     0
  0
APPID
  2
GEVID986376691
 70
     0
  0
APPID
  2
DCO15
 70
     0
  0
APPID
  2
ACADM_DIM_EDIT
 70
     0
  0
APPID
  2
AMDT_DM_ADJ
 70
     0
  0
APPID
  2
ACAD_DSTYLE_DIMJAG
 70
     0
  0
APPID
  2
ACAD_DSTYLE_DIMBREAK
 70
     0
  0
APPID
  2
ACAD_NAV_VCDISPLAY
 70
     0
  0
APPID
  2
ACADANNOPO
 70
     0
  0
APPID
  2
ACAD_EXEMPT_FROM_CAD_STANDARDS
 70
     0
  0
APPID
  2
ACAD_MLEADERVER
 70
     0
  0
ENDTAB
  0
TABLE
  2
DIMSTYLE
 70
     9
  0
DIMSTYLE
  2
STANDARD
 70
     0
  3

  4

  5

  6

  7

 40
1.0
 41
0.18
 42
0.0625
 43
0.38
 44
0.18
 45
0.0
 46
0.0
 47
0.0
 48
0.0
140
0.18
141
0.09
142
0.0
143
25.399999999999999
144
1.0
145
0.0
146
1.0
147
0.09
 71
     0
 72
     0
 73
     1
 74
     1
 75
     0
 76
     0
 77
     0
 78
     0
170
     0
171
     2
172
     0
173
     0
174
     0
175
     0
176
     0
177
     0
178
     0
  0
DIMSTYLE
  2
ANNOTATIVE
 70
     0
  3

  4

  5

  6

  7

 40
1.0
 41
0.18
 42
0.0625
 43
0.38
 44
0.18
 45
0.0
 46
0.0
 47
0.0
 48
0.0
140
0.18
141
0.09
142
0.0
143
25.399999999999999
144
1.0
145
0.0
146
1.0
147
0.09
 71
     0
 72
     0
 73
     1
 74
     1
 75
     0
 76
     0
 77
     0
 78
     0
170
     0
171
     2
172
     0
173
     0
174
     0
175
     0
176
     0
177
     0
178
     0
  0
DIMSTYLE
  2
AM_ISO
 70
     0
  3

  4
"
  5

  6

  7

 40
1.0
 41
2.5
 42
1.0
 43
8.0
 44
0.6
 45
0.0
 46
0.0
 47
0.1
 48
0.1
140
2.5
141
0.0
142
0.0
143
0.0393701
144
1.0
145
0.0
146
0.71
147
0.8
 71
     0
 72
     0
 73
     0
 74
     0
 75
     0
 76
     0
 77
     1
 78
     8
170
     0
171
     2
172
     1
173
     0
174
     0
175
     0
176
   256
177
   256
178
     4
  0
DIMSTYLE
  2
AM_ANSI
 70
     0
  3

  4
mm
  5

  6

  7

 40
1.0
 41
0.12
 42
0.05
 43
0.5
 44
0.1
 45
0.0
 46
0.0
 47
0.1
 48
0.1
140
0.12
141
0.0
142
0.0
143
25.399999999999999
144
1.0
145
0.0
146
0.71
147
0.06
 71
     0
 72
     0
 73
     1
 74
     1
 75
     0
 76
     0
 77
     0
 78
     7
170
     0
171
     2
172
     0
173
     0
174
     0
175
     0
176
   256
177
   256
178
     2
  0
DIMSTYLE
  2
AM_ANSI$3
 70
     0
  3

  4
mm
  5

  6

  7

 40
1.0
 41
0.12
 42
0.05
 43
0.5
 44
0.1
 45
0.0
 46
0.0
 47
0.1
 48
0.1
140
0.12
141
0.0
142
0.0
143
25.399999999999999
144
1.0
145
0.0
146
0.71
147
0.06
 71
     0
 72
     0
 73
     1
 74
     1
 75
     0
 76
     0
 77
     0
 78
     7
170
     0
171
     2
172
     0
173
     0
174
     0
175
     0
176
   256
177
   256
178
     2
  0
DIMSTYLE
  2
AM_ANSI$4
 70
     0
  3

  4
mm
  5

  6

  7

 40
1.0
 41
0.12
 42
0.05
 43
0.5
 44
0.1
 45
0.0
 46
0.0
 47
0.1
 48
0.1
140
0.12
141
0.0
142
0.0
143
25.399999999999999
144
1.0
145
0.0
146
0.71
147
0.06
 71
     0
 72
     0
 73
     1
 74
     1
 75
     0
 76
     0
 77
     0
 78
     7
170
     0
171
     2
172
     0
173
     0
174
     0
175
     0
176
   256
177
   256
178
     2
  0
DIMSTYLE
  2
AM_ANSI$7
 70
     0
  3

  4
mm
  5

  6

  7

 40
1.0
 41
0.12
 42
0.05
 43
0.5
 44
0.1
 45
0.0
 46
0.0
 47
0.1
 48
0.1
140
0.12
141
0.0
142
0.0
143
25.399999999999999
144
1.0
145
0.0
146
0.71
147
0.06
 71
     0
 72
     0
 73
     1
 74
     1
 75
     0
 76
     0
 77
     0
 78
     7
170
     0
171
     2
172
     0
173
     0
174
     0
175
     0
176
   256
177
   256
178
     2
  0
DIMSTYLE
  2
AM_ANSI$SF
 70
     0
  3

  4
mm
  5

  6

  7

 40
1.0
 41
0.12
 42
0.05
 43
0.5
 44
0.1
 45
0.0
 46
0.0
 47
0.1
 48
0.1
140
0.12
141
0.0
142
0.0
143
25.399999999999999
144
1.0
145
0.0
146
0.71
147
0.06
 71
     0
 72
     0
 73
     1
 74
     1
 75
     1
 76
     1
 77
     0
 78
     7
170
     0
171
     2
172
     0
173
     0
174
     0
175
     0
176
   256
177
   256
178
     2
  0
DIMSTYLE
  2
AM_ANSI$SH
 70
     0
  3

  4
mm
  5

  6
GENAXEH
  7

 40
1.0
 41
0.12
 42
0.05
 43
0.5
 44
0.1
 45
0.0
 46
0.0
 47
0.1
 48
0.1
140
0.12
141
0.0
142
0.0
143
25.399999999999999
144
1.0
145
0.0
146
0.71
147
0.06
 71
     0
 72
     0
 73
     1
 74
     1
 75
     1
 76
     1
 77
     0
 78
     7
170
     0
171
     2
172
     0
173
     1
174
     0
175
     0
176
   256
177
   256
178
     2
  0
ENDTAB
  0
ENDSEC
  0
SECTION
  2
BLOCKS
  0
BLOCK
  8
0
  2
$MODEL_SPACE
 70
     0
 10
0.0
 20
0.0
 30
0.0
  3
$MODEL_SPACE
  1

  0
ENDBLK
  5
3893
  8
0
  0
BLOCK
 67
     1
  8
0
  2
$PAPER_SPACE
 70
     0
 10
0.0
 20
0.0
 30
0.0
  3
$PAPER_SPACE
  1

  0
ENDBLK
  5
388F
 67
     1
  8
0
  0
BLOCK
  8
0
  2
*U2
 70
     1
 10
0.0
 20
0.0
 30
0.0
  3
*U2
  1

  0
TEXT
  5
36E1
  8
AM_0
 10
608.6281630786425
 20
131.41667686982029
 30
0.0
 40
14.0
  1
VX02-600S
 41
0.8299999999999999
  0
ENDBLK
  5
36E3
  8
0
  0
BLOCK
  8
0
  2
GENAXEH
 70
     0
 10
0.0
 20
0.0
 30
0.0
  3
GENAXEH
  1

  0
LINE
  5
3964
  8
0
 10
-1.0
 20
0.0
 30
0.0
 11
1.0
 21
0.0
 31
0.0
  0
ENDBLK
  5
3966
  8
0
  0
BLOCK
  8
0
  2
_ACMFILLEDHALF
 70
     0
 10
0.0
 20
0.0
 30
0.0
  3
_ACMFILLEDHALF
  1

  0
TRACE
  5
3974
  8
AM_0
 62
     0
 10
-0.8
 20
0.0
 30
0.0
 11
-1.0
 21
0.166666666
 31
0.0
 12
0.0
 22
0.0
 32
0.0
 13
0.0
 23
0.0
 33
0.0
  0
LINE
  5
3975
  8
AM_0
 62
     0
 10
-1.0
 20
0.0
 30
0.0
 11
-0.8
 21
0.0
 31
0.0
  0
ENDBLK
  5
3973
  8
0
  0
ENDSEC
  0
SECTION
  2
ENTITIES
  0
LINE
  5
2731
  8
AM_0
 10
413.70135161717519
 20
583.33103393969202
 30
0.0
 11
458.70135161717542
 21
583.33103393969202
 31
0.0
  0
LINE
  5
2732
  8
AM_0
 10
413.70135161717519
 20
593.33097393969194
 30
0.0
 11
458.70135161717542
 21
593.33097393969194
 31
0.0
  0
LINE
  5
2733
  8
AM_0
 10
458.70135161717542
 20
572.33103393969202
 30
0.0
 11
400.70138161717517
 21
572.33103393969202
 31
0.0
  0
LINE
  5
2734
  8
AM_0
 10
458.70135161717542
 20
604.33097393969194
 30
0.0
 11
400.70138161717517
 21
604.33097393969194
 31
0.0
  0
LINE
  5
2735
  8
ﾁｭｳｼﾝｾﾝ
 10
-30.029045085876959
 20
588.33097393969194
 30
0.0
 11
466.61419161717538
 21
588.33097393969194
 31
0.0
  0
LINE
  5
2736
  8
AM_0
 10
153.20132161717561
 20
556.391063939692
 30
0.0
 11
189.29373161717541
 21
556.391063939692
 31
0.0
  0
LINE
  5
2737
  8
AM_0
 10
153.20132161717561
 20
620.27091393969181
 30
0.0
 11
189.29373161717541
 21
620.27091393969181
 31
0.0
  0
LINE
  5
2738
  8
AM_0
 10
153.20132161717561
 20
542.33100393969198
 30
0.0
 11
194.54409161717561
 21
542.33100393969198
 31
0.0
  0
LINE
  5
2739
  8
AM_0
 10
153.2013816171756
 20
644.83097393969194
 30
0.0
 11
205.6327216171756
 21
646.66196393969187
 31
0.0
  0
LINE
  5
273A
  8
AM_0
 10
205.6327216171756
 20
530.00007393969202
 30
0.0
 11
153.2013816171756
 21
531.83100393969175
 31
0.0
  0
LINE
  5
273B
  8
AM_0
 10
153.20132161717561
 20
634.33103393969202
 30
0.0
 11
194.54409161717561
 21
634.33103393969202
 31
0.0
  0
ARC
  5
2903
  8
AM_0
 10
413.70135161717519
 20
588.33097393969194
 30
0.0
 40
4.9999924
 50
90.000003000000945
 51
270.0
  0
LINE
  5
2904
  8
AM_0
 10
213.50406161717549
 20
577.56253393969212
 30
0.0
 11
213.50406161717549
 21
599.56302393969202
 31
0.0
  0
LINE
  5
2905
  8
AM_0
 10
176.20132161717561
 20
578.33100393969175
 30
0.0
 11
176.20132161717561
 21
598.33097393969194
 31
0.0
  0
LINE
  5
2906
  8
AM_0
 10
217.20132161717561
 20
519.04294393969201
 30
0.0
 11
217.20132161717561
 21
657.61899393969156
 31
0.0
  0
LINE
  5
2907
  8
AM_0
 10
283.70132161717561
 20
488.83100393969198
 30
0.0
 11
283.70132161717561
 21
687.83097393969194
 31
0.0
  0
LINE
  5
2908
  8
AM_0
 10
389.70138161717551
 20
527.22763393969205
 30
0.0
 11
389.70138161717551
 21
649.43436393969182
 31
0.0
  0
LINE
  5
2909
  8
AM_0
 10
261.70132161717561
 20
497.40989393969193
 30
0.0
 11
261.70132161717561
 21
679.25211393969221
 31
0.0
  0
LINE
  5
290A
  8
AM_0
 10
227.2013816171756
 20
514.83100393969187
 30
0.0
 11
227.2013816171756
 21
661.83097393969194
 31
0.0
  0
LINE
  5
290B
  8
AM_0
 10
273.70132161717561
 20
523.25879393969205
 30
0.0
 11
273.70132161717561
 21
653.40323393969209
 31
0.0
  0
LINE
  5
290C
  8
AM_0
 10
396.70135161717542
 20
561.06308393969209
 30
0.0
 11
396.70135161717542
 21
588.33097393969194
 31
0.0
  0
LINE
  5
290D
  8
AM_0
 10
400.70138161717517
 20
570.83103393969202
 30
0.0
 11
400.70138161717517
 21
605.83103393969179
 31
0.0
  0
LINE
  5
290E
  8
AM_0
 10
413.70138161717551
 20
583.33103393969202
 30
0.0
 11
413.70138161717551
 21
593.33097393969194
 31
0.0
  0
LINE
  5
290F
  8
AM_0
 10
368.70138161717551
 20
519.12424393969195
 30
0.0
 11
368.70138161717551
 21
657.5377539396917
 31
0.0
  0
POLYLINE
  5
2910
  8
AM_0
 66
     1
 10
0.0
 20
0.0
 30
0.0
  0
VERTEX
  5
2911
  8
AM_0
 10
283.70132161717561
 20
558.05457393969186
 30
0.0
 42
-0.070055462
  0
VERTEX
  5
2912
  8
AM_0
 10
310.06199161717558
 20
537.85723393969204
 30
0.0
 42
-0.27110597
  0
VERTEX
  5
2913
  8
AM_0
 10
318.70135161717548
 20
517.97388393969186
 30
0.0
 42
-0.2130317
  0
VERTEX
  5
2914
  8
AM_0
 10
299.11089161717558
 20
499.83907393969167
 30
0.0
  0
VERTEX
  5
2915
  8
AM_0
 10
283.70132161717561
 20
493.54081393969187
 30
0.0
 42
-1.0
  0
SEQEND
  5
2916
  8
AM_0
  0
POLYLINE
  5
2917
  8
AM_0
 66
     1
 10
0.0
 20
0.0
 30
0.0
  0
VERTEX
  5
2918
  8
AM_0
 10
283.70132161717561
 20
510.91422393969191
 30
0.0
 42
0.040442845
  0
VERTEX
  5
2919
  8
AM_0
 10
295.22951161717549
 20
511.13756393969197
 30
0.0
 42
0.04246989
  0
VERTEX
  5
291A
  8
AM_0
 10
306.56322161717549
 20
513.25104393969195
 30
0.0
 42
0.022672802
  0
VERTEX
  5
291B
  8
AM_0
 10
312.04772161717563
 20
515.04199393969202
 30
0.0
  0
VERTEX
  5
291C
  8
AM_0
 10
317.3533316171754
 20
517.31085393969204
 30
0.0
 42
-1.0
  0
SEQEND
  5
291D
  8
AM_0
  0
LINE
  5
291E
  8
AM_0
 10
239.35269161717551
 20
477.73594393969199
 30
0.0
 11
289.70135161717548
 21
473.33100393969181
 31
0.0
  0
CIRCLE
  5
291F
  8
AM_0
 10
253.70132161717561
 20
493.33100393969198
 30
0.0
 40
7.5
  0
LINE
  5
2920
  8
AM_0
 10
287.70132161717561
 20
488.83100393969198
 30
0.0
 11
287.70132161717561
 21
478.962503939692
 31
0.0
  0
LINE
  5
2921
  8
AM_0
 10
235.70132161717561
 20
505.79245393969182
 30
0.0
 11
235.70132161717561
 21
481.72071393969202
 31
0.0
  0
ARC
  5
2923
  8
AM_0
 10
239.70132161717561
 20
481.72071393969202
 30
0.0
 40
4.0
 50
180.00001000000091
 51
265.00001000000037
  0
ARC
  5
2924
  8
AM_0
 10
274.70132161717561
 20
477.65479393969201
 30
0.0
 40
3.0
 50
85.000004000000885
 51
265.0
  0
ARC
  5
2925
  8
AM_0
 10
282.70132161717561
 20
478.962503939692
 30
0.0
 40
5.0
 50
265.00001000000037
 51
0.0000006832495047
  0
LINE
  5
2926
  8
AM_0
 10
274.9628016171755
 20
480.64338393969189
 30
0.0
 11
283.3527516171755
 21
479.90934393969189
 31
0.0
  0
ARC
  5
2927
  8
AM_0
 10
283.70132161717561
 20
483.89414393969179
 30
0.0
 40
4.0
 50
265.00001000000037
 51
0.0000006832495047
  0
LINE
  5
2928
  8
AM_0
 10
217.20132161717561
 20
526.75235393969194
 30
0.0
 11
261.70132161717561
 21
526.75235393969194
 31
0.0
  0
LINE
  5
2929
  8
AM_0
 10
217.20132161717561
 20
548.85633393969204
 30
0.0
 11
261.70132161717561
 21
548.85633393969204
 31
0.0
  0
LINE
  5
292A
  8
AM_0
 10
221.0617916171756
 20
515.04541393969203
 30
0.0
 11
259.27121161717548
 21
513.71109393969198
 31
0.0
  0
POLYLINE
  5
292B
  8
AM_0
 66
     1
 10
0.0
 20
0.0
 30
0.0
  0
VERTEX
  5
292C
  8
AM_0
 10
196.32112161717549
 20
542.91288393969205
 30
0.0
 42
0.011693535
  0
VERTEX
  5
292D
  8
AM_0
 10
199.8840016171753
 20
538.41651393969198
 30
0.0
 42
0.011216789
  0
VERTEX
  5
292E
  8
AM_0
 10
203.64888161717559
 20
534.08775393969188
 30
0.0
 42
0.011000239
  0
VERTEX
  5
292F
  8
AM_0
 10
207.60098161717551
 20
529.93131393969202
 30
0.0
  0
SEQEND
  5
2930
  8
AM_0
  0
LINE
  5
2931
  8
AM_0
 10
215.77438161717549
 20
521.75797393969185
 30
0.0
 11
208.9937416171756
 21
528.53864393969195
 31
0.0
  0
ARC
  5
2932
  8
AM_0
 10
205.45816161717551
 20
525.00309393969201
 30
0.0
 40
5.0
 50
44.999998000001611
 51
87.999999999999503
  0
ARC
  5
2933
  8
AM_0
 10
221.20132161717561
 20
519.04294393969201
 30
0.0
 40
4.0
 50
180.00001000000091
 51
267.99999999999949
  0
ARC
  5
2934
  8
AM_0
 10
212.2388016171756
 20
518.22245393969195
 30
0.0
 40
5.0
 50
5.2307202000000732
 51
44.999998000001611
  0
POLYLINE
  5
2935
  8
AM_0
 66
     1
 10
0.0
 20
0.0
 30
0.0
  0
VERTEX
  5
2936
  8
AM_0
 10
191.87940161717549
 20
554.91221393969204
 30
0.0
 42
0.0058779451
  0
VERTEX
  5
2937
  8
AM_0
 10
193.0890216171756
 20
552.91063393969205
 30
0.0
 42
0.0056588807
  0
VERTEX
  5
2938
  8
AM_0
 10
194.34449161717549
 20
550.93748393969202
 30
0.0
 42
0.0054619285
  0
VERTEX
  5
2939
  8
AM_0
 10
195.64353161717551
 20
548.99273393969202
 30
0.0
 42
0.0052861386
  0
VERTEX
  5
293A
  8
AM_0
 10
196.98406161717551
 20
547.07633393969206
 30
0.0
  0
SEQEND
  5
293B
  8
AM_0
  0
ARC
  5
293C
  8
AM_0
 10
194.54409161717561
 20
545.33100393969175
 30
0.0
 40
3.0
 50
270.0
 51
35.575756999999619
  0
LINE
  5
293D
  8
AM_0
 10
179.20132161717561
 20
575.33100393969198
 30
0.0
 11
210.50406161717549
 21
575.33100393969198
 31
0.0
  0
POLYLINE
  5
293E
  8
AM_0
 66
     1
 10
0.0
 20
0.0
 30
0.0
  0
VERTEX
  5
293F
  8
AM_0
 10
180.17093161717551
 20
575.33124393969194
 30
0.0
  0
VERTEX
  5
2940
  8
AM_0
 10
187.5981916171753
 20
556.39184393969185
 30
0.0
 42
-1.0
  0
SEQEND
  5
2941
  8
AM_0
  0
ARC
  5
2942
  8
AM_0
 10
189.29373161717541
 20
553.39106393969189
 30
0.0
 40
3.0
 50
30.468076999999099
 51
90.000003000000945
  0
ARC
  5
2943
  8
AM_0
 10
179.20132161717561
 20
578.33100393969175
 30
0.0
 40
3.0
 50
180.00001000000091
 51
270.0
  0
ARC
  5
2944
  8
AM_0
 10
210.50406161717549
 20
572.33100393969198
 30
0.0
 40
3.0
 50
0.0
 51
90.000003000000945
  0
LINE
  5
2946
  8
AM_0
 10
238.66610161717551
 20
509.65613393969193
 30
0.0
 11
254.43026161717549
 21
513.88013393969186
 31
0.0
  0
ARC
  5
2947
  8
AM_0
 10
239.70132161717561
 20
505.79245393969182
 30
0.0
 40
4.0
 50
105.0000000000007
 51
180.00001000000091
  0
ARC
  5
2948
  8
AM_0
 10
258.70132161717561
 20
510.729163939692
 30
0.0
 40
3.0
 50
0.0
 51
87.999999999999503
  0
ARC
  5
2949
  8
AM_0
 10
270.70132161717561
 20
502.44098393969199
 30
0.0
 40
3.0
 50
0.0
 51
90.000003000000945
  0
ARC
  5
294A
  8
AM_0
 10
276.70132161717561
 20
492.07727393969202
 30
0.0
 40
3.0
 50
180.00001000000091
 51
267.99999999999949
  0
ARC
  5
294B
  8
AM_0
 10
270.73855161717552
 20
491.40989393969198
 30
0.0
 40
3.0
 50
6.3862994000025628
 51
90.000003000000945
  0
LINE
  5
294C
  8
AM_0
 10
283.70132161717561
 20
510.91422393969191
 30
0.0
 11
261.70132161717561
 21
510.91422393969191
 31
0.0
  0
LINE
  5
294D
  8
AM_0
 10
264.70132161717561
 20
494.40989393969193
 30
0.0
 11
270.73855161717552
 21
494.40989393969193
 31
0.0
  0
ARC
  5
294E
  8
AM_0
 10
264.70132161717561
 20
497.40989393969193
 30
0.0
 40
3.0
 50
180.00001000000091
 51
270.0
  0
LINE
  5
294F
  8
AM_0
 10
264.70132161717561
 20
505.44098393969188
 30
0.0
 11
270.70132161717561
 21
505.44098393969188
 31
0.0
  0
ARC
  5
2950
  8
AM_0
 10
264.70132161717561
 20
508.44098393969188
 30
0.0
 40
3.0
 50
180.00001000000091
 51
270.0
  0
LINE
  5
2951
  8
AM_0
 10
273.70132161717561
 20
492.07727393969202
 30
0.0
 11
273.70132161717561
 21
502.44098393969199
 31
0.0
  0
LINE
  5
2952
  8
AM_0
 10
276.59665161717561
 20
489.07911393969192
 30
0.0
 11
283.70132161717561
 21
488.83103393969202
 31
0.0
  0
LINE
  5
2953
  8
AM_0
 10
283.70132161717561
 20
493.54081393969187
 30
0.0
 11
273.70132161717561
 21
493.54081393969187
 31
0.0
  0
LINE
  5
2954
  8
AM_0
 10
283.70132161717561
 20
488.83100393969198
 30
0.0
 11
287.70132161717561
 21
488.83100393969198
 31
0.0
  0
ARC
  5
2955
  8
AM_0
 10
270.70132161717561
 20
523.25879393969205
 30
0.0
 40
3.0
 50
269.999989999999
 51
0.0000006832495047
  0
LINE
  5
2956
  8
AM_0
 10
261.70132161717561
 20
531.01343393969205
 30
0.0
 11
273.70132161717561
 21
531.01343393969205
 31
0.0
  0
LINE
  5
2957
  8
AM_0
 10
261.70132161717561
 20
520.25879393969205
 30
0.0
 11
270.70132161717561
 21
520.25879393969205
 31
0.0
  0
LINE
  5
2958
  8
AM_0
 10
283.70132161717561
 20
558.05457393969186
 30
0.0
 11
273.70132161717561
 21
558.05457393969186
 31
0.0
  0
CIRCLE
  5
2959
  8
AM_0
 10
378.70138161717551
 20
493.33100393969198
 30
0.0
 40
7.5
  0
LINE
  5
295A
  8
AM_0
 10
348.70135161717548
 20
483.67557393969179
 30
0.0
 11
348.70135161717548
 21
499.11741393969203
 31
0.0
  0
LINE
  5
295C
  8
AM_0
 10
396.70138161717551
 20
519.33100393969175
 30
0.0
 11
396.70138161717551
 21
480.93027393969197
 31
0.0
  0
ARC
  5
295D
  8
AM_0
 10
356.70135161717548
 20
483.67557393969179
 30
0.0
 40
8.0
 50
180.00001000000091
 51
271.99999000000139
  0
LINE
  5
295E
  8
AM_0
 10
289.70135161717548
 20
473.33100393969181
 30
0.0
 11
392.84097161717563
 21
476.93271393969201
 31
0.0
  0
ARC
  5
295F
  8
AM_0
 10
392.70138161717551
 20
480.93027393969197
 30
0.0
 40
4.0
 50
272.00000000000051
 51
0.0
  0
ARC
  5
2960
  8
AM_0
 10
360.70135161717542
 20
499.11741393969203
 30
0.0
 40
12.0
 50
91.500001000001546
 51
180.00001000000091
  0
LINE
  5
2961
  8
AM_0
 10
385.80609161717553
 20
523.22901393969187
 30
0.0
 11
375.94421161717543
 21
522.97077393969198
 31
0.0
  0
ARC
  5
2963
  8
AM_0
 10
360.70138161717551
 20
519.12424393969195
 30
0.0
 40
8.0
 50
271.49999999999937
 51
0.0
  0
LINE
  5
2964
  8
AM_0
 10
360.91079161717562
 20
511.12699393969189
 30
0.0
 11
360.38723161717547
 21
511.1132939396918
 31
0.0
  0
ARC
  5
2965
  8
AM_0
 10
376.15359161717561
 20
514.97348393969185
 30
0.0
 40
8.0
 50
91.500001000001546
 51
164.96420000000299
  0
ARC
  5
2966
  8
AM_0
 10
385.70138161717551
 20
527.22763393969205
 30
0.0
 40
4.0
 50
271.49999999999937
 51
0.0
  0
ARC
  5
2967
  8
AM_0
 10
392.70138161717551
 20
519.33100393969175
 30
0.0
 40
4.0
 50
0.0
 51
82.819247000000175
  0
ARC
  5
2968
  8
AM_0
 10
393.70138161717551
 20
527.26825393969204
 30
0.0
 40
4.0
 50
180.00001000000091
 51
262.81924999999973
  0
ARC
  5
2969
  8
AM_0
 10
393.70135161717542
 20
561.06308393969209
 30
0.0
 40
3.0
 50
300.00001000000083
 51
0.0
  0
ARC
  5
296A
  8
AM_0
 10
392.70138161717551
 20
553.55753393969201
 30
0.0
 40
3.0
 50
120.0000000000005
 51
180.00001000000091
  0
LINE
  5
296B
  8
AM_0
 10
391.20132161717561
 20
556.15561393969199
 30
0.0
 11
395.20132161717561
 21
558.46503393969203
 31
0.0
  0
LINE
  5
296C
  8
AM_0
 10
400.70138161717517
 20
570.83103393969202
 30
0.0
 11
396.70135161717542
 21
570.83103393969202
 31
0.0
  0
POLYLINE
  5
296D
  8
AM_0
 66
     1
 10
0.0
 20
0.0
 30
0.0
  0
VERTEX
  5
296E
  8
AM_0
 10
283.70132161717561
 20
618.6074639396918
 30
0.0
 42
0.070055443
  0
VERTEX
  5
296F
  8
AM_0
 10
310.06199161717558
 20
638.80480393969185
 30
0.0
 42
0.27110593
  0
VERTEX
  5
2970
  8
AM_0
 10
318.70135161717548
 20
658.68814393969205
 30
0.0
 42
0.21303199
  0
VERTEX
  5
2971
  8
AM_0
 10
299.11089161717558
 20
676.82293393969201
 30
0.0
  0
VERTEX
  5
2972
  8
AM_0
 10
283.70132161717561
 20
683.12119393969203
 30
0.0
 42
-1.0
  0
SEQEND
  5
2973
  8
AM_0
  0
POLYLINE
  5
2974
  8
AM_0
 66
     1
 10
0.0
 20
0.0
 30
0.0
  0
VERTEX
  5
2975
  8
AM_0
 10
283.70132161717561
 20
665.747783939692
 30
0.0
 42
-0.040442832
  0
VERTEX
  5
2976
  8
AM_0
 10
295.2295016171754
 20
665.52443393969213
 30
0.0
 42
-0.042469875
  0
VERTEX
  5
2977
  8
AM_0
 10
306.56322161717549
 20
663.41095393969158
 30
0.0
 42
-0.022671837
  0
VERTEX
  5
2978
  8
AM_0
 10
312.04771161717548
 20
661.62001393969194
 30
0.0
  0
VERTEX
  5
2979
  8
AM_0
 10
317.3533316171754
 20
659.35118393969219
 30
0.0
 42
-1.0
  0
SEQEND
  5
297A
  8
AM_0
  0
LINE
  5
297B
  8
AM_0
 10
239.3527516171755
 20
698.92606393969197
 30
0.0
 11
289.70138161717529
 21
703.33097393969194
 31
0.0
  0
ARC
  5
297C
  8
AM_0
 10
270.73855161717552
 20
685.25211393969198
 30
0.0
 40
3.0
 50
269.999989999999
 51
353.61369000000428
  0
CIRCLE
  5
297D
  8
AM_0
 10
253.70132161717561
 20
683.33097393969194
 30
0.0
 40
7.5
  0
LINE
  5
297E
  8
AM_0
 10
273.70132161717561
 20
684.58475393969195
 30
0.0
 11
273.70132161717561
 21
674.22104393969175
 31
0.0
  0
LINE
  5
297F
  8
AM_0
 10
235.70132161717561
 20
670.86954393969211
 30
0.0
 11
235.70132161717561
 21
694.94126393969191
 31
0.0
  0
LINE
  5
2981
  8
AM_0
 10
217.20132161717561
 20
649.90964393969216
 30
0.0
 11
261.70132161717561
 21
649.90964393969216
 31
0.0
  0
LINE
  5
2982
  8
AM_0
 10
217.20132161717561
 20
627.80570393969185
 30
0.0
 11
261.70132161717561
 21
627.80570393969185
 31
0.0
  0
LINE
  5
2983
  8
AM_0
 10
221.0617916171756
 20
661.6165539396917
 30
0.0
 11
258.80606161717549
 21
662.93460393969201
 31
0.0
  0
POLYLINE
  5
2984
  8
AM_0
 66
     1
 10
0.0
 20
0.0
 30
0.0
  0
VERTEX
  5
2985
  8
AM_0
 10
196.32112161717549
 20
633.74911393969205
 30
0.0
 42
-0.011693563
  0
VERTEX
  5
2986
  8
AM_0
 10
199.8840016171753
 20
638.24548393969201
 30
0.0
 42
-0.011216838
  0
VERTEX
  5
2987
  8
AM_0
 10
203.64888161717559
 20
642.57424393969211
 30
0.0
 42
-0.011000316
  0
VERTEX
  5
2988
  8
AM_0
 10
207.60098161717551
 20
646.73069393969195
 30
0.0
  0
SEQEND
  5
2989
  8
AM_0
  0
ARC
  5
298A
  8
AM_0
 10
194.54409161717561
 20
631.33103393969202
 30
0.0
 40
3.0
 50
324.42424000000028
 51
90.000003000000945
  0
POLYLINE
  5
298B
  8
AM_0
 66
     1
 10
0.0
 20
0.0
 30
0.0
  0
VERTEX
  5
298C
  8
AM_0
 10
191.87940161717549
 20
621.74976393969212
 30
0.0
 42
-0.0058779419
  0
VERTEX
  5
298D
  8
AM_0
 10
193.0890216171756
 20
623.75134393969199
 30
0.0
 42
-0.0056588802
  0
VERTEX
  5
298E
  8
AM_0
 10
194.34449161717549
 20
625.724503939692
 30
0.0
 42
-0.0054619308
  0
VERTEX
  5
298F
  8
AM_0
 10
195.64353161717551
 20
627.66925393969166
 30
0.0
 42
-0.0052861438
  0
VERTEX
  5
2990
  8
AM_0
 10
196.98406161717551
 20
629.58565393969195
 30
0.0
  0
SEQEND
  5
2991
  8
AM_0
  0
LINE
  5
2992
  8
AM_0
 10
179.20132161717561
 20
601.33097393969206
 30
0.0
 11
210.50406161717549
 21
601.33097393969206
 31
0.0
  0
POLYLINE
  5
2993
  8
AM_0
 66
     1
 10
0.0
 20
0.0
 30
0.0
  0
VERTEX
  5
2994
  8
AM_0
 10
180.17093161717551
 20
601.33070393969194
 30
0.0
  0
VERTEX
  5
2995
  8
AM_0
 10
187.5981916171753
 20
620.27013393969185
 30
0.0
 42
-1.0
  0
SEQEND
  5
2996
  8
AM_0
  0
ARC
  5
2997
  8
AM_0
 10
179.20132161717561
 20
598.33097393969194
 30
0.0
 40
3.0
 50
90.000003000000945
 51
180.00001000000091
  0
ARC
  5
2998
  8
AM_0
 10
189.29373161717541
 20
623.2709139396917
 30
0.0
 40
3.0
 50
270.0
 51
329.53192000000138
  0
ARC
  5
2999
  8
AM_0
 10
210.50406161717549
 20
604.33097393969194
 30
0.0
 40
3.0
 50
270.0
 51
0.0
  0
ARC
  5
299A
  8
AM_0
 10
221.20132161717561
 20
657.61899393969156
 30
0.0
 40
4.0
 50
91.999998000000545
 51
180.00001000000091
  0
LINE
  5
299B
  8
AM_0
 10
208.9936816171755
 20
648.12339393969205
 30
0.0
 11
215.77438161717549
 21
654.904033939692
 31
0.0
  0
ARC
  5
299C
  8
AM_0
 10
205.45816161717551
 20
651.65891393969196
 30
0.0
 40
5.0
 50
272.00000000000051
 51
315.0
  0
ARC
  5
299D
  8
AM_0
 10
212.2388016171756
 20
658.43955393969202
 30
0.0
 40
5.0
 50
315.0
 51
354.76905999999752
  0
LINE
  5
299E
  8
AM_0
 10
283.70132161717561
 20
618.6074639396918
 30
0.0
 11
273.70132161717561
 21
618.6074639396918
 31
0.0
  0
LINE
  5
29A0
  8
AM_0
 10
238.66610161717551
 20
667.00583393969202
 30
0.0
 11
254.43039161717559
 21
662.78183393969186
 31
0.0
  0
ARC
  5
29A1
  8
AM_0
 10
239.70132161717561
 20
670.86954393969211
 30
0.0
 40
4.0
 50
180.00001000000091
 51
254.9999900000019
  0
ARC
  5
29A2
  8
AM_0
 10
270.70132161717561
 20
653.40323393969209
 30
0.0
 40
3.0
 50
0.0
 51
90.000003000000945
  0
LINE
  5
29A3
  8
AM_0
 10
261.70132161717561
 20
645.64859393969198
 30
0.0
 11
273.70132161717561
 21
645.64859393969198
 31
0.0
  0
LINE
  5
29A4
  8
AM_0
 10
261.70132161717561
 20
656.4032339396922
 30
0.0
 11
270.70132161717561
 21
656.4032339396922
 31
0.0
  0
ARC
  5
29A5
  8
AM_0
 10
270.70132161717561
 20
674.22104393969175
 30
0.0
 40
3.0
 50
269.999989999999
 51
0.0000006832495047
  0
LINE
  5
29A6
  8
AM_0
 10
283.70132161717561
 20
665.747783939692
 30
0.0
 11
261.70132161717561
 21
665.747783939692
 31
0.0
  0
ARC
  5
29A7
  8
AM_0
 10
264.70132161717561
 20
668.22104393969209
 30
0.0
 40
3.0
 50
90.000003000000945
 51
180.00001000000091
  0
LINE
  5
29A8
  8
AM_0
 10
264.70132161717561
 20
671.22104393969221
 30
0.0
 11
270.70132161717561
 21
671.22104393969221
 31
0.0
  0
ARC
  5
29A9
  8
AM_0
 10
258.70132161717561
 20
665.93283393969182
 30
0.0
 40
3.0
 50
272.00000000000051
 51
0.0
  0
LINE
  5
29AA
  8
AM_0
 10
264.70132161717561
 20
682.25211393969175
 30
0.0
 11
270.73855161717552
 21
682.25211393969175
 31
0.0
  0
ARC
  5
29AB
  8
AM_0
 10
264.70132161717561
 20
679.25211393969221
 30
0.0
 40
3.0
 50
90.000003000000945
 51
180.00001000000091
  0
LINE
  5
29AC
  8
AM_0
 10
283.70132161717561
 20
683.12119393969203
 30
0.0
 11
273.70132161717561
 21
683.12119393969203
 31
0.0
  0
ARC
  5
29AD
  8
AM_0
 10
239.70132161717561
 20
694.94126393969191
 30
0.0
 40
4.0
 50
95.00000199999856
 51
180.00001000000091
  0
ARC
  5
29AE
  8
AM_0
 10
276.70132161717561
 20
684.58475393969195
 30
0.0
 40
3.0
 50
91.999998000000545
 51
180.00001000000091
  0
ARC
  5
29AF
  8
AM_0
 10
274.70132161717561
 20
699.0072439396921
 30
0.0
 40
3.0
 50
95.00000199999856
 51
275.0
  0
ARC
  5
29B0
  8
AM_0
 10
283.70132161717561
 20
692.76786393969212
 30
0.0
 40
4.0
 50
0.0
 51
95.00000199999856
  0
LINE
  5
29B1
  8
AM_0
 10
287.70132161717561
 20
687.83097393969194
 30
0.0
 11
287.70132161717561
 21
697.69950393969191
 31
0.0
  0
LINE
  5
29B2
  8
AM_0
 10
274.96286161717541
 20
696.0185939396921
 30
0.0
 11
283.3527516171755
 21
696.75260393969177
 31
0.0
  0
LINE
  5
29B3
  8
AM_0
 10
276.59665161717561
 20
687.58292393969191
 30
0.0
 11
283.70132161717561
 21
687.83103393969191
 31
0.0
  0
LINE
  5
29B4
  8
AM_0
 10
283.70132161717561
 20
687.83097393969194
 30
0.0
 11
287.70132161717561
 21
687.83097393969194
 31
0.0
  0
ARC
  5
29B5
  8
AM_0
 10
282.70132161717561
 20
697.69950393969191
 30
0.0
 40
5.0
 50
0.0
 51
95.00000199999856
  0
CIRCLE
  5
29B6
  8
AM_0
 10
378.70138161717551
 20
683.33097393969194
 30
0.0
 40
7.5
  0
LINE
  5
29B7
  8
AM_0
 10
348.70135161717548
 20
677.54459393969205
 30
0.0
 11
348.70135161717548
 21
692.98642393969192
 31
0.0
  0
LINE
  5
29B8
  8
AM_0
 10
396.70138161717551
 20
657.33097393969194
 30
0.0
 11
396.70138161717551
 21
695.73172393969185
 31
0.0
  0
LINE
  5
29B9
  8
ﾁｭｳｼﾝｾﾝ1
 10
378.70138161717551
 20
669.83097393969194
 30
0.0
 11
378.70138161717551
 21
696.83097393969194
 31
0.0
  0
ARC
  5
29BA
  8
AM_0
 10
360.70135161717542
 20
677.54459393969205
 30
0.0
 40
12.0
 50
180.00001000000091
 51
268.50000000000063
  0
LINE
  5
29BB
  8
AM_0
 10
396.70135161717542
 20
588.33097393969194
 30
0.0
 11
396.70135161717542
 21
615.59897393969175
 31
0.0
  0
LINE
  5
29BC
  8
AM_0
 10
400.70138161717517
 20
605.83103393969179
 30
0.0
 11
396.70135161717542
 21
605.83103393969179
 31
0.0
  0
ARC
  5
29BD
  8
AM_0
 10
392.70138161717551
 20
623.10453393969203
 30
0.0
 40
3.0
 50
179.999989999999
 51
240.00000999999969
  0
ARC
  5
29BE
  8
AM_0
 10
393.70135161717542
 20
615.59897393969175
 30
0.0
 40
3.0
 50
0.0
 51
60.000002000001302
  0
LINE
  5
29BF
  8
AM_0
 10
391.20138161717551
 20
620.50644393969185
 30
0.0
 11
395.20135161717559
 21
618.19706393969182
 31
0.0
  0
LINE
  5
29C0
  8
ﾁｭｳｼﾝｾﾝ1
 10
365.20138161717551
 20
683.33097393969194
 30
0.0
 11
392.20138161717551
 21
683.33097393969194
 31
0.0
  0
LINE
  5
29C1
  8
AM_0
 10
385.80606161717549
 20
653.43302393969179
 30
0.0
 11
375.9441816171755
 21
653.69126393969202
 31
0.0
  0
ARC
  5
29C2
  8
AM_0
 10
360.70138161717551
 20
657.5377539396917
 30
0.0
 40
8.0
 50
0.0
 51
88.499997000000647
  0
ARC
  5
29C3
  8
AM_0
 10
376.15359161717561
 20
661.68851393969157
 30
0.0
 40
8.0
 50
195.0357999999969
 51
268.50000000000063
  0
LINE
  5
29C4
  8
AM_0
 10
360.91076161717552
 20
665.53501393969202
 30
0.0
 11
360.38723161717547
 21
665.54868393969195
 31
0.0
  0
ARC
  5
29C5
  8
AM_0
 10
393.70138161717551
 20
649.39371393969202
 30
0.0
 40
4.0
 50
97.180758000000822
 51
180.00001000000091
  0
ARC
  5
29C6
  8
AM_0
 10
385.70138161717551
 20
649.43436393969182
 30
0.0
 40
4.0
 50
0.0
 51
88.499997000000647
  0
ARC
  5
29C7
  8
AM_0
 10
392.70138161717551
 20
657.33097393969194
 30
0.0
 40
4.0
 50
277.18075000000027
 51
0.0
  0
ARC
  5
29C8
  8
AM_0
 10
356.70135161717548
 20
692.98642393969192
 30
0.0
 40
8.0
 50
87.999999999999503
 51
180.00001000000091
  0
LINE
  5
29C9
  8
AM_0
 10
289.70138161717529
 20
703.33103393969191
 30
0.0
 11
392.84097161717563
 21
699.72928393969187
 31
0.0
  0
ARC
  5
29CA
  8
AM_0
 10
392.70138161717551
 20
695.73172393969185
 30
0.0
 40
4.0
 50
0.0
 51
87.999999999999503
  0
LINE
  5
29CB
  8
AM_0
 10
458.70135161717542
 20
572.33103393969202
 30
0.0
 11
458.70135161717542
 21
604.33097393969194
 31
0.0
  0
LINE
  5
2A42
  8
ﾁｭｳｼﾝｾﾝ1
 10
253.70132161717561
 20
669.83097393969194
 30
0.0
 11
253.70132161717561
 21
696.83097393969194
 31
0.0
  0
LINE
  5
2A43
  8
ﾁｭｳｼﾝｾﾝ1
 10
240.20132161717561
 20
683.33097393969194
 30
0.0
 11
267.20132161717561
 21
683.33097393969194
 31
0.0
  0
LINE
  5
2A4A
  8
ﾁｭｳｼﾝｾﾝ1
 10
253.70132161717561
 20
479.83100393969198
 30
0.0
 11
253.70132161717561
 21
506.83100393969181
 31
0.0
  0
LINE
  5
2A4B
  8
ﾁｭｳｼﾝｾﾝ1
 10
240.20132161717561
 20
493.33100393969198
 30
0.0
 11
267.20132161717561
 21
493.33100393969198
 31
0.0
  0
LINE
  5
2A52
  8
ﾁｭｳｼﾝｾﾝ1
 10
378.70138161717551
 20
479.83100393969198
 30
0.0
 11
378.70138161717551
 21
506.83100393969181
 31
0.0
  0
LINE
  5
2A53
  8
ﾁｭｳｼﾝｾﾝ1
 10
365.20138161717551
 20
493.33100393969198
 30
0.0
 11
392.20138161717551
 21
493.33100393969198
 31
0.0
  0
LINE
  5
2FF9
  8
AM_0
 10
52.701321617175488
 20
522.73102343969163
 30
0.0
 11
134.70132161717561
 21
522.73102343969163
 31
0.0
  0
LINE
  5
2FFA
  8
AM_0
 10
-8.7986783828243862
 20
653.93102343969156
 30
0.0
 11
134.70132161717561
 21
653.93102343969156
 31
0.0
  0
ARC
  5
2FFB
  8
AM_0
 10
-23.298678382824509
 20
571.33102343969165
 30
0.0
 40
3.0
 50
180.0
 51
270.0
1001
GENIUS_GENODEF_13
1002
{
1000
HIER
1070
     0
1002
}
1002
{
1000
MANEDIT
1070
     0
1002
}
1002
{
1000
NOSEL
1070
     0
1002
}
1002
{
1000
BEHIND
1070
     0
1002
}
1002
{
1000
OTHER
1070
     0
1002
}
1002
{
1000
REACTOR
1002
}
1001
GENIUS_GENOBJ-N-FIL_13
1002
{
1000
OWNER
1000
GEN
1002
}
  0
LINE
  5
2FFC
  8
AM_0
 10
-10.79867838282439
 20
651.93102343969156
 30
0.0
 11
-10.79867838282439
 21
524.73102343969163
 31
0.0
  0
LINE
  5
2FFD
  8
AM_0
 10
-8.2986783828243862
 20
653.93102343969156
 30
0.0
 11
-8.2986783828245052
 21
522.73102343969163
 31
0.0
  0
ARC
  5
2FFE
  8
AM_0
 10
923.88744542699544
 20
588.33102343969142
 30
0.0
 40
940.68612380981915
 50
176.76392470776139
 51
183.2360752922385
  0
LINE
  5
2FFF
  8
AM_0
 10
-15.29867838282439
 20
641.43289131107088
 30
0.0
 11
-15.2986783828245
 21
535.22915556831197
 31
0.0
  0
LINE
  5
3000
  8
AM_0
 10
9.2013216171754948
 20
528.07205046651245
 30
0.0
 11
-3.298678382824503
 21
528.07205046651245
 31
0.0
  0
LINE
  5
3001
  8
AM_0
 10
50.701321617175488
 20
510.67862520945988
 30
0.0
 11
-3.298678382824503
 21
510.67862520945988
 31
0.0
  0
LINE
  5
3002
  8
AM_0
 10
50.701321617175438
 20
507.2710242107533
 30
0.0
 11
-3.298678382824503
 21
507.2710242107533
 31
0.0
  0
LINE
  5
3003
  8
AM_0
 10
-5.2986783828245052
 20
526.07205046651245
 30
0.0
 11
-5.2986783828245052
 21
509.27102421075352
 31
0.0
  0
ARC
  5
3004
  8
AM_0
 10
-3.298678382824503
 20
509.27102421075352
 30
0.0
 40
2.0
 50
180.0
 51
270.0
1001
GENIUS_GENOBJ-N-FIL_13
1002
{
1000
OWNER
1000
GEN
1002
}
1001
GENIUS_GENODEF_13
1002
{
1000
HIER
1070
     0
1002
}
1002
{
1000
MANEDIT
1070
     0
1002
}
1002
{
1000
NOSEL
1070
     0
1002
}
1002
{
1000
BEHIND
1070
     0
1002
}
1002
{
1000
OTHER
1070
     0
1002
}
1002
{
1000
REACTOR
1002
}
  0
ARC
  5
3005
  8
AM_0
 10
-3.298678382824503
 20
512.67862520946005
 30
0.0
 40
2.0
 50
180.0
 51
270.0
1001
GENIUS_GENODEF_13
1002
{
1000
HIER
1070
     0
1002
}
1002
{
1000
MANEDIT
1070
     0
1002
}
1002
{
1000
NOSEL
1070
     0
1002
}
1002
{
1000
BEHIND
1070
     0
1002
}
1002
{
1000
OTHER
1070
     0
1002
}
1002
{
1000
REACTOR
1002
}
1001
GENIUS_GENOBJ-N-FIL_13
1002
{
1000
OWNER
1000
GEN
1002
}
  0
ARC
  5
3006
  8
AM_0
 10
-8.7986783828243862
 20
524.73102343969163
 30
0.0
 40
2.0
 50
180.0
 51
270.0
1001
GENIUS_GENOBJ-N-FIL_13
1002
{
1000
OWNER
1000
GEN
1002
}
1001
GENIUS_GENODEF_13
1002
{
1000
HIER
1070
     0
1002
}
1002
{
1000
MANEDIT
1070
     0
1002
}
1002
{
1000
NOSEL
1070
     0
1002
}
1002
{
1000
BEHIND
1070
     0
1002
}
1002
{
1000
OTHER
1070
     0
1002
}
1002
{
1000
REACTOR
1002
}
  0
LINE
  5
3007
  8
AM_0
 10
-11.469950705164591
 20
530.92770994843829
 30
0.0
 11
-14.627406060484301
 21
533.73433693094466
 31
0.0
  0
ARC
  5
3008
  8
AM_0
 10
-12.79867838282439
 20
529.43289131107076
 30
0.0
 40
2.0
 50
0.0
 51
48.36646066343372
1001
GENIUS_GENOBJ-N-FIL_13
1002
{
1000
OWNER
1000
GEN
1002
}
1001
GENIUS_GENODEF_13
1002
{
1000
HIER
1070
     0
1002
}
1002
{
1000
MANEDIT
1070
     0
1002
}
1002
{
1000
NOSEL
1070
     0
1002
}
1002
{
1000
BEHIND
1070
     0
1002
}
1002
{
1000
OTHER
1070
     0
1002
}
1002
{
1000
REACTOR
1002
}
  0
ARC
  5
3009
  8
AM_0
 10
-13.2986783828245
 20
535.22915556831197
 30
0.0
 40
2.0
 50
180.0
 51
228.36646066343371
1001
GENIUS_GENODEF_13
1002
{
1000
HIER
1070
     0
1002
}
1002
{
1000
MANEDIT
1070
     0
1002
}
1002
{
1000
NOSEL
1070
     0
1002
}
1002
{
1000
BEHIND
1070
     0
1002
}
1002
{
1000
OTHER
1070
     0
1002
}
1002
{
1000
REACTOR
1002
}
1001
GENIUS_GENOBJ-N-FIL_13
1002
{
1000
OWNER
1000
GEN
1002
}
  0
ARC
  5
300A
  8
AM_0
 10
-3.298678382824503
 20
526.07205046651245
 30
0.0
 40
2.0
 50
90.0
 51
180.0
1001
GENIUS_GENOBJ-N-FIL_13
1002
{
1000
OWNER
1000
GEN
1002
}
1001
GENIUS_GENODEF_13
1002
{
1000
HIER
1070
     0
1002
}
1002
{
1000
MANEDIT
1070
     0
1002
}
1002
{
1000
NOSEL
1070
     0
1002
}
1002
{
1000
BEHIND
1070
     0
1002
}
1002
{
1000
OTHER
1070
     0
1002
}
1002
{
1000
REACTOR
1002
}
  0
LINE
  5
300B
  8
AM_0
 10
-8.7986783828243862
 20
522.73102343969163
 30
0.0
 11
-5.2986783828245052
 21
522.73102343969163
 31
0.0
  0
LINE
  5
300C
  8
AM_0
 10
25.201321617175498
 20
532.04023046022235
 30
0.0
 11
25.201321617175552
 21
519.1814275069969
 31
0.0
  0
LINE
  5
300D
  8
AM_0
 10
9.2013216171754948
 20
532.0402304602228
 30
0.0
 11
9.2013216171754948
 21
519.1814275069969
 31
0.0
  0
LINE
  5
300E
  8
AM_0
 10
21.201321617175608
 20
528.48844616850374
 30
0.0
 11
21.201321617175608
 21
519.1814275069969
 31
0.0
  0
LINE
  5
300F
  8
AM_0
 10
13.201321617175481
 20
528.48844616850374
 30
0.0
 11
13.201321617175481
 21
519.1814275069969
 31
0.0
  0
LINE
  5
3010
  8
AM_0
 10
52.701321617175488
 20
526.07205046651245
 30
0.0
 11
52.701321617175438
 21
509.27102421075341
 31
0.0
  0
LINE
  5
3011
  8
AM_0
 10
25.201321617175552
 20
519.1814275069969
 30
0.0
 11
21.201321617175608
 21
519.1814275069969
 31
0.0
  0
LINE
  5
3012
  8
AM_0
 10
13.201321617175481
 20
519.1814275069969
 30
0.0
 11
9.2013216171754948
 21
519.1814275069969
 31
0.0
  0
ARC
  5
3013
  8
AM_0
 10
50.701321617175438
 20
509.27102421075341
 30
0.0
 40
2.0
 50
270.0
 51
0.0
1001
GENIUS_GENOBJ-N-FIL_13
1002
{
1000
OWNER
1000
GEN
1002
}
1001
GENIUS_GENODEF_13
1002
{
1000
HIER
1070
     0
1002
}
1002
{
1000
MANEDIT
1070
     0
1002
}
1002
{
1000
NOSEL
1070
     0
1002
}
1002
{
1000
BEHIND
1070
     0
1002
}
1002
{
1000
OTHER
1070
     0
1002
}
1002
{
1000
REACTOR
1002
}
  0
ARC
  5
3014
  8
AM_0
 10
50.701321617175488
 20
512.67862520946017
 30
0.0
 40
2.0
 50
270.0
 51
0.0
1001
GENIUS_GENOBJ-N-FIL_13
1002
{
1000
OWNER
1000
GEN
1002
}
1001
GENIUS_GENODEF_13
1002
{
1000
HIER
1070
     0
1002
}
1002
{
1000
MANEDIT
1070
     0
1002
}
1002
{
1000
NOSEL
1070
     0
1002
}
1002
{
1000
BEHIND
1070
     0
1002
}
1002
{
1000
OTHER
1070
     0
1002
}
1002
{
1000
REACTOR
1002
}
  0
LINE
  5
3015
  8
AM_0
 10
50.701321617175488
 20
528.07205046651245
 30
0.0
 11
25.201321617175498
 21
528.07205046651245
 31
0.0
  0
LINE
  5
3016
  8
AM_0
 10
25.201321617175552
 20
532.0402304602228
 30
0.0
 11
9.2013216171754948
 21
532.0402304602228
 31
0.0
1001
GENIUS_GENOREF_13
1005
3033
  0
LINE
  5
3017
  8
AM_0N
 10
9.2013216171754948
 20
528.48844616850374
 30
0.0
 11
25.201321617175498
 21
528.48844616850374
 31
0.0
1001
GENIUS_GENOREF_13
1005
0
  0
ARC
  5
3018
  8
AM_0N
 10
17.201321617175491
 20
531.08844616850365
 30
0.0
 40
5.0
 50
246.4528627629243
 51
293.54713723707567
1001
GENIUS_GENOREF_13
1005
0
  0
LINE
  5
3019
  8
AM_0
 10
21.201321617175608
 20
524.45749030550587
 30
0.0
 11
13.201321617175481
 21
524.45749030550587
 31
0.0
  0
LINE
  5
301A
  8
AM_0N
 10
14.48777506247518
 20
527.50027876697459
 30
0.0
 11
14.40132161717548
 21
528.48844616850374
 31
0.0
1001
GENIUS_GENOREF_13
1005
0
  0
ARC
  5
301B
  8
AM_0N
 10
15.68320870018527
 20
527.60486565827182
 30
0.0
 40
1.1999999999999991
 50
184.99999999999969
 51
246.4528627629243
1001
GENIUS_GENOREF_13
1005
0
  0
LINE
  5
301C
  8
AM_0N
 10
19.91486817187587
 20
527.50027876697459
 30
0.0
 11
20.00132161717552
 21
528.48844616850374
 31
0.0
1001
GENIUS_GENOREF_13
1005
0
  0
ARC
  5
301D
  8
AM_0N
 10
18.719434534165771
 20
527.60486565827182
 30
0.0
 40
1.1999999999999991
 50
293.54713723707567
 51
355.00000000000023
1001
GENIUS_GENOREF_13
1005
0
  0
LINE
  5
301E
  8
AM_3N
  6
AM_ISO02W050X2
 10
18.701321617175491
 20
526.31875016141885
 30
0.0
 11
17.201321617175491
 21
528.20616018997748
 31
0.0
1001
GENIUS_GENOREF_13
1005
0
  0
LINE
  5
301F
  8
AM_3N
  6
AM_ISO02W050X2
 10
17.453821617175489
 20
527.88844616850372
 30
0.0
 11
16.948821617175501
 21
527.88844616850372
 31
0.0
1001
GENIUS_GENOREF_13
1005
0
  0
LINE
  5
3020
  8
AM_3N
  6
AM_ISO02W050X2
 10
15.701321617175481
 20
526.31875016141885
 30
0.0
 11
17.201321617175491
 21
528.20616018997748
 31
0.0
1001
GENIUS_GENOREF_13
1005
0
  0
LINE
  5
3021
  8
AM_3N
  6
AM_ISO02W050X2
 10
17.453821617175489
 20
526.09482586355455
 30
0.0
 11
17.453821617175489
 21
527.88844616850372
 31
0.0
1001
GENIUS_GENOREF_13
1005
0
  0
LINE
  5
3022
  8
AM_3N
  6
AM_ISO02W050X2
 10
16.948821617175501
 20
526.09482586355455
 30
0.0
 11
16.948821617175501
 21
527.88844616850372
 31
0.0
1001
GENIUS_GENOREF_13
1005
0
  0
ARC
  5
3023
  8
AM_0
 10
50.701321617175488
 20
526.07205046651245
 30
0.0
 40
2.0
 50
0.0
 51
90.0
1001
GENIUS_GENODEF_13
1002
{
1000
HIER
1070
     0
1002
}
1002
{
1000
MANEDIT
1070
     0
1002
}
1002
{
1000
NOSEL
1070
     0
1002
}
1002
{
1000
BEHIND
1070
     0
1002
}
1002
{
1000
OTHER
1070
     0
1002
}
1002
{
1000
REACTOR
1002
}
1001
GENIUS_GENOBJ-N-FIL_13
1002
{
1000
OWNER
1000
GEN
1002
}
  0
ARC
  5
3024
  8
AM_0
 10
-23.298678382824392
 20
605.33102343969142
 30
0.0
 40
3.0
 50
90.0
 51
180.0
1001
GENIUS_GENOBJ-N-FIL_13
1002
{
1000
OWNER
1000
GEN
1002
}
1001
GENIUS_GENODEF_13
1002
{
1000
HIER
1070
     0
1002
}
1002
{
1000
MANEDIT
1070
     0
1002
}
1002
{
1000
NOSEL
1070
     0
1002
}
1002
{
1000
BEHIND
1070
     0
1002
}
1002
{
1000
OTHER
1070
     0
1002
}
1002
{
1000
REACTOR
1002
}
  0
LINE
  5
3025
  8
AM_0
 10
-26.298678382824392
 20
605.33102343969142
 30
0.0
 11
-26.298678382824502
 21
571.33102343969165
 31
0.0
  0
LINE
  5
3026
  8
AM_0
 10
-23.298678382824509
 20
568.33102343969165
 30
0.0
 11
-16.586043581782292
 21
568.33102343969165
 31
0.0
  0
LINE
  5
3027
  8
AM_0
 10
-23.298678382824392
 20
608.33102343969142
 30
0.0
 11
-16.586043581782292
 21
608.33102343969142
 31
0.0
  0
ARC
  5
3028
  8
AM_0
 10
-8.7986783828243862
 20
651.93102343969156
 30
0.0
 40
2.0
 50
90.0
 51
180.0
1001
GENIUS_GENOBJ-N-FIL_13
1002
{
1000
OWNER
1000
GEN
1002
}
1001
GENIUS_GENODEF_13
1002
{
1000
HIER
1070
     0
1002
}
1002
{
1000
MANEDIT
1070
     0
1002
}
1002
{
1000
NOSEL
1070
     0
1002
}
1002
{
1000
BEHIND
1070
     0
1002
}
1002
{
1000
OTHER
1070
     0
1002
}
1002
{
1000
REACTOR
1002
}
  0
ARC
  5
3029
  8
AM_0
 10
-12.79867838282439
 20
647.22915556831208
 30
0.0
 40
2.0
 50
311.63353933656629
 51
0.0
1001
GENIUS_GENOBJ-N-FIL_13
1002
{
1000
OWNER
1000
GEN
1002
}
1001
GENIUS_GENODEF_13
1002
{
1000
HIER
1070
     0
1002
}
1002
{
1000
MANEDIT
1070
     0
1002
}
1002
{
1000
NOSEL
1070
     0
1002
}
1002
{
1000
BEHIND
1070
     0
1002
}
1002
{
1000
OTHER
1070
     0
1002
}
1002
{
1000
REACTOR
1002
}
  0
ARC
  5
302A
  8
AM_0
 10
-13.29867838282439
 20
641.43289131107088
 30
0.0
 40
2.0
 50
131.63353933656629
 51
180.0
1001
GENIUS_GENODEF_13
1002
{
1000
HIER
1070
     0
1002
}
1002
{
1000
MANEDIT
1070
     0
1002
}
1002
{
1000
NOSEL
1070
     0
1002
}
1002
{
1000
BEHIND
1070
     0
1002
}
1002
{
1000
OTHER
1070
     0
1002
}
1002
{
1000
REACTOR
1002
}
1001
GENIUS_GENOBJ-N-FIL_13
1002
{
1000
OWNER
1000
GEN
1002
}
  0
LINE
  5
302B
  8
AM_0
 10
-11.469950705164591
 20
645.73433693094455
 30
0.0
 11
-14.627406060484301
 21
642.92770994843829
 31
0.0
  0
LINE
  5
302C
  8
AM_0
 10
134.70132161717561
 20
654.33102343969165
 30
0.0
 11
134.70132161717561
 21
522.33102343969165
 31
0.0
  0
LINE
  5
302D
  8
AM_0
 10
146.20132161717561
 20
654.33102343969165
 30
0.0
 11
146.20132161717561
 21
522.33102343969165
 31
0.0
  0
LINE
  5
302E
  8
AM_0
 10
134.70132161717561
 20
522.33102343969165
 30
0.0
 11
146.20132161717561
 21
522.33102343969165
 31
0.0
  0
LINE
  5
302F
  8
AM_0
 10
153.20132161717561
 20
525.33102343969165
 30
0.0
 11
146.20132161717561
 21
522.33102343969165
 31
0.0
  0
LINE
  5
3030
  8
AM_0
 10
134.70132161717561
 20
654.33102343969165
 30
0.0
 11
146.20132161717561
 21
654.33102343969165
 31
0.0
  0
LINE
  5
3031
  8
AM_0
 10
146.20132161717561
 20
654.33102343969165
 30
0.0
 11
153.20132161717561
 21
651.33102343969165
 31
0.0
  0
LINE
  5
3032
  8
AM_0
 10
153.20132161717561
 20
651.33102343969142
 30
0.0
 11
153.20132161717561
 21
525.33102343969165
 31
0.0
  0
POINT
  5
3033
  8
0
 10
-132.6729169841328
 20
86.788131179878135
 30
0.0
1001
GENIUS_GENOLIS_13
1002
{
1000
ENT
1005
0
1005
0
1005
0
1005
3016
1002
}
1001
GENIUS_GENOENT_13
1002
{
1000
MYREF
1005
3033
1002
}
1002
{
1000
GRP
1005
0
1002
}
1001
GENIUS_GENOBJ-NBEHI-BHB_13
1002
{
1000
OWNER
1000
genbehi
1002
}
1001
GENIUS_GENBH_13
1002
{
1000
FGO
1005
0
1002
}
1001
GENIUS_GENODEF_13
1002
{
1000
HIER
1070
     1
1002
}
1002
{
1000
MANEDIT
1070
     1
1002
}
1002
{
1000
NOSEL
1070
     1
1002
}
1002
{
1000
BEHIND
1070
     0
1002
}
1002
{
1000
OTHER
1070
     1
1002
}
1002
{
1000
REACTOR
1002
}
  0
ARC
  5
32CF
  8
AM_0
 10
376.7013316171757
 20
368.41729039373178
 30
0.0
 40
8.0000000999999976
 50
179.999989999999
 51
270.0
  0
ARC
  5
32D0
  8
AM_0
 10
360.70131161717558
 20
212.87500939373169
 30
0.0
 40
8.0000000999999976
 50
270.0
 51
0.0
  0
ARC
  5
32D1
  8
AM_0
 10
360.70131161717558
 20
373.89823039373192
 30
0.0
 40
8.0000000999999976
 50
0.0
 51
88.499997000000747
  0
LINE
  5
32D2
  8
AM_0
 10
360.70131161717558
 20
172.4172763937317
 30
0.0
 11
396.70131161717558
 21
172.4172763937317
 31
0.0
  0
LINE
  5
32D3
  8
AM_0
 10
363.70131161717558
 20
190.4172763937317
 30
0.0
 11
394.7013316171757
 21
190.4172763937317
 31
0.0
  0
LINE
  5
32D4
  8
ﾁｭｳｼﾝｾﾝ
 10
245.45197802472919
 20
312.41725039373171
 30
0.0
 11
461.48055161717531
 21
312.41725039373171
 31
0.0
  0
LINE
  5
32D6
  8
AM_0
 10
52.701331617175569
 20
281.41728389373179
 30
0.0
 11
52.701331617175569
 21
237.41728389373179
 31
0.0
  0
LINE
  5
32D7
  8
AM_0
 10
-5.2986683828244141
 20
281.41728389373179
 30
0.0
 11
-5.2986683828244141
 21
237.41728389373179
 31
0.0
  0
LINE
  5
32D8
  8
AM_0
 10
-26.29866838282442
 20
273.41728389373179
 30
0.0
 11
-26.29866838282442
 21
239.41728389373179
 31
0.0
  0
LINE
  5
32D9
  8
AM_0
 10
134.70133161717561
 20
322.41728389373179
 30
0.0
 11
134.7013316171755
 21
190.41728389373171
 31
0.0
  0
LINE
  5
32DA
  8
AM_0
 10
146.20133161717561
 20
322.41728389373179
 30
0.0
 11
146.20133161717561
 21
190.41728389373171
 31
0.0
  0
LINE
  5
32DB
  8
AM_0
 10
-8.2986683828244168
 20
322.01728389373181
 30
0.0
 11
-8.2986683828244168
 21
190.8172838937318
 31
0.0
  0
LINE
  5
32DC
  8
AM_0
 10
-10.7986683828243
 20
320.01728389373193
 30
0.0
 11
-10.79866838282441
 21
192.8172838937318
 31
0.0
  0
LINE
  5
32DD
  8
AM_0
 10
-15.29866838282442
 20
309.51915176511119
 30
0.0
 11
-15.29866838282442
 21
203.31541602235231
 31
0.0
  0
ARC
  5
32DE
  8
AM_0
 10
923.88745542699485
 20
256.41728389373162
 30
0.0
 40
940.68612380981915
 50
176.76392470776159
 51
183.2360752922383
  0
LINE
  5
32E0
  8
AM_0
 10
192.3528916171756
 20
289.22308039373189
 30
0.0
 11
217.2013516171757
 21
244.8502903937318
 31
0.0
  0
LINE
  5
32E1
  8
AM_0
 10
153.20133161717561
 20
193.41728389373159
 30
0.0
 11
153.20133161717561
 21
319.41728389373202
 31
0.0
  0
LINE
  5
32E2
  8
AM_0
 10
227.20134161717559
 20
210.41727739373169
 30
0.0
 11
227.20134161717559
 21
358.41730039373192
 31
0.0
  0
LINE
  5
32E3
  8
AM_0
 10
217.2013516171757
 20
213.30480439373181
 30
0.0
 11
217.2013516171757
 21
353.98321039373172
 31
0.0
  0
LINE
  5
32E4
  8
AM_0
 10
273.7013416171755
 20
222.55790239373181
 30
0.0
 11
273.7013416171755
 21
348.74938039373183
 31
0.0
  0
LINE
  5
32E5
  8
AM_0
 10
261.70134161717561
 20
375.44134039373182
 30
0.0
 11
261.70134161717561
 21
193.3938373937317
 31
0.0
  0
LINE
  5
32E6
  8
AM_0
 10
287.7013516171757
 20
241.04169739373179
 30
0.0
 11
287.7013516171757
 21
299.06503039373172
 31
0.0
  0
LINE
  5
32E7
  8
AM_0
 10
348.70131161717558
 20
205.41729139373169
 30
0.0
 11
348.70131161717558
 21
343.86001039373178
 31
0.0
  0
LINE
  5
32E8
  8
AM_0
 10
283.7013316171757
 20
383.91730039373181
 30
0.0
 11
283.7013316171757
 21
227.91729139373169
 31
0.0
  0
LINE
  5
32E9
  8
AM_0
 10
100.7013316171755
 20
234.41728389373179
 30
0.0
 11
123.7013316171756
 21
234.41728389373179
 31
0.0
  0
LINE
  5
32EA
  8
AM_0
 10
100.7013316171755
 20
227.91728389373179
 30
0.0
 11
123.7013316171755
 21
227.91728389373179
 31
0.0
  0
LINE
  5
32EB
  8
AM_0
 10
100.7013316171755
 20
222.41728389373179
 30
0.0
 11
123.7013316171755
 21
222.41728389373179
 31
0.0
  0
LINE
  5
32EC
  8
AM_0
 10
100.7013316171755
 20
216.91728389373171
 30
0.0
 11
123.7013316171756
 21
216.91728389373171
 31
0.0
  0
LINE
  5
32ED
  8
AM_0
 10
100.7013316171755
 20
213.2172838937318
 30
0.0
 11
123.7013316171756
 21
213.2172838937318
 31
0.0
  0
LINE
  5
32EE
  8
AM_0
 10
100.7013316171755
 20
208.0172838937317
 30
0.0
 11
123.7013316171756
 21
208.0172838937317
 31
0.0
  0
LINE
  5
32EF
  8
AM_0
 10
100.7013316171755
 20
204.51728389373179
 30
0.0
 11
123.7013316171756
 21
204.51728389373179
 31
0.0
  0
LINE
  5
32F0
  8
AM_0
 10
100.7013316171755
 20
200.2172838937318
 30
0.0
 11
123.7013316171756
 21
200.2172838937318
 31
0.0
  0
LINE
  5
32F1
  8
AM_0
 10
100.7013316171755
 20
196.71728389373169
 30
0.0
 11
123.7013316171756
 21
196.71728389373169
 31
0.0
  0
LINE
  5
32F2
  8
AM_0
 10
100.7013316171755
 20
194.11728389373181
 30
0.0
 11
123.7013316171756
 21
194.11728389373181
 31
0.0
  0
LINE
  5
32F3
  8
AM_0
 10
-8.7986683828244168
 20
190.8172838937318
 30
0.0
 11
134.7013316171755
 21
190.8172838937318
 31
0.0
  0
LINE
  5
32F4
  8
ﾁｭｳｼﾝｾﾝ
 10
265.68550709013289
 20
256.41729439373171
 30
0.0
 11
-30.029045085876991
 21
256.41729439373171
 31
0.0
  0
LINE
  5
32F6
  8
ﾁｭｳｼﾝｾﾝ
 10
42.701331617175583
 20
237.7376551020987
 30
0.0
 11
42.701331617175583
 21
161.1436066670328
 31
0.0
  0
LINE
  5
32F7
  8
AM_0
 10
47.402394617175673
 20
171.30596701686659
 30
0.0
 11
47.408421617175676
 21
177.60268891686681
 31
0.0
  0
LINE
  5
32F8
  8
AM_0
 10
44.412831617175677
 20
176.2293908310202
 30
0.0
 11
44.418816617175601
 21
169.9326395310203
 31
0.0
  0
LINE
  5
32F9
  8
AM_0
 10
40.98678661717554
 20
169.93010693102019
 30
0.0
 11
40.980759617175522
 21
176.22682883102021
 31
0.0
  0
LINE
  5
32FA
  8
AM_0
 10
37.991280617175562
 20
171.30596701686659
 30
0.0
 11
37.985253617175552
 21
177.60268891686681
 31
0.0
  0
LINE
  5
32FB
  8
AM_0
 10
42.702948617175473
 20
169.9278641310203
 30
0.0
 11
43.858725617175637
 21
169.92679523102009
 31
0.0
  0
CIRCLE
  5
32FC
  8
ｽﾝﾎ_ｳｾﾝ
 10
42.701331617175583
 20
165.52247573102031
 30
0.0
 40
1.5050001119999981
  0
ARC
  5
32FD
  8
AM_0
 10
42.741777617175671
 20
165.52254083102019
 30
0.0
 40
2.3091486599999991
 50
164.90527199999909
 51
16.267320000001838
  0
LINE
  5
32FE
  8
AM_0
 10
41.54719261717559
 20
169.92893303102031
 30
0.0
 11
40.986828617175647
 21
169.93008593102019
 31
0.0
  0
LINE
  5
32FF
  8
AM_0
 10
41.54719261717559
 20
169.92893303102031
 30
0.0
 11
42.702948617175473
 21
169.9278641310203
 31
0.0
  0
LINE
  5
3300
  8
AM_0
 10
40.863177617175552
 20
171.30266581686669
 30
0.0
 11
40.985874093897102
 21
170.8834676929568
 31
0.0
  0
LINE
  5
3301
  8
AM_0
 10
39.707442617175509
 20
171.3037242168667
 30
0.0
 11
40.985472970516717
 21
171.30254225300621
 31
0.0
  0
LINE
  5
3302
  8
AM_0
 10
41.265090101933637
 20
169.9295134323126
 30
0.0
 11
41.41139676932309
 21
169.4296500122374
 31
0.0
  0
LINE
  5
3303
  8
AM_0
 10
38.551686617175619
 20
171.30481411686671
 30
0.0
 11
37.516827617175643
 21
167.49976951686659
 31
0.0
  0
LINE
  5
3304
  8
AM_0
 10
38.551686617175619
 20
171.3047931168667
 30
0.0
 11
37.99132261717569
 21
171.3059460168667
 31
0.0
  0
LINE
  5
3305
  8
AM_0
 10
38.551686617175619
 20
171.3047931168667
 30
0.0
 11
39.707442617175509
 21
171.3037242168667
 31
0.0
  0
LINE
  5
3306
  8
AM_0
 10
41.54719261717559
 20
169.9289540310202
 30
0.0
 11
40.512333617175592
 21
166.12390943102011
 31
0.0
  0
ARC
  5
3307
  8
AM_0
 10
39.746271617175807
 20
166.89840091686659
 30
0.0
 40
2.3091486599999991
 50
164.90527199999909
 51
290.87219614688911
  0
ARC
  5
3308
  8
ｽﾝﾎ_ｳｾﾝ
 10
39.705825617175613
 20
166.89833581686671
 30
0.0
 40
1.5050001119999981
 50
34.081774240383801
 51
298.90870486052597
  0
LINE
  5
3309
  8
AM_0
 10
46.841988617175588
 20
171.3047931168667
 30
0.0
 11
47.402352617175552
 21
171.3059460168667
 31
0.0
  0
LINE
  5
330A
  8
AM_0
 10
46.841988617175588
 20
171.30481411686671
 30
0.0
 11
47.876847617175592
 21
167.49976951686659
 31
0.0
  0
LINE
  5
330B
  8
AM_0
 10
44.418858617175466
 20
169.93267103102011
 30
0.0
 11
43.858725617175637
 21
169.92682883102029
 31
0.0
  0
LINE
  5
330C
  8
AM_0
 10
44.530497617175683
 20
171.30266581686669
 30
0.0
 11
44.407801140454232
 21
170.8834676929568
 31
0.0
  0
LINE
  5
330D
  8
AM_0
 10
45.686232617175612
 20
171.3037242168667
 30
0.0
 11
44.408202263834461
 21
171.30254225300621
 31
0.0
  0
LINE
  5
330E
  8
AM_0
 10
44.12858513241757
 20
169.9295134323126
 30
0.0
 11
43.982278465028003
 21
169.4296500122374
 31
0.0
  0
LINE
  5
330F
  8
AM_0
 10
43.858683617175529
 20
169.92680573102021
 30
0.0
 11
44.958453617175792
 21
166.16939123102009
 31
0.0
  0
ARC
  5
3310
  8
ｽﾝﾎ_ｳｾﾝ
 10
45.687849617175488
 20
166.89833581686671
 30
0.0
 40
1.5050001119999981
 50
241.0912951394732
 51
145.91822575961609
  0
LINE
  5
3311
  8
AM_0
 10
46.841988617175588
 20
171.3047931168667
 30
0.0
 11
45.686232617175612
 21
171.3037242168667
 31
0.0
  0
ARC
  5
3312
  8
AM_0
 10
45.647403617175542
 20
166.89840091686659
 30
0.0
 40
2.3091486599999991
 50
249.12780385311081
 51
15.094728000000879
  0
LINE
  5
3313
  8
AM_0
 10
40.98080161717553
 20
176.22683933102019
 30
0.0
 11
44.412873617175592
 21
176.2293908310202
 31
0.0
  0
POLYLINE
  5
3314
  8
AM_4
 66
     1
 10
0.0
 20
0.0
 30
0.0
 70
     4
  0
VERTEX
  5
3315
  8
AM_4
 10
38.70133161717559
 20
181.5921835283049
 30
0.0
 70
    16
  0
VERTEX
  5
3316
  8
AM_4
 10
38.70133161717559
 20
181.5921835283049
 30
0.0
 70
     8
  0
VERTEX
  5
3317
  8
AM_4
 10
39.792346841588149
 20
182.17397350439231
 30
0.0
 70
     8
  0
VERTEX
  5
3318
  8
AM_4
 10
40.825883815161859
 20
182.2044431070197
 30
0.0
 70
     8
  0
VERTEX
  5
3319
  8
AM_4
 10
41.817679488400003
 20
181.87808803236021
 30
0.0
 70
     8
  0
VERTEX
  5
331A
  8
AM_4
 10
42.783470811805927
 20
181.38940397658641
 30
0.0
 70
     8
  0
VERTEX
  5
331B
  8
AM_4
 10
43.73899473588299
 20
180.9328866358714
 30
0.0
 70
     8
  0
VERTEX
  5
331C
  8
AM_4
 10
44.699988211134723
 20
180.70303170638761
 30
0.0
 70
     8
  0
VERTEX
  5
331D
  8
AM_4
 10
45.682188188064387
 20
180.89433488430831
 30
0.0
 70
     8
  0
VERTEX
  5
331E
  8
AM_4
 10
46.701331617175569
 20
181.70129186580601
 30
0.0
 70
     8
  0
VERTEX
  5
331F
  8
AM_4
 10
41.701331617175583
 20
184.05160235908241
 30
0.0
 70
    16
  0
VERTEX
  5
3320
  8
AM_4
 10
43.920369469523138
 20
178.55564978044461
 30
0.0
 70
    16
  0
VERTEX
  5
3321
  8
AM_4
 10
46.701331617175569
 20
181.70129186580601
 30
0.0
 70
    16
  0
SEQEND
  5
3322
  8
AM_4
  0
LINE
  5
3323
  8
AM_0
 10
41.41732561717572
 20
177.60525091686671
 30
0.0
 11
41.418635474408802
 21
176.22716482917019
 31
0.0
  0
LINE
  5
3324
  8
AM_0
 10
37.985253617175552
 20
177.60268891686681
 30
0.0
 11
41.417326829763603
 21
177.60397516686669
 31
0.0
  0
LINE
  5
3325
  8
AM_0
 10
41.701331617175583
 20
181.91637285172831
 30
0.0
 11
41.701331617175583
 21
176.22737499352809
 31
0.0
  0
LINE
  5
3326
  8
AM_0
 10
40.701331617175583
 20
182.2007711958293
 30
0.0
 11
40.701331617175583
 21
177.60370683085361
 31
0.0
  0
LINE
  5
3327
  8
AM_0
 10
38.70133161717559
 20
181.5921835283049
 30
0.0
 11
38.70133161717559
 21
177.60295728390611
 31
0.0
  0
LINE
  5
3328
  8
AM_0
 10
46.692343617175631
 20
181.6941751743351
 30
0.0
 11
46.692343617175538
 21
177.60295728390611
 31
0.0
  0
LINE
  5
3329
  8
AM_0
 10
43.976349617175401
 20
177.60525091686671
 30
0.0
 11
43.975039759942433
 21
176.22716482917019
 31
0.0
  0
LINE
  5
332A
  8
AM_0
 10
43.701331617175597
 20
180.95088081305741
 30
0.0
 11
43.701331617175597
 21
176.22886185044709
 31
0.0
  0
LINE
  5
332B
  8
AM_0
 10
44.699988211134723
 20
180.70303170638761
 30
0.0
 11
44.692343617175517
 21
177.60370683085361
 31
0.0
  0
LINE
  5
332C
  8
AM_0
 10
47.408421617175676
 20
177.60268891686681
 30
0.0
 11
43.976348404587711
 21
177.60397516686669
 31
0.0
  0
LINE
  5
332D
  8
AM_0
 10
17.70133161717558
 20
222.41728389373179
 30
0.0
 11
40.701331617175583
 21
222.41728389373179
 31
0.0
  0
LINE
  5
332E
  8
AM_0
 10
-4.2986683828244141
 20
236.41728389373179
 30
0.0
 11
51.701331617175583
 21
236.41728389373179
 31
0.0
  0
LINE
  5
332F
  8
AM_0
 10
17.70133161717558
 20
216.91728389373171
 30
0.0
 11
40.701331617175583
 21
216.91728389373171
 31
0.0
  0
LINE
  5
3330
  8
AM_0
 10
17.70133161717558
 20
208.0172838937317
 30
0.0
 11
40.701331617175583
 21
208.0172838937317
 31
0.0
  0
LINE
  5
3331
  8
AM_0
 10
17.70133161717558
 20
213.2172838937318
 30
0.0
 11
40.701331617175583
 21
213.2172838937318
 31
0.0
  0
LINE
  5
3332
  8
AM_0
 10
17.70133161717558
 20
204.51728389373179
 30
0.0
 11
40.701331617175583
 21
204.51728389373179
 31
0.0
  0
LINE
  5
3333
  8
AM_0
 10
17.70133161717558
 20
200.2172838937318
 30
0.0
 11
40.701331617175583
 21
200.2172838937318
 31
0.0
  0
LINE
  5
3334
  8
AM_0
 10
17.70133161717558
 20
194.11728389373181
 30
0.0
 11
40.701331617175583
 21
194.11728389373181
 31
0.0
  0
LINE
  5
3335
  8
AM_0
 10
17.70133161717558
 20
196.71728389373169
 30
0.0
 11
40.701331617175583
 21
196.71728389373169
 31
0.0
  0
ARC
  5
3336
  8
AM_0
 10
-13.29866838282441
 20
203.31541602235231
 30
0.0
 40
2.0
 50
180.0
 51
228.36646066343141
1001
GENIUS_GENODEF_13
1002
{
1000
HIER
1070
     0
1002
}
1002
{
1000
MANEDIT
1070
     0
1002
}
1002
{
1000
NOSEL
1070
     0
1002
}
1002
{
1000
BEHIND
1070
     0
1002
}
1002
{
1000
OTHER
1070
     0
1002
}
1002
{
1000
REACTOR
1002
}
1001
GENIUS_GENOBJ-N-FIL_13
1002
{
1000
OWNER
1000
GEN
1002
}
  0
ARC
  5
3337
  8
AM_0
 10
-8.7986683828244168
 20
192.8172838937318
 30
0.0
 40
2.0
 50
180.0
 51
270.0
1001
GENIUS_GENOBJ-N-FIL_13
1002
{
1000
OWNER
1000
GEN
1002
}
1001
GENIUS_GENODEF_13
1002
{
1000
HIER
1070
     0
1002
}
1002
{
1000
MANEDIT
1070
     0
1002
}
1002
{
1000
NOSEL
1070
     0
1002
}
1002
{
1000
BEHIND
1070
     0
1002
}
1002
{
1000
OTHER
1070
     0
1002
}
1002
{
1000
REACTOR
1002
}
  0
ARC
  5
3338
  8
AM_0
 10
-12.79866838282442
 20
197.51915176511119
 30
0.0
 40
2.0
 50
0.0
 51
48.36646066343252
1001
GENIUS_GENOBJ-N-FIL_13
1002
{
1000
OWNER
1000
GEN
1002
}
1001
GENIUS_GENODEF_13
1002
{
1000
HIER
1070
     0
1002
}
1002
{
1000
MANEDIT
1070
     0
1002
}
1002
{
1000
NOSEL
1070
     0
1002
}
1002
{
1000
BEHIND
1070
     0
1002
}
1002
{
1000
OTHER
1070
     0
1002
}
1002
{
1000
REACTOR
1002
}
  0
LINE
  5
3339
  8
AM_0
 10
-11.4699407051645
 20
199.01397040247861
 30
0.0
 11
-14.627396060484211
 21
201.82059738498489
 31
0.0
  0
ARC
  5
333A
  8
AM_0
 10
17.70133161717558
 20
195.11728389373181
 30
0.0
 40
1.0
 50
180.0
 51
270.0
1001
GENIUS_GENODEF_13
1002
{
1000
HIER
1070
     0
1002
}
1002
{
1000
MANEDIT
1070
     0
1002
}
1002
{
1000
NOSEL
1070
     0
1002
}
1002
{
1000
BEHIND
1070
     0
1002
}
1002
{
1000
OTHER
1070
     0
1002
}
1002
{
1000
REACTOR
1002
}
1001
GENIUS_GENOBJ-N-FIL_13
1002
{
1000
OWNER
1000
GEN
1002
}
  0
LINE
  5
333B
  8
AM_0
 10
16.70133161717558
 20
203.51728389373179
 30
0.0
 11
16.70133161717558
 21
201.21728389373169
 31
0.0
  0
ARC
  5
333C
  8
AM_0
 10
17.70133161717558
 20
203.51728389373179
 30
0.0
 40
1.0
 50
90.0
 51
180.0
1001
GENIUS_GENODEF_13
1002
{
1000
HIER
1070
     0
1002
}
1002
{
1000
MANEDIT
1070
     0
1002
}
1002
{
1000
NOSEL
1070
     0
1002
}
1002
{
1000
BEHIND
1070
     0
1002
}
1002
{
1000
OTHER
1070
     0
1002
}
1002
{
1000
REACTOR
1002
}
1001
GENIUS_GENOBJ-N-FIL_13
1002
{
1000
OWNER
1000
GEN
1002
}
  0
LINE
  5
333D
  8
AM_0
 10
16.70133161717558
 20
195.71728389373169
 30
0.0
 11
16.70133161717558
 21
195.11728389373181
 31
0.0
  0
ARC
  5
333E
  8
AM_0
 10
17.70133161717558
 20
195.71728389373169
 30
0.0
 40
1.0
 50
90.0
 51
180.0
1001
GENIUS_GENOBJ-N-FIL_13
1002
{
1000
OWNER
1000
GEN
1002
}
1001
GENIUS_GENODEF_13
1002
{
1000
HIER
1070
     0
1002
}
1002
{
1000
MANEDIT
1070
     0
1002
}
1002
{
1000
NOSEL
1070
     0
1002
}
1002
{
1000
BEHIND
1070
     0
1002
}
1002
{
1000
OTHER
1070
     0
1002
}
1002
{
1000
REACTOR
1002
}
  0
ARC
  5
333F
  8
AM_0
 10
17.70133161717558
 20
201.21728389373169
 30
0.0
 40
1.0
 50
180.0
 51
270.0
1001
GENIUS_GENOBJ-N-FIL_13
1002
{
1000
OWNER
1000
GEN
1002
}
1001
GENIUS_GENODEF_13
1002
{
1000
HIER
1070
     0
1002
}
1002
{
1000
MANEDIT
1070
     0
1002
}
1002
{
1000
NOSEL
1070
     0
1002
}
1002
{
1000
BEHIND
1070
     0
1002
}
1002
{
1000
OTHER
1070
     0
1002
}
1002
{
1000
REACTOR
1002
}
  0
ARC
  5
3340
  8
AM_0
 10
17.70133161717558
 20
212.21728389373169
 30
0.0
 40
1.0
 50
90.0
 51
180.0
1001
GENIUS_GENODEF_13
1002
{
1000
HIER
1070
     0
1002
}
1002
{
1000
MANEDIT
1070
     0
1002
}
1002
{
1000
NOSEL
1070
     0
1002
}
1002
{
1000
BEHIND
1070
     0
1002
}
1002
{
1000
OTHER
1070
     0
1002
}
1002
{
1000
REACTOR
1002
}
1001
GENIUS_GENOBJ-N-FIL_13
1002
{
1000
OWNER
1000
GEN
1002
}
  0
ARC
  5
3341
  8
AM_0
 10
17.70133161717558
 20
209.01728389373179
 30
0.0
 40
1.0
 50
180.0
 51
270.0
1001
GENIUS_GENOBJ-N-FIL_13
1002
{
1000
OWNER
1000
GEN
1002
}
1001
GENIUS_GENODEF_13
1002
{
1000
HIER
1070
     0
1002
}
1002
{
1000
MANEDIT
1070
     0
1002
}
1002
{
1000
NOSEL
1070
     0
1002
}
1002
{
1000
BEHIND
1070
     0
1002
}
1002
{
1000
OTHER
1070
     0
1002
}
1002
{
1000
REACTOR
1002
}
  0
LINE
  5
3342
  8
AM_0
 10
16.70133161717558
 20
212.21728389373169
 30
0.0
 11
16.70133161717558
 21
209.01728389373179
 31
0.0
  0
LINE
  5
3343
  8
AM_0
 10
16.70133161717558
 20
221.41728389373179
 30
0.0
 11
16.70133161717558
 21
217.91728389373179
 31
0.0
  0
ARC
  5
3344
  8
AM_0
 10
17.70133161717558
 20
217.91728389373179
 30
0.0
 40
1.0
 50
180.0
 51
270.0
1001
GENIUS_GENODEF_13
1002
{
1000
HIER
1070
     0
1002
}
1002
{
1000
MANEDIT
1070
     0
1002
}
1002
{
1000
NOSEL
1070
     0
1002
}
1002
{
1000
BEHIND
1070
     0
1002
}
1002
{
1000
OTHER
1070
     0
1002
}
1002
{
1000
REACTOR
1002
}
1001
GENIUS_GENOBJ-N-FIL_13
1002
{
1000
OWNER
1000
GEN
1002
}
  0
ARC
  5
3345
  8
AM_0
 10
17.70133161717558
 20
221.41728389373179
 30
0.0
 40
1.0
 50
90.0
 51
180.0
1001
GENIUS_GENODEF_13
1002
{
1000
HIER
1070
     0
1002
}
1002
{
1000
MANEDIT
1070
     0
1002
}
1002
{
1000
NOSEL
1070
     0
1002
}
1002
{
1000
BEHIND
1070
     0
1002
}
1002
{
1000
OTHER
1070
     0
1002
}
1002
{
1000
REACTOR
1002
}
1001
GENIUS_GENOBJ-N-FIL_13
1002
{
1000
OWNER
1000
GEN
1002
}
  0
ARC
  5
3346
  8
AM_0
 10
-23.29866838282442
 20
239.41728389373179
 30
0.0
 40
3.0
 50
180.0
 51
270.0
1001
GENIUS_GENODEF_13
1002
{
1000
HIER
1070
     0
1002
}
1002
{
1000
MANEDIT
1070
     0
1002
}
1002
{
1000
NOSEL
1070
     0
1002
}
1002
{
1000
BEHIND
1070
     0
1002
}
1002
{
1000
OTHER
1070
     0
1002
}
1002
{
1000
REACTOR
1002
}
1001
GENIUS_GENOBJ-N-FIL_13
1002
{
1000
OWNER
1000
GEN
1002
}
  0
LINE
  5
3347
  8
AM_0
 10
-23.29866838282442
 20
236.41728389373179
 30
0.0
 11
-16.5860335817822
 21
236.41728389373179
 31
0.0
  0
ARC
  5
3348
  8
AM_0
 10
-4.2986683828244141
 20
237.41728389373179
 30
0.0
 40
1.0
 50
180.0
 51
270.0
1001
GENIUS_GENOBJ-N-FIL_13
1002
{
1000
OWNER
1000
GEN
1002
}
1001
GENIUS_GENODEF_13
1002
{
1000
HIER
1070
     0
1002
}
1002
{
1000
MANEDIT
1070
     0
1002
}
1002
{
1000
NOSEL
1070
     0
1002
}
1002
{
1000
BEHIND
1070
     0
1002
}
1002
{
1000
OTHER
1070
     0
1002
}
1002
{
1000
REACTOR
1002
}
  0
LINE
  5
3349
  8
AM_0N
 10
18.67992681194664
 20
232.16478389373171
 30
0.0
 11
17.453831617175641
 21
232.16478389373171
 31
0.0
  0
LINE
  5
334A
  8
AM_0N
 10
18.67992681194664
 20
232.66978389373179
 30
0.0
 11
17.453831617175641
 21
232.66978389373179
 31
0.0
  0
CIRCLE
  5
334B
  8
AM_0N
 10
17.20133161717558
 20
232.41728389373179
 30
0.0
 40
2.799999999999998
  0
LINE
  5
334C
  8
AM_0
 10
11.20133161717558
 20
228.41728389373179
 30
0.0
 11
23.20133161717558
 21
228.41728389373179
 31
0.0
  0
ARC
  5
334D
  8
AM_0
 10
11.20133161717558
 20
230.41728389373179
 30
0.0
 40
2.0
 50
180.0
 51
270.0
1001
GENIUS_GENOBJ-N-FIL_13
1002
{
1000
OWNER
1000
GEN
1002
}
1001
GENIUS_GENODEF_13
1002
{
1000
HIER
1070
     0
1002
}
1002
{
1000
MANEDIT
1070
     0
1002
}
1002
{
1000
NOSEL
1070
     0
1002
}
1002
{
1000
BEHIND
1070
     0
1002
}
1002
{
1000
OTHER
1070
     0
1002
}
1002
{
1000
REACTOR
1002
}
  0
LINE
  5
334E
  8
AM_0
 10
9.2013316171755832
 20
230.41728389373179
 30
0.0
 11
9.2013316171755832
 21
236.41728389373179
 31
0.0
  0
LINE
  5
334F
  8
AM_0N
 10
16.948831617175639
 20
233.8958790885028
 30
0.0
 11
17.453831617175641
 21
233.8958790885028
 31
0.0
  0
LINE
  5
3350
  8
AM_0N
 10
17.453831617175641
 20
230.9386886989607
 30
0.0
 11
17.453831617175641
 21
232.16478389373171
 31
0.0
  0
LINE
  5
3351
  8
AM_0N
 10
16.948831617175639
 20
230.9386886989607
 30
0.0
 11
16.948831617175639
 21
232.16478389373171
 31
0.0
  0
LINE
  5
3352
  8
AM_0N
 10
16.948831617175639
 20
230.9386886989607
 30
0.0
 11
17.453831617175641
 21
230.9386886989607
 31
0.0
  0
LINE
  5
3353
  8
AM_0N
 10
16.948831617175639
 20
232.66978389373179
 30
0.0
 11
16.948831617175639
 21
233.8958790885028
 31
0.0
  0
LINE
  5
3354
  8
AM_0N
 10
17.453831617175641
 20
232.66978389373179
 30
0.0
 11
17.453831617175641
 21
233.8958790885028
 31
0.0
  0
LINE
  5
3355
  8
AM_0N
 10
15.72273642240452
 20
232.66978389373179
 30
0.0
 11
15.72273642240452
 21
232.16478389373171
 31
0.0
  0
LINE
  5
3356
  8
AM_0
 10
13.20133161717558
 20
228.41728389373179
 30
0.0
 11
13.20133161717558
 21
236.41728389373179
 31
0.0
  0
LINE
  5
3357
  8
AM_0N
 10
16.948831617175639
 20
232.16478389373171
 30
0.0
 11
15.72273642240452
 21
232.16478389373171
 31
0.0
  0
LINE
  5
3358
  8
AM_0N
 10
16.948831617175639
 20
232.66978389373179
 30
0.0
 11
15.72273642240452
 21
232.66978389373179
 31
0.0
  0
LINE
  5
3359
  8
AM_0N
 10
18.67992681194664
 20
232.66978389373179
 30
0.0
 11
18.67992681194664
 21
232.16478389373171
 31
0.0
  0
ARC
  5
335A
  8
AM_0
 10
23.20133161717558
 20
230.41728389373179
 30
0.0
 40
2.0
 50
270.0
 51
0.0
1001
GENIUS_GENOBJ-N-FIL_13
1002
{
1000
OWNER
1000
GEN
1002
}
1001
GENIUS_GENODEF_13
1002
{
1000
HIER
1070
     0
1002
}
1002
{
1000
MANEDIT
1070
     0
1002
}
1002
{
1000
NOSEL
1070
     0
1002
}
1002
{
1000
BEHIND
1070
     0
1002
}
1002
{
1000
OTHER
1070
     0
1002
}
1002
{
1000
REACTOR
1002
}
  0
LINE
  5
335B
  8
AM_0
 10
21.20133161717558
 20
228.41728389373179
 30
0.0
 11
21.20133161717558
 21
236.41728389373179
 31
0.0
  0
LINE
  5
335C
  8
AM_0
 10
25.20133161717558
 20
230.41728389373179
 30
0.0
 11
25.20133161717558
 21
236.41728389373179
 31
0.0
  0
LINE
  5
335D
  8
AM_0
 10
43.701331617175597
 20
236.41728389373179
 30
0.0
 11
43.701331617175597
 21
226.77043859556309
 31
0.0
  0
LINE
  5
335E
  8
AM_0
 10
44.701331617175683
 20
236.41728389373179
 30
0.0
 11
44.701331617175683
 21
226.52285114420869
 31
0.0
  0
POLYLINE
  5
335F
  8
AM_4
 66
     1
 10
0.0
 20
0.0
 30
0.0
 70
     4
  0
VERTEX
  5
3360
  8
AM_4
 10
38.70133161717559
 20
227.4117413108103
 30
0.0
 70
    16
  0
VERTEX
  5
3361
  8
AM_4
 10
38.70133161717559
 20
227.4117413108103
 30
0.0
 70
     8
  0
VERTEX
  5
3362
  8
AM_4
 10
39.792346841588369
 20
227.99353128689771
 30
0.0
 70
     8
  0
VERTEX
  5
3363
  8
AM_4
 10
40.825883815162001
 20
228.0240008895253
 30
0.0
 70
     8
  0
VERTEX
  5
3364
  8
AM_4
 10
41.817679488400138
 20
227.69764581486569
 30
0.0
 70
     8
  0
VERTEX
  5
3365
  8
AM_4
 10
42.783470811805927
 20
227.20896175909209
 30
0.0
 70
     8
  0
VERTEX
  5
3366
  8
AM_4
 10
43.738994735883118
 20
226.75244441837691
 30
0.0
 70
     8
  0
VERTEX
  5
3367
  8
AM_4
 10
44.699988211134837
 20
226.5225894888932
 30
0.0
 70
     8
  0
VERTEX
  5
3368
  8
AM_4
 10
45.682188188064629
 20
226.7138926668139
 30
0.0
 70
     8
  0
VERTEX
  5
3369
  8
AM_4
 10
46.701331617175811
 20
227.52084964831161
 30
0.0
 70
     8
  0
VERTEX
  5
336A
  8
AM_4
 10
41.701331617175583
 20
229.87116014158801
 30
0.0
 70
    16
  0
VERTEX
  5
336B
  8
AM_4
 10
43.92036946952328
 20
224.3752075629501
 30
0.0
 70
    16
  0
VERTEX
  5
336C
  8
AM_4
 10
46.701331617175569
 20
227.52084964831161
 30
0.0
 70
    16
  0
SEQEND
  5
336D
  8
AM_4
  0
ARC
  5
336E
  8
AM_0
 10
40.701331617175583
 20
195.11728389373181
 30
0.0
 40
1.0
 50
270.0
 51
0.0
1001
GENIUS_GENOBJ-N-FIL_13
1002
{
1000
OWNER
1000
GEN
1002
}
1001
GENIUS_GENODEF_13
1002
{
1000
HIER
1070
     0
1002
}
1002
{
1000
MANEDIT
1070
     0
1002
}
1002
{
1000
NOSEL
1070
     0
1002
}
1002
{
1000
BEHIND
1070
     0
1002
}
1002
{
1000
OTHER
1070
     0
1002
}
1002
{
1000
REACTOR
1002
}
  0
LINE
  5
336F
  8
AM_0
 10
41.701331617175583
 20
203.51728389373179
 30
0.0
 11
41.701331617175583
 21
201.21728389373169
 31
0.0
  0
ARC
  5
3370
  8
AM_0
 10
40.701331617175583
 20
203.51728389373179
 30
0.0
 40
1.0
 50
0.0
 51
90.0
1001
GENIUS_GENODEF_13
1002
{
1000
HIER
1070
     0
1002
}
1002
{
1000
MANEDIT
1070
     0
1002
}
1002
{
1000
NOSEL
1070
     0
1002
}
1002
{
1000
BEHIND
1070
     0
1002
}
1002
{
1000
OTHER
1070
     0
1002
}
1002
{
1000
REACTOR
1002
}
1001
GENIUS_GENOBJ-N-FIL_13
1002
{
1000
OWNER
1000
GEN
1002
}
  0
ARC
  5
3371
  8
AM_0
 10
40.701331617175583
 20
195.71728389373169
 30
0.0
 40
1.0
 50
0.0
 51
90.0
1001
GENIUS_GENODEF_13
1002
{
1000
HIER
1070
     0
1002
}
1002
{
1000
MANEDIT
1070
     0
1002
}
1002
{
1000
NOSEL
1070
     0
1002
}
1002
{
1000
BEHIND
1070
     0
1002
}
1002
{
1000
OTHER
1070
     0
1002
}
1002
{
1000
REACTOR
1002
}
1001
GENIUS_GENOBJ-N-FIL_13
1002
{
1000
OWNER
1000
GEN
1002
}
  0
LINE
  5
3372
  8
AM_0
 10
41.701331617175583
 20
195.71728389373169
 30
0.0
 11
41.701331617175583
 21
195.11728389373181
 31
0.0
  0
ARC
  5
3373
  8
AM_0
 10
40.701331617175583
 20
201.21728389373169
 30
0.0
 40
1.0
 50
270.0
 51
0.0
1001
GENIUS_GENODEF_13
1002
{
1000
HIER
1070
     0
1002
}
1002
{
1000
MANEDIT
1070
     0
1002
}
1002
{
1000
NOSEL
1070
     0
1002
}
1002
{
1000
BEHIND
1070
     0
1002
}
1002
{
1000
OTHER
1070
     0
1002
}
1002
{
1000
REACTOR
1002
}
1001
GENIUS_GENOBJ-N-FIL_13
1002
{
1000
OWNER
1000
GEN
1002
}
  0
ARC
  5
3374
  8
AM_0
 10
40.701331617175583
 20
212.21728389373189
 30
0.0
 40
1.0
 50
0.0
 51
90.0
1001
GENIUS_GENODEF_13
1002
{
1000
HIER
1070
     0
1002
}
1002
{
1000
MANEDIT
1070
     0
1002
}
1002
{
1000
NOSEL
1070
     0
1002
}
1002
{
1000
BEHIND
1070
     0
1002
}
1002
{
1000
OTHER
1070
     0
1002
}
1002
{
1000
REACTOR
1002
}
1001
GENIUS_GENOBJ-N-FIL_13
1002
{
1000
OWNER
1000
GEN
1002
}
  0
ARC
  5
3375
  8
AM_0
 10
40.701331617175583
 20
209.01728389373179
 30
0.0
 40
1.0
 50
270.0
 51
0.0
1001
GENIUS_GENODEF_13
1002
{
1000
HIER
1070
     0
1002
}
1002
{
1000
MANEDIT
1070
     0
1002
}
1002
{
1000
NOSEL
1070
     0
1002
}
1002
{
1000
BEHIND
1070
     0
1002
}
1002
{
1000
OTHER
1070
     0
1002
}
1002
{
1000
REACTOR
1002
}
1001
GENIUS_GENOBJ-N-FIL_13
1002
{
1000
OWNER
1000
GEN
1002
}
  0
LINE
  5
3376
  8
AM_0
 10
41.701331617175583
 20
212.21728389373189
 30
0.0
 11
41.701331617175583
 21
209.01728389373179
 31
0.0
  0
LINE
  5
3377
  8
AM_0
 10
41.701331617175583
 20
221.41728389373179
 30
0.0
 11
41.701331617175583
 21
217.91728389373179
 31
0.0
  0
ARC
  5
3378
  8
AM_0
 10
40.701331617175583
 20
217.91728389373179
 30
0.0
 40
1.0
 50
270.0
 51
0.0
1001
GENIUS_GENODEF_13
1002
{
1000
HIER
1070
     0
1002
}
1002
{
1000
MANEDIT
1070
     0
1002
}
1002
{
1000
NOSEL
1070
     0
1002
}
1002
{
1000
BEHIND
1070
     0
1002
}
1002
{
1000
OTHER
1070
     0
1002
}
1002
{
1000
REACTOR
1002
}
1001
GENIUS_GENOBJ-N-FIL_13
1002
{
1000
OWNER
1000
GEN
1002
}
  0
ARC
  5
3379
  8
AM_0
 10
40.701331617175583
 20
221.41728389373179
 30
0.0
 40
1.0
 50
0.0
 51
90.0
1001
GENIUS_GENOBJ-N-FIL_13
1002
{
1000
OWNER
1000
GEN
1002
}
1001
GENIUS_GENODEF_13
1002
{
1000
HIER
1070
     0
1002
}
1002
{
1000
MANEDIT
1070
     0
1002
}
1002
{
1000
NOSEL
1070
     0
1002
}
1002
{
1000
BEHIND
1070
     0
1002
}
1002
{
1000
OTHER
1070
     0
1002
}
1002
{
1000
REACTOR
1002
}
  0
ARC
  5
337A
  8
AM_0
 10
100.7013316171755
 20
195.11728389373181
 30
0.0
 40
1.0
 50
180.0
 51
270.0
1001
GENIUS_GENODEF_13
1002
{
1000
HIER
1070
     0
1002
}
1002
{
1000
MANEDIT
1070
     0
1002
}
1002
{
1000
NOSEL
1070
     0
1002
}
1002
{
1000
BEHIND
1070
     0
1002
}
1002
{
1000
OTHER
1070
     0
1002
}
1002
{
1000
REACTOR
1002
}
1001
GENIUS_GENOBJ-N-FIL_13
1002
{
1000
OWNER
1000
GEN
1002
}
  0
LINE
  5
337B
  8
AM_0
 10
99.701331617175526
 20
203.51728389373179
 30
0.0
 11
99.701331617175526
 21
201.21728389373169
 31
0.0
  0
ARC
  5
337C
  8
AM_0
 10
100.7013316171755
 20
203.51728389373179
 30
0.0
 40
1.0
 50
90.0
 51
180.0
1001
GENIUS_GENODEF_13
1002
{
1000
HIER
1070
     0
1002
}
1002
{
1000
MANEDIT
1070
     0
1002
}
1002
{
1000
NOSEL
1070
     0
1002
}
1002
{
1000
BEHIND
1070
     0
1002
}
1002
{
1000
OTHER
1070
     0
1002
}
1002
{
1000
REACTOR
1002
}
1001
GENIUS_GENOBJ-N-FIL_13
1002
{
1000
OWNER
1000
GEN
1002
}
  0
LINE
  5
337D
  8
AM_0
 10
99.701331617175583
 20
195.71728389373169
 30
0.0
 11
99.701331617175526
 21
195.11728389373181
 31
0.0
  0
ARC
  5
337E
  8
AM_0
 10
100.7013316171755
 20
195.71728389373169
 30
0.0
 40
1.0
 50
90.0
 51
180.0
1001
GENIUS_GENOBJ-N-FIL_13
1002
{
1000
OWNER
1000
GEN
1002
}
1001
GENIUS_GENODEF_13
1002
{
1000
HIER
1070
     0
1002
}
1002
{
1000
MANEDIT
1070
     0
1002
}
1002
{
1000
NOSEL
1070
     0
1002
}
1002
{
1000
BEHIND
1070
     0
1002
}
1002
{
1000
OTHER
1070
     0
1002
}
1002
{
1000
REACTOR
1002
}
  0
ARC
  5
337F
  8
AM_0
 10
100.7013316171755
 20
201.21728389373169
 30
0.0
 40
1.0
 50
180.0
 51
270.0
1001
GENIUS_GENOBJ-N-FIL_13
1002
{
1000
OWNER
1000
GEN
1002
}
1001
GENIUS_GENODEF_13
1002
{
1000
HIER
1070
     0
1002
}
1002
{
1000
MANEDIT
1070
     0
1002
}
1002
{
1000
NOSEL
1070
     0
1002
}
1002
{
1000
BEHIND
1070
     0
1002
}
1002
{
1000
OTHER
1070
     0
1002
}
1002
{
1000
REACTOR
1002
}
  0
ARC
  5
3380
  8
AM_0
 10
100.7013316171755
 20
212.21728389373169
 30
0.0
 40
1.0
 50
90.0
 51
180.0
1001
GENIUS_GENODEF_13
1002
{
1000
HIER
1070
     0
1002
}
1002
{
1000
MANEDIT
1070
     0
1002
}
1002
{
1000
NOSEL
1070
     0
1002
}
1002
{
1000
BEHIND
1070
     0
1002
}
1002
{
1000
OTHER
1070
     0
1002
}
1002
{
1000
REACTOR
1002
}
1001
GENIUS_GENOBJ-N-FIL_13
1002
{
1000
OWNER
1000
GEN
1002
}
  0
ARC
  5
3381
  8
AM_0
 10
100.7013316171755
 20
209.01728389373179
 30
0.0
 40
1.0
 50
180.0
 51
270.0
1001
GENIUS_GENOBJ-N-FIL_13
1002
{
1000
OWNER
1000
GEN
1002
}
1001
GENIUS_GENODEF_13
1002
{
1000
HIER
1070
     0
1002
}
1002
{
1000
MANEDIT
1070
     0
1002
}
1002
{
1000
NOSEL
1070
     0
1002
}
1002
{
1000
BEHIND
1070
     0
1002
}
1002
{
1000
OTHER
1070
     0
1002
}
1002
{
1000
REACTOR
1002
}
  0
LINE
  5
3382
  8
AM_0
 10
99.701331617175526
 20
212.21728389373169
 30
0.0
 11
99.701331617175526
 21
209.01728389373179
 31
0.0
  0
LINE
  5
3383
  8
AM_0
 10
99.701331617175526
 20
221.41728389373179
 30
0.0
 11
99.701331617175526
 21
217.91728389373179
 31
0.0
  0
ARC
  5
3384
  8
AM_0
 10
100.7013316171755
 20
217.91728389373179
 30
0.0
 40
1.0
 50
180.0
 51
270.0
1001
GENIUS_GENODEF_13
1002
{
1000
HIER
1070
     0
1002
}
1002
{
1000
MANEDIT
1070
     0
1002
}
1002
{
1000
NOSEL
1070
     0
1002
}
1002
{
1000
BEHIND
1070
     0
1002
}
1002
{
1000
OTHER
1070
     0
1002
}
1002
{
1000
REACTOR
1002
}
1001
GENIUS_GENOBJ-N-FIL_13
1002
{
1000
OWNER
1000
GEN
1002
}
  0
ARC
  5
3385
  8
AM_0
 10
100.7013316171755
 20
221.41728389373179
 30
0.0
 40
1.0
 50
90.0
 51
180.0
1001
GENIUS_GENODEF_13
1002
{
1000
HIER
1070
     0
1002
}
1002
{
1000
MANEDIT
1070
     0
1002
}
1002
{
1000
NOSEL
1070
     0
1002
}
1002
{
1000
BEHIND
1070
     0
1002
}
1002
{
1000
OTHER
1070
     0
1002
}
1002
{
1000
REACTOR
1002
}
1001
GENIUS_GENOBJ-N-FIL_13
1002
{
1000
OWNER
1000
GEN
1002
}
  0
ARC
  5
3386
  8
AM_0
 10
51.701331617175583
 20
237.41728389373179
 30
0.0
 40
1.0
 50
270.0
 51
0.0
1001
GENIUS_GENOBJ-N-FIL_13
1002
{
1000
OWNER
1000
GEN
1002
}
1001
GENIUS_GENODEF_13
1002
{
1000
HIER
1070
     0
1002
}
1002
{
1000
MANEDIT
1070
     0
1002
}
1002
{
1000
NOSEL
1070
     0
1002
}
1002
{
1000
BEHIND
1070
     0
1002
}
1002
{
1000
OTHER
1070
     0
1002
}
1002
{
1000
REACTOR
1002
}
  0
LINE
  5
3387
  8
AM_0
 10
41.701331617175683
 20
236.41728389373179
 30
0.0
 11
41.701331617175683
 21
227.7359306342338
 31
0.0
  0
LINE
  5
3388
  8
AM_0
 10
38.70133161717559
 20
236.41728389373179
 30
0.0
 11
38.70133161717559
 21
227.4117413108103
 31
0.0
  0
LINE
  5
3389
  8
AM_0
 10
40.701331617175583
 20
236.41728389373179
 30
0.0
 11
40.701331617175583
 21
228.02032897833479
 31
0.0
  0
LINE
  5
338A
  8
AM_0
 10
46.701331617175569
 20
236.41728389373179
 30
0.0
 11
46.701331617175569
 21
227.5208496483115
 31
0.0
  0
ARC
  5
338B
  8
AM_0
 10
100.7013316171755
 20
233.41728389373171
 30
0.0
 40
1.0
 50
90.0
 51
180.0
1001
GENIUS_GENOBJ-N-FIL_13
1002
{
1000
OWNER
1000
GEN
1002
}
1001
GENIUS_GENODEF_13
1002
{
1000
HIER
1070
     0
1002
}
1002
{
1000
MANEDIT
1070
     0
1002
}
1002
{
1000
NOSEL
1070
     0
1002
}
1002
{
1000
BEHIND
1070
     0
1002
}
1002
{
1000
OTHER
1070
     0
1002
}
1002
{
1000
REACTOR
1002
}
  0
ARC
  5
338C
  8
AM_0
 10
100.7013316171755
 20
228.91728389373179
 30
0.0
 40
1.0
 50
180.0
 51
270.0
1001
GENIUS_GENODEF_13
1002
{
1000
HIER
1070
     0
1002
}
1002
{
1000
MANEDIT
1070
     0
1002
}
1002
{
1000
NOSEL
1070
     0
1002
}
1002
{
1000
BEHIND
1070
     0
1002
}
1002
{
1000
OTHER
1070
     0
1002
}
1002
{
1000
REACTOR
1002
}
1001
GENIUS_GENOBJ-N-FIL_13
1002
{
1000
OWNER
1000
GEN
1002
}
  0
LINE
  5
338D
  8
AM_0
 10
99.701331617175526
 20
233.41728389373171
 30
0.0
 11
99.701331617175526
 21
228.91728389373179
 31
0.0
  0
LINE
  5
338E
  8
AM_0
 10
217.2013516171757
 20
222.83864839373169
 30
0.0
 11
261.70134161717561
 21
222.83864839373169
 31
0.0
  0
LINE
  5
338F
  8
AM_0
 10
217.2013516171757
 20
244.9426213937318
 30
0.0
 11
261.70134161717561
 21
244.9426213937318
 31
0.0
  0
LINE
  5
3390
  8
AM_0
 10
227.20134161717559
 20
210.9172903937318
 30
0.0
 11
259.27116161717561
 21
209.79738739373181
 31
0.0
  0
LINE
  5
3391
  8
AM_0
 10
153.20133161717561
 20
223.6114453937318
 30
0.0
 11
173.2013416171755
 21
223.6114453937318
 31
0.0
  0
LINE
  5
3392
  8
AM_0
 10
153.20133161717561
 20
210.41727739373169
 30
0.0
 11
173.2013416171755
 21
210.41727739373169
 31
0.0
  0
LINE
  5
3393
  8
AM_0
 10
153.20133161717561
 20
199.91727739373169
 30
0.0
 11
169.34091161717561
 21
200.48089039373181
 31
0.0
  0
LINE
  5
3394
  8
AM_0
 10
134.70133161717561
 20
190.41728389373171
 30
0.0
 11
146.20133161717561
 21
190.41728389373171
 31
0.0
  0
ARC
  5
3395
  8
AM_0
 10
123.7013316171756
 20
195.11728389373181
 30
0.0
 40
1.0
 50
270.0
 51
0.0
1001
GENIUS_GENOBJ-N-FIL_13
1002
{
1000
OWNER
1000
GEN
1002
}
1001
GENIUS_GENODEF_13
1002
{
1000
HIER
1070
     0
1002
}
1002
{
1000
MANEDIT
1070
     0
1002
}
1002
{
1000
NOSEL
1070
     0
1002
}
1002
{
1000
BEHIND
1070
     0
1002
}
1002
{
1000
OTHER
1070
     0
1002
}
1002
{
1000
REACTOR
1002
}
  0
ARC
  5
3396
  8
AM_0
 10
123.7013316171756
 20
203.51728389373179
 30
0.0
 40
1.0
 50
0.0
 51
90.0
1001
GENIUS_GENODEF_13
1002
{
1000
HIER
1070
     0
1002
}
1002
{
1000
MANEDIT
1070
     0
1002
}
1002
{
1000
NOSEL
1070
     0
1002
}
1002
{
1000
BEHIND
1070
     0
1002
}
1002
{
1000
OTHER
1070
     0
1002
}
1002
{
1000
REACTOR
1002
}
1001
GENIUS_GENOBJ-N-FIL_13
1002
{
1000
OWNER
1000
GEN
1002
}
  0
LINE
  5
3397
  8
AM_0
 10
124.7013316171756
 20
203.51728389373179
 30
0.0
 11
124.7013316171756
 21
201.21728389373169
 31
0.0
  0
ARC
  5
3398
  8
AM_0
 10
123.7013316171756
 20
195.71728389373169
 30
0.0
 40
1.0
 50
0.0
 51
90.0
1001
GENIUS_GENODEF_13
1002
{
1000
HIER
1070
     0
1002
}
1002
{
1000
MANEDIT
1070
     0
1002
}
1002
{
1000
NOSEL
1070
     0
1002
}
1002
{
1000
BEHIND
1070
     0
1002
}
1002
{
1000
OTHER
1070
     0
1002
}
1002
{
1000
REACTOR
1002
}
1001
GENIUS_GENOBJ-N-FIL_13
1002
{
1000
OWNER
1000
GEN
1002
}
  0
LINE
  5
3399
  8
AM_0
 10
124.7013316171756
 20
195.71728389373169
 30
0.0
 11
124.7013316171756
 21
195.11728389373181
 31
0.0
  0
ARC
  5
339A
  8
AM_0
 10
123.7013316171756
 20
201.21728389373169
 30
0.0
 40
1.0
 50
270.0
 51
0.0
1001
GENIUS_GENODEF_13
1002
{
1000
HIER
1070
     0
1002
}
1002
{
1000
MANEDIT
1070
     0
1002
}
1002
{
1000
NOSEL
1070
     0
1002
}
1002
{
1000
BEHIND
1070
     0
1002
}
1002
{
1000
OTHER
1070
     0
1002
}
1002
{
1000
REACTOR
1002
}
1001
GENIUS_GENOBJ-N-FIL_13
1002
{
1000
OWNER
1000
GEN
1002
}
  0
ARC
  5
339B
  8
AM_0
 10
123.7013316171756
 20
212.21728389373189
 30
0.0
 40
1.0
 50
0.0
 51
90.0
1001
GENIUS_GENODEF_13
1002
{
1000
HIER
1070
     0
1002
}
1002
{
1000
MANEDIT
1070
     0
1002
}
1002
{
1000
NOSEL
1070
     0
1002
}
1002
{
1000
BEHIND
1070
     0
1002
}
1002
{
1000
OTHER
1070
     0
1002
}
1002
{
1000
REACTOR
1002
}
1001
GENIUS_GENOBJ-N-FIL_13
1002
{
1000
OWNER
1000
GEN
1002
}
  0
ARC
  5
339C
  8
AM_0
 10
123.7013316171756
 20
209.01728389373179
 30
0.0
 40
1.0
 50
270.0
 51
0.0
1001
GENIUS_GENODEF_13
1002
{
1000
HIER
1070
     0
1002
}
1002
{
1000
MANEDIT
1070
     0
1002
}
1002
{
1000
NOSEL
1070
     0
1002
}
1002
{
1000
BEHIND
1070
     0
1002
}
1002
{
1000
OTHER
1070
     0
1002
}
1002
{
1000
REACTOR
1002
}
1001
GENIUS_GENOBJ-N-FIL_13
1002
{
1000
OWNER
1000
GEN
1002
}
  0
LINE
  5
339D
  8
AM_0
 10
124.7013316171756
 20
212.21728389373189
 30
0.0
 11
124.7013316171756
 21
209.01728389373179
 31
0.0
  0
LINE
  5
339E
  8
AM_0
 10
124.7013316171755
 20
221.41728389373179
 30
0.0
 11
124.7013316171755
 21
217.91728389373179
 31
0.0
  0
ARC
  5
339F
  8
AM_0
 10
123.7013316171756
 20
217.91728389373179
 30
0.0
 40
1.0
 50
270.0
 51
0.0
1001
GENIUS_GENODEF_13
1002
{
1000
HIER
1070
     0
1002
}
1002
{
1000
MANEDIT
1070
     0
1002
}
1002
{
1000
NOSEL
1070
     0
1002
}
1002
{
1000
BEHIND
1070
     0
1002
}
1002
{
1000
OTHER
1070
     0
1002
}
1002
{
1000
REACTOR
1002
}
1001
GENIUS_GENOBJ-N-FIL_13
1002
{
1000
OWNER
1000
GEN
1002
}
  0
ARC
  5
33A0
  8
AM_0
 10
123.7013316171755
 20
221.41728389373179
 30
0.0
 40
1.0
 50
0.0
 51
90.0
1001
GENIUS_GENOBJ-N-FIL_13
1002
{
1000
OWNER
1000
GEN
1002
}
1001
GENIUS_GENODEF_13
1002
{
1000
HIER
1070
     0
1002
}
1002
{
1000
MANEDIT
1070
     0
1002
}
1002
{
1000
NOSEL
1070
     0
1002
}
1002
{
1000
BEHIND
1070
     0
1002
}
1002
{
1000
OTHER
1070
     0
1002
}
1002
{
1000
REACTOR
1002
}
  0
LINE
  5
33A1
  8
AM_0
 10
153.20133161717561
 20
193.41728389373159
 30
0.0
 11
146.20133161717561
 21
190.41728389373171
 31
0.0
  0
ARC
  5
33A2
  8
AM_0
 10
123.7013316171756
 20
233.41728389373171
 30
0.0
 40
1.0
 50
0.0
 51
90.0
1001
GENIUS_GENOBJ-N-FIL_13
1002
{
1000
OWNER
1000
GEN
1002
}
1001
GENIUS_GENODEF_13
1002
{
1000
HIER
1070
     0
1002
}
1002
{
1000
MANEDIT
1070
     0
1002
}
1002
{
1000
NOSEL
1070
     0
1002
}
1002
{
1000
BEHIND
1070
     0
1002
}
1002
{
1000
OTHER
1070
     0
1002
}
1002
{
1000
REACTOR
1002
}
  0
ARC
  5
33A3
  8
AM_0
 10
123.7013316171755
 20
228.91728389373179
 30
0.0
 40
1.0
 50
270.0
 51
0.0
1001
GENIUS_GENODEF_13
1002
{
1000
HIER
1070
     0
1002
}
1002
{
1000
MANEDIT
1070
     0
1002
}
1002
{
1000
NOSEL
1070
     0
1002
}
1002
{
1000
BEHIND
1070
     0
1002
}
1002
{
1000
OTHER
1070
     0
1002
}
1002
{
1000
REACTOR
1002
}
1001
GENIUS_GENOBJ-N-FIL_13
1002
{
1000
OWNER
1000
GEN
1002
}
  0
LINE
  5
33A4
  8
AM_0
 10
124.7013316171756
 20
233.41728389373171
 30
0.0
 11
124.7013316171755
 21
228.91728389373179
 31
0.0
  0
POINT
  5
33A5
  8
AM_0
 10
153.20133161717561
 20
256.41729439373171
 30
0.0
  0
LINE
  5
33A6
  8
AM_0
 10
173.2013416171755
 20
234.92176339373179
 30
0.0
 11
173.2013416171755
 21
204.4784653937318
 31
0.0
  0
LINE
  5
33A7
  8
AM_0
 10
177.34092161717561
 20
215.7950833937318
 30
0.0
 11
214.4888116171756
 21
214.4978443937317
 31
0.0
  0
ARC
  5
33A8
  8
AM_0
 10
169.20135161717559
 20
204.4784653937318
 30
0.0
 40
4.000000199999997
 50
271.9999999999971
 51
0.0
  0
ARC
  5
33A9
  8
AM_0
 10
177.20133161717561
 20
211.7975263937318
 30
0.0
 40
4.000000199999997
 50
88.000000000002899
 51
180.00001000000091
  0
ARC
  5
33AA
  8
AM_0
 10
221.2013416171755
 20
214.62925039373181
 30
0.0
 40
4.000000199999997
 50
211.0723399999998
 51
268.0000000000029
  0
ARC
  5
33AB
  8
AM_0
 10
214.34922161717569
 20
210.50029939373181
 30
0.0
 40
4.000000199999997
 50
31.072340999999
 51
88.000000000002899
  0
LINE
  5
33AC
  8
AM_0
 10
221.0617516171757
 20
210.63167839373179
 30
0.0
 11
227.20134161717559
 21
210.4172923937318
 31
0.0
  0
LINE
  5
33AD
  8
AM_0
 10
178.20135161717559
 20
239.92174939373169
 30
0.0
 11
217.2013516171757
 21
239.92174939373169
 31
0.0
  0
ARC
  5
33AE
  8
AM_0
 10
178.20135161717559
 20
234.92176339373179
 30
0.0
 40
5.0000001000000003
 50
90.00000299999769
 51
180.00001000000091
  0
LINE
  5
33AF
  8
ｶｸﾚｾﾝ2
 10
246.2013316171757
 20
190.4172763937317
 30
0.0
 11
246.2013316171757
 21
172.4172763937317
 31
0.0
  0
LINE
  5
33B0
  8
ｶｸﾚｾﾝ2
 10
261.2013316171757
 20
190.4172763937317
 30
0.0
 11
261.2013316171757
 21
172.4172763937317
 31
0.0
  0
LINE
  5
33B1
  8
AM_0
 10
235.7013316171757
 20
172.4172763937317
 30
0.0
 11
235.7013316171757
 21
188.4172753937317
 31
0.0
  0
LINE
  5
33B2
  8
ﾁｭｳｼﾝｾﾝ1
 10
253.70133161717581
 20
169.08596239373171
 30
0.0
 11
253.7013316171757
 21
195.4291633937317
 31
0.0
  0
LINE
  5
33B3
  8
AM_0
 10
273.7013416171755
 20
174.4172743937317
 30
0.0
 11
358.7013316171757
 21
174.4172743937317
 31
0.0
  0
LINE
  5
33B4
  8
AM_0
 10
235.7013316171757
 20
172.4172763937317
 30
0.0
 11
271.7013316171757
 21
172.4172763937317
 31
0.0
  0
ARC
  5
33B5
  8
AM_0
 10
273.7013416171755
 20
172.4172763937317
 30
0.0
 40
2.00000007
 50
90.00000299999769
 51
180.00001000000091
  0
ARC
  5
33B6
  8
AM_0
 10
358.7013316171757
 20
172.4172763937317
 30
0.0
 40
2.00000007
 50
0.0
 51
90.00000299999769
  0
LINE
  5
33B7
  8
AM_0
 10
360.70131161717558
 20
172.4172763937317
 30
0.0
 11
360.70131161717558
 21
172.4172763937317
 31
0.0
  0
LINE
  5
33B8
  8
AM_0
 10
272.59122161717562
 20
193.19815939373169
 30
0.0
 11
287.51109161717568
 21
239.8225513937318
 31
0.0
  0
LINE
  5
33B9
  8
AM_0
 10
263.70135161717559
 20
224.67460039373171
 30
0.0
 11
271.7013316171757
 21
224.67460039373171
 31
0.0
  0
LINE
  5
33BA
  8
AM_0
 10
263.70135161717559
 20
203.99950639373171
 30
0.0
 11
271.7013316171757
 21
203.99950639373171
 31
0.0
  0
LINE
  5
33BB
  8
AM_0
 10
237.7013416171755
 20
190.4172763937317
 30
0.0
 11
268.78155161717558
 21
190.4172763937317
 31
0.0
  0
ARC
  5
33BC
  8
AM_0
 10
263.70135161717559
 20
205.99948939373181
 30
0.0
 40
2.00000007
 50
179.999989999999
 51
270.0
  0
ARC
  5
33BD
  8
AM_0
 10
237.7013416171755
 20
188.4172753937317
 30
0.0
 40
2.00000007
 50
90.00000299999769
 51
180.00001000000091
  0
ARC
  5
33BE
  8
AM_0
 10
264.70134161717561
 20
193.3938373937317
 30
0.0
 40
3.0
 50
179.999989999999
 51
268.00000999999872
  0
ARC
  5
33BF
  8
AM_0
 10
258.7013416171755
 20
206.81545339373179
 30
0.0
 40
3.0
 50
0.0
 51
88.000000000002899
  0
ARC
  5
33C0
  8
AM_0
 10
263.70135161717559
 20
226.6746163937317
 30
0.0
 40
2.00000007
 50
179.999989999999
 51
270.0
  0
ARC
  5
33C1
  8
AM_0
 10
268.78155161717558
 20
194.4172753937317
 30
0.0
 40
4.000000199999997
 50
270.0
 51
342.25533000000138
  0
ARC
  5
33C2
  8
AM_0
 10
271.7013316171757
 20
201.99950539373171
 30
0.0
 40
2.00000007
 50
0.0
 51
90.00000299999769
  0
LINE
  5
33C3
  8
AM_0
 10
273.7013416171755
 20
196.6672903937318
 30
0.0
 11
273.7013416171755
 21
201.99950539373171
 31
0.0
  0
LINE
  5
33C4
  8
AM_0
 10
273.7013416171755
 20
220.5579163937318
 30
0.0
 11
281.3463616171756
 21
220.5579163937318
 31
0.0
  0
ARC
  5
33C5
  8
AM_0
 10
271.7013316171757
 20
222.55790239373181
 30
0.0
 40
2.00000007
 50
270.0
 51
0.0
  0
ARC
  5
33C6
  8
AM_0
 10
271.7013316171757
 20
226.6746163937317
 30
0.0
 40
2.00000007
 50
270.0
 51
0.0
  0
ARC
  5
33C7
  8
AM_0
 10
283.7013316171757
 20
241.04169739373179
 30
0.0
 40
4.000000199999997
 50
342.25533000000138
 51
0.0
  0
ARC
  5
33C8
  8
AM_0
 10
363.70131161717558
 20
205.41729139373169
 30
0.0
 40
15.000000299999989
 50
179.999989999999
 51
270.0
  0
LINE
  5
33C9
  8
AM_0
 10
353.7763216171756
 20
204.87502339373179
 30
0.0
 11
360.70131161717558
 21
204.87502339373179
 31
0.0
  0
LINE
  5
33CA
  8
AM_0
 10
-8.7986683828243031
 20
322.01728389373193
 30
0.0
 11
134.70133161717561
 21
322.01728389373181
 31
0.0
  0
LINE
  5
33CC
  8
AM_0
 10
-4.2986683828244141
 20
282.41728389373179
 30
0.0
 11
51.701331617175583
 21
282.41728389373179
 31
0.0
1001
GENIUS_GENOREF_13
1005
3498
  0
ARC
  5
33CD
  8
AM_0
 10
-12.79866838282442
 20
315.31541602235239
 30
0.0
 40
2.0
 50
311.63353933656862
 51
0.0
1001
GENIUS_GENOBJ-N-FIL_13
1002
{
1000
OWNER
1000
GEN
1002
}
1001
GENIUS_GENODEF_13
1002
{
1000
HIER
1070
     0
1002
}
1002
{
1000
MANEDIT
1070
     0
1002
}
1002
{
1000
NOSEL
1070
     0
1002
}
1002
{
1000
BEHIND
1070
     0
1002
}
1002
{
1000
OTHER
1070
     0
1002
}
1002
{
1000
REACTOR
1002
}
  0
LINE
  5
33CE
  8
AM_0
 10
-23.29866838282442
 20
276.41728389373179
 30
0.0
 11
-16.5860335817822
 21
276.41728389373179
 31
0.0
  0
ARC
  5
33CF
  8
AM_0
 10
-23.29866838282442
 20
273.41728389373179
 30
0.0
 40
3.0
 50
90.0
 51
180.0
1001
GENIUS_GENOBJ-N-FIL_13
1002
{
1000
OWNER
1000
GEN
1002
}
1001
GENIUS_GENODEF_13
1002
{
1000
HIER
1070
     0
1002
}
1002
{
1000
MANEDIT
1070
     0
1002
}
1002
{
1000
NOSEL
1070
     0
1002
}
1002
{
1000
BEHIND
1070
     0
1002
}
1002
{
1000
OTHER
1070
     0
1002
}
1002
{
1000
REACTOR
1002
}
  0
ARC
  5
33D0
  8
AM_0
 10
-4.2986683828244141
 20
281.41728389373179
 30
0.0
 40
1.0
 50
90.0
 51
180.0
1001
GENIUS_GENODEF_13
1002
{
1000
HIER
1070
     0
1002
}
1002
{
1000
MANEDIT
1070
     0
1002
}
1002
{
1000
NOSEL
1070
     0
1002
}
1002
{
1000
BEHIND
1070
     0
1002
}
1002
{
1000
OTHER
1070
     0
1002
}
1002
{
1000
REACTOR
1002
}
1001
GENIUS_GENOBJ-N-FIL_13
1002
{
1000
OWNER
1000
GEN
1002
}
  0
ARC
  5
33D1
  8
AM_0
 10
-13.29866838282441
 20
309.51915176511119
 30
0.0
 40
2.0
 50
131.63353933656751
 51
180.0
1001
GENIUS_GENODEF_13
1002
{
1000
HIER
1070
     0
1002
}
1002
{
1000
MANEDIT
1070
     0
1002
}
1002
{
1000
NOSEL
1070
     0
1002
}
1002
{
1000
BEHIND
1070
     0
1002
}
1002
{
1000
OTHER
1070
     0
1002
}
1002
{
1000
REACTOR
1002
}
1001
GENIUS_GENOBJ-N-FIL_13
1002
{
1000
OWNER
1000
GEN
1002
}
  0
LINE
  5
33D2
  8
AM_0
 10
-11.4699407051645
 20
313.82059738498492
 30
0.0
 11
-14.627396060484211
 21
311.01397040247878
 31
0.0
  0
LINE
  5
33D3
  8
AM_0N
 10
18.67992681194664
 20
286.16478389373168
 30
0.0
 11
17.453831617175641
 21
286.16478389373168
 31
0.0
1001
GENIUS_GENOREF_13
1005
0
  0
LINE
  5
33D4
  8
AM_0N
 10
18.67992681194664
 20
286.66978389373179
 30
0.0
 11
17.453831617175641
 21
286.66978389373179
 31
0.0
1001
GENIUS_GENOREF_13
1005
0
  0
LINE
  5
33D5
  8
AM_0
 10
11.20133161717558
 20
290.41728389373179
 30
0.0
 11
23.20133161717558
 21
290.41728389373179
 31
0.0
1001
GENIUS_GENOREF_13
1005
3498
  0
CIRCLE
  5
33D6
  8
AM_0N
 10
17.20133161717558
 20
286.41728389373179
 30
0.0
 40
2.799999999999998
1001
GENIUS_GENOREF_13
1005
0
  0
ARC
  5
33D7
  8
AM_0
 10
11.20133161717558
 20
288.41728389373179
 30
0.0
 40
2.0
 50
90.0
 51
180.0
1001
GENIUS_GENOBJ-N-FIL_13
1002
{
1000
OWNER
1000
GEN
1002
}
1001
GENIUS_GENODEF_13
1002
{
1000
HIER
1070
     0
1002
}
1002
{
1000
MANEDIT
1070
     0
1002
}
1002
{
1000
NOSEL
1070
     0
1002
}
1002
{
1000
BEHIND
1070
     0
1002
}
1002
{
1000
OTHER
1070
     0
1002
}
1002
{
1000
REACTOR
1002
}
  0
LINE
  5
33D8
  8
AM_0
 10
9.2013316171755832
 20
288.41728389373179
 30
0.0
 11
9.2013316171755832
 21
282.41728389373179
 31
0.0
  0
LINE
  5
33D9
  8
AM_0N
 10
16.948831617175639
 20
287.89587908850291
 30
0.0
 11
17.453831617175641
 21
287.89587908850291
 31
0.0
1001
GENIUS_GENOREF_13
1005
0
  0
LINE
  5
33DA
  8
AM_0N
 10
16.948831617175639
 20
284.93868869896068
 30
0.0
 11
17.453831617175641
 21
284.93868869896068
 31
0.0
1001
GENIUS_GENOREF_13
1005
0
  0
LINE
  5
33DB
  8
AM_0N
 10
17.453831617175641
 20
286.16478389373168
 30
0.0
 11
17.453831617175641
 21
284.93868869896068
 31
0.0
1001
GENIUS_GENOREF_13
1005
0
  0
LINE
  5
33DC
  8
AM_0N
 10
16.948831617175639
 20
286.16478389373168
 30
0.0
 11
16.948831617175639
 21
284.93868869896068
 31
0.0
1001
GENIUS_GENOREF_13
1005
0
  0
LINE
  5
33DD
  8
AM_0N
 10
16.948831617175639
 20
287.89587908850291
 30
0.0
 11
16.948831617175639
 21
286.66978389373179
 31
0.0
1001
GENIUS_GENOREF_13
1005
0
  0
LINE
  5
33DE
  8
AM_0N
 10
17.453831617175641
 20
287.89587908850291
 30
0.0
 11
17.453831617175641
 21
286.66978389373179
 31
0.0
1001
GENIUS_GENOREF_13
1005
0
  0
LINE
  5
33DF
  8
AM_0N
 10
15.72273642240452
 20
286.16478389373168
 30
0.0
 11
15.72273642240452
 21
286.66978389373179
 31
0.0
1001
GENIUS_GENOREF_13
1005
0
  0
LINE
  5
33E0
  8
AM_0
 10
13.20133161717558
 20
290.41728389373179
 30
0.0
 11
13.20133161717558
 21
282.41728389373179
 31
0.0
  0
LINE
  5
33E1
  8
AM_0N
 10
16.948831617175639
 20
286.16478389373168
 30
0.0
 11
15.72273642240452
 21
286.16478389373168
 31
0.0
1001
GENIUS_GENOREF_13
1005
0
  0
LINE
  5
33E2
  8
AM_0N
 10
16.948831617175639
 20
286.66978389373179
 30
0.0
 11
15.72273642240452
 21
286.66978389373179
 31
0.0
1001
GENIUS_GENOREF_13
1005
0
  0
ARC
  5
33E3
  8
AM_0
 10
23.20133161717558
 20
288.41728389373179
 30
0.0
 40
2.0
 50
0.0
 51
90.0
1001
GENIUS_GENOBJ-N-FIL_13
1002
{
1000
OWNER
1000
GEN
1002
}
1001
GENIUS_GENODEF_13
1002
{
1000
HIER
1070
     0
1002
}
1002
{
1000
MANEDIT
1070
     0
1002
}
1002
{
1000
NOSEL
1070
     0
1002
}
1002
{
1000
BEHIND
1070
     0
1002
}
1002
{
1000
OTHER
1070
     0
1002
}
1002
{
1000
REACTOR
1002
}
  0
LINE
  5
33E4
  8
AM_0N
 10
18.67992681194664
 20
286.16478389373168
 30
0.0
 11
18.67992681194664
 21
286.66978389373179
 31
0.0
1001
GENIUS_GENOREF_13
1005
0
  0
LINE
  5
33E5
  8
AM_0
 10
25.20133161717558
 20
288.41728389373179
 30
0.0
 11
25.20133161717558
 21
282.41728389373179
 31
0.0
  0
LINE
  5
33E6
  8
AM_0
 10
21.20133161717558
 20
290.41728389373179
 30
0.0
 11
21.20133161717558
 21
282.41728389373179
 31
0.0
  0
ARC
  5
33E7
  8
AM_0
 10
-8.7986683828243031
 20
320.01728389373193
 30
0.0
 40
2.0
 50
90.0
 51
180.0
1001
GENIUS_GENOBJ-N-FIL_13
1002
{
1000
OWNER
1000
GEN
1002
}
1001
GENIUS_GENODEF_13
1002
{
1000
HIER
1070
     0
1002
}
1002
{
1000
MANEDIT
1070
     0
1002
}
1002
{
1000
NOSEL
1070
     0
1002
}
1002
{
1000
BEHIND
1070
     0
1002
}
1002
{
1000
OTHER
1070
     0
1002
}
1002
{
1000
REACTOR
1002
}
  0
ARC
  5
33E8
  8
AM_0
 10
51.701331617175583
 20
281.41728389373179
 30
0.0
 40
1.0
 50
0.0
 51
90.0
1001
GENIUS_GENODEF_13
1002
{
1000
HIER
1070
     0
1002
}
1002
{
1000
MANEDIT
1070
     0
1002
}
1002
{
1000
NOSEL
1070
     0
1002
}
1002
{
1000
BEHIND
1070
     0
1002
}
1002
{
1000
OTHER
1070
     0
1002
}
1002
{
1000
REACTOR
1002
}
1001
GENIUS_GENOBJ-N-FIL_13
1002
{
1000
OWNER
1000
GEN
1002
}
  0
LINE
  5
33E9
  8
AM_0
 10
217.2013516171757
 20
345.99595039373168
 30
0.0
 11
261.70134161717561
 21
345.99595039373168
 31
0.0
  0
LINE
  5
33EA
  8
AM_0
 10
217.2013516171757
 20
323.8919803937319
 30
0.0
 11
261.70134161717561
 21
323.8919803937319
 31
0.0
  0
LINE
  5
33EB
  8
AM_0
 10
227.20134161717559
 20
357.91726039373168
 30
0.0
 11
258.80607161717569
 21
359.02093039373182
 31
0.0
  0
ARC
  5
33EC
  8
AM_0
 10
221.2013416171755
 20
354.2053303937318
 30
0.0
 40
4.000000199999997
 50
91.999998000000545
 51
180.93197999999961
  0
LINE
  5
33ED
  8
AM_0
 10
153.20133161717561
 20
302.41729339373182
 30
0.0
 11
198.3044116171753
 21
302.41729339373182
 31
0.0
  0
LINE
  5
33EE
  8
AM_0
 10
153.20133161717561
 20
289.22311039373182
 30
0.0
 11
192.3528916171756
 21
289.22311039373182
 31
0.0
  0
LINE
  5
33EF
  8
AM_0
 10
153.20133161717561
 20
312.91729039373178
 30
0.0
 11
171.38157161717569
 21
313.55215039373178
 31
0.0
  0
LINE
  5
33F0
  8
AM_0
 10
134.7013316171755
 20
322.41728389373179
 30
0.0
 11
146.20133161717561
 21
322.41728389373179
 31
0.0
  0
LINE
  5
33F1
  8
AM_0
 10
146.20133161717561
 20
322.41728389373179
 30
0.0
 11
153.20133161717561
 21
319.41728389373179
 31
0.0
  0
ARC
  5
33F2
  8
AM_0
 10
176.8735816171756
 20
317.74636039373161
 30
0.0
 40
4.000000199999997
 50
271.9999999999971
 51
315.0
  0
ARC
  5
33F3
  8
AM_0
 10
171.2419816171755
 20
317.54971039373169
 30
0.0
 40
4.000000199999997
 50
271.9999999999971
 51
309.62978999999939
  0
ARC
  5
33F4
  8
AM_0
 10
198.3044116171753
 20
299.41729339373182
 30
0.0
 40
3.0
 50
315.0
 51
90.00000299999769
  0
LINE
  5
33F5
  8
AM_0
 10
192.3528916171756
 20
289.22311039373182
 30
0.0
 11
200.42571161717569
 21
297.29595739373178
 31
0.0
  0
LINE
  5
33F6
  8
AM_0
 10
178.58787161717561
 20
313.80376039373181
 30
0.0
 11
184.96422161717561
 21
302.41729339373182
 31
0.0
  0
LINE
  5
33F7
  8
AM_0
 10
171.38157161717569
 20
313.55215039373178
 30
0.0
 11
177.0131716171756
 21
313.7488003937317
 31
0.0
  0
LINE
  5
33F8
  8
AM_0
 10
179.0966116171756
 20
347.51839039373192
 30
0.0
 11
211.92930161717561
 21
348.66496039373192
 31
0.0
  0
LINE
  5
33F9
  8
AM_0
 10
179.7020116171756
 20
314.91793039373181
 30
0.0
 11
214.61814161717561
 21
349.83403039373189
 31
0.0
  0
LINE
  5
33FA
  8
AM_0
 10
176.20134161717539
 20
344.52022039373168
 30
0.0
 11
176.20134161717539
 21
317.87395039373177
 31
0.0
  0
ARC
  5
33FB
  8
AM_0
 10
173.2013416171755
 20
317.87395039373177
 30
0.0
 40
3.0
 50
309.62978999999939
 51
0.0
  0
LINE
  5
33FC
  8
AM_0
 10
175.1148016171758
 20
315.56335039373181
 30
0.0
 11
173.79333161717551
 21
314.46892039373182
 31
0.0
  0
ARC
  5
33FD
  8
AM_0
 10
179.20134161717539
 20
344.52022039373168
 30
0.0
 40
3.0
 50
91.999998000000545
 51
180.00001000000091
  0
ARC
  5
33FE
  8
AM_0
 10
213.20244161717559
 20
354.07519039373182
 30
0.0
 40
4.000000199999997
 50
315.0
 51
0.9319899800013384
  0
ARC
  5
33FF
  8
AM_0
 10
211.78971161717561
 20
352.66249039373179
 30
0.0
 40
4.000000199999997
 50
271.9999999999971
 51
315.0
  0
LINE
  5
3400
  8
AM_0
 10
214.61814161717561
 20
349.83403039373189
 30
0.0
 11
216.03087161717571
 21
351.24673039373192
 31
0.0
  0
LINE
  5
3401
  8
AM_0
 10
221.0616916171756
 20
358.20289039373182
 30
0.0
 11
227.20134161717559
 21
358.41727039373183
 31
0.0
  0
POLYLINE
  5
3402
  8
AM_0
 66
     1
 10
0.0
 20
0.0
 30
0.0
  0
VERTEX
  5
3403
  8
AM_0
 10
317.1579916171757
 20
357.05869039373192
 30
0.0
 42
0.046334034
  0
VERTEX
  5
3404
  8
AM_0
 10
315.30618161717558
 20
358.11631039373168
 30
0.0
 42
0.024113349
  0
VERTEX
  5
3405
  8
AM_0
 10
313.32672161717562
 20
358.9161703937317
 30
0.0
 42
0.015482213
  0
VERTEX
  5
3406
  8
AM_0
 10
311.28978161717572
 20
359.56084039373189
 30
0.0
 42
0.011170747
  0
VERTEX
  5
3407
  8
AM_0
 10
309.22203161717567
 20
360.09733039373191
 30
0.0
 42
0.0086851837
  0
VERTEX
  5
3408
  8
AM_0
 10
307.13445161717561
 20
360.55201039373168
 30
0.0
 42
0.0071112966
  0
VERTEX
  5
3409
  8
AM_0
 10
305.03277161717563
 20
360.94102039373172
 30
0.0
 42
0.0060487861
  0
VERTEX
  5
340A
  8
AM_0
 10
302.92005161717549
 20
361.27504039373167
 30
0.0
 42
0.0052886795
  0
VERTEX
  5
340B
  8
AM_0
 10
300.80268161717561
 20
361.56088039373168
 30
0.0
 42
0.004745088
  0
VERTEX
  5
340C
  8
AM_0
 10
298.67760161717558
 20
361.80457039373192
 30
0.0
 42
0.0043374779
  0
VERTEX
  5
340D
  8
AM_0
 10
296.54790161717563
 20
362.00971039373178
 30
0.0
 42
0.0040309373
  0
VERTEX
  5
340E
  8
AM_0
 10
294.41511161717563
 20
362.17921039373169
 30
0.0
 42
0.0038017218
  0
VERTEX
  5
340F
  8
AM_0
 10
292.27989161717562
 20
362.31532039373178
 30
0.0
 42
0.0036333144
  0
VERTEX
  5
3410
  8
AM_0
 10
290.14281161717571
 20
362.41972039373172
 30
0.0
 42
0.0035147919
  0
VERTEX
  5
3411
  8
AM_0
 10
288.00441161717561
 20
362.49358039373192
 30
0.0
 42
0.003439074
  0
VERTEX
  5
3412
  8
AM_0
 10
285.86520161717561
 20
362.53771039373191
 30
0.0
 42
0.0034021156
  0
VERTEX
  5
3413
  8
AM_0
 10
283.72548161717572
 20
362.55259039373169
 30
0.0
  0
SEQEND
  5
3414
  8
AM_0
  0
POLYLINE
  5
3415
  8
AM_0
 66
     1
 10
0.0
 20
0.0
 30
0.0
  0
VERTEX
  5
3416
  8
AM_0
 10
311.47053161717571
 20
339.88960039373183
 30
0.0
 42
0.038759451
  0
VERTEX
  5
3417
  8
AM_0
 10
314.2183516171757
 20
342.80047039373181
 30
0.0
 42
0.045306413
  0
VERTEX
  5
3418
  8
AM_0
 10
316.4405416171756
 20
346.1281903937317
 30
0.0
 42
0.052171431
  0
VERTEX
  5
3419
  8
AM_0
 10
317.97723161717568
 20
349.82599039373179
 30
0.0
 42
0.057266618
  0
VERTEX
  5
341A
  8
AM_0
 10
318.6714916171756
 20
353.76475039373179
 30
0.0
 42
0.058402263
  0
VERTEX
  5
341B
  8
AM_0
 10
318.44073161717557
 20
357.75295039373179
 30
0.0
 42
0.055045302
  0
VERTEX
  5
341C
  8
AM_0
 10
317.31522161717561
 20
361.58809039373182
 30
0.0
 42
0.048778173
  0
VERTEX
  5
341D
  8
AM_0
 10
315.42237161717571
 20
365.10862039373171
 30
0.0
 42
0.041944207
  0
VERTEX
  5
341E
  8
AM_0
 10
312.92484161717562
 20
368.23165039373191
 30
0.0
 42
0.035908261
  0
VERTEX
  5
341F
  8
AM_0
 10
309.97227161717569
 20
370.93243039373181
 30
0.0
 42
0.031063208
  0
VERTEX
  5
3420
  8
AM_0
 10
306.68556161717561
 20
373.21639039373179
 30
0.0
 42
0.027381869
  0
VERTEX
  5
3421
  8
AM_0
 10
303.15366161717571
 20
375.10351039373182
 30
0.0
 42
0.024647405
  0
VERTEX
  5
3422
  8
AM_0
 10
299.44464161717559
 20
376.61464039373169
 30
0.0
 42
0.022677562
  0
VERTEX
  5
3423
  8
AM_0
 10
295.60926161717572
 20
377.76931039373181
 30
0.0
 42
0.021321502
  0
VERTEX
  5
3424
  8
AM_0
 10
291.68685161717559
 20
378.5831203937318
 30
0.0
 42
0.020471074
  0
VERTEX
  5
3425
  8
AM_0
 10
287.70996161717562
 20
379.06720039373192
 30
0.0
 42
0.020088488
  0
VERTEX
  5
3426
  8
AM_0
 10
283.70136161717562
 20
379.22812039373167
 30
0.0
  0
SEQEND
  5
3427
  8
AM_0
  0
LINE
  5
3428
  8
AM_0
 10
283.7013316171757
 20
314.60260039373179
 30
0.0
 11
311.46999161717571
 21
339.88909039373181
 31
0.0
  0
LINE
  5
3429
  8
AM_0
 10
283.7013316171757
 20
299.06503039373172
 30
0.0
 11
287.7013516171757
 21
299.06503039373172
 31
0.0
  0
LINE
  5
342A
  8
AM_0
 10
263.17986161717567
 20
341.79997039373183
 30
0.0
 11
272.13042161717573
 21
341.79997039373183
 31
0.0
  0
LINE
  5
342B
  8
AM_0
 10
263.70135161717559
 20
350.7493903937318
 30
0.0
 11
271.7013316171757
 21
350.7493903937318
 31
0.0
  0
ARC
  5
342C
  8
AM_0
 10
263.70135161717559
 20
352.74937039373168
 30
0.0
 40
2.00000007
 50
179.999989999999
 51
270.0
  0
LINE
  5
342D
  8
AM_0
 10
283.7013316171757
 20
314.60260039373179
 30
0.0
 11
283.70292161717572
 21
314.60260039373179
 31
0.0
  0
ARC
  5
342E
  8
AM_0
 10
271.7013316171757
 20
348.74938039373183
 30
0.0
 40
2.00000007
 50
0.0
 51
90.00000299999769
  0
ARC
  5
342F
  8
AM_0
 10
356.7013516171757
 20
343.86001039373178
 30
0.0
 40
8.0000000999999976
 50
90.00000299999769
 51
180.00001000000091
  0
LINE
  5
3430
  8
AM_0
 10
356.7013516171757
 20
351.8600203937317
 30
0.0
 11
365.1008416171756
 21
351.8600203937317
 31
0.0
  0
LINE
  5
3431
  8
AM_0
 10
283.7013316171757
 20
383.91730039373181
 30
0.0
 11
360.91077161717573
 21
381.89551039373191
 31
0.0
  0
LINE
  5
3432
  8
AM_0
 10
263.70135161717559
 20
367.71994039373192
 30
0.0
 11
271.7013316171757
 21
367.71994039373192
 31
0.0
  0
LINE
  5
3433
  8
AM_0
 10
264.59667161717562
 20
378.43948039373191
 30
0.0
 11
271.7711716171757
 21
378.69004039373192
 31
0.0
  0
LINE
  5
3434
  8
AM_0
 10
263.3225416171756
 20
362.55259039373169
 30
0.0
 11
283.7013316171757
 21
362.55259039373169
 31
0.0
  0
ARC
  5
3435
  8
AM_0
 10
264.70134161717561
 20
375.44134039373182
 30
0.0
 40
3.0
 50
91.999998000000545
 51
180.00001000000091
  0
ARC
  5
3436
  8
AM_0
 10
263.70135161717559
 20
365.71993039373177
 30
0.0
 40
2.00000007
 50
90.00000299999769
 51
180.00001000000091
  0
ARC
  5
3437
  8
AM_0
 10
258.7013416171755
 20
362.01913039373193
 30
0.0
 40
3.0
 50
271.9999999999971
 51
0.0
  0
ARC
  5
3438
  8
AM_0
 10
271.7013316171757
 20
380.68885039373168
 30
0.0
 40
2.00000007
 50
271.9999999999971
 51
0.0
  0
LINE
  5
3439
  8
AM_0
 10
273.7013416171755
 20
369.71995039373178
 30
0.0
 11
273.7013416171755
 21
381.63670039373181
 31
0.0
  0
ARC
  5
343A
  8
AM_0
 10
271.7013316171757
 20
369.71995039373178
 30
0.0
 40
2.00000007
 50
270.0
 51
0.0
  0
LINE
  5
343B
  8
AM_0
 10
275.63151161717548
 20
383.63548039373183
 30
0.0
 11
283.7013316171757
 21
383.91727039373183
 31
0.0
  0
ARC
  5
343C
  8
AM_0
 10
275.7013516171757
 20
381.63670039373181
 30
0.0
 40
2.00000007
 50
91.999998000000545
 51
180.00001000000091
  0
ARC
  5
3440
  8
AM_0
 10
658.16375407864246
 20
295.41729439373171
 30
0.0
 40
65.000000999999997
 50
0.0
 51
180.00001000000091
  0
LINE
  5
3441
  8
AM_0
 10
543.19644307864235
 20
187.85891239373171
 30
0.0
 11
559.74782707864233
 21
299.06503039373172
 31
0.0
  0
LINE
  5
3442
  8
AM_0
 10
773.13106807864244
 20
187.85891239373171
 30
0.0
 11
756.57966607864239
 21
299.06503039373172
 31
0.0
  0
LINE
  5
3443
  8
AM_0
 10
581.16375307864234
 20
344.51098039373193
 30
0.0
 11
581.16375307864234
 21
246.15455239373171
 31
0.0
  0
LINE
  5
3444
  8
AM_0
 10
735.16374907864247
 20
344.51098039373193
 30
0.0
 11
735.16374907864247
 21
246.15455239373171
 31
0.0
  0
LINE
  5
3445
  8
AM_0
 10
723.16374907864224
 20
295.41729439373171
 30
0.0
 11
723.16374907864224
 21
205.41729139373169
 31
0.0
  0
LINE
  5
3446
  8
AM_0
 10
593.16373807864227
 20
295.41729439373171
 30
0.0
 11
593.16373807864227
 21
205.41729139373169
 31
0.0
  0
LINE
  5
3447
  8
AM_0
 10
368.70135161717559
 20
212.87500939373169
 30
0.0
 11
368.70135161717559
 21
373.89823039373192
 31
0.0
  0
LINE
  5
3448
  8
AM_0
 10
389.7013516171757
 20
197.9566753937317
 30
0.0
 11
389.7013516171757
 21
356.41729039373178
 31
0.0
  0
LINE
  5
3449
  8
ﾁｭｳｼﾝｾﾝ
 10
658.16375407864246
 20
172.4172763937317
 30
0.0
 11
658.16375407864246
 21
386.08198039373173
 31
0.0
  0
LINE
  5
344A
  8
ﾁｭｳｼﾝｾﾝ
 10
556.34923807864254
 20
256.41729439373171
 30
0.0
 11
759.67708807864244
 21
256.41729439373171
 31
0.0
  0
LINE
  5
344D
  8
AM_0
 10
595.16373907864249
 20
174.4172743937317
 30
0.0
 11
721.16375107864224
 21
174.4172743937317
 31
0.0
  0
LINE
  5
344E
  8
AM_0
 10
589.16375407864246
 20
190.4172763937317
 30
0.0
 11
546.16374307864226
 21
190.4172763937317
 31
0.0
  0
LINE
  5
344F
  8
AM_0
 10
543.16374307864226
 20
172.4172763937317
 30
0.0
 11
593.16373807864227
 21
172.4172763937317
 31
0.0
  0
LINE
  5
3450
  8
AM_0
 10
396.70131161717558
 20
172.4172763937317
 30
0.0
 11
396.70131161717558
 21
188.4172753937317
 31
0.0
  0
LINE
  5
3451
  8
AM_0
 10
543.16374307864226
 20
187.4172763937317
 30
0.0
 11
543.16374307864226
 21
172.4172763937317
 31
0.0
  0
LINE
  5
3452
  8
ｶｸﾚｾﾝ2
 10
371.20131161717558
 20
190.4172763937317
 30
0.0
 11
371.20131161717558
 21
172.4172763937317
 31
0.0
  0
LINE
  5
3453
  8
ｶｸﾚｾﾝ2
 10
386.20131161717558
 20
190.4172763937317
 30
0.0
 11
386.20131161717558
 21
172.4172763937317
 31
0.0
  0
LINE
  5
3454
  8
ﾁｭｳｼﾝｾﾝ1
 10
378.70131161717569
 20
169.08596239373171
 30
0.0
 11
378.70131161717569
 21
195.4291633937317
 31
0.0
  0
ARC
  5
3455
  8
AM_0
 10
397.7013316171757
 20
197.9566753937317
 30
0.0
 40
8.0000000999999976
 50
179.999989999999
 51
252.54238999999879
  0
ARC
  5
3456
  8
AM_0
 10
394.7013316171757
 20
188.4172753937317
 30
0.0
 40
2.00000007
 50
0.0
 51
90.00000299999769
  0
ARC
  5
3457
  8
AM_0
 10
546.16374307864226
 20
187.4172763937317
 30
0.0
 40
3.0
 50
90.00000299999769
 51
180.00001000000091
  0
LINE
  5
3458
  8
ｶｸﾚｾﾝ2
 10
555.66375307864234
 20
190.4172763937317
 30
0.0
 11
555.66375307864234
 21
172.4172763937317
 31
0.0
  0
LINE
  5
3459
  8
ｶｸﾚｾﾝ2
 10
570.66375307864234
 20
190.4172763937317
 30
0.0
 11
570.66375307864234
 21
172.4172763937317
 31
0.0
  0
LINE
  5
345A
  8
AM_0
 10
593.16373807864227
 20
186.41725939373171
 30
0.0
 11
593.16373807864227
 21
172.4172763937317
 31
0.0
  0
LINE
  5
345B
  8
ﾁｭｳｼﾝｾﾝ1
 10
563.16375307864246
 20
195.4291633937317
 30
0.0
 11
563.16375307864246
 21
169.08596239373171
 31
0.0
  0
ARC
  5
345C
  8
AM_0
 10
595.16373907864249
 20
172.4172763937317
 30
0.0
 40
2.00000007
 50
90.00000299999769
 51
180.00001000000091
  0
ARC
  5
345D
  8
AM_0
 10
658.16375407864246
 20
246.15455239373171
 30
0.0
 40
77.000000999999983
 50
179.999989999999
 51
212.41839000000169
  0
ARC
  5
345E
  8
AM_0
 10
578.16375307864234
 20
205.41729139373169
 30
0.0
 40
15.000000299999989
 50
270.0
 51
0.0
  0
ARC
  5
345F
  8
AM_0
 10
589.16375407864246
 20
186.41725939373171
 30
0.0
 40
4.000000199999997
 50
0.0
 51
90.00000299999769
  0
LINE
  5
3461
  8
AM_0
 10
773.16375007864224
 20
187.4172763937317
 30
0.0
 11
773.16375007864224
 21
172.4172763937317
 31
0.0
  0
LINE
  5
3462
  8
AM_0
 10
723.16374907864224
 20
186.41725939373171
 30
0.0
 11
723.16374907864224
 21
172.4172763937317
 31
0.0
  0
LINE
  5
3463
  8
ｶｸﾚｾﾝ2
 10
760.66375207864223
 20
190.4172763937317
 30
0.0
 11
760.66375207864223
 21
172.4172763937317
 31
0.0
  0
LINE
  5
3464
  8
ｶｸﾚｾﾝ2
 10
745.66374907864224
 20
190.4172763937317
 30
0.0
 11
745.66374907864224
 21
172.4172763937317
 31
0.0
  0
LINE
  5
3465
  8
ﾁｭｳｼﾝｾﾝ1
 10
753.16374907864224
 20
194.66660539373169
 30
0.0
 11
753.16374907864224
 21
169.08596239373171
 31
0.0
  0
LINE
  5
3467
  8
AM_0
 10
723.16374907864224
 20
172.4172763937317
 30
0.0
 11
773.16375007864224
 21
172.4172763937317
 31
0.0
  0
ARC
  5
3468
  8
AM_0
 10
721.16375107864224
 20
172.4172763937317
 30
0.0
 40
2.00000007
 50
0.0
 51
90.00000299999769
  0
LINE
  5
3469
  8
AM_0
 10
727.16375107864224
 20
190.4172763937317
 30
0.0
 11
770.16375007864224
 21
190.4172763937317
 31
0.0
  0
ARC
  5
346A
  8
AM_0
 10
658.16375407864246
 20
246.15455239373171
 30
0.0
 40
77.000000999999983
 50
327.58160000000282
 51
0.0
  0
ARC
  5
346B
  8
AM_0
 10
738.16374907864224
 20
205.41729139373169
 30
0.0
 40
15.000000299999989
 50
179.999989999999
 51
270.0
  0
ARC
  5
346C
  8
AM_0
 10
727.16375107864224
 20
186.41725939373171
 30
0.0
 40
4.000000199999997
 50
90.00000299999769
 51
180.00001000000091
  0
ARC
  5
346D
  8
AM_0
 10
770.16375007864224
 20
187.4172763937317
 30
0.0
 40
3.0
 50
0.0
 51
90.00000299999769
  0
ARC
  5
346E
  8
AM_0
 10
658.16375407864246
 20
284.41729339373182
 30
0.0
 40
99.500004000000004
 50
8.4654901000001566
 51
171.53449999999941
  0
LINE
  5
346F
  8
AM_0
 10
729.68448607864241
 20
366.53323039373191
 30
0.0
 11
687.38665807864243
 21
379.52914039373172
 31
0.0
  0
LINE
  5
3470
  8
ﾁｭｳｼﾝｾﾝ
 10
600.13547133280565
 20
312.41725039373159
 30
0.0
 11
716.19203682447937
 21
312.41725039373159
 31
0.0
  0
ARC
  5
3473
  8
AM_0
 10
385.7013316171757
 20
356.41729039373178
 30
0.0
 40
4.000000199999997
 50
0.0
 51
90.00000299999769
  0
LINE
  5
3474
  8
AM_0
 10
458.70135161717542
 20
328.41730039373181
 30
0.0
 11
400.70133161717558
 21
328.41730039373181
 31
0.0
  0
LINE
  5
3475
  8
AM_0
 10
458.70135161717542
 20
331.41730039373181
 30
0.0
 11
413.70135161717531
 21
331.41730039373181
 31
0.0
  0
LINE
  5
3476
  8
AM_0
 10
458.70135161717542
 20
296.41729339373182
 30
0.0
 11
400.70133161717558
 21
296.41729339373182
 31
0.0
  0
LINE
  5
3477
  8
AM_0
 10
396.70131161717558
 20
312.41725039373171
 30
0.0
 11
396.70131161717558
 21
339.68524039373182
 31
0.0
  0
LINE
  5
3478
  8
AM_0
 10
400.70133161717558
 20
294.91729339373188
 30
0.0
 11
400.70133161717558
 21
329.91730039373181
 31
0.0
  0
LINE
  5
3479
  8
AM_0
 10
396.70131161717558
 20
285.14935039373182
 30
0.0
 11
396.70131161717558
 21
312.41725039373171
 31
0.0
  0
LINE
  5
347A
  8
AM_0
 10
391.20132161717561
 20
280.2418483937318
 30
0.0
 11
395.20134161717561
 21
282.55126639373179
 31
0.0
  0
ARC
  5
347B
  8
AM_0
 10
392.70135161717559
 20
277.64379439373181
 30
0.0
 40
3.0
 50
120.0000000000005
 51
180.00001000000091
  0
ARC
  5
347C
  8
AM_0
 10
393.70131161717558
 20
285.14935039373182
 30
0.0
 40
3.0
 50
299.99999999999972
 51
0.0
  0
LINE
  5
347D
  8
AM_0
 10
400.70133161717558
 20
294.91729339373188
 30
0.0
 11
396.70131161717558
 21
294.91729339373188
 31
0.0
  0
LINE
  5
347E
  8
AM_0
 10
400.70133161717558
 20
329.91730039373181
 30
0.0
 11
396.70131161717558
 21
329.91730039373181
 31
0.0
  0
ARC
  5
347F
  8
AM_0
 10
392.70135161717559
 20
347.19079039373167
 30
0.0
 40
3.0
 50
179.999989999999
 51
240.00000999999969
  0
LINE
  5
3480
  8
AM_0
 10
391.20135161717559
 20
344.59270039373177
 30
0.0
 11
395.20134161717561
 21
342.28333039373177
 31
0.0
  0
ARC
  5
3481
  8
AM_0
 10
393.70131161717558
 20
339.68524039373182
 30
0.0
 40
3.0
 50
0.0
 51
60.000002000001302
  0
LINE
  5
3482
  8
AM_0
 10
413.70135161717531
 20
328.41730039373181
 30
0.0
 11
413.70135161717531
 21
331.41730039373181
 31
0.0
  0
LINE
  5
3485
  8
AM_0
 10
458.70135161717542
 20
296.41729339373182
 30
0.0
 11
458.70135161717542
 21
331.41730039373181
 31
0.0
  0
LINE
  5
3488
  8
AM_0
 10
376.7013316171757
 20
360.41731039373178
 30
0.0
 11
385.7013316171757
 21
360.41731039373178
 31
0.0
  0
ARC
  5
3489
  8
AM_0
 10
591.69569107864254
 20
350.8853503937317
 30
0.0
 40
16.000000499999999
 50
107.0794599999992
 51
162.9205300000007
  0
LINE
  5
348A
  8
AM_0
 10
576.44976307864249
 20
355.7392303937317
 30
0.0
 11
563.35290007864251
 21
314.60260039373179
 31
0.0
  0
ARC
  5
348B
  8
AM_0
 10
589.16375407864246
 20
344.51098039373193
 30
0.0
 40
8.0000000999999976
 50
138.94665000000089
 51
180.00001000000091
  0
CIRCLE
  5
348C
  8
AM_0
 10
658.16375407864246
 20
312.41725039373159
 30
0.0
 40
29.000001000000001
  0
ARC
  5
348D
  8
AM_0
 10
658.16375407864246
 20
312.41725039373159
 30
0.0
 40
16.000000499999999
 50
108.2099599999986
 51
71.790051999998809
  0
CIRCLE
  5
348E
  8
AM_5
 10
658.16375407864246
 20
312.41725039373159
 30
0.0
 40
4.000000199999997
  0
CIRCLE
  5
348F
  8
AM_0
 10
658.16375407864246
 20
312.41725039373159
 30
0.0
 40
2.75000007
  0
LINE
  5
3490
  8
AM_0
 10
653.16374107864249
 20
331.41730039373169
 30
0.0
 11
663.16374007864238
 21
331.41730039373169
 31
0.0
  0
LINE
  5
3491
  8
AM_0
 10
653.16374107864249
 20
323.41729039373178
 30
0.0
 11
663.16374007864238
 21
323.41729039373178
 31
0.0
  0
LINE
  5
3492
  8
AM_0
 10
653.16374107864249
 20
323.41729039373178
 30
0.0
 11
653.16374107864249
 21
331.41730039373169
 31
0.0
  0
LINE
  5
3493
  8
AM_0
 10
663.16374007864238
 20
323.41729039373178
 30
0.0
 11
663.16374007864238
 21
331.41730039373169
 31
0.0
  0
LINE
  5
3494
  8
AM_0
 10
586.84179307864235
 20
366.13129039373172
 30
0.0
 11
627.97842007864233
 21
379.22815039373171
 31
0.0
  0
ARC
  5
3495
  8
AM_0
 10
724.98534307864247
 20
351.23890039373168
 30
0.0
 40
16.000000499999999
 50
17.07946300000124
 51
72.920533999997687
  0
LINE
  5
3496
  8
AM_0
 10
740.27971807864242
 20
355.93804039373168
 30
0.0
 11
753.27564307864247
 21
313.64020039373167
 31
0.0
  0
ARC
  5
3497
  8
AM_0
 10
727.16375107864224
 20
344.51098039373193
 30
0.0
 40
8.0000000999999976
 50
0.0
 51
41.053350999999701
  0
POINT
  5
3498
  8
0
 10
90.069690344124183
 20
541.92058057994973
 30
0.0
1001
GENIUS_GENOLIS_13
1002
{
1000
ENT
1005
0
1005
33CC
1005
33D5
1002
}
1001
GENIUS_GENOENT_13
1002
{
1000
MYREF
1005
3498
1002
}
1002
{
1000
GRP
1005
0
1002
}
1001
GENIUS_GENOBJ-NBEHI-BHB_13
1002
{
1000
OWNER
1000
genbehi
1002
}
1001
GENIUS_GENBH_13
1002
{
1000
FGO
1005
0
1002
}
1001
GENIUS_GENODEF_13
1002
{
1000
HIER
1070
     1
1002
}
1002
{
1000
MANEDIT
1070
     1
1002
}
1002
{
1000
NOSEL
1070
     1
1002
}
1002
{
1000
BEHIND
1070
     0
1002
}
1002
{
1000
OTHER
1070
     1
1002
}
1002
{
1000
REACTOR
1002
}
  0
TEXT
  5
399E
  8
AM_0
 10
536.16521509685435
 20
619.38218944908499
 30
0.0
 40
15.0
  1
VX02-240S~VX02-600S
  0
ENDSEC
  0
EOF
