  0
SECTION
  2
HEADER
  9
$ACADVER
  1
AC1009
  9
$INSBASE
 10
0.0
 20
0.0
 30
0.0
  9
$EXTMIN
 10
175.1210057131488
 20
314.39257748107002
 30
-0.0015258207003583
  9
$EXTMAX
 10
1115.842898462832
 20
1014.608066383875
 30
0.0000000349246037
  9
$LIMMIN
 10
0.0
 20
0.0
  9
$LIMMAX
 10
1422.5
 20
925.0
  9
$ORTHOMODE
 70
     0
  9
$REGENMODE
 70
     1
  9
$FILLMODE
 70
     1
  9
$QTEXTMODE
 70
     0
  9
$MIRRTEXT
 70
     1
  9
$DRAGMODE
 70
     2
  9
$LTSCALE
 40
5.0
  9
$OSMODE
 70
   551
  9
$ATTMODE
 70
     1
  9
$TEXTSIZE
 40
2.5
  9
$TRACEWID
 40
1.0
  9
$TEXTSTYLE
  7
STANDARD
  9
$CLAYER
  8
AM_0
  9
$CELTYPE
  6
BYLAYER
  9
$CECOLOR
 62
   256
  9
$DIMSCALE
 40
1.0
  9
$DIMASZ
 40
2.5
  9
$DIMEXO
 40
1.0
  9
$DIMDLI
 40
8.0
  9
$DIMRND
 40
0.0
  9
$DIMDLE
 40
0.0
  9
$DIMEXE
 40
0.6
  9
$DIMTP
 40
0.1
  9
$DIMTM
 40
0.1
  9
$DIMTXT
 40
2.5
  9
$DIMCEN
 40
0.0
  9
$DIMTSZ
 40
0.0
  9
$DIMTOL
 70
     0
  9
$DIMLIM
 70
     0
  9
$DIMTIH
 70
     0
  9
$DIMTOH
 70
     0
  9
$DIMSE1
 70
     0
  9
$DIMSE2
 70
     0
  9
$DIMTAD
 70
     1
  9
$DIMZIN
 70
     8
  9
$DIMBLK
  1

  9
$DIMASO
 70
     1
  9
$DIMSHO
 70
     1
  9
$DIMPOST
  1

  9
$DIMAPOST
  1
"
  9
$DIMALT
 70
     0
  9
$DIMALTD
 70
     2
  9
$DIMALTF
 40
0.0393701
  9
$DIMLFAC
 40
1.0
  9
$DIMTOFL
 70
     1
  9
$DIMTVP
 40
0.0
  9
$DIMTIX
 70
     0
  9
$DIMSOXD
 70
     0
  9
$DIMSAH
 70
     0
  9
$DIMBLK1
  1

  9
$DIMBLK2
  1

  9
$DIMSTYLE
  2
AM_ISO
  9
$DIMCLRD
 70
   256
  9
$DIMCLRE
 70
   256
  9
$DIMCLRT
 70
     4
  9
$DIMTFAC
 40
0.71
  9
$DIMGAP
 40
0.8
  9
$LUNITS
 70
     2
  9
$LUPREC
 70
     2
  9
$SKETCHINC
 40
1.0
  9
$FILLETRAD
 40
25.0
  9
$AUNITS
 70
     0
  9
$AUPREC
 70
     0
  9
$MENU
  1
.
  9
$ELEVATION
 40
0.0
  9
$PELEVATION
 40
0.0
  9
$THICKNESS
 40
0.0
  9
$LIMCHECK
 70
     0
  9
$BLIPMODE
 70
     0
  9
$CHAMFERA
 40
10.0
  9
$CHAMFERB
 40
5.0
  9
$SKPOLY
 70
     0
  9
$TDCREATE
 40
2452065.773328993
  9
$TDUPDATE
 40
2458541.5681182761
  9
$TDINDWG
 40
0.1055445023
  9
$TDUSRTIMER
 40
0.105544294
  9
$USRTIMER
 70
     1
  9
$ANGBASE
 50
0.0
  9
$ANGDIR
 70
     0
  9
$PDMODE
 70
     0
  9
$PDSIZE
 40
0.0
  9
$PLINEWID
 40
0.0
  9
$COORDS
 70
     1
  9
$SPLFRAME
 70
     0
  9
$SPLINETYPE
 70
     6
  9
$SPLINESEGS
 70
     8
  9
$ATTDIA
 70
     1
  9
$ATTREQ
 70
     1
  9
$HANDLING
 70
     1
  9
$HANDSEED
  5
3C69
  9
$SURFTAB1
 70
     6
  9
$SURFTAB2
 70
     6
  9
$SURFTYPE
 70
     6
  9
$SURFU
 70
     6
  9
$SURFV
 70
     6
  9
$UCSNAME
  2

  9
$UCSORG
 10
0.0
 20
0.0
 30
0.0
  9
$UCSXDIR
 10
1.0
 20
0.0
 30
0.0
  9
$UCSYDIR
 10
0.0
 20
1.0
 30
0.0
  9
$PUCSNAME
  2

  9
$PUCSORG
 10
0.0
 20
0.0
 30
0.0
  9
$PUCSXDIR
 10
1.0
 20
0.0
 30
0.0
  9
$PUCSYDIR
 10
0.0
 20
1.0
 30
0.0
  9
$USERI1
 70
     0
  9
$USERI2
 70
     0
  9
$USERI3
 70
     0
  9
$USERI4
 70
     0
  9
$USERI5
 70
     0
  9
$USERR1
 40
0.0
  9
$USERR2
 40
0.0
  9
$USERR3
 40
0.0
  9
$USERR4
 40
0.0
  9
$USERR5
 40
0.0
  9
$WORLDVIEW
 70
     1
  9
$SHADEDGE
 70
     3
  9
$SHADEDIF
 70
    70
  9
$TILEMODE
 70
     1
  9
$MAXACTVP
 70
    64
  9
$PLIMCHECK
 70
     0
  9
$PEXTMIN
 10
1.0000000000000000E+020
 20
1.0000000000000000E+020
 30
1.0000000000000000E+020
  9
$PEXTMAX
 10
-1.0000000000000000E+020
 20
-1.0000000000000000E+020
 30
-1.0000000000000000E+020
  9
$PLIMMIN
 10
0.0
 20
0.0
  9
$PLIMMAX
 10
420.0
 20
297.0
  9
$UNITMODE
 70
     0
  9
$VISRETAIN
 70
     1
  9
$PLINEGEN
 70
     0
  9
$PSLTSCALE
 70
     1
  0
ENDSEC
  0
SECTION
  2
TABLES
  0
TABLE
  2
VPORT
 70
     1
  0
VPORT
  2
*ACTIVE
 70
     0
 10
0.0
 20
0.0
 11
1.0
 21
1.0
 12
645.48195208799041
 22
664.50032193247227
 13
0.0
 23
0.0
 14
12.5
 24
12.5
 15
50.0
 25
50.0
 16
0.0
 26
0.0
 36
1.0
 17
0.0
 27
0.0
 37
0.0
 40
705.02246022250358
 41
1.7571592210767459
 42
50.0
 43
0.0
 44
0.0
 50
0.0
 51
0.0
 71
     0
 72
   100
 73
     1
 74
     3
 75
     0
 76
     0
 77
     0
 78
     0
  0
ENDTAB
  0
TABLE
  2
LTYPE
 70
    20
  0
LTYPE
  2
CONTINUOUS
 70
     0
  3
Solid line
 72
    65
 73
     0
 40
0.0
  0
LTYPE
  2
AM_ISO02W050
 70
     0
  3
__ __ __ __ __ __ __ __ __ __ __ __ __ __ __
 72
    65
 73
     2
 40
7.5
 49
6.0
 49
-1.5
  0
LTYPE
  2
AM_ISO08W050
 70
     0
  3
____ . ____ . ____ . ____ . ____ . ____ . ____
 72
    65
 73
     4
 40
18.0
 49
12.0
 49
-1.5
 49
3.0
 49
-1.5
  0
LTYPE
  2
AM_ISO09W050
 70
     0
  3
_____ . . _____ . . _____ . . ____ .. ____
 72
    65
 73
     6
 40
22.5
 49
12.0
 49
-1.5
 49
3.0
 49
-1.5
 49
3.0
 49
-1.5
  0
LTYPE
  2
AMCONSTR
 70
     0
  3
_______________________
 72
    65
 73
     2
 40
9999.0
 49
9999.0
 49
0.0
  0
LTYPE
  2
AM_ISO08W050X2
 70
     0
  3
__ . __ . __ . __ . __ . __
 72
    65
 73
     4
 40
9.0
 49
6.0
 49
-0.75
 49
1.5
 49
-0.75
  0
LTYPE
  2
AM_ISO02W050X2
 70
     0
  3
 _ _ _ _ _ _ _ _ _ _ _ _
 72
    65
 73
     2
 40
3.75
 49
3.0
 49
-0.75
  0
LTYPE
  2
AMZIGZAG
 70
     0
  3
/\/-/\/-/\/-/\/-/\/-/\/
 72
    65
 73
     2
 40
11.0001
 49
0.0001
 49
-11.0
  0
LTYPE
  2
CENTER
 70
     0
  3
__ . __
 72
    65
 73
     4
 40
7.0
 49
4.0
 49
-1.0
 49
1.0
 49
-1.0
  0
LTYPE
  2
PHANTOM2
 70
     0
  3
Phantom (.5x) ___ _ _ ___ _ _ ___ _ _ ___ _ _
 72
    65
 73
     6
 40
31.75
 49
15.875
 49
-3.174999999999998
 49
3.174999999999998
 49
-3.174999999999998
 49
3.174999999999998
 49
-3.174999999999998
  0
LTYPE
  2
GEN7
 70
     0
  3
____ . ____ . ____ . ____ . ____ . ____ . ____
 72
    65
 73
     4
 40
14.25
 49
9.75
 49
-1.5
 49
1.5
 49
-1.5
  0
LTYPE
  2
GEN3B
 70
     0
  3
 - - - - -
 72
    65
 73
     2
 40
1.0
 49
0.5
 49
-0.5
  0
LTYPE
  2
GEN7A
 70
     0
  3
__ . __ . __
 72
    65
 73
     4
 40
7.375
 49
4.75
 49
-0.875
 49
0.875
 49
-0.875
  0
LTYPE
  2
HIDDEN
 70
     0
  3
Hidden __ __ __ __ __ __ __ __ __ __ __ __ __ _
 72
    65
 73
     2
 40
9.5249999999999986
 49
6.349999999999997
 49
-3.174999999999998
  0
LTYPE
  2
CENTER2
 70
     0
  3
Center (.5x) ___ _ ___ _ ___ _ ___ _ ___ _ ___
 72
    65
 73
     4
 40
1.125
 49
0.75
 49
-0.125
 49
0.125
 49
-0.125
  0
LTYPE
  2
HIDDEN2
 70
     0
  3
Hidden (.5x) _ _ _ _ _ _ _ _ _ _ _ _ _ _ _ _ _
 72
    65
 73
     2
 40
0.1875
 49
0.125
 49
-0.0625
  0
LTYPE
  2
AMZIGZAG2
 70
     0
  3
/\/-/\/-/\/-/\/-/\/-/\/
 72
    65
 73
     2
 40
0.4401
 49
0.0001
 49
-0.4400000000000001
  0
LTYPE
  2
ACANSTGB
 70
     0
  3
__ . . __ . .
 72
    65
 73
     6
 40
0.35433070866
 49
0.15748031496
 49
-0.03937007874
 49
0.03937007874
 49
-0.03937007874
 49
0.03937007874
 49
-0.03937007874
  0
LTYPE
  2
ACANSTGL
 70
     0
  3
_ _ _ _ _
 72
    65
 73
     2
 40
0.11811023622
 49
0.07874015748
 49
-0.03937007874
  0
ENDTAB
  0
TABLE
  2
LAYER
 70
    11
  0
LAYER
  2
0
 70
     0
 62
     7
  6
CONTINUOUS
  0
LAYER
  2
AM_0
 70
     0
 62
     7
  6
CONTINUOUS
  0
LAYER
  2
AM_5
 70
     0
 62
     2
  6
CONTINUOUS
  0
LAYER
  2
DEFPOINTS
 70
     0
 62
     7
  6
CONTINUOUS
  0
LAYER
  2
ｶｸﾚｾﾝ2
 70
     0
 62
     3
  6
GEN3B
  0
LAYER
  2
ﾁｭｳｼﾝｾﾝ
 70
     0
 62
     1
  6
GEN7
  0
LAYER
  2
ﾁｭｳｼﾝｾﾝ1
 70
     0
 62
     1
  6
GEN7A
  0
LAYER
  2
AM_0N
 70
     0
 62
     7
  6
CONTINUOUS
  0
LAYER
  2
AM_3N
 70
     0
 62
     3
  6
AM_ISO02W050
  0
LAYER
  2
ｽﾝﾎ_ｳｾﾝ
 70
     0
 62
     2
  6
CONTINUOUS
  0
LAYER
  2
AM_4
 70
     0
 62
     2
  6
CONTINUOUS
  0
ENDTAB
  0
TABLE
  2
STYLE
 70
     5
  0
STYLE
  2
STANDARD
 70
     0
 40
0.0
 41
0.8299999999999999
 50
0.0
 71
     0
 42
2.5
  3
txt.shx
  4
bigfont.shx
  0
STYLE
  2
ANNOTATIVE
 70
     0
 40
0.0
 41
1.0
 50
0.0
 71
     0
 42
0.2
  3
txt
  4

  0
STYLE
  2

 70
     1
 40
0.0
 41
1.0
 50
0.0
 71
     0
 42
2.5
  3
genltshp.shx
  4

  0
STYLE
  2
ACANSTS
 70
     0
 40
0.0
 41
1.0
 50
0.0
 71
     0
 42
2.5
  3
romans.shx
  4
extfont.shx
  0
STYLE
  2
ACANSGDT
 70
     0
 40
0.0
 41
1.0
 50
0.0
 71
     0
 42
2.5
  3
amgdt.shx
  4

  0
ENDTAB
  0
TABLE
  2
VIEW
 70
     6
  0
VIEW
  2
AM_VIEW1
 70
     0
 40
462.5
 10
416.07965009208078
 20
693.75
 41
832.15930018416213
 11
0.0
 21
0.0
 31
1.0
 12
0.0
 22
0.0
 32
0.0
 42
50.0
 43
0.0
 44
0.0
 50
0.0
 71
     0
  0
VIEW
  2
AM_VIEW2
 70
     0
 40
462.5
 10
1006.420349907919
 20
693.75
 41
832.15930018416213
 11
0.0
 21
0.0
 31
1.0
 12
0.0
 22
0.0
 32
0.0
 42
50.0
 43
0.0
 44
0.0
 50
0.0
 71
     0
  0
VIEW
  2
AM_VIEW3
 70
     0
 40
462.5
 10
416.07965009208078
 20
231.25
 41
832.15930018416213
 11
0.0
 21
0.0
 31
1.0
 12
0.0
 22
0.0
 32
0.0
 42
50.0
 43
0.0
 44
0.0
 50
0.0
 71
     0
  0
VIEW
  2
AM_VIEW4
 70
     0
 40
462.5
 10
1006.420349907919
 20
231.25
 41
832.15930018416213
 11
0.0
 21
0.0
 31
1.0
 12
0.0
 22
0.0
 32
0.0
 42
50.0
 43
0.0
 44
0.0
 50
0.0
 71
     0
  0
VIEW
  2
AM_VIEW5
 70
     0
 40
462.5
 10
711.24999999999966
 20
462.5
 41
832.15930018416179
 11
0.0
 21
0.0
 31
1.0
 12
0.0
 22
0.0
 32
0.0
 42
50.0
 43
0.0
 44
0.0
 50
0.0
 71
     0
  0
VIEW
  2
AM_VIEW6
 70
     0
 40
924.99075000000005
 10
711.24999999999966
 20
462.5
 41
1664.3019571823199
 11
0.0
 21
0.0
 31
1.0
 12
0.0
 22
0.0
 32
0.0
 42
50.0
 43
0.0
 44
0.0
 50
0.0
 71
     0
  0
ENDTAB
  0
TABLE
  2
UCS
 70
     0
  0
ENDTAB
  0
TABLE
  2
APPID
 70
    97
  0
APPID
  2
ACAD
 70
     0
  0
APPID
  2
ACADANNOTATIVE
 70
     0
  0
APPID
  2
MCAD_NO_VIS
 70
     0
  0
APPID
  2
ACAD_TEMP_GRAPHIC
 70
     0
  0
APPID
  2
ACATTRIBSERVICES
 70
     0
  0
APPID
  2
GENIUS_GENREC_14
 70
     0
  0
APPID
  2
GENIUS_GENOBJ-N-REC_13
 70
     0
  0
APPID
  2
GENIUS_GENODEF_13
 70
     0
  0
APPID
  2
GENIUS_GENOLIS_13
 70
     0
  0
APPID
  2
GENIUS_GENOBJ-N-TIT_13
 70
     0
  0
APPID
  2
GENIUS_GENOENT_13
 70
     0
  0
APPID
  2
GENIUS_GENTITLE_13
 70
     0
  0
APPID
  2
GENIUS_GENOREF_13
 70
     0
  0
APPID
  2
GENIUS_GENSCREG_15
 70
     0
  0
APPID
  2
GENIUS_GENOBJ-N-SDF_13
 70
     0
  0
APPID
  2
GENIUS_GENFIL_13
 70
     0
  0
APPID
  2
GENIUS_GENOBJ-N-CHA_13
 70
     0
  0
APPID
  2
GENIUS_GENDTOL_13
 70
     0
  0
APPID
  2
GENIUS_GENOBJ-N-FIL_13
 70
     0
  0
APPID
  2
AD_DRAW
 70
     0
  0
APPID
  2
DESIGNERASSEMBLIES
 70
     0
  0
APPID
  2
ASURF_PCURVE_APPNAME
 70
     0
  0
APPID
  2
GENIUS_GE3SECT_13
 70
     0
  0
APPID
  2
GENIUS_GENCFG_13
 70
     0
  0
APPID
  2
GENIUS_GE3CFG0_13
 70
     0
  0
APPID
  2
GENIUS_GENCFG0_13
 70
     0
  0
APPID
  2
GENIUS_GENCFG1_13
 70
     0
  0
APPID
  2
GENIUS_GENCFG2_13
 70
     0
  0
APPID
  2
GENIUS_GENCFG3_13
 70
     0
  0
APPID
  2
GENIUS_GENCFG4_13
 70
     0
  0
APPID
  2
GENIUS_GEVCFG0_13
 70
     0
  0
APPID
  2
GENIUS_GENHINW_13
 70
     0
  0
APPID
  2
GENIUS_FIRSTVISTXT_14
 70
     0
  0
APPID
  2
GENIUS_GENOBJ-N-LEADER_13
 70
     0
  0
APPID
  2
GEV_VCCNULL_SWITCH_OFF
 70
     0
  0
APPID
  2
GENIUS_GEFCFG0_13
 70
     0
  0
APPID
  2
GENIUS_GENZVEED_13
 70
     0
  0
APPID
  2
GENIUS_GENSCREG_13
 70
     0
  0
APPID
  2
GENIUS_DUMCFG0_13
 70
     0
  0
APPID
  2
GEVID936201362
 70
     0
  0
APPID
  2
GEVDC
 70
     0
  0
APPID
  2
GEVCON
 70
     0
  0
APPID
  2
VCC
 70
     0
  0
APPID
  2
GEVPT
 70
     0
  0
APPID
  2
GEVIT
 70
     0
  0
APPID
  2
GENBH
 70
     0
  0
APPID
  2
GEVMK
 70
     0
  0
APPID
  2
GENIUS_GENBH_13
 70
     0
  0
APPID
  2
GENIUS_GENOBJ-NBEHI-BHF_13
 70
     0
  0
APPID
  2
GENIUS_GENOBJ-NBEHI-BHB_13
 70
     0
  0
APPID
  2
GENIUS_GENOBJ-F-DESC_13
 70
     0
  0
APPID
  2
GENIUS_GEFDESC_14
 70
     0
  0
APPID
  2
GENIUS_GENOBJ-F-PART_13
 70
     0
  0
APPID
  2
GENIUS_GEFSTDP_13
 70
     0
  0
APPID
  2
GENIUS_GEFPARTINS_13
 70
     0
  0
APPID
  2
GENIUS_GENTRA_14
 70
     0
  0
APPID
  2
GENIUS_GENINF13_13
 70
     0
  0
APPID
  2
GENIUS_GENOBJ-N-INFOPT_13
 70
     0
  0
APPID
  2
GENIUS_GENOBJ-N-RSSYM_13
 70
     0
  0
APPID
  2
GENIUS_GENSYMENT_13
 70
     0
  0
APPID
  2
GENIUS_GENSCSYM_13
 70
     0
  0
APPID
  2
GENIUS_GEFINFNAM_13
 70
     0
  0
APPID
  2
GENIUS_GENOBJ-N-CEN_13
 70
     0
  0
APPID
  2
GENIUS_GENOBJ-N-CRS_13
 70
     0
  0
APPID
  2
GENIUS_GENOBJ-N-CRC_13
 70
     0
  0
APPID
  2
GENIUS_GENCRC_14
 70
     0
  0
APPID
  2
GEVID942827039
 70
     0
  0
APPID
  2
GEVID942827040
 70
     0
  0
APPID
  2
GEVID942827041
 70
     0
  0
APPID
  2
GENIUS_GENOBJ-F-SCPASSM_13
 70
     0
  0
APPID
  2
GENIUS_GENDIMSH_14
 70
     0
  0
APPID
  2
GEVID942827042
 70
     0
  0
APPID
  2
GEVID946020473
 70
     0
  0
APPID
  2
GEVID946020474
 70
     0
  0
APPID
  2
GEVID946020475
 70
     0
  0
APPID
  2
GENIUS_GENOBJ-N-HTC_13
 70
     0
  0
APPID
  2
GENIUS_GENHATCH_13
 70
     0
  0
APPID
  2
GEVID948854295
 70
     0
  0
APPID
  2
GEVID939402019
 70
     0
  0
APPID
  2
GEVID952919491
 70
     0
  0
APPID
  2
GEVID952919492
 70
     0
  0
APPID
  2
GENIUS_GEFWELD_13
 70
     0
  0
APPID
  2
GENIUS_GENOBJ-F-WELS_13
 70
     0
  0
APPID
  2
GEVID952919493
 70
     0
  0
APPID
  2
GENIUS_GENOBJ-N-RSBK_13
 70
     0
  0
APPID
  2
GENIUS_GENOBJ-N-LIB_13
 70
     0
  0
APPID
  2
GENIUS_GENSCALE_13
 70
     0
  0
APPID
  2
GEVID986376691
 70
     0
  0
APPID
  2
DCO15
 70
     0
  0
APPID
  2
ACADM_DIM_EDIT
 70
     0
  0
APPID
  2
AMDT_DM_ADJ
 70
     0
  0
APPID
  2
ACAD_DSTYLE_DIMJAG
 70
     0
  0
APPID
  2
ACAD_DSTYLE_DIMBREAK
 70
     0
  0
APPID
  2
ACAD_NAV_VCDISPLAY
 70
     0
  0
APPID
  2
ACADANNOPO
 70
     0
  0
APPID
  2
ACAD_EXEMPT_FROM_CAD_STANDARDS
 70
     0
  0
APPID
  2
ACAD_MLEADERVER
 70
     0
  0
ENDTAB
  0
TABLE
  2
DIMSTYLE
 70
     9
  0
DIMSTYLE
  2
STANDARD
 70
     0
  3

  4

  5

  6

  7

 40
1.0
 41
0.18
 42
0.0625
 43
0.38
 44
0.18
 45
0.0
 46
0.0
 47
0.0
 48
0.0
140
0.18
141
0.09
142
0.0
143
25.399999999999999
144
1.0
145
0.0
146
1.0
147
0.09
 71
     0
 72
     0
 73
     1
 74
     1
 75
     0
 76
     0
 77
     0
 78
     0
170
     0
171
     2
172
     0
173
     0
174
     0
175
     0
176
     0
177
     0
178
     0
  0
DIMSTYLE
  2
ANNOTATIVE
 70
     0
  3

  4

  5

  6

  7

 40
1.0
 41
0.18
 42
0.0625
 43
0.38
 44
0.18
 45
0.0
 46
0.0
 47
0.0
 48
0.0
140
0.18
141
0.09
142
0.0
143
25.399999999999999
144
1.0
145
0.0
146
1.0
147
0.09
 71
     0
 72
     0
 73
     1
 74
     1
 75
     0
 76
     0
 77
     0
 78
     0
170
     0
171
     2
172
     0
173
     0
174
     0
175
     0
176
     0
177
     0
178
     0
  0
DIMSTYLE
  2
AM_ISO
 70
     0
  3

  4
"
  5

  6

  7

 40
1.0
 41
2.5
 42
1.0
 43
8.0
 44
0.6
 45
0.0
 46
0.0
 47
0.1
 48
0.1
140
2.5
141
0.0
142
0.0
143
0.0393701
144
1.0
145
0.0
146
0.71
147
0.8
 71
     0
 72
     0
 73
     0
 74
     0
 75
     0
 76
     0
 77
     1
 78
     8
170
     0
171
     2
172
     1
173
     0
174
     0
175
     0
176
   256
177
   256
178
     4
  0
DIMSTYLE
  2
AM_ANSI
 70
     0
  3

  4
mm
  5

  6

  7

 40
1.0
 41
0.12
 42
0.05
 43
0.5
 44
0.1
 45
0.0
 46
0.0
 47
0.1
 48
0.1
140
0.12
141
0.0
142
0.0
143
25.399999999999999
144
1.0
145
0.0
146
0.71
147
0.06
 71
     0
 72
     0
 73
     1
 74
     1
 75
     0
 76
     0
 77
     0
 78
     7
170
     0
171
     2
172
     0
173
     0
174
     0
175
     0
176
   256
177
   256
178
     2
  0
DIMSTYLE
  2
AM_ANSI$3
 70
     0
  3

  4
mm
  5

  6

  7

 40
1.0
 41
0.12
 42
0.05
 43
0.5
 44
0.1
 45
0.0
 46
0.0
 47
0.1
 48
0.1
140
0.12
141
0.0
142
0.0
143
25.399999999999999
144
1.0
145
0.0
146
0.71
147
0.06
 71
     0
 72
     0
 73
     1
 74
     1
 75
     0
 76
     0
 77
     0
 78
     7
170
     0
171
     2
172
     0
173
     0
174
     0
175
     0
176
   256
177
   256
178
     2
  0
DIMSTYLE
  2
AM_ANSI$4
 70
     0
  3

  4
mm
  5

  6

  7

 40
1.0
 41
0.12
 42
0.05
 43
0.5
 44
0.1
 45
0.0
 46
0.0
 47
0.1
 48
0.1
140
0.12
141
0.0
142
0.0
143
25.399999999999999
144
1.0
145
0.0
146
0.71
147
0.06
 71
     0
 72
     0
 73
     1
 74
     1
 75
     0
 76
     0
 77
     0
 78
     7
170
     0
171
     2
172
     0
173
     0
174
     0
175
     0
176
   256
177
   256
178
     2
  0
DIMSTYLE
  2
AM_ANSI$7
 70
     0
  3

  4
mm
  5

  6

  7

 40
1.0
 41
0.12
 42
0.05
 43
0.5
 44
0.1
 45
0.0
 46
0.0
 47
0.1
 48
0.1
140
0.12
141
0.0
142
0.0
143
25.399999999999999
144
1.0
145
0.0
146
0.71
147
0.06
 71
     0
 72
     0
 73
     1
 74
     1
 75
     0
 76
     0
 77
     0
 78
     7
170
     0
171
     2
172
     0
173
     0
174
     0
175
     0
176
   256
177
   256
178
     2
  0
DIMSTYLE
  2
AM_ANSI$SF
 70
     0
  3

  4
mm
  5

  6

  7

 40
1.0
 41
0.12
 42
0.05
 43
0.5
 44
0.1
 45
0.0
 46
0.0
 47
0.1
 48
0.1
140
0.12
141
0.0
142
0.0
143
25.399999999999999
144
1.0
145
0.0
146
0.71
147
0.06
 71
     0
 72
     0
 73
     1
 74
     1
 75
     1
 76
     1
 77
     0
 78
     7
170
     0
171
     2
172
     0
173
     0
174
     0
175
     0
176
   256
177
   256
178
     2
  0
DIMSTYLE
  2
AM_ANSI$SH
 70
     0
  3

  4
mm
  5

  6
GENAXEH
  7

 40
1.0
 41
0.12
 42
0.05
 43
0.5
 44
0.1
 45
0.0
 46
0.0
 47
0.1
 48
0.1
140
0.12
141
0.0
142
0.0
143
25.399999999999999
144
1.0
145
0.0
146
0.71
147
0.06
 71
     0
 72
     0
 73
     1
 74
     1
 75
     1
 76
     1
 77
     0
 78
     7
170
     0
171
     2
172
     0
173
     1
174
     0
175
     0
176
   256
177
   256
178
     2
  0
ENDTAB
  0
ENDSEC
  0
SECTION
  2
BLOCKS
  0
BLOCK
  8
0
  2
$MODEL_SPACE
 70
     0
 10
0.0
 20
0.0
 30
0.0
  3
$MODEL_SPACE
  1

  0
ENDBLK
  5
3AF7
  8
0
  0
BLOCK
 67
     1
  8
0
  2
$PAPER_SPACE
 70
     0
 10
0.0
 20
0.0
 30
0.0
  3
$PAPER_SPACE
  1

  0
ENDBLK
  5
3AF3
 67
     1
  8
0
  0
BLOCK
  8
0
  2
*U2
 70
     1
 10
0.0
 20
0.0
 30
0.0
  3
*U2
  1

  0
TEXT
  5
3945
  8
AM_0
 10
905.38452421871875
 20
254.75149734178149
 30
0.0
 40
16.0
  1
VX02-K20S
 41
0.8299999999999999
  0
ENDBLK
  5
3947
  8
0
  0
BLOCK
  8
0
  2
GENAXEH
 70
     0
 10
0.0
 20
0.0
 30
0.0
  3
GENAXEH
  1

  0
LINE
  5
3BC8
  8
0
 10
-1.0
 20
0.0
 30
0.0
 11
1.0
 21
0.0
 31
0.0
  0
ENDBLK
  5
3BCA
  8
0
  0
BLOCK
  8
0
  2
_ACMFILLEDHALF
 70
     0
 10
0.0
 20
0.0
 30
0.0
  3
_ACMFILLEDHALF
  1

  0
TRACE
  5
3BD8
  8
AM_0
 62
     0
 10
-0.8
 20
0.0
 30
0.0
 11
-1.0
 21
0.166666666
 31
0.0
 12
0.0
 22
0.0
 32
0.0
 13
0.0
 23
0.0
 33
0.0
  0
LINE
  5
3BD9
  8
AM_0
 62
     0
 10
-1.0
 20
0.0
 30
0.0
 11
-0.8
 21
0.0
 31
0.0
  0
ENDBLK
  5
3BD7
  8
0
  0
ENDSEC
  0
SECTION
  2
ENTITIES
  0
POLYLINE
  5
2967
  8
AM_0
 66
     1
 10
0.0
 20
0.0
 30
0.0
  0
VERTEX
  5
2968
  8
AM_0
 10
402.73347596495421
 20
919.99524158563145
 30
0.0
 42
-0.011693505
  0
VERTEX
  5
2969
  8
AM_0
 10
406.29636596495419
 20
924.4916115856314
 30
0.0
 42
-0.01121677
  0
VERTEX
  5
296A
  8
AM_0
 10
410.0612459649542
 20
928.82038158563125
 30
0.0
 42
-0.011000238
  0
VERTEX
  5
296B
  8
AM_0
 10
414.01334596495423
 20
932.97682158563146
 30
0.0
  0
SEQEND
  5
296C
  8
AM_0
  0
POLYLINE
  5
296D
  8
AM_0
 66
     1
 10
0.0
 20
0.0
 30
0.0
  0
VERTEX
  5
296E
  8
AM_0
 10
402.73347596495421
 20
829.15901158563145
 30
0.0
 42
0.011693477
  0
VERTEX
  5
296F
  8
AM_0
 10
406.29636596495419
 20
824.66265158563147
 30
0.0
 42
0.01121672
  0
VERTEX
  5
2970
  8
AM_0
 10
410.0612459649542
 20
820.33388158563162
 30
0.0
 42
0.011000161
  0
VERTEX
  5
2971
  8
AM_0
 10
414.01334596495423
 20
816.17744158563141
 30
0.0
  0
SEQEND
  5
2972
  8
AM_0
  0
LINE
  5
2973
  8
AM_0
 10
412.04502596495422
 20
816.2461715856316
 30
0.0
 11
359.61375596495418
 21
818.07710158563145
 31
0.0
  0
LINE
  5
2974
  8
AM_0
 10
359.61368596495407
 20
931.07710158563145
 30
0.0
 11
412.04502596495422
 21
932.90803158563142
 31
0.0
  0
LINE
  5
2975
  8
AM_0
 10
385.61368596495419
 20
861.57710158563145
 30
0.0
 11
416.9163659649542
 21
861.57710158563145
 31
0.0
  0
LINE
  5
2976
  8
AM_0
 10
385.61368596495419
 20
887.57710158563134
 30
0.0
 11
416.9163659649542
 21
887.57710158563134
 31
0.0
  0
LINE
  5
2977
  8
ﾁｭｳｼﾝｾﾝ
 10
175.2286071062112
 20
874.57708658563126
 30
0.0
 11
698.62772596495404
 21
874.57710158563145
 31
0.0
  0
POLYLINE
  5
2978
  8
AM_0
 66
     1
 10
0.0
 20
0.0
 30
0.0
  0
VERTEX
  5
2979
  8
AM_0
 10
386.58324596495419
 20
861.57738158563143
 30
0.0
  0
VERTEX
  5
297A
  8
AM_0
 10
394.01052596495418
 20
842.63798158563145
 30
0.0
 42
-1.0
  0
SEQEND
  5
297B
  8
AM_0
  0
LINE
  5
2A25
  8
AM_0
 10
359.61368596495407
 20
842.63716158563125
 30
0.0
 11
395.7060359649542
 21
842.63716158563125
 31
0.0
  0
LINE
  5
2A26
  8
AM_0
 10
359.61368596495407
 20
828.57710158563145
 30
0.0
 11
400.95640596495417
 21
828.57710158563145
 31
0.0
  0
ARC
  5
2A3F
  8
AM_0
 10
395.7060359649542
 20
839.63716158563113
 30
0.0
 40
3.0
 50
30.468076999999099
 51
90.00000299999769
  0
POLYLINE
  5
2A40
  8
AM_0
 66
     1
 10
0.0
 20
0.0
 30
0.0
  0
VERTEX
  5
2A41
  8
AM_0
 10
398.2917459649542
 20
841.15835158563164
 30
0.0
 42
0.0058779346
  0
VERTEX
  5
2A42
  8
AM_0
 10
399.50136596495429
 20
839.15677158563142
 30
0.0
 42
0.0056588677
  0
VERTEX
  5
2A43
  8
AM_0
 10
400.75684596495421
 20
837.1836215856315
 30
0.0
 42
0.0054619133
  0
VERTEX
  5
2A44
  8
AM_0
 10
402.0558859649542
 20
835.2388715856315
 30
0.0
 42
0.0052861212
  0
VERTEX
  5
2A45
  8
AM_0
 10
403.39641596495397
 20
833.32247158563155
 30
0.0
  0
SEQEND
  5
2A46
  8
AM_0
  0
ARC
  5
2A47
  8
AM_0
 10
400.95640596495417
 20
831.57710158563145
 30
0.0
 40
3.0
 50
269.999989999999
 51
35.575751000001212
  0
LINE
  5
2B38
  8
AM_0
 10
359.61368596495407
 20
906.51704158563143
 30
0.0
 11
395.7060359649542
 21
906.51704158563143
 31
0.0
  0
LINE
  5
2B39
  8
AM_0
 10
359.61368596495407
 20
920.57710158563123
 30
0.0
 11
400.95640596495417
 21
920.57710158563123
 31
0.0
  0
POLYLINE
  5
2B4A
  8
AM_0
 66
     1
 10
0.0
 20
0.0
 30
0.0
  0
VERTEX
  5
2B4B
  8
AM_0
 10
386.58324596495419
 20
887.57683158563157
 30
0.0
  0
VERTEX
  5
2B4C
  8
AM_0
 10
394.01052596495418
 20
906.51626158563124
 30
0.0
 42
-1.0
  0
SEQEND
  5
2B4D
  8
AM_0
  0
LINE
  5
2B4E
  8
AM_0
 10
382.61368596495407
 20
864.57710158563145
 30
0.0
 11
382.61368596495407
 21
884.57710158563145
 31
0.0
  0
ARC
  5
2B4F
  8
AM_0
 10
385.61368596495419
 20
864.57710158563145
 30
0.0
 40
3.0
 50
180.00001000000091
 51
270.0
  0
ARC
  5
2B50
  8
AM_0
 10
385.61368596495419
 20
884.57710158563145
 30
0.0
 40
3.0
 50
90.00000299999769
 51
180.00001000000091
  0
ARC
  5
2B51
  8
AM_0
 10
395.7060359649542
 20
909.51704158563143
 30
0.0
 40
3.0
 50
269.999989999999
 51
329.53192000000138
  0
POLYLINE
  5
2B52
  8
AM_0
 66
     1
 10
0.0
 20
0.0
 30
0.0
  0
VERTEX
  5
2B53
  8
AM_0
 10
398.2917459649542
 20
907.9958915856314
 30
0.0
 42
-0.0058779314
  0
VERTEX
  5
2B54
  8
AM_0
 10
399.50136596495429
 20
909.99748158563114
 30
0.0
 42
-0.0056588672
  0
VERTEX
  5
2B55
  8
AM_0
 10
400.75684596495421
 20
911.97063158563162
 30
0.0
 42
-0.0054619156
  0
VERTEX
  5
2B56
  8
AM_0
 10
402.0558859649542
 20
913.91538158563162
 30
0.0
 42
-0.0052861264
  0
VERTEX
  5
2B57
  8
AM_0
 10
403.39641596495397
 20
915.83178158563123
 30
0.0
  0
SEQEND
  5
2B58
  8
AM_0
  0
ARC
  5
2B59
  8
AM_0
 10
400.95640596495417
 20
917.57710158563145
 30
0.0
 40
3.0
 50
324.42424000000028
 51
90.00000299999769
  0
ARC
  5
2B60
  8
AM_0
 10
416.9163659649542
 20
858.57710158563145
 30
0.0
 40
3.0
 50
0.0
 51
90.00000299999769
  0
LINE
  5
2B61
  8
AM_0
 10
423.61368596495407
 20
805.28908158563149
 30
0.0
 11
423.61368596495407
 21
943.86513158563173
 31
0.0
  0
LINE
  5
2B63
  8
AM_0
 10
433.61368596495402
 20
801.07710158563145
 30
0.0
 11
433.61368596495402
 21
948.07716158563142
 31
0.0
  0
LINE
  5
2B64
  8
AM_0
 10
510.11375596495418
 20
825.01259158563141
 30
0.0
 11
510.11375596495418
 21
924.14162158563136
 31
0.0
  0
LINE
  5
2B65
  8
AM_0
 10
585.11375596495418
 20
783.57710158563145
 30
0.0
 11
585.11375596495418
 21
965.57710158563145
 31
0.0
  0
LINE
  5
2B66
  8
AM_0
 10
613.11375596495407
 20
914.33449158563144
 30
0.0
 11
613.11375596495407
 21
840.81972158563156
 31
0.0
  0
LINE
  5
2B67
  8
AM_0
 10
495.11375596495412
 20
734.83913158563143
 30
0.0
 11
495.11375596495412
 21
870.57710158563134
 31
0.0
  0
LINE
  5
2B68
  8
AM_0
 10
607.11375596495418
 20
960.45772158563125
 30
0.0
 11
607.11375596495418
 21
788.69655158563137
 31
0.0
  0
LINE
  5
2B69
  8
AM_0
 10
687.11375596495407
 20
853.57710158563145
 30
0.0
 11
687.11375596495407
 21
895.57710158563134
 31
0.0
  0
LINE
  5
2B6A
  8
AM_0
 10
617.11375596495407
 20
852.07710158563145
 30
0.0
 11
617.11375596495407
 21
897.07710158563145
 31
0.0
  0
LINE
  5
2B6B
  8
AM_0
 10
482.11368596495402
 20
738.36732158563154
 30
0.0
 11
482.11368596495402
 21
865.03767158563164
 31
0.0
  0
LINE
  5
2B6C
  8
AM_0
 10
468.11375596495401
 20
760.46913158563143
 30
0.0
 11
468.11375596495401
 21
870.57710158563134
 31
0.0
  0
ARC
  5
2B6D
  8
AM_0
 10
557.11375596495418
 20
760.03328158563124
 30
0.0
 40
8.0
 50
272.00000000000369
 51
0.0
  0
LINE
  5
2B6E
  8
AM_0
 10
500.11368596495402
 20
734.57710158563145
 30
0.0
 11
609.25327596495424
 21
738.38838158563135
 31
0.0
  0
ARC
  5
2B6F
  8
AM_0
 10
485.11368596495407
 20
738.36732158563154
 30
0.0
 40
3.0
 50
180.00001000000091
 51
266.99999000000031
  0
ARC
  5
2B70
  8
AM_0
 10
479.11375596495401
 20
752.94936158563144
 30
0.0
 40
3.0
 50
0.0
 51
79.999998000001099
  0
ARC
  5
2B71
  8
AM_0
 10
484.1137559649539
 20
747.83217158563161
 30
0.0
 40
2.0
 50
179.999989999999
 51
268.00000999999861
  0
LINE
  5
2B72
  8
AM_0
 10
482.11368596495402
 20
823.01259158563141
 30
0.0
 11
508.11375596495401
 21
823.01259158563141
 31
0.0
  0
LINE
  5
2B73
  8
AM_0
 10
482.11368596495402
 20
797.01131158563146
 30
0.0
 11
508.11375596495401
 21
797.01131158563146
 31
0.0
  0
LINE
  5
2B74
  8
AM_0
 10
424.90439596495418
 20
738.51869158563125
 30
0.0
 11
500.1137559649539
 21
734.57710158563145
 31
0.0
  0
CIRCLE
  5
2B75
  8
AM_0
 10
442.1137559649539
 20
759.57710158563145
 30
0.0
 40
9.5
  0
LINE
  5
2B77
  8
AM_0
 10
424.7651759649541
 20
782.98494158563142
 30
0.0
 11
468.1138159649542
 21
786.77748158563145
 31
0.0
  0
LINE
  5
2B79
  8
AM_0
 10
421.1137559649539
 20
742.51320158563135
 30
0.0
 11
421.1137559649539
 21
779.00014158563135
 31
0.0
  0
ARC
  5
2B7A
  8
AM_0
 10
425.1137559649539
 20
742.51320158563135
 30
0.0
 40
4.0
 50
180.00001000000091
 51
266.99999000000031
  0
ARC
  5
2B7B
  8
AM_0
 10
425.1137559649539
 20
779.00014158563135
 30
0.0
 40
4.0
 50
95.00000199999856
 51
180.00001000000091
  0
ARC
  5
2B7C
  8
AM_0
 10
474.11375596495412
 20
748.86714158563143
 30
0.0
 40
5.0
 50
180.00001000000091
 51
277.13983000000007
  0
LINE
  5
2B7D
  8
AM_0
 10
469.11375596495418
 20
737.18190158563152
 30
0.0
 11
469.11375596495418
 21
745.03065158563152
 31
0.0
  0
LINE
  5
2B7E
  8
AM_0
 10
482.11375596495418
 20
744.83015158563126
 30
0.0
 11
474.73521596495419
 21
743.90590158563145
 31
0.0
  0
LINE
  5
2B7F
  8
AM_0
 10
470.59275596495422
 20
757.49812158563145
 30
0.0
 11
479.6346859649542
 21
755.9037615856314
 31
0.0
  0
ARC
  5
2B80
  8
AM_0
 10
471.1137559649539
 20
760.4525315856315
 30
0.0
 40
3.0
 50
179.999989999999
 51
260.00000000000148
  0
LINE
  5
2B81
  8
AM_0
 10
433.6137559649539
 20
801.07710158563145
 30
0.0
 11
463.28831596495422
 21
800.04085158563134
 31
0.0
  0
LINE
  5
2B82
  8
AM_0
 10
433.6137559649539
 20
835.10243158563151
 30
0.0
 11
468.11375596495401
 21
835.10243158563151
 31
0.0
  0
LINE
  5
2B83
  8
AM_0
 10
433.6137559649539
 20
812.99843158563147
 30
0.0
 11
468.11375596495401
 21
812.99843158563147
 31
0.0
  0
ARC
  5
2B84
  8
AM_0
 10
427.61368596495407
 20
805.28908158563149
 30
0.0
 40
4.0
 50
180.00001000000091
 51
267.99999999999631
  0
LINE
  5
2B85
  8
AM_0
 10
423.61368596495407
 20
812.99843158563147
 30
0.0
 11
433.61368596495402
 21
812.99843158563147
 31
0.0
  0
LINE
  5
2B86
  8
AM_0
 10
422.18674596495418
 20
808.00404158563128
 30
0.0
 11
415.4060459649541
 21
814.78468158563146
 31
0.0
  0
ARC
  5
2B87
  8
AM_0
 10
418.6511659649542
 20
804.46852158563149
 30
0.0
 40
5.0
 50
5.2307202000000732
 51
44.999998000001611
  0
ARC
  5
2B88
  8
AM_0
 10
411.87052596495431
 20
811.24922158563152
 30
0.0
 40
5.0
 50
44.999998000001611
 51
87.999999999996248
  0
LINE
  5
2B89
  8
AM_0
 10
427.47410596495399
 20
801.29146158563128
 30
0.0
 11
433.6137559649539
 21
801.07710158563145
 31
0.0
  0
LINE
  5
2B8A
  8
AM_0
 10
423.61368596495407
 20
835.10243158563151
 30
0.0
 11
433.61368596495402
 21
835.10243158563151
 31
0.0
  0
ARC
  5
2B8B
  8
AM_0
 10
463.1137559649539
 20
795.0438415856313
 30
0.0
 40
5.0
 50
0.0
 51
87.999999999996248
  0
POLYLINE
  5
2B8C
  8
AM_0
 66
     1
 10
0.0
 20
0.0
 30
0.0
  0
VERTEX
  5
2B8D
  8
AM_0
 10
515.04344596495423
 20
794.84561158563145
 30
0.0
 42
0.110757
  0
VERTEX
  5
2B8E
  8
AM_0
 10
527.92439596495421
 20
804.75335158563132
 30
0.0
 42
0.2037583
  0
VERTEX
  5
2B8F
  8
AM_0
 10
530.18211596495416
 20
812.41882158563135
 30
0.0
  0
VERTEX
  5
2B90
  8
AM_0
 10
515.41231596495425
 20
831.33394158563146
 30
0.0
 42
-1.0
  0
SEQEND
  5
2B91
  8
AM_0
  0
LINE
  5
2B92
  8
AM_0
 10
510.11375596495418
 20
747.90193158563125
 30
0.0
 11
510.11375596495418
 21
795.01131158563135
 31
0.0
  0
ARC
  5
2B93
  8
AM_0
 10
515.67441596495428
 20
745.29506158563129
 30
0.0
 40
10.0
 50
272.00000000000369
 51
316.51703999999847
  0
LINE
  5
2B94
  8
AM_0
 10
512.04398596495423
 20
752.01765158563126
 30
0.0
 11
536.64695596495426
 21
752.87685158563124
 31
0.0
  0
LINE
  5
2B95
  8
AM_0
 10
495.1136859649539
 20
745.44673158563126
 30
0.0
 11
508.18357596495417
 21
745.90315158563135
 31
0.0
  0
LINE
  5
2B96
  8
AM_0
 10
484.04398596495417
 20
745.83333158563141
 30
0.0
 11
495.11381596495397
 21
745.44673158563126
 31
0.0
  0
ARC
  5
2B97
  8
AM_0
 10
508.11375596495401
 20
747.90193158563125
 30
0.0
 40
2.0
 50
272.00000000000369
 51
0.0
  0
LINE
  5
2B98
  8
AM_0
 10
514.61375596495418
 20
738.33998158563145
 30
0.0
 11
514.61375596495418
 21
750.37233158563151
 31
0.0
  0
ARC
  5
2B99
  8
AM_0
 10
512.11375596495395
 20
750.01887158563125
 30
0.0
 40
2.0
 50
91.999998000000545
 51
180.00001000000091
  0
ARC
  5
2B9A
  8
AM_0
 10
514.14182596495425
 20
796.63087158563155
 30
0.0
 40
2.0
 50
270.0
 51
296.80019999999718
  0
LINE
  5
2B9B
  8
AM_0
 10
539.20408596495395
 20
751.40297158563135
 30
0.0
 11
557.3929259649542
 21
752.03816158563143
 31
0.0
  0
LINE
  5
2B9C
  8
AM_0
 10
522.93015596495422
 20
738.41371158563129
 30
0.0
 11
532.29734596495416
 21
748.29048158563126
 31
0.0
  0
ARC
  5
2B9D
  8
AM_0
 10
539.55308596495422
 20
741.40907158563152
 30
0.0
 40
10.0
 50
91.999998000000545
 51
136.5170399999985
  0
LINE
  5
2B9E
  8
AM_0
 10
514.61375596495418
 20
797.01131158563146
 30
0.0
 11
514.61375596495418
 21
823.01259158563141
 31
0.0
  0
ARC
  5
2B9F
  8
AM_0
 10
508.11375596495401
 20
795.01131158563135
 30
0.0
 40
2.0
 50
0.0
 51
90.00000299999769
  0
ARC
  5
2BA0
  8
AM_0
 10
508.11375596495401
 20
825.01259158563141
 30
0.0
 40
2.0
 50
270.0
 51
0.0
  0
ARC
  5
2BA1
  8
AM_0
 10
513.66337596495418
 20
828.89650158563165
 30
0.0
 40
3.0
 50
54.348324000004709
 51
90.00000299999769
  0
LINE
  5
2BA2
  8
AM_0
 10
617.11375596495407
 20
853.57710158563145
 30
0.0
 11
687.11375596495407
 21
853.57710158563145
 31
0.0
  0
CIRCLE
  5
2BA3
  8
AM_0
 10
592.11375596495407
 20
759.57710158563145
 30
0.0
 40
9.5
  0
LINE
  5
2BA4
  8
AM_0
 10
592.43876596495443
 20
788.03541158563144
 30
0.0
 11
602.28818596495421
 21
788.37935158563153
 31
0.0
  0
LINE
  5
2BA6
  8
AM_0
 10
565.11375596495418
 20
765.57710158563145
 30
0.0
 11
565.11375596495418
 21
760.03328158563124
 31
0.0
  0
LINE
  5
2BA8
  8
AM_0
 10
565.11375596495418
 20
742.02461158563142
 30
0.0
 11
565.11375596495418
 21
760.03328158563124
 31
0.0
  0
ARC
  5
2BA9
  8
AM_0
 10
570.11375596495407
 20
742.02461158563142
 30
0.0
 40
5.0
 50
180.00001000000091
 51
271.99999000000139
  0
ARC
  5
2BAA
  8
AM_0
 10
577.11375596495418
 20
783.57710158563145
 30
0.0
 40
8.0
 50
270.0
 51
0.0
  0
ARC
  5
2BAB
  8
AM_0
 10
575.11375596495407
 20
765.57710158563145
 30
0.0
 40
10.0
 50
90.00000299999769
 51
180.00001000000091
  0
LINE
  5
2BAC
  8
AM_0
 10
575.11375596495407
 20
775.57710158563145
 30
0.0
 11
577.11375596495418
 21
775.57710158563145
 31
0.0
  0
ARC
  5
2BAD
  8
AM_0
 10
592.71793596495411
 20
780.04030158563125
 30
0.0
 40
8.0
 50
91.999998000000545
 51
167.22924999999881
  0
LINE
  5
2BAE
  8
AM_0
 10
613.11375596495407
 20
742.38588158563152
 30
0.0
 11
613.11375596495407
 21
781.76833158563136
 31
0.0
  0
ARC
  5
2BAF
  8
AM_0
 10
609.11375596495407
 20
742.38588158563152
 30
0.0
 40
4.0
 50
272.00000000000369
 51
0.0
  0
ARC
  5
2BB0
  8
AM_0
 10
610.11375596495418
 20
788.69655158563137
 30
0.0
 40
3.0
 50
180.00001000000091
 51
261.78677999999712
  0
ARC
  5
2BB1
  8
AM_0
 10
602.11375596495418
 20
793.37636158563146
 30
0.0
 40
5.0
 50
272.00000000000369
 51
0.0
  0
ARC
  5
2BB2
  8
AM_0
 10
609.11375596495407
 20
781.76833158563136
 30
0.0
 40
4.0
 50
0.0
 51
81.786789000000198
  0
LINE
  5
2BB3
  8
AM_0
 10
613.11381596495437
 20
852.07710158563145
 30
0.0
 11
617.11375596495407
 21
852.07710158563145
 31
0.0
  0
ARC
  5
2BB4
  8
AM_0
 10
610.11375596495418
 20
832.33449158563133
 30
0.0
 40
3.0
 50
135.0
 51
180.00001000000091
  0
ARC
  5
2BB5
  8
AM_0
 10
610.11375596495418
 20
832.33449158563133
 30
0.0
 40
3.0
 50
135.0
 51
180.00001000000091
  0
ARC
  5
2BB6
  8
AM_0
 10
610.11375596495418
 20
840.81972158563156
 30
0.0
 40
3.0
 50
315.0
 51
0.0
  0
ARC
  5
2BB7
  8
AM_0
 10
610.11375596495418
 20
840.81972158563156
 30
0.0
 40
3.0
 50
315.0
 51
0.0
  0
LINE
  5
2BB8
  8
AM_0
 10
607.99253596495419
 20
834.45576158563131
 30
0.0
 11
612.23521596495425
 21
838.69844158563137
 31
0.0
  0
ARC
  5
2BB9
  8
AM_0
 10
557.11375596495418
 20
989.12093158563152
 30
0.0
 40
8.0
 50
0.0
 51
87.999999999996248
  0
LINE
  5
2BBA
  8
AM_0
 10
500.11381596495397
 20
1014.577101585631
 30
0.0
 11
609.25339596495439
 21
1010.765881585631
 31
0.0
  0
CIRCLE
  5
2BBB
  8
AM_0
 10
442.1137559649539
 20
989.57710158563145
 30
0.0
 40
9.5
  0
ARC
  5
2BBC
  8
AM_0
 10
471.1137559649539
 20
988.70167158563152
 30
0.0
 40
3.0
 50
99.999999999998593
 51
180.00001000000091
  0
LINE
  5
2BBD
  8
AM_0
 10
482.11368596495402
 20
884.11653158563149
 30
0.0
 11
482.11368596495402
 21
1010.786881585631
 31
0.0
  0
LINE
  5
2BBE
  8
AM_0
 10
495.11375596495412
 20
878.57704158563138
 30
0.0
 11
495.11375596495412
 21
1014.315081585631
 31
0.0
  0
LINE
  5
2BBF
  8
AM_0
 10
510.11375596495418
 20
1001.252271585631
 30
0.0
 11
510.11375596495418
 21
954.14290158563165
 31
0.0
  0
LINE
  5
2BC1
  8
AM_0
 10
421.1137559649539
 20
1006.641011585631
 30
0.0
 11
421.1137559649539
 21
970.15401158563145
 31
0.0
  0
ARC
  5
2BC2
  8
AM_0
 10
479.11381596495397
 20
874.57710158563145
 30
0.0
 40
10.0
 50
203.57826999999861
 51
336.4217200000013
  0
ARC
  5
2BC3
  8
AM_0
 10
479.11381596495397
 20
874.57710158563145
 30
0.0
 40
10.0
 50
23.57803699999776
 51
156.42196000000081
  0
LINE
  5
2BC4
  8
AM_0
 10
462.61381596495397
 20
878.57704158563138
 30
0.0
 11
495.61381596495397
 21
878.57704158563138
 31
0.0
  0
LINE
  5
2BC5
  8
AM_0
 10
462.61381596495397
 20
870.57710158563134
 30
0.0
 11
495.61381596495397
 21
870.57710158563134
 31
0.0
  0
LINE
  5
2BC6
  8
AM_0
 10
482.11368596495402
 20
952.14290158563142
 30
0.0
 11
508.11375596495401
 21
952.14290158563142
 31
0.0
  0
LINE
  5
2BC7
  8
AM_0
 10
482.11368596495402
 20
926.14162158563124
 30
0.0
 11
508.11375596495401
 21
926.14162158563124
 31
0.0
  0
LINE
  5
2BC8
  8
AM_0
 10
468.11375596495401
 20
878.57704158563138
 30
0.0
 11
468.11375596495401
 21
988.71828158563153
 31
0.0
  0
LINE
  5
2BC9
  8
AM_0
 10
433.6137559649539
 20
914.05177158563151
 30
0.0
 11
468.11375596495401
 21
914.05177158563151
 31
0.0
  0
LINE
  5
2BCA
  8
AM_0
 10
419.91636596495403
 20
863.80861158563141
 30
0.0
 11
419.91636596495403
 21
885.80916158563161
 31
0.0
  0
ARC
  5
2BCB
  8
AM_0
 10
416.9163659649542
 20
890.57710158563145
 30
0.0
 40
3.0
 50
269.999989999999
 51
0.0000006832429909
  0
LINE
  5
2BCC
  8
AM_0
 10
423.61368596495407
 20
914.05177158563151
 30
0.0
 11
433.61368596495402
 21
914.05177158563151
 31
0.0
  0
ARC
  5
2BCD
  8
AM_0
 10
462.61381596495397
 20
874.57710158563145
 30
0.0
 40
3.9999962
 50
90.00000299999769
 51
270.0
  0
LINE
  5
2BCE
  8
AM_0
 10
424.76511596495419
 20
966.16927158563146
 30
0.0
 11
468.11375596495401
 21
962.37672158563146
 31
0.0
  0
LINE
  5
2BCF
  8
AM_0
 10
433.6137559649539
 20
948.07710158563145
 30
0.0
 11
463.28818596495421
 21
949.11336158563142
 31
0.0
  0
LINE
  5
2BD0
  8
AM_0
 10
433.6137559649539
 20
936.15572158563145
 30
0.0
 11
468.11375596495401
 21
936.15572158563145
 31
0.0
  0
ARC
  5
2BD1
  8
AM_0
 10
427.61368596495407
 20
943.86513158563173
 30
0.0
 40
4.0
 50
91.999998000000545
 51
180.00001000000091
  0
LINE
  5
2BD2
  8
AM_0
 10
423.61368596495407
 20
936.1557815856313
 30
0.0
 11
433.61368596495402
 21
936.1557815856313
 31
0.0
  0
LINE
  5
2BD3
  8
AM_0
 10
415.40610596495418
 20
934.36946158563126
 30
0.0
 11
422.18674596495418
 21
941.15010158563143
 31
0.0
  0
ARC
  5
2BD4
  8
AM_0
 10
411.87052596495431
 20
937.90498158563162
 30
0.0
 40
5.0
 50
272.00000000000369
 51
315.0
  0
ARC
  5
2BD5
  8
AM_0
 10
418.6511659649542
 20
944.68568158563141
 30
0.0
 40
5.0
 50
315.0
 51
354.76905999999752
  0
LINE
  5
2BD6
  8
AM_0
 10
427.47410596495399
 20
947.8626915856313
 30
0.0
 11
433.61368596495402
 21
948.07710158563145
 31
0.0
  0
ARC
  5
2BD7
  8
AM_0
 10
425.1137559649539
 20
970.15401158563145
 30
0.0
 40
4.0
 50
180.00001000000091
 51
265.00001000000037
  0
ARC
  5
2BD8
  8
AM_0
 10
463.1137559649539
 20
954.11037158563124
 30
0.0
 40
5.0
 50
272.00000000000369
 51
0.0
  0
POLYLINE
  5
2BD9
  8
AM_0
 66
     1
 10
0.0
 20
0.0
 30
0.0
  0
VERTEX
  5
2BDA
  8
AM_0
 10
515.04344596495423
 20
954.30859158563135
 30
0.0
 42
-0.110757
  0
VERTEX
  5
2BDB
  8
AM_0
 10
527.92439596495421
 20
944.40085158563124
 30
0.0
 42
-0.2037583
  0
VERTEX
  5
2BDC
  8
AM_0
 10
530.18211596495416
 20
936.73538158563144
 30
0.0
  0
VERTEX
  5
2BDD
  8
AM_0
 10
515.41231596495425
 20
917.82026158563144
 30
0.0
 42
-1.0
  0
SEQEND
  5
2BDE
  8
AM_0
  0
ARC
  5
2BDF
  8
AM_0
 10
495.61381596495397
 20
874.57710158563145
 30
0.0
 40
3.9999962
 50
270.0
 51
90.00000299999769
  0
ARC
  5
2BE0
  8
AM_0
 10
513.66337596495418
 20
920.25771158563145
 30
0.0
 40
3.0
 50
270.0
 51
305.65166999999741
  0
LINE
  5
2BE1
  8
AM_0
 10
514.61375596495418
 20
952.14290158563142
 30
0.0
 11
514.61375596495418
 21
926.14162158563124
 31
0.0
  0
ARC
  5
2BE2
  8
AM_0
 10
508.11375596495401
 20
924.14162158563136
 30
0.0
 40
2.0
 50
0.0
 51
90.00000299999769
  0
ARC
  5
2BE3
  8
AM_0
 10
508.11375596495401
 20
954.14290158563165
 30
0.0
 40
2.0
 50
270.0
 51
0.0
  0
ARC
  5
2BE4
  8
AM_0
 10
514.14182596495425
 20
952.52333158563113
 30
0.0
 40
2.0
 50
63.199809000002318
 51
90.00000299999769
  0
ARC
  5
2BE5
  8
AM_0
 10
485.11368596495407
 20
1010.786881585631
 30
0.0
 40
3.0
 50
92.999999000001679
 51
180.00001000000091
  0
ARC
  5
2BE6
  8
AM_0
 10
479.11375596495401
 20
996.20485158563145
 30
0.0
 40
3.0
 50
280.00001000000128
 51
0.0
  0
ARC
  5
2BE7
  8
AM_0
 10
484.1137559649539
 20
1001.322101585631
 30
0.0
 40
2.0
 50
91.999998000000545
 51
180.00001000000091
  0
LINE
  5
2BE8
  8
AM_0
 10
424.9043359649541
 20
1010.635511585631
 30
0.0
 11
500.11368596495402
 21
1014.577101585631
 31
0.0
  0
ARC
  5
2BEA
  8
AM_0
 10
425.1137559649539
 20
1006.641011585631
 30
0.0
 40
4.0
 50
92.999999000001679
 51
180.00001000000091
  0
ARC
  5
2BEB
  8
AM_0
 10
474.11375596495412
 20
1000.287061585631
 30
0.0
 40
5.0
 50
82.860167000000104
 51
180.00001000000091
  0
LINE
  5
2BEC
  8
AM_0
 10
469.11375596495418
 20
1011.972301585631
 30
0.0
 11
469.11375596495418
 21
1004.123551585631
 31
0.0
  0
LINE
  5
2BED
  8
AM_0
 10
482.11368596495402
 20
1004.324051585631
 30
0.0
 11
474.73521596495419
 21
1005.248311585631
 31
0.0
  0
LINE
  5
2BEE
  8
AM_0
 10
470.5928159649543
 20
991.65608158563145
 30
0.0
 11
479.6346859649542
 21
993.25044158563139
 31
0.0
  0
ARC
  5
2BEF
  8
AM_0
 10
515.67441596495428
 20
1003.859081585631
 30
0.0
 40
10.0
 50
43.482964999999631
 51
87.999999999996248
  0
LINE
  5
2BF0
  8
AM_0
 10
512.04398596495423
 20
997.13655158563165
 30
0.0
 11
536.64701596495422
 21
996.2773615856313
 31
0.0
  0
LINE
  5
2BF1
  8
AM_0
 10
495.11375596495412
 20
1003.707471585631
 30
0.0
 11
508.18363596495419
 21
1003.251051585631
 31
0.0
  0
LINE
  5
2BF2
  8
AM_0
 10
484.04398596495417
 20
1003.320881585631
 30
0.0
 11
495.11375596495412
 21
1003.707471585631
 31
0.0
  0
LINE
  5
2BF3
  8
AM_0
 10
514.61375596495418
 20
998.85695158563124
 30
0.0
 11
514.61375596495418
 21
1010.810441585631
 31
0.0
  0
ARC
  5
2BF4
  8
AM_0
 10
512.11375596495395
 20
999.13533158563109
 30
0.0
 40
2.0
 50
180.00001000000091
 51
267.99999999999631
  0
ARC
  5
2BF5
  8
AM_0
 10
508.11375596495401
 20
1001.252271585631
 30
0.0
 40
2.0
 50
0.0
 51
87.999999999996248
  0
LINE
  5
2BF6
  8
AM_0
 10
539.20414596495425
 20
997.75124158563131
 30
0.0
 11
557.39298596495405
 21
997.11604158563125
 31
0.0
  0
LINE
  5
2BF7
  8
AM_0
 10
522.9302159649543
 20
1010.740491585631
 30
0.0
 11
532.29728596495397
 21
1000.863781585631
 31
0.0
  0
ARC
  5
2BF8
  8
AM_0
 10
539.55308596495422
 20
1007.745131585631
 30
0.0
 40
10.0
 50
223.48296000000141
 51
267.99999999999631
  0
CIRCLE
  5
2BF9
  8
AM_0
 10
592.11375596495407
 20
989.57710158563145
 30
0.0
 40
9.5
  0
LINE
  5
2BFA
  8
AM_0
 10
565.11375596495418
 20
983.57710158563145
 30
0.0
 11
565.11375596495418
 21
989.12093158563152
 31
0.0
  0
LINE
  5
2BFB
  8
ﾁｭｳｼﾝｾﾝ
 10
592.11375596495407
 20
1007.077101585631
 30
0.0
 11
592.11375596495407
 21
972.07710158563145
 31
0.0
  0
LINE
  5
2BFC
  8
AM_0
 10
613.11375596495407
 20
1006.768331585631
 30
0.0
 11
613.11375596495407
 21
967.38588158563152
 31
0.0
  0
LINE
  5
2BFD
  8
AM_0
 10
631.11375596495418
 20
880.57710158563145
 30
0.0
 11
687.11375596495407
 21
880.57710158563145
 31
0.0
  0
LINE
  5
2BFE
  8
AM_0
 10
631.11375596495418
 20
868.57710158563145
 30
0.0
 11
687.11375596495407
 21
868.57710158563145
 31
0.0
  0
LINE
  5
2BFF
  8
AM_0
 10
617.11375596495407
 20
895.57710158563134
 30
0.0
 11
687.11375596495407
 21
895.57710158563134
 31
0.0
  0
ARC
  5
2C00
  8
AM_0
 10
631.11375596495418
 20
874.57710158563145
 30
0.0
 40
6.0000037999999991
 50
90.00000299999769
 51
270.0
  0
LINE
  5
2C01
  8
AM_0
 10
631.11375596495418
 20
880.57710158563145
 30
0.0
 11
631.11375596495418
 21
868.57710158563145
 31
0.0
  0
LINE
  5
2C02
  8
AM_0
 10
613.11381596495437
 20
897.07710158563145
 30
0.0
 11
617.11375596495407
 21
897.07710158563145
 31
0.0
  0
ARC
  5
2C03
  8
AM_0
 10
610.11375596495418
 20
922.81972158563156
 30
0.0
 40
3.0
 50
180.00001000000091
 51
225.0
  0
ARC
  5
2C04
  8
AM_0
 10
610.11375596495418
 20
922.81972158563156
 30
0.0
 40
3.0
 50
179.999989999999
 51
225.0
  0
ARC
  5
2C05
  8
AM_0
 10
610.11375596495418
 20
914.33449158563144
 30
0.0
 40
3.0
 50
0.0
 51
44.999998000001611
  0
ARC
  5
2C06
  8
AM_0
 10
610.11375596495418
 20
914.33449158563144
 30
0.0
 40
3.0
 50
0.0
 51
45.000001000003799
  0
LINE
  5
2C07
  8
AM_0
 10
607.99253596495419
 20
920.69844158563126
 30
0.0
 11
612.23521596495425
 21
916.45576158563131
 31
0.0
  0
LINE
  5
2C08
  8
AM_0
 10
592.43882596495439
 20
961.11879158563124
 30
0.0
 11
602.28831596495422
 21
960.77486158563124
 31
0.0
  0
ARC
  5
2C09
  8
AM_0
 10
577.11375596495418
 20
965.57710158563145
 30
0.0
 40
8.0
 50
0.0
 51
90.00000299999769
  0
ARC
  5
2C0A
  8
AM_0
 10
575.11375596495407
 20
983.57710158563145
 30
0.0
 40
10.0
 50
180.00001000000091
 51
270.0
  0
LINE
  5
2C0B
  8
AM_0
 10
575.11375596495407
 20
973.57710158563145
 30
0.0
 11
577.11375596495418
 21
973.57710158563145
 31
0.0
  0
ARC
  5
2C0C
  8
AM_0
 10
592.71793596495411
 20
969.1139115856314
 30
0.0
 40
8.0
 50
192.77075000000119
 51
267.99999999999631
  0
ARC
  5
2C0D
  8
AM_0
 10
602.11375596495418
 20
955.77785158563142
 30
0.0
 40
5.0
 50
0.0
 51
87.999999999996248
  0
ARC
  5
2C0E
  8
AM_0
 10
610.11375596495418
 20
960.45772158563125
 30
0.0
 40
3.0
 50
98.213209000002095
 51
180.00001000000091
  0
ARC
  5
2C0F
  8
AM_0
 10
609.11375596495407
 20
967.38588158563152
 30
0.0
 40
4.0
 50
278.2132199999964
 51
0.0
  0
LINE
  5
2C10
  8
ﾁｭｳｼﾝｾﾝ
 10
574.61375596495407
 20
989.57710158563145
 30
0.0
 11
609.61375596495407
 21
989.57710158563145
 31
0.0
  0
LINE
  5
2C11
  8
AM_0
 10
565.11375596495418
 20
1007.129591585631
 30
0.0
 11
565.11375596495418
 21
989.12093158563152
 31
0.0
  0
ARC
  5
2C12
  8
AM_0
 10
570.11375596495407
 20
1007.129591585631
 30
0.0
 40
5.0
 50
87.999999999996248
 51
180.00001000000091
  0
ARC
  5
2C13
  8
AM_0
 10
609.11375596495407
 20
1006.768331585631
 30
0.0
 40
4.0
 50
0.0
 51
87.999999999996248
  0
LINE
  5
2C38
  8
ﾁｭｳｼﾝｾﾝ
 10
424.61375596495401
 20
989.57710158563145
 30
0.0
 11
459.61375596495401
 21
989.57710158563145
 31
0.0
  0
LINE
  5
2C39
  8
ﾁｭｳｼﾝｾﾝ
 10
442.1137559649539
 20
1007.077101585631
 30
0.0
 11
442.1137559649539
 21
972.07710158563145
 31
0.0
  0
LINE
  5
2C40
  8
ﾁｭｳｼﾝｾﾝ
 10
424.61375596495401
 20
759.57710158563145
 30
0.0
 11
459.61375596495401
 21
759.57710158563145
 31
0.0
  0
LINE
  5
2C41
  8
ﾁｭｳｼﾝｾﾝ
 10
442.1137559649539
 20
777.07710158563145
 30
0.0
 11
442.1137559649539
 21
742.07710158563145
 31
0.0
  0
LINE
  5
2C48
  8
ﾁｭｳｼﾝｾﾝ
 10
574.61375596495407
 20
759.57710158563145
 30
0.0
 11
609.61375596495407
 21
759.57710158563145
 31
0.0
  0
LINE
  5
2C49
  8
ﾁｭｳｼﾝｾﾝ
 10
592.11375596495407
 20
777.07710158563145
 30
0.0
 11
592.11375596495407
 21
742.07710158563145
 31
0.0
  0
LINE
  5
3222
  8
AM_0
 10
352.61368596495407
 20
940.57713774894421
 30
0.0
 11
352.61368596495407
 21
808.5771377489441
 31
0.0
  0
LINE
  5
3223
  8
AM_0
 10
341.11368596495407
 20
940.57713774894421
 30
0.0
 11
341.11368596495407
 21
808.5771377489441
 31
0.0
  0
LINE
  5
3224
  8
AM_0
 10
180.1136859649541
 20
891.57713774894364
 30
0.0
 11
180.11368596495399
 21
857.57713774894398
 31
0.0
  0
LINE
  5
3225
  8
AM_0
 10
191.1136859649541
 20
927.67900562032344
 30
0.0
 11
191.11368596495399
 21
821.47526987756464
 31
0.0
  0
ARC
  5
3226
  8
AM_0
 10
1130.2998097747741
 20
874.57713774894364
 30
0.0
 40
940.68612380981915
 50
176.76392470776139
 51
183.2360752922385
  0
LINE
  5
3227
  8
AM_0
 10
198.1136859649541
 20
940.17713774894366
 30
0.0
 11
198.11368596495399
 21
808.97713774894385
 31
0.0
  0
LINE
  5
3228
  8
AM_0
 10
195.6136859649541
 20
938.17713774894389
 30
0.0
 11
195.6136859649541
 21
810.97713774894385
 31
0.0
  0
LINE
  5
3229
  8
AM_0
 10
257.11368596495402
 20
814.31816477576479
 30
0.0
 11
231.61368596495399
 21
814.31816477576479
 31
0.0
  0
LINE
  5
322A
  8
AM_0
 10
257.11368596495402
 20
793.5171385200058
 30
0.0
 11
203.11368596495399
 21
793.5171385200058
 31
0.0
  0
LINE
  5
322B
  8
AM_0
 10
257.11368596495402
 20
796.92473951871239
 30
0.0
 11
203.11368596495399
 21
796.92473951871239
 31
0.0
  0
LINE
  5
322C
  8
AM_0
 10
201.11368596495399
 20
812.3181647757649
 30
0.0
 11
201.11368596495399
 21
795.5171385200058
 31
0.0
  0
ARC
  5
322D
  8
AM_0
 10
203.11368596495399
 20
798.92473951871204
 30
0.0
 40
2.0
 50
180.0
 51
270.0
1001
GENIUS_GENODEF_13
1002
{
1000
HIER
1070
     0
1002
}
1002
{
1000
MANEDIT
1070
     0
1002
}
1002
{
1000
NOSEL
1070
     0
1002
}
1002
{
1000
BEHIND
1070
     0
1002
}
1002
{
1000
OTHER
1070
     0
1002
}
1002
{
1000
REACTOR
1002
}
1001
GENIUS_GENOBJ-N-FIL_13
1002
{
1000
OWNER
1000
GEN
1002
}
  0
ARC
  5
322E
  8
AM_0
 10
203.11368596495399
 20
795.5171385200058
 30
0.0
 40
2.0
 50
180.0
 51
270.0
1001
GENIUS_GENOBJ-N-FIL_13
1002
{
1000
OWNER
1000
GEN
1002
}
1001
GENIUS_GENODEF_13
1002
{
1000
HIER
1070
     0
1002
}
1002
{
1000
MANEDIT
1070
     0
1002
}
1002
{
1000
NOSEL
1070
     0
1002
}
1002
{
1000
BEHIND
1070
     0
1002
}
1002
{
1000
OTHER
1070
     0
1002
}
1002
{
1000
REACTOR
1002
}
  0
LINE
  5
322F
  8
AM_0
 10
197.6136859649541
 20
808.97713774894385
 30
0.0
 11
201.11368596495399
 21
808.97713774894385
 31
0.0
  0
ARC
  5
3230
  8
AM_0
 10
193.6136859649541
 20
815.67900562032332
 30
0.0
 40
2.0
 50
0.0
 51
48.366460663434943
1001
GENIUS_GENOBJ-N-FIL_13
1002
{
1000
OWNER
1000
GEN
1002
}
1001
GENIUS_GENODEF_13
1002
{
1000
HIER
1070
     0
1002
}
1002
{
1000
MANEDIT
1070
     0
1002
}
1002
{
1000
NOSEL
1070
     0
1002
}
1002
{
1000
BEHIND
1070
     0
1002
}
1002
{
1000
OTHER
1070
     0
1002
}
1002
{
1000
REACTOR
1002
}
  0
ARC
  5
3231
  8
AM_0
 10
197.6136859649541
 20
810.97713774894385
 30
0.0
 40
2.0
 50
180.0
 51
270.0
1001
GENIUS_GENOBJ-N-FIL_13
1002
{
1000
OWNER
1000
GEN
1002
}
1001
GENIUS_GENODEF_13
1002
{
1000
HIER
1070
     0
1002
}
1002
{
1000
MANEDIT
1070
     0
1002
}
1002
{
1000
NOSEL
1070
     0
1002
}
1002
{
1000
BEHIND
1070
     0
1002
}
1002
{
1000
OTHER
1070
     0
1002
}
1002
{
1000
REACTOR
1002
}
  0
ARC
  5
3232
  8
AM_0
 10
193.11368596495399
 20
821.47526987756464
 30
0.0
 40
2.0
 50
180.0
 51
228.36646066343491
1001
GENIUS_GENODEF_13
1002
{
1000
HIER
1070
     0
1002
}
1002
{
1000
MANEDIT
1070
     0
1002
}
1002
{
1000
NOSEL
1070
     0
1002
}
1002
{
1000
BEHIND
1070
     0
1002
}
1002
{
1000
OTHER
1070
     0
1002
}
1002
{
1000
REACTOR
1002
}
1001
GENIUS_GENOBJ-N-FIL_13
1002
{
1000
OWNER
1000
GEN
1002
}
  0
LINE
  5
3233
  8
AM_0
 10
194.9424136426139
 20
817.17382425769085
 30
0.0
 11
191.7849582872941
 21
819.98045124019711
 31
0.0
  0
ARC
  5
3234
  8
AM_0
 10
183.11368596495399
 20
857.57713774894398
 30
0.0
 40
3.0
 50
180.0
 51
270.0
1001
GENIUS_GENODEF_13
1002
{
1000
HIER
1070
     0
1002
}
1002
{
1000
MANEDIT
1070
     0
1002
}
1002
{
1000
NOSEL
1070
     0
1002
}
1002
{
1000
BEHIND
1070
     0
1002
}
1002
{
1000
OTHER
1070
     0
1002
}
1002
{
1000
REACTOR
1002
}
1001
GENIUS_GENOBJ-N-FIL_13
1002
{
1000
OWNER
1000
GEN
1002
}
  0
LINE
  5
3235
  8
AM_0
 10
183.11368596495399
 20
854.57713774894398
 30
0.0
 11
189.82632076599609
 21
854.57713774894398
 31
0.0
  0
LINE
  5
3236
  8
AM_0N
 10
215.61368596495399
 20
814.73456047775585
 30
0.0
 11
231.61368596495399
 21
814.73456047775585
 31
0.0
1001
GENIUS_GENOREF_13
1005
0
  0
LINE
  5
3237
  8
AM_0
 10
231.6136859649541
 20
818.28634476947491
 30
0.0
 11
215.61368596495399
 21
818.28634476947491
 31
0.0
1001
GENIUS_GENOREF_13
1005
325C
  0
LINE
  5
3238
  8
AM_0
 10
219.61368596495399
 20
805.42754181624912
 30
0.0
 11
215.61368596495399
 21
805.42754181624912
 31
0.0
  0
LINE
  5
3239
  8
AM_0
 10
215.61368596495399
 20
818.28634476947491
 30
0.0
 11
215.61368596495399
 21
805.42754181624912
 31
0.0
  0
LINE
  5
323A
  8
AM_0
 10
215.61368596495399
 20
814.31816477576479
 30
0.0
 11
203.11368596495399
 21
814.31816477576479
 31
0.0
  0
ARC
  5
323B
  8
AM_0
 10
203.11368596495399
 20
812.3181647757649
 30
0.0
 40
2.0
 50
90.0
 51
180.0
1001
GENIUS_GENOBJ-N-FIL_13
1002
{
1000
OWNER
1000
GEN
1002
}
1001
GENIUS_GENODEF_13
1002
{
1000
HIER
1070
     0
1002
}
1002
{
1000
MANEDIT
1070
     0
1002
}
1002
{
1000
NOSEL
1070
     0
1002
}
1002
{
1000
BEHIND
1070
     0
1002
}
1002
{
1000
OTHER
1070
     0
1002
}
1002
{
1000
REACTOR
1002
}
  0
LINE
  5
323C
  8
AM_0
 10
231.61368596495399
 20
818.28634476947491
 30
0.0
 11
231.6136859649541
 21
805.42754181624912
 31
0.0
  0
LINE
  5
323D
  8
AM_3N
  6
AM_ISO02W050X2
 10
225.11368596495399
 20
812.56486447067141
 30
0.0
 11
223.61368596495399
 21
814.45227449923004
 31
0.0
1001
GENIUS_GENOREF_13
1005
0
  0
LINE
  5
323E
  8
AM_0
 10
227.6136859649541
 20
810.70360461475821
 30
0.0
 11
219.61368596495399
 21
810.70360461475821
 31
0.0
  0
ARC
  5
323F
  8
AM_0N
 10
223.61368596495399
 20
817.33456047775599
 30
0.0
 40
5.0
 50
246.4528627629243
 51
293.54713723707567
1001
GENIUS_GENOREF_13
1005
0
  0
LINE
  5
3240
  8
AM_3N
  6
AM_ISO02W050X2
 10
223.36118596495399
 20
812.340940172807
 30
0.0
 11
223.36118596495399
 21
814.13456047775605
 31
0.0
1001
GENIUS_GENOREF_13
1005
0
  0
LINE
  5
3241
  8
AM_3N
  6
AM_ISO02W050X2
 10
223.86618596495401
 20
812.340940172807
 30
0.0
 11
223.86618596495401
 21
814.13456047775605
 31
0.0
1001
GENIUS_GENOREF_13
1005
0
  0
LINE
  5
3242
  8
AM_3N
  6
AM_ISO02W050X2
 10
222.11368596495399
 20
812.56486447067141
 30
0.0
 11
223.61368596495399
 21
814.45227449923004
 31
0.0
1001
GENIUS_GENOREF_13
1005
0
  0
LINE
  5
3243
  8
AM_3N
  6
AM_ISO02W050X2
 10
223.86618596495401
 20
814.13456047775605
 30
0.0
 11
223.36118596495399
 21
814.13456047775605
 31
0.0
1001
GENIUS_GENOREF_13
1005
0
  0
ARC
  5
3244
  8
AM_0N
 10
222.0955730479638
 20
813.85097996752415
 30
0.0
 40
1.1999999999999991
 50
184.99999999999969
 51
246.4528627629243
1001
GENIUS_GENOREF_13
1005
0
  0
LINE
  5
3245
  8
AM_0N
 10
220.9001394102537
 20
813.7463930762267
 30
0.0
 11
220.813685964954
 21
814.73456047775585
 31
0.0
1001
GENIUS_GENOREF_13
1005
0
  0
LINE
  5
3246
  8
AM_0
 10
219.61368596495399
 20
814.73456047775585
 30
0.0
 11
219.61368596495399
 21
805.42754181624912
 31
0.0
  0
ARC
  5
3247
  8
AM_0N
 10
225.13179888194429
 20
813.85097996752415
 30
0.0
 40
1.1999999999999991
 50
293.54713723707567
 51
355.00000000000023
1001
GENIUS_GENOREF_13
1005
0
  0
LINE
  5
3248
  8
AM_0N
 10
226.32723251965439
 20
813.7463930762267
 30
0.0
 11
226.413685964954
 21
814.73456047775585
 31
0.0
1001
GENIUS_GENOREF_13
1005
0
  0
LINE
  5
3249
  8
AM_0
 10
231.6136859649541
 20
805.42754181624912
 30
0.0
 11
227.6136859649541
 21
805.42754181624912
 31
0.0
  0
LINE
  5
324A
  8
AM_0
 10
227.6136859649541
 20
814.73456047775585
 30
0.0
 11
227.6136859649541
 21
805.42754181624912
 31
0.0
  0
LINE
  5
324B
  8
AM_0
 10
259.11368596495402
 20
808.97713774894385
 30
0.0
 11
341.11368596495407
 21
808.97713774894385
 31
0.0
  0
LINE
  5
324C
  8
AM_0
 10
259.11368596495402
 20
812.3181647757649
 30
0.0
 11
259.11368596495402
 21
795.5171385200058
 31
0.0
  0
ARC
  5
324D
  8
AM_0
 10
257.11368596495402
 20
798.9247395187125
 30
0.0
 40
2.0
 50
270.0
 51
0.0
1001
GENIUS_GENOBJ-N-FIL_13
1002
{
1000
OWNER
1000
GEN
1002
}
1001
GENIUS_GENODEF_13
1002
{
1000
HIER
1070
     0
1002
}
1002
{
1000
MANEDIT
1070
     0
1002
}
1002
{
1000
NOSEL
1070
     0
1002
}
1002
{
1000
BEHIND
1070
     0
1002
}
1002
{
1000
OTHER
1070
     0
1002
}
1002
{
1000
REACTOR
1002
}
  0
ARC
  5
324E
  8
AM_0
 10
257.11368596495402
 20
795.5171385200058
 30
0.0
 40
2.0
 50
270.0
 51
0.0
1001
GENIUS_GENOBJ-N-FIL_13
1002
{
1000
OWNER
1000
GEN
1002
}
1001
GENIUS_GENODEF_13
1002
{
1000
HIER
1070
     0
1002
}
1002
{
1000
MANEDIT
1070
     0
1002
}
1002
{
1000
NOSEL
1070
     0
1002
}
1002
{
1000
BEHIND
1070
     0
1002
}
1002
{
1000
OTHER
1070
     0
1002
}
1002
{
1000
REACTOR
1002
}
  0
ARC
  5
324F
  8
AM_0
 10
257.11368596495402
 20
812.3181647757649
 30
0.0
 40
2.0
 50
0.0
 51
90.0
1001
GENIUS_GENODEF_13
1002
{
1000
HIER
1070
     0
1002
}
1002
{
1000
MANEDIT
1070
     0
1002
}
1002
{
1000
NOSEL
1070
     0
1002
}
1002
{
1000
BEHIND
1070
     0
1002
}
1002
{
1000
OTHER
1070
     0
1002
}
1002
{
1000
REACTOR
1002
}
1001
GENIUS_GENOBJ-N-FIL_13
1002
{
1000
OWNER
1000
GEN
1002
}
  0
LINE
  5
3250
  8
AM_0
 10
341.11368596495407
 20
808.5771377489441
 30
0.0
 11
352.61368596495407
 21
808.5771377489441
 31
0.0
  0
LINE
  5
3251
  8
AM_0
 10
359.61368596495407
 20
811.5771377489441
 30
0.0
 11
352.61368596495407
 21
808.5771377489441
 31
0.0
  0
LINE
  5
3252
  8
AM_0
 10
197.6136859649541
 20
940.17713774894366
 30
0.0
 11
341.11368596495419
 21
940.17713774894366
 31
0.0
  0
ARC
  5
3253
  8
AM_0
 10
183.1136859649541
 20
891.57713774894364
 30
0.0
 40
3.0
 50
90.0
 51
180.0
1001
GENIUS_GENOBJ-N-FIL_13
1002
{
1000
OWNER
1000
GEN
1002
}
1001
GENIUS_GENODEF_13
1002
{
1000
HIER
1070
     0
1002
}
1002
{
1000
MANEDIT
1070
     0
1002
}
1002
{
1000
NOSEL
1070
     0
1002
}
1002
{
1000
BEHIND
1070
     0
1002
}
1002
{
1000
OTHER
1070
     0
1002
}
1002
{
1000
REACTOR
1002
}
  0
LINE
  5
3254
  8
AM_0
 10
183.1136859649541
 20
894.57713774894387
 30
0.0
 11
189.82632076599609
 21
894.57713774894387
 31
0.0
  0
ARC
  5
3255
  8
AM_0
 10
193.1136859649541
 20
927.67900562032344
 30
0.0
 40
2.0
 50
131.63353933656501
 51
180.0
1001
GENIUS_GENODEF_13
1002
{
1000
HIER
1070
     0
1002
}
1002
{
1000
MANEDIT
1070
     0
1002
}
1002
{
1000
NOSEL
1070
     0
1002
}
1002
{
1000
BEHIND
1070
     0
1002
}
1002
{
1000
OTHER
1070
     0
1002
}
1002
{
1000
REACTOR
1002
}
1001
GENIUS_GENOBJ-N-FIL_13
1002
{
1000
OWNER
1000
GEN
1002
}
  0
LINE
  5
3256
  8
AM_0
 10
194.9424136426139
 20
931.98045124019711
 30
0.0
 11
191.7849582872941
 21
929.17382425769085
 31
0.0
  0
ARC
  5
3257
  8
AM_0
 10
193.6136859649541
 20
933.4752698775643
 30
0.0
 40
2.0
 50
311.63353933656509
 51
0.0
1001
GENIUS_GENOBJ-N-FIL_13
1002
{
1000
OWNER
1000
GEN
1002
}
1001
GENIUS_GENODEF_13
1002
{
1000
HIER
1070
     0
1002
}
1002
{
1000
MANEDIT
1070
     0
1002
}
1002
{
1000
NOSEL
1070
     0
1002
}
1002
{
1000
BEHIND
1070
     0
1002
}
1002
{
1000
OTHER
1070
     0
1002
}
1002
{
1000
REACTOR
1002
}
  0
ARC
  5
3258
  8
AM_0
 10
197.6136859649541
 20
938.17713774894389
 30
0.0
 40
2.0
 50
90.0
 51
180.0
1001
GENIUS_GENOBJ-N-FIL_13
1002
{
1000
OWNER
1000
GEN
1002
}
1001
GENIUS_GENODEF_13
1002
{
1000
HIER
1070
     0
1002
}
1002
{
1000
MANEDIT
1070
     0
1002
}
1002
{
1000
NOSEL
1070
     0
1002
}
1002
{
1000
BEHIND
1070
     0
1002
}
1002
{
1000
OTHER
1070
     0
1002
}
1002
{
1000
REACTOR
1002
}
  0
LINE
  5
3259
  8
AM_0
 10
341.11368596495407
 20
940.57713774894421
 30
0.0
 11
352.61368596495407
 21
940.57713774894421
 31
0.0
  0
LINE
  5
325A
  8
AM_0
 10
352.61368596495407
 20
940.57713774894421
 30
0.0
 11
359.61368596495407
 21
937.57713774894398
 31
0.0
  0
LINE
  5
325B
  8
AM_0
 10
359.61368596495407
 20
937.57713774894398
 30
0.0
 11
359.61368596495407
 21
811.5771377489441
 31
0.0
  0
POINT
  5
325C
  8
0
 10
73.739447363645695
 20
373.0342454891304
 30
0.0
1001
GENIUS_GENOLIS_13
1002
{
1000
ENT
1005
0
1005
0
1005
0
1005
3237
1002
}
1001
GENIUS_GENOENT_13
1002
{
1000
MYREF
1005
325C
1002
}
1002
{
1000
GRP
1005
0
1002
}
1001
GENIUS_GENOBJ-NBEHI-BHB_13
1002
{
1000
OWNER
1000
genbehi
1002
}
1001
GENIUS_GENBH_13
1002
{
1000
FGO
1005
0
1002
}
1001
GENIUS_GENODEF_13
1002
{
1000
HIER
1070
     1
1002
}
1002
{
1000
MANEDIT
1070
     1
1002
}
1002
{
1000
NOSEL
1070
     1
1002
}
1002
{
1000
BEHIND
1070
     0
1002
}
1002
{
1000
OTHER
1070
     1
1002
}
1002
{
1000
REACTOR
1002
}
  0
LINE
  5
3525
  8
AM_0
 10
341.11375596495418
 20
496.39680571371599
 30
0.0
 11
341.11375596495418
 21
364.39680571371599
 31
0.0
  0
LINE
  5
3526
  8
AM_0
 10
352.61375596495429
 20
496.39680571371599
 30
0.0
 11
352.61375596495429
 21
364.39680571371599
 31
0.0
  0
LINE
  5
3527
  8
AM_0
 10
198.11375596495421
 20
495.99680571371579
 30
0.0
 11
198.11375596495421
 21
364.79680571371591
 31
0.0
  0
LINE
  5
3528
  8
AM_0
 10
195.61375596495429
 20
493.99680571371618
 30
0.0
 11
195.61375596495421
 21
366.79680571371603
 31
0.0
  0
LINE
  5
3529
  8
AM_0
 10
191.11375596495421
 20
483.4986735850955
 30
0.0
 11
191.11375596495421
 21
377.29493784233659
 31
0.0
  0
ARC
  5
352A
  8
AM_0
 10
1130.299879774773
 20
430.39680571371582
 30
0.0
 40
940.68612380981915
 50
176.76392470776159
 51
183.2360752922383
  0
ARC
  5
352F
  8
AM_0
 10
404.71685596495422
 20
473.39682321371612
 30
0.0
 40
3.0000000500000001
 50
315.0
 51
90.00000299999769
  0
LINE
  5
3530
  8
AM_0
 10
359.61375596495418
 20
367.39680571371611
 30
0.0
 11
359.61375596495418
 21
493.39680571371599
 31
0.0
  0
LINE
  5
3531
  8
AM_0
 10
433.6137559649539
 20
384.39681821371602
 30
0.0
 11
433.6137559649539
 21
532.39682321371595
 31
0.0
  0
LINE
  5
3532
  8
AM_0
 10
423.61375596495418
 20
387.28433321371602
 30
0.0
 11
423.61375596495418
 21
527.96273821371585
 31
0.0
  0
LINE
  5
3533
  8
AM_0
 10
482.11375596495418
 20
363.17101821371602
 30
0.0
 11
482.11375596495418
 21
586.01145821371597
 31
0.0
  0
LINE
  5
3534
  8
AM_0
 10
468.113805964954
 20
346.94924821371598
 30
0.0
 11
468.113805964954
 21
586.39685821371575
 31
0.0
  0
LINE
  5
3535
  8
AM_0
 10
613.11380596495428
 20
496.39679321371591
 30
0.0
 11
613.11380596495428
 21
462.63943821371589
 31
0.0
  0
LINE
  5
3536
  8
AM_0
 10
585.11375596495441
 20
399.99465821371598
 30
0.0
 11
585.11375596495441
 21
572.24220821371603
 31
0.0
  0
LINE
  5
3537
  8
AM_0
 10
607.11375596495418
 20
496.39679321371591
 30
0.0
 11
607.11375596495418
 21
350.14279321371612
 31
0.0
  0
LINE
  5
3538
  8
AM_0
 10
565.11375596495429
 20
530.56967321371587
 30
0.0
 11
565.11375596495429
 21
354.39681821371602
 31
0.0
  0
LINE
  5
3539
  8
AM_0
 10
515.51050596495452
 20
478.88436821371602
 30
0.0
 11
527.64910596495429
 21
464.97094821371599
 31
0.0
  0
LINE
  5
353A
  8
AM_0
 10
495.11375596495418
 20
379.94518821371599
 30
0.0
 11
495.11375596495418
 21
588.39680821371564
 31
0.0
  0
LINE
  5
353C
  8
AM_0
 10
197.61375596495421
 20
364.79680571371591
 30
0.0
 11
341.11375596495418
 21
364.79680571371591
 31
0.0
  0
LINE
  5
353D
  8
ﾁｭｳｼﾝｾﾝ
 10
464.31814506377373
 20
430.39681821371568
 30
0.0
 11
175.2286071062112
 21
430.39681821371579
 31
0.0
  0
LINE
  5
353E
  8
ﾁｭｳｼﾝｾﾝ
 10
249.11375596495421
 20
411.71717692208301
 30
0.0
 11
249.11375596495421
 21
335.12312848701708
 31
0.0
  0
ARC
  5
353F
  8
AM_0
 10
197.61375596495421
 20
366.79680571371603
 30
0.0
 40
2.0
 50
180.0
 51
270.0
1001
GENIUS_GENOBJ-N-FIL_13
1002
{
1000
OWNER
1000
GEN
1002
}
1001
GENIUS_GENODEF_13
1002
{
1000
HIER
1070
     0
1002
}
1002
{
1000
MANEDIT
1070
     0
1002
}
1002
{
1000
NOSEL
1070
     0
1002
}
1002
{
1000
BEHIND
1070
     0
1002
}
1002
{
1000
OTHER
1070
     0
1002
}
1002
{
1000
REACTOR
1002
}
  0
LINE
  5
3540
  8
AM_0
 10
194.94248364261409
 20
372.99349222246292
 30
0.0
 11
191.78502828729441
 21
375.80011920496918
 31
0.0
  0
ARC
  5
3541
  8
AM_0
 10
193.61375596495421
 20
371.4986735850955
 30
0.0
 40
2.0
 50
0.0
 51
48.36646066343252
1001
GENIUS_GENOBJ-N-FIL_13
1002
{
1000
OWNER
1000
GEN
1002
}
1001
GENIUS_GENODEF_13
1002
{
1000
HIER
1070
     0
1002
}
1002
{
1000
MANEDIT
1070
     0
1002
}
1002
{
1000
NOSEL
1070
     0
1002
}
1002
{
1000
BEHIND
1070
     0
1002
}
1002
{
1000
OTHER
1070
     0
1002
}
1002
{
1000
REACTOR
1002
}
  0
ARC
  5
3542
  8
AM_0
 10
193.11375596495421
 20
377.29493784233659
 30
0.0
 40
2.0
 50
180.0
 51
228.36646066343241
1001
GENIUS_GENODEF_13
1002
{
1000
HIER
1070
     0
1002
}
1002
{
1000
MANEDIT
1070
     0
1002
}
1002
{
1000
NOSEL
1070
     0
1002
}
1002
{
1000
BEHIND
1070
     0
1002
}
1002
{
1000
OTHER
1070
     0
1002
}
1002
{
1000
REACTOR
1002
}
1001
GENIUS_GENOBJ-N-FIL_13
1002
{
1000
OWNER
1000
GEN
1002
}
  0
LINE
  5
3543
  8
AM_0
 10
247.39921096495411
 20
343.90962875100439
 30
0.0
 11
247.39318396495409
 21
350.20635065100453
 31
0.0
  0
LINE
  5
3544
  8
AM_0
 10
244.40370496495419
 20
345.28548883685102
 30
0.0
 11
244.39767796495411
 21
351.58221073685098
 31
0.0
  0
LINE
  5
3545
  8
AM_0
 10
250.82525596495429
 20
350.20891265100443
 30
0.0
 11
250.83124096495411
 21
343.9121613510045
 31
0.0
  0
LINE
  5
3546
  8
AM_0
 10
253.8148189649543
 20
345.28548883685102
 30
0.0
 11
253.82084596495429
 21
351.58221073685098
 31
0.0
  0
ARC
  5
3547
  8
ｽﾝﾎ_ｳｾﾝ
 10
252.10027396495411
 20
340.87785763685088
 30
0.0
 40
1.5050001119999981
 50
241.0912951394732
 51
145.91822575961609
  0
LINE
  5
3548
  8
AM_0
 10
253.25441296495421
 20
345.28431493685088
 30
0.0
 11
252.0986569649541
 21
345.28324603685098
 31
0.0
  0
ARC
  5
3549
  8
AM_0
 10
252.05982796495411
 20
340.87792273685091
 30
0.0
 40
2.3091486599999991
 50
249.12780385311081
 51
15.094728000000879
  0
LINE
  5
354A
  8
AM_0
 10
250.2711079649541
 20
343.90632755100438
 30
0.0
 11
251.37087796495439
 21
340.14891305100451
 31
0.0
  0
LINE
  5
354B
  8
AM_0
 10
250.83128296495411
 20
343.91219285100442
 30
0.0
 11
250.27114996495411
 21
343.90635065100457
 31
0.0
  0
LINE
  5
354C
  8
AM_0
 10
250.54100948019621
 20
343.90903525229692
 30
0.0
 11
250.3947028128066
 21
343.40917183222189
 31
0.0
  0
LINE
  5
354D
  8
AM_0
 10
250.94292196495431
 20
345.28218763685089
 30
0.0
 11
250.82022548823281
 21
344.86298951294111
 31
0.0
  0
LINE
  5
354E
  8
AM_0
 10
252.0986569649541
 20
345.28324603685098
 30
0.0
 11
250.82062661161311
 21
345.28206407299052
 31
0.0
  0
LINE
  5
354F
  8
AM_0
 10
247.95961696495411
 20
343.90847585100448
 30
0.0
 11
246.92475796495421
 21
340.10343125100439
 31
0.0
  0
LINE
  5
3550
  8
AM_0
 10
247.95961696495411
 20
343.90845485100459
 30
0.0
 11
247.3992529649542
 21
343.9096077510045
 31
0.0
  0
LINE
  5
3551
  8
AM_0
 10
247.95961696495411
 20
343.90845485100459
 30
0.0
 11
249.1153729649541
 21
343.90738595100458
 31
0.0
  0
LINE
  5
3552
  8
AM_0
 10
247.27560196495409
 20
345.28218763685089
 30
0.0
 11
247.39829844167571
 21
344.86298951294111
 31
0.0
  0
LINE
  5
3553
  8
AM_0
 10
247.67751444971231
 20
343.90903525229692
 30
0.0
 11
247.82382111710169
 21
343.40917183222189
 31
0.0
  0
LINE
  5
3554
  8
AM_0
 10
244.96411096495419
 20
345.28433593685099
 30
0.0
 11
243.9292519649542
 21
341.47929133685091
 31
0.0
  0
LINE
  5
3555
  8
AM_0
 10
244.96411096495419
 20
345.28431493685088
 30
0.0
 11
244.40374696495431
 21
345.28546783685101
 31
0.0
  0
LINE
  5
3556
  8
AM_0
 10
244.96411096495419
 20
345.28431493685088
 30
0.0
 11
246.1198669649541
 21
345.28324603685098
 31
0.0
  0
ARC
  5
3557
  8
AM_0
 10
246.1586959649544
 20
340.87792273685091
 30
0.0
 40
2.3091486599999991
 50
164.90527199999909
 51
290.87219614688911
  0
ARC
  5
3558
  8
ｽﾝﾎ_ｳｾﾝ
 10
246.1182499649542
 20
340.87785763685088
 30
0.0
 40
1.5050001119999981
 50
34.081774240383801
 51
298.90870486052683
  0
LINE
  5
3559
  8
AM_0
 10
246.1198669649541
 20
345.28324603685098
 30
0.0
 11
247.39789731829541
 21
345.28206407299052
 31
0.0
  0
ARC
  5
355A
  8
AM_0
 10
249.1542019649543
 20
339.50206265100451
 30
0.0
 40
2.3091486599999991
 50
164.90527199999909
 51
16.267320000001838
  0
CIRCLE
  5
355B
  8
ｽﾝﾎ_ｳｾﾝ
 10
249.11375596495421
 20
339.50199755100459
 30
0.0
 40
1.5050001119999981
  0
LINE
  5
355C
  8
AM_0
 10
249.1153729649541
 20
343.90738595100458
 30
0.0
 11
250.27114996495411
 21
343.90631705100441
 31
0.0
  0
LINE
  5
355D
  8
AM_0
 10
253.25441296495421
 20
345.28433593685099
 30
0.0
 11
254.2892719649542
 21
341.47929133685091
 31
0.0
  0
LINE
  5
355E
  8
AM_0
 10
253.25441296495421
 20
345.28431493685088
 30
0.0
 11
253.81477696495409
 21
345.28546783685101
 31
0.0
  0
LINE
  5
355F
  8
AM_0
 10
253.82084596495429
 20
351.58221073685098
 30
0.0
 11
250.38877275236629
 21
351.58349698685089
 31
0.0
  0
POLYLINE
  5
3560
  8
AM_4
 66
     1
 10
0.0
 20
0.0
 30
0.0
 70
     4
  0
VERTEX
  5
3561
  8
AM_4
 10
245.11375596495421
 20
355.57170534828902
 30
0.0
 70
    16
  0
VERTEX
  5
3562
  8
AM_4
 10
245.11375596495421
 20
355.57170534828902
 30
0.0
 70
     8
  0
VERTEX
  5
3563
  8
AM_4
 10
246.20477118936671
 20
356.15349532437648
 30
0.0
 70
     8
  0
VERTEX
  5
3564
  8
AM_4
 10
247.23830816294051
 20
356.18396492700401
 30
0.0
 70
     8
  0
VERTEX
  5
3565
  8
AM_4
 10
248.23010383617861
 20
355.85760985234452
 30
0.0
 70
     8
  0
VERTEX
  5
3566
  8
AM_4
 10
249.19589515958461
 20
355.36892579657081
 30
0.0
 70
     8
  0
VERTEX
  5
3567
  8
AM_4
 10
250.15141908366161
 20
354.91240845585571
 30
0.0
 70
     8
  0
VERTEX
  5
3568
  8
AM_4
 10
251.11241255891329
 20
354.68255352637198
 30
0.0
 70
     8
  0
VERTEX
  5
3569
  8
AM_4
 10
252.094612535843
 20
354.87385670429262
 30
0.0
 70
     8
  0
VERTEX
  5
356A
  8
AM_4
 10
253.11375596495421
 20
355.68081368579038
 30
0.0
 70
     8
  0
VERTEX
  5
356B
  8
AM_4
 10
248.11375596495421
 20
358.03112417906669
 30
0.0
 70
    16
  0
VERTEX
  5
356C
  8
AM_4
 10
250.33279381730179
 20
352.53517160042878
 30
0.0
 70
    16
  0
VERTEX
  5
356D
  8
AM_4
 10
253.11375596495421
 20
355.68081368579038
 30
0.0
 70
    16
  0
SEQEND
  5
356E
  8
AM_4
  0
LINE
  5
356F
  8
AM_0
 10
250.11375596495421
 20
354.93040263304169
 30
0.0
 11
250.11375596495421
 21
350.20838367043149
 31
0.0
  0
LINE
  5
3570
  8
AM_0
 10
250.388773964954
 20
351.58477273685088
 30
0.0
 11
250.387464107721
 21
350.20668664915428
 31
0.0
  0
LINE
  5
3571
  8
AM_0
 10
251.11241255891329
 20
354.68255352637198
 30
0.0
 11
251.10476796495419
 21
351.58322865083778
 31
0.0
  0
LINE
  5
3572
  8
AM_0
 10
248.11375596495421
 20
355.8958946717126
 30
0.0
 11
248.11375596495421
 21
350.2068968135124
 31
0.0
  0
LINE
  5
3573
  8
AM_0
 10
247.11375596495421
 20
356.18029301581362
 30
0.0
 11
247.11375596495421
 21
351.58322865083778
 31
0.0
  0
LINE
  5
3574
  8
AM_0
 10
247.82974996495429
 20
351.58477273685088
 30
0.0
 11
247.8310598221874
 21
350.20668664915428
 31
0.0
  0
LINE
  5
3575
  8
AM_0
 10
245.11375596495421
 20
355.57170534828902
 30
0.0
 11
245.11375596495421
 21
351.58247910389048
 31
0.0
  0
LINE
  5
3576
  8
AM_0
 10
244.39767796495411
 20
351.58221073685098
 30
0.0
 11
247.82975117754219
 21
351.58349698685089
 31
0.0
  0
LINE
  5
3577
  8
AM_0
 10
247.3932259649541
 20
350.20636115100439
 30
0.0
 11
250.82529796495419
 21
350.20891265100443
 31
0.0
  0
LINE
  5
3578
  8
AM_0
 10
253.10476796495419
 20
355.67369699431941
 30
0.0
 11
253.10476796495419
 21
351.58247910389048
 31
0.0
  0
LINE
  5
3579
  8
AM_0
 10
224.11375596495421
 20
378.49680571371613
 30
0.0
 11
247.11375596495421
 21
378.49680571371613
 31
0.0
  0
LINE
  5
357A
  8
AM_0
 10
224.11375596495421
 20
374.19680571371589
 30
0.0
 11
247.11375596495421
 21
374.19680571371589
 31
0.0
  0
LINE
  5
357B
  8
AM_0
 10
224.11375596495421
 20
368.09680571371598
 30
0.0
 11
247.11375596495421
 21
368.09680571371598
 31
0.0
  0
LINE
  5
357C
  8
AM_0
 10
224.11375596495421
 20
370.696805713716
 30
0.0
 11
247.11375596495421
 21
370.696805713716
 31
0.0
  0
LINE
  5
357D
  8
AM_0
 10
224.11375596495421
 20
396.39680571371611
 30
0.0
 11
247.11375596495421
 21
396.39680571371611
 31
0.0
  0
LINE
  5
357E
  8
AM_0
 10
224.11375596495421
 20
390.89680571371599
 30
0.0
 11
247.11375596495421
 21
390.89680571371599
 31
0.0
  0
LINE
  5
357F
  8
AM_0
 10
224.11375596495421
 20
381.99680571371613
 30
0.0
 11
247.11375596495421
 21
381.99680571371613
 31
0.0
  0
LINE
  5
3580
  8
AM_0
 10
224.11375596495421
 20
387.196805713716
 30
0.0
 11
247.11375596495421
 21
387.19680571371612
 31
0.0
  0
ARC
  5
3581
  8
AM_0
 10
224.11375596495421
 20
382.99680571371613
 30
0.0
 40
1.0
 50
180.0
 51
270.0
1001
GENIUS_GENOBJ-N-FIL_13
1002
{
1000
OWNER
1000
GEN
1002
}
1001
GENIUS_GENODEF_13
1002
{
1000
HIER
1070
     0
1002
}
1002
{
1000
MANEDIT
1070
     0
1002
}
1002
{
1000
NOSEL
1070
     0
1002
}
1002
{
1000
BEHIND
1070
     0
1002
}
1002
{
1000
OTHER
1070
     0
1002
}
1002
{
1000
REACTOR
1002
}
  0
LINE
  5
3582
  8
AM_0
 10
223.11375596495421
 20
377.49680571371613
 30
0.0
 11
223.11375596495421
 21
375.196805713716
 31
0.0
  0
LINE
  5
3583
  8
AM_0
 10
223.11375596495421
 20
369.69680571371589
 30
0.0
 11
223.11375596495421
 21
369.09680571371609
 31
0.0
  0
ARC
  5
3584
  8
AM_0
 10
224.11375596495421
 20
369.69680571371589
 30
0.0
 40
1.0
 50
90.0
 51
180.0
1001
GENIUS_GENOBJ-N-FIL_13
1002
{
1000
OWNER
1000
GEN
1002
}
1001
GENIUS_GENODEF_13
1002
{
1000
HIER
1070
     0
1002
}
1002
{
1000
MANEDIT
1070
     0
1002
}
1002
{
1000
NOSEL
1070
     0
1002
}
1002
{
1000
BEHIND
1070
     0
1002
}
1002
{
1000
OTHER
1070
     0
1002
}
1002
{
1000
REACTOR
1002
}
  0
ARC
  5
3585
  8
AM_0
 10
224.11375596495421
 20
375.196805713716
 30
0.0
 40
1.0
 50
180.0
 51
270.0
1001
GENIUS_GENOBJ-N-FIL_13
1002
{
1000
OWNER
1000
GEN
1002
}
1001
GENIUS_GENODEF_13
1002
{
1000
HIER
1070
     0
1002
}
1002
{
1000
MANEDIT
1070
     0
1002
}
1002
{
1000
NOSEL
1070
     0
1002
}
1002
{
1000
BEHIND
1070
     0
1002
}
1002
{
1000
OTHER
1070
     0
1002
}
1002
{
1000
REACTOR
1002
}
  0
ARC
  5
3586
  8
AM_0
 10
224.11375596495421
 20
377.49680571371613
 30
0.0
 40
1.0
 50
90.0
 51
180.0
1001
GENIUS_GENODEF_13
1002
{
1000
HIER
1070
     0
1002
}
1002
{
1000
MANEDIT
1070
     0
1002
}
1002
{
1000
NOSEL
1070
     0
1002
}
1002
{
1000
BEHIND
1070
     0
1002
}
1002
{
1000
OTHER
1070
     0
1002
}
1002
{
1000
REACTOR
1002
}
1001
GENIUS_GENOBJ-N-FIL_13
1002
{
1000
OWNER
1000
GEN
1002
}
  0
ARC
  5
3587
  8
AM_0
 10
224.11375596495421
 20
369.09680571371609
 30
0.0
 40
1.0
 50
180.0
 51
270.0
1001
GENIUS_GENODEF_13
1002
{
1000
HIER
1070
     0
1002
}
1002
{
1000
MANEDIT
1070
     0
1002
}
1002
{
1000
NOSEL
1070
     0
1002
}
1002
{
1000
BEHIND
1070
     0
1002
}
1002
{
1000
OTHER
1070
     0
1002
}
1002
{
1000
REACTOR
1002
}
1001
GENIUS_GENOBJ-N-FIL_13
1002
{
1000
OWNER
1000
GEN
1002
}
  0
LINE
  5
3588
  8
AM_0
 10
223.11375596495421
 20
395.39680571371599
 30
0.0
 11
223.11375596495421
 21
391.89680571371611
 31
0.0
  0
ARC
  5
3589
  8
AM_0
 10
224.11375596495421
 20
391.89680571371611
 30
0.0
 40
1.0
 50
180.0
 51
270.0
1001
GENIUS_GENODEF_13
1002
{
1000
HIER
1070
     0
1002
}
1002
{
1000
MANEDIT
1070
     0
1002
}
1002
{
1000
NOSEL
1070
     0
1002
}
1002
{
1000
BEHIND
1070
     0
1002
}
1002
{
1000
OTHER
1070
     0
1002
}
1002
{
1000
REACTOR
1002
}
1001
GENIUS_GENOBJ-N-FIL_13
1002
{
1000
OWNER
1000
GEN
1002
}
  0
ARC
  5
358A
  8
AM_0
 10
224.11375596495421
 20
395.39680571371599
 30
0.0
 40
1.0
 50
90.0
 51
180.0
1001
GENIUS_GENODEF_13
1002
{
1000
HIER
1070
     0
1002
}
1002
{
1000
MANEDIT
1070
     0
1002
}
1002
{
1000
NOSEL
1070
     0
1002
}
1002
{
1000
BEHIND
1070
     0
1002
}
1002
{
1000
OTHER
1070
     0
1002
}
1002
{
1000
REACTOR
1002
}
1001
GENIUS_GENOBJ-N-FIL_13
1002
{
1000
OWNER
1000
GEN
1002
}
  0
ARC
  5
358B
  8
AM_0
 10
224.11375596495421
 20
386.19680571371589
 30
0.0
 40
1.0
 50
90.0
 51
180.0
1001
GENIUS_GENODEF_13
1002
{
1000
HIER
1070
     0
1002
}
1002
{
1000
MANEDIT
1070
     0
1002
}
1002
{
1000
NOSEL
1070
     0
1002
}
1002
{
1000
BEHIND
1070
     0
1002
}
1002
{
1000
OTHER
1070
     0
1002
}
1002
{
1000
REACTOR
1002
}
1001
GENIUS_GENOBJ-N-FIL_13
1002
{
1000
OWNER
1000
GEN
1002
}
  0
LINE
  5
358C
  8
AM_0
 10
223.11375596495421
 20
386.19680571371589
 30
0.0
 11
223.11375596495421
 21
382.99680571371613
 31
0.0
  0
ARC
  5
358D
  8
AM_0
 10
247.11375596495421
 20
382.99680571371613
 30
0.0
 40
1.0
 50
270.0
 51
0.0
1001
GENIUS_GENODEF_13
1002
{
1000
HIER
1070
     0
1002
}
1002
{
1000
MANEDIT
1070
     0
1002
}
1002
{
1000
NOSEL
1070
     0
1002
}
1002
{
1000
BEHIND
1070
     0
1002
}
1002
{
1000
OTHER
1070
     0
1002
}
1002
{
1000
REACTOR
1002
}
1001
GENIUS_GENOBJ-N-FIL_13
1002
{
1000
OWNER
1000
GEN
1002
}
  0
LINE
  5
358E
  8
AM_0
 10
248.11375596495421
 20
377.49680571371613
 30
0.0
 11
248.11375596495421
 21
375.196805713716
 31
0.0
  0
ARC
  5
358F
  8
AM_0
 10
247.11375596495421
 20
369.69680571371589
 30
0.0
 40
1.0
 50
0.0
 51
90.0
1001
GENIUS_GENODEF_13
1002
{
1000
HIER
1070
     0
1002
}
1002
{
1000
MANEDIT
1070
     0
1002
}
1002
{
1000
NOSEL
1070
     0
1002
}
1002
{
1000
BEHIND
1070
     0
1002
}
1002
{
1000
OTHER
1070
     0
1002
}
1002
{
1000
REACTOR
1002
}
1001
GENIUS_GENOBJ-N-FIL_13
1002
{
1000
OWNER
1000
GEN
1002
}
  0
LINE
  5
3590
  8
AM_0
 10
248.11375596495421
 20
369.69680571371589
 30
0.0
 11
248.11375596495421
 21
369.09680571371609
 31
0.0
  0
ARC
  5
3591
  8
AM_0
 10
247.11375596495421
 20
375.196805713716
 30
0.0
 40
1.0
 50
270.0
 51
0.0
1001
GENIUS_GENODEF_13
1002
{
1000
HIER
1070
     0
1002
}
1002
{
1000
MANEDIT
1070
     0
1002
}
1002
{
1000
NOSEL
1070
     0
1002
}
1002
{
1000
BEHIND
1070
     0
1002
}
1002
{
1000
OTHER
1070
     0
1002
}
1002
{
1000
REACTOR
1002
}
1001
GENIUS_GENOBJ-N-FIL_13
1002
{
1000
OWNER
1000
GEN
1002
}
  0
ARC
  5
3592
  8
AM_0
 10
247.11375596495421
 20
377.49680571371613
 30
0.0
 40
1.0
 50
0.0
 51
90.0
1001
GENIUS_GENODEF_13
1002
{
1000
HIER
1070
     0
1002
}
1002
{
1000
MANEDIT
1070
     0
1002
}
1002
{
1000
NOSEL
1070
     0
1002
}
1002
{
1000
BEHIND
1070
     0
1002
}
1002
{
1000
OTHER
1070
     0
1002
}
1002
{
1000
REACTOR
1002
}
1001
GENIUS_GENOBJ-N-FIL_13
1002
{
1000
OWNER
1000
GEN
1002
}
  0
ARC
  5
3593
  8
AM_0
 10
247.11375596495421
 20
369.09680571371609
 30
0.0
 40
1.0
 50
270.0
 51
0.0
1001
GENIUS_GENOBJ-N-FIL_13
1002
{
1000
OWNER
1000
GEN
1002
}
1001
GENIUS_GENODEF_13
1002
{
1000
HIER
1070
     0
1002
}
1002
{
1000
MANEDIT
1070
     0
1002
}
1002
{
1000
NOSEL
1070
     0
1002
}
1002
{
1000
BEHIND
1070
     0
1002
}
1002
{
1000
OTHER
1070
     0
1002
}
1002
{
1000
REACTOR
1002
}
  0
LINE
  5
3594
  8
AM_0
 10
248.11375596495421
 20
395.39680571371599
 30
0.0
 11
248.11375596495421
 21
391.89680571371611
 31
0.0
  0
ARC
  5
3595
  8
AM_0
 10
247.11375596495421
 20
391.89680571371611
 30
0.0
 40
1.0
 50
270.0
 51
0.0
1001
GENIUS_GENODEF_13
1002
{
1000
HIER
1070
     0
1002
}
1002
{
1000
MANEDIT
1070
     0
1002
}
1002
{
1000
NOSEL
1070
     0
1002
}
1002
{
1000
BEHIND
1070
     0
1002
}
1002
{
1000
OTHER
1070
     0
1002
}
1002
{
1000
REACTOR
1002
}
1001
GENIUS_GENOBJ-N-FIL_13
1002
{
1000
OWNER
1000
GEN
1002
}
  0
ARC
  5
3596
  8
AM_0
 10
247.11375596495421
 20
395.39680571371599
 30
0.0
 40
1.0
 50
0.0
 51
90.0
1001
GENIUS_GENOBJ-N-FIL_13
1002
{
1000
OWNER
1000
GEN
1002
}
1001
GENIUS_GENODEF_13
1002
{
1000
HIER
1070
     0
1002
}
1002
{
1000
MANEDIT
1070
     0
1002
}
1002
{
1000
NOSEL
1070
     0
1002
}
1002
{
1000
BEHIND
1070
     0
1002
}
1002
{
1000
OTHER
1070
     0
1002
}
1002
{
1000
REACTOR
1002
}
  0
ARC
  5
3597
  8
AM_0
 10
247.11375596495421
 20
386.19680571371612
 30
0.0
 40
1.0
 50
0.0
 51
90.0
1001
GENIUS_GENODEF_13
1002
{
1000
HIER
1070
     0
1002
}
1002
{
1000
MANEDIT
1070
     0
1002
}
1002
{
1000
NOSEL
1070
     0
1002
}
1002
{
1000
BEHIND
1070
     0
1002
}
1002
{
1000
OTHER
1070
     0
1002
}
1002
{
1000
REACTOR
1002
}
1001
GENIUS_GENOBJ-N-FIL_13
1002
{
1000
OWNER
1000
GEN
1002
}
  0
LINE
  5
3598
  8
AM_0
 10
248.11375596495421
 20
386.19680571371612
 30
0.0
 11
248.11375596495421
 21
382.99680571371613
 31
0.0
  0
LINE
  5
3599
  8
AM_0
 10
202.11375596495421
 20
456.39680571371588
 30
0.0
 11
258.11375596495412
 21
456.39680571371588
 31
0.0
1001
GENIUS_GENOREF_13
1005
3710
  0
LINE
  5
359A
  8
AM_0
 10
202.11375596495421
 20
410.39680571371588
 30
0.0
 11
258.11375596495412
 21
410.39680571371588
 31
0.0
  0
LINE
  5
359B
  8
AM_0
 10
201.11375596495421
 20
455.39680571371611
 30
0.0
 11
201.11375596495421
 21
411.39680571371588
 31
0.0
  0
LINE
  5
359C
  8
AM_0
 10
180.11375596495409
 20
447.39680571371599
 30
0.0
 11
180.11375596495409
 21
413.39680571371599
 31
0.0
  0
LINE
  5
359D
  8
AM_0
 10
183.11375596495421
 20
410.39680571371588
 30
0.0
 11
189.82639076599639
 21
410.39680571371588
 31
0.0
  0
ARC
  5
359E
  8
AM_0
 10
183.11375596495421
 20
413.39680571371599
 30
0.0
 40
3.0
 50
180.0
 51
270.0
1001
GENIUS_GENODEF_13
1002
{
1000
HIER
1070
     0
1002
}
1002
{
1000
MANEDIT
1070
     0
1002
}
1002
{
1000
NOSEL
1070
     0
1002
}
1002
{
1000
BEHIND
1070
     0
1002
}
1002
{
1000
OTHER
1070
     0
1002
}
1002
{
1000
REACTOR
1002
}
1001
GENIUS_GENOBJ-N-FIL_13
1002
{
1000
OWNER
1000
GEN
1002
}
  0
ARC
  5
359F
  8
AM_0
 10
202.11375596495421
 20
411.39680571371588
 30
0.0
 40
1.0
 50
180.0
 51
270.0
1001
GENIUS_GENOBJ-N-FIL_13
1002
{
1000
OWNER
1000
GEN
1002
}
1001
GENIUS_GENODEF_13
1002
{
1000
HIER
1070
     0
1002
}
1002
{
1000
MANEDIT
1070
     0
1002
}
1002
{
1000
NOSEL
1070
     0
1002
}
1002
{
1000
BEHIND
1070
     0
1002
}
1002
{
1000
OTHER
1070
     0
1002
}
1002
{
1000
REACTOR
1002
}
  0
LINE
  5
35A0
  8
AM_0
 10
183.11375596495421
 20
450.39680571371599
 30
0.0
 11
189.82639076599639
 21
450.39680571371599
 31
0.0
  0
ARC
  5
35A1
  8
AM_0
 10
183.11375596495421
 20
447.39680571371599
 30
0.0
 40
3.0
 50
90.0
 51
180.0
1001
GENIUS_GENOBJ-N-FIL_13
1002
{
1000
OWNER
1000
GEN
1002
}
1001
GENIUS_GENODEF_13
1002
{
1000
HIER
1070
     0
1002
}
1002
{
1000
MANEDIT
1070
     0
1002
}
1002
{
1000
NOSEL
1070
     0
1002
}
1002
{
1000
BEHIND
1070
     0
1002
}
1002
{
1000
OTHER
1070
     0
1002
}
1002
{
1000
REACTOR
1002
}
  0
ARC
  5
35A2
  8
AM_0
 10
202.11375596495421
 20
455.39680571371611
 30
0.0
 40
1.0
 50
90.0
 51
180.0
1001
GENIUS_GENODEF_13
1002
{
1000
HIER
1070
     0
1002
}
1002
{
1000
MANEDIT
1070
     0
1002
}
1002
{
1000
NOSEL
1070
     0
1002
}
1002
{
1000
BEHIND
1070
     0
1002
}
1002
{
1000
OTHER
1070
     0
1002
}
1002
{
1000
REACTOR
1002
}
1001
GENIUS_GENOBJ-N-FIL_13
1002
{
1000
OWNER
1000
GEN
1002
}
  0
LINE
  5
35A3
  8
AM_0
 10
259.11375596495412
 20
455.39680571371611
 30
0.0
 11
259.11375596495412
 21
411.39680571371588
 31
0.0
  0
LINE
  5
35A4
  8
AM_0
 10
217.61375596495421
 20
402.39680571371588
 30
0.0
 11
229.61375596495421
 21
402.39680571371588
 31
0.0
  0
CIRCLE
  5
35A5
  8
AM_0N
 10
223.61375596495421
 20
406.39680571371588
 30
0.0
 40
2.799999999999998
  0
LINE
  5
35A6
  8
AM_0N
 10
225.09235115972521
 20
406.14430571371588
 30
0.0
 11
223.86625596495421
 21
406.14430571371588
 31
0.0
  0
LINE
  5
35A7
  8
AM_0N
 10
225.09235115972521
 20
406.6493057137161
 30
0.0
 11
223.86625596495421
 21
406.6493057137161
 31
0.0
  0
LINE
  5
35A8
  8
AM_0N
 10
223.3612559649543
 20
407.87540090848711
 30
0.0
 11
223.86625596495421
 21
407.87540090848711
 31
0.0
  0
LINE
  5
35A9
  8
AM_0N
 10
223.86625596495421
 20
404.91821051894487
 30
0.0
 11
223.86625596495421
 21
406.14430571371588
 31
0.0
  0
LINE
  5
35AA
  8
AM_0N
 10
223.3612559649543
 20
404.91821051894487
 30
0.0
 11
223.3612559649543
 21
406.14430571371588
 31
0.0
  0
LINE
  5
35AB
  8
AM_0N
 10
223.3612559649543
 20
404.91821051894487
 30
0.0
 11
223.86625596495421
 21
404.91821051894487
 31
0.0
  0
LINE
  5
35AC
  8
AM_0N
 10
223.3612559649543
 20
406.6493057137161
 30
0.0
 11
223.3612559649543
 21
407.87540090848711
 31
0.0
  0
LINE
  5
35AD
  8
AM_0N
 10
223.86625596495421
 20
406.6493057137161
 30
0.0
 11
223.86625596495421
 21
407.87540090848711
 31
0.0
  0
LINE
  5
35AE
  8
AM_0N
 10
222.13516077018309
 20
406.6493057137161
 30
0.0
 11
222.13516077018309
 21
406.14430571371588
 31
0.0
  0
LINE
  5
35AF
  8
AM_0N
 10
223.3612559649543
 20
406.14430571371588
 30
0.0
 11
222.13516077018309
 21
406.14430571371588
 31
0.0
  0
LINE
  5
35B0
  8
AM_0N
 10
223.3612559649543
 20
406.6493057137161
 30
0.0
 11
222.13516077018309
 21
406.6493057137161
 31
0.0
  0
LINE
  5
35B1
  8
AM_0
 10
219.61375596495421
 20
402.39680571371588
 30
0.0
 11
219.61375596495421
 21
410.39680571371588
 31
0.0
  0
LINE
  5
35B2
  8
AM_0
 10
215.61375596495421
 20
404.39680571371599
 30
0.0
 11
215.61375596495421
 21
410.39680571371588
 31
0.0
  0
ARC
  5
35B3
  8
AM_0
 10
217.61375596495421
 20
404.39680571371599
 30
0.0
 40
2.0
 50
180.0
 51
270.0
1001
GENIUS_GENOBJ-N-FIL_13
1002
{
1000
OWNER
1000
GEN
1002
}
1001
GENIUS_GENODEF_13
1002
{
1000
HIER
1070
     0
1002
}
1002
{
1000
MANEDIT
1070
     0
1002
}
1002
{
1000
NOSEL
1070
     0
1002
}
1002
{
1000
BEHIND
1070
     0
1002
}
1002
{
1000
OTHER
1070
     0
1002
}
1002
{
1000
REACTOR
1002
}
  0
LINE
  5
35B4
  8
AM_0N
 10
225.09235115972521
 20
406.6493057137161
 30
0.0
 11
225.09235115972521
 21
406.14430571371588
 31
0.0
  0
LINE
  5
35B5
  8
AM_0
 10
231.61375596495421
 20
404.39680571371599
 30
0.0
 11
231.61375596495421
 21
410.39680571371588
 31
0.0
  0
LINE
  5
35B6
  8
AM_0
 10
227.61375596495421
 20
402.39680571371588
 30
0.0
 11
227.61375596495421
 21
410.39680571371588
 31
0.0
  0
ARC
  5
35B7
  8
AM_0
 10
229.61375596495421
 20
404.39680571371599
 30
0.0
 40
2.0
 50
270.0
 51
0.0
1001
GENIUS_GENOBJ-N-FIL_13
1002
{
1000
OWNER
1000
GEN
1002
}
1001
GENIUS_GENODEF_13
1002
{
1000
HIER
1070
     0
1002
}
1002
{
1000
MANEDIT
1070
     0
1002
}
1002
{
1000
NOSEL
1070
     0
1002
}
1002
{
1000
BEHIND
1070
     0
1002
}
1002
{
1000
OTHER
1070
     0
1002
}
1002
{
1000
REACTOR
1002
}
  0
POLYLINE
  5
35B8
  8
AM_4
 66
     1
 10
0.0
 20
0.0
 30
0.0
 70
     4
  0
VERTEX
  5
35B9
  8
AM_4
 10
245.11375596495421
 20
401.39126313079441
 30
0.0
 70
    16
  0
VERTEX
  5
35BA
  8
AM_4
 10
245.11375596495421
 20
401.39126313079441
 30
0.0
 70
     8
  0
VERTEX
  5
35BB
  8
AM_4
 10
246.20477118936691
 20
401.97305310688171
 30
0.0
 70
     8
  0
VERTEX
  5
35BC
  8
AM_4
 10
247.2383081629406
 20
402.00352270950953
 30
0.0
 70
     8
  0
VERTEX
  5
35BD
  8
AM_4
 10
248.2301038361787
 20
401.67716763484998
 30
0.0
 70
     8
  0
VERTEX
  5
35BE
  8
AM_4
 10
249.19589515958461
 20
401.18848357907632
 30
0.0
 70
     8
  0
VERTEX
  5
35BF
  8
AM_4
 10
250.15141908366169
 20
400.731966238361
 30
0.0
 70
     8
  0
VERTEX
  5
35C0
  8
AM_4
 10
251.11241255891341
 20
400.50211130887737
 30
0.0
 70
     8
  0
VERTEX
  5
35C1
  8
AM_4
 10
252.0946125358432
 20
400.69341448679802
 30
0.0
 70
     8
  0
VERTEX
  5
35C2
  8
AM_4
 10
253.11375596495441
 20
401.50037146829561
 30
0.0
 70
     8
  0
VERTEX
  5
35C3
  8
AM_4
 10
248.11375596495421
 20
403.85068196157198
 30
0.0
 70
    16
  0
VERTEX
  5
35C4
  8
AM_4
 10
250.3327938173019
 20
398.35472938293441
 30
0.0
 70
    16
  0
VERTEX
  5
35C5
  8
AM_4
 10
253.11375596495421
 20
401.50037146829561
 30
0.0
 70
    16
  0
SEQEND
  5
35C6
  8
AM_4
  0
LINE
  5
35C7
  8
AM_0
 10
248.11375596495429
 20
410.39680571371588
 30
0.0
 11
248.11375596495429
 21
401.715452454218
 31
0.0
  0
LINE
  5
35C8
  8
AM_0
 10
247.11375596495421
 20
410.39680571371588
 30
0.0
 11
247.11375596495421
 21
401.99985079831879
 31
0.0
  0
LINE
  5
35C9
  8
AM_0
 10
245.11375596495421
 20
410.39680571371588
 30
0.0
 11
245.11375596495421
 21
401.39126313079441
 31
0.0
  0
LINE
  5
35CA
  8
AM_0
 10
250.11375596495421
 20
410.39680571371588
 30
0.0
 11
250.11375596495421
 21
400.74996041554721
 31
0.0
  0
LINE
  5
35CB
  8
AM_0
 10
251.11375596495429
 20
410.39680571371588
 30
0.0
 11
251.11375596495429
 21
400.50237296419277
 31
0.0
  0
LINE
  5
35CC
  8
AM_0
 10
253.11375596495421
 20
410.39680571371588
 30
0.0
 11
253.11375596495421
 21
401.50037146829561
 31
0.0
  0
ARC
  5
35CD
  8
AM_0
 10
258.11375596495412
 20
411.39680571371588
 30
0.0
 40
1.0
 50
270.0
 51
0.0
1001
GENIUS_GENOBJ-N-FIL_13
1002
{
1000
OWNER
1000
GEN
1002
}
1001
GENIUS_GENODEF_13
1002
{
1000
HIER
1070
     0
1002
}
1002
{
1000
MANEDIT
1070
     0
1002
}
1002
{
1000
NOSEL
1070
     0
1002
}
1002
{
1000
BEHIND
1070
     0
1002
}
1002
{
1000
OTHER
1070
     0
1002
}
1002
{
1000
REACTOR
1002
}
  0
LINE
  5
35CE
  8
AM_0
 10
217.61375596495421
 20
464.39680571371588
 30
0.0
 11
229.61375596495421
 21
464.39680571371588
 31
0.0
1001
GENIUS_GENOREF_13
1005
3710
  0
CIRCLE
  5
35CF
  8
AM_0N
 10
223.61375596495421
 20
460.39680571371588
 30
0.0
 40
2.799999999999998
1001
GENIUS_GENOREF_13
1005
0
  0
LINE
  5
35D0
  8
AM_0N
 10
225.09235115972521
 20
460.14430571371588
 30
0.0
 11
223.86625596495421
 21
460.14430571371588
 31
0.0
1001
GENIUS_GENOREF_13
1005
0
  0
LINE
  5
35D1
  8
AM_0N
 10
225.09235115972521
 20
460.6493057137161
 30
0.0
 11
223.86625596495421
 21
460.6493057137161
 31
0.0
1001
GENIUS_GENOREF_13
1005
0
  0
LINE
  5
35D2
  8
AM_0N
 10
223.3612559649543
 20
461.87540090848711
 30
0.0
 11
223.86625596495421
 21
461.87540090848711
 31
0.0
1001
GENIUS_GENOREF_13
1005
0
  0
LINE
  5
35D3
  8
AM_0N
 10
223.3612559649543
 20
458.91821051894487
 30
0.0
 11
223.86625596495421
 21
458.91821051894487
 31
0.0
1001
GENIUS_GENOREF_13
1005
0
  0
LINE
  5
35D4
  8
AM_0N
 10
223.86625596495421
 20
460.14430571371588
 30
0.0
 11
223.86625596495421
 21
458.91821051894487
 31
0.0
1001
GENIUS_GENOREF_13
1005
0
  0
LINE
  5
35D5
  8
AM_0N
 10
223.3612559649543
 20
460.14430571371588
 30
0.0
 11
223.3612559649543
 21
458.91821051894487
 31
0.0
1001
GENIUS_GENOREF_13
1005
0
  0
LINE
  5
35D6
  8
AM_0N
 10
223.3612559649543
 20
461.87540090848711
 30
0.0
 11
223.3612559649543
 21
460.6493057137161
 31
0.0
1001
GENIUS_GENOREF_13
1005
0
  0
LINE
  5
35D7
  8
AM_0N
 10
223.86625596495421
 20
461.87540090848711
 30
0.0
 11
223.86625596495421
 21
460.6493057137161
 31
0.0
1001
GENIUS_GENOREF_13
1005
0
  0
LINE
  5
35D8
  8
AM_0N
 10
222.13516077018309
 20
460.14430571371588
 30
0.0
 11
222.13516077018309
 21
460.6493057137161
 31
0.0
1001
GENIUS_GENOREF_13
1005
0
  0
LINE
  5
35D9
  8
AM_0N
 10
223.3612559649543
 20
460.14430571371588
 30
0.0
 11
222.13516077018309
 21
460.14430571371588
 31
0.0
1001
GENIUS_GENOREF_13
1005
0
  0
LINE
  5
35DA
  8
AM_0N
 10
223.3612559649543
 20
460.6493057137161
 30
0.0
 11
222.13516077018309
 21
460.6493057137161
 31
0.0
1001
GENIUS_GENOREF_13
1005
0
  0
LINE
  5
35DB
  8
AM_0
 10
219.61375596495421
 20
464.39680571371588
 30
0.0
 11
219.61375596495421
 21
456.39680571371588
 31
0.0
  0
LINE
  5
35DC
  8
AM_0
 10
215.61375596495421
 20
462.39680571371599
 30
0.0
 11
215.61375596495421
 21
456.39680571371588
 31
0.0
  0
ARC
  5
35DD
  8
AM_0
 10
217.61375596495421
 20
462.39680571371599
 30
0.0
 40
2.0
 50
90.0
 51
180.0
1001
GENIUS_GENOBJ-N-FIL_13
1002
{
1000
OWNER
1000
GEN
1002
}
1001
GENIUS_GENODEF_13
1002
{
1000
HIER
1070
     0
1002
}
1002
{
1000
MANEDIT
1070
     0
1002
}
1002
{
1000
NOSEL
1070
     0
1002
}
1002
{
1000
BEHIND
1070
     0
1002
}
1002
{
1000
OTHER
1070
     0
1002
}
1002
{
1000
REACTOR
1002
}
  0
LINE
  5
35DE
  8
AM_0N
 10
225.09235115972521
 20
460.14430571371588
 30
0.0
 11
225.09235115972521
 21
460.6493057137161
 31
0.0
1001
GENIUS_GENOREF_13
1005
0
  0
LINE
  5
35DF
  8
AM_0
 10
231.61375596495421
 20
462.39680571371599
 30
0.0
 11
231.61375596495421
 21
456.39680571371588
 31
0.0
  0
LINE
  5
35E0
  8
AM_0
 10
227.61375596495421
 20
464.39680571371588
 30
0.0
 11
227.61375596495421
 21
456.39680571371588
 31
0.0
  0
ARC
  5
35E1
  8
AM_0
 10
229.61375596495421
 20
462.39680571371599
 30
0.0
 40
2.0
 50
0.0
 51
90.0
1001
GENIUS_GENOBJ-N-FIL_13
1002
{
1000
OWNER
1000
GEN
1002
}
1001
GENIUS_GENODEF_13
1002
{
1000
HIER
1070
     0
1002
}
1002
{
1000
MANEDIT
1070
     0
1002
}
1002
{
1000
NOSEL
1070
     0
1002
}
1002
{
1000
BEHIND
1070
     0
1002
}
1002
{
1000
OTHER
1070
     0
1002
}
1002
{
1000
REACTOR
1002
}
  0
ARC
  5
35E2
  8
AM_0
 10
258.11375596495412
 20
455.39680571371611
 30
0.0
 40
1.0
 50
0.0
 51
90.0
1001
GENIUS_GENODEF_13
1002
{
1000
HIER
1070
     0
1002
}
1002
{
1000
MANEDIT
1070
     0
1002
}
1002
{
1000
NOSEL
1070
     0
1002
}
1002
{
1000
BEHIND
1070
     0
1002
}
1002
{
1000
OTHER
1070
     0
1002
}
1002
{
1000
REACTOR
1002
}
1001
GENIUS_GENOBJ-N-FIL_13
1002
{
1000
OWNER
1000
GEN
1002
}
  0
LINE
  5
35E5
  8
AM_0
 10
482.11375596495418
 20
443.38500821371588
 30
0.0
 11
495.11375596495418
 21
443.38500821371588
 31
0.0
  0
LINE
  5
35E6
  8
AM_0
 10
421.1137559649539
 20
321.39678821371598
 30
0.0
 11
613.11380596495428
 21
321.39678821371598
 31
0.0
  0
LINE
  5
35E7
  8
AM_0
 10
499.06580596495451
 20
385.04464821371619
 30
0.0
 11
471.51580596495432
 21
349.49624321371613
 31
0.0
  0
LINE
  5
35E8
  8
ﾁｭｳｼﾝｾﾝ1
 10
442.1137559649539
 20
350.90469321371597
 30
0.0
 11
442.1137559649539
 21
316.505188213716
 31
0.0
  0
LINE
  5
35E9
  8
ｶｸﾚｾﾝ2
 10
432.61375596495418
 20
346.39678821371598
 30
0.0
 11
432.61375596495418
 21
321.39678821371598
 31
0.0
  0
LINE
  5
35EA
  8
ｶｸﾚｾﾝ2
 10
451.61380596495451
 20
346.39678821371598
 30
0.0
 11
451.61380596495451
 21
321.39678821371598
 31
0.0
  0
LINE
  5
35EB
  8
AM_0
 10
421.1137559649539
 20
342.39681821371602
 30
0.0
 11
421.1137559649539
 21
321.39678821371598
 31
0.0
  0
ARC
  5
35EC
  8
AM_0
 10
375.61380596495428
 20
378.45800821371603
 30
0.0
 40
4.000000049999997
 50
271.9999999999971
 51
0.0
  0
LINE
  5
35ED
  8
AM_0
 10
359.61375596495418
 20
463.20263821371589
 30
0.0
 11
398.76530596495451
 21
463.20263821371589
 31
0.0
  0
LINE
  5
35EE
  8
AM_0
 10
359.61375596495418
 20
397.59100321371602
 30
0.0
 11
379.61375596495429
 21
397.59100321371602
 31
0.0
  0
LINE
  5
35EF
  8
AM_0
 10
359.61375596495418
 20
384.39681821371602
 30
0.0
 11
379.61375596495429
 21
384.39681821371602
 31
0.0
  0
LINE
  5
35F0
  8
AM_0
 10
307.11375596495418
 20
396.39680571371611
 30
0.0
 11
330.11375596495418
 21
396.39680571371611
 31
0.0
  0
LINE
  5
35F1
  8
AM_0
 10
307.11375596495418
 20
390.89680571371599
 30
0.0
 11
330.11375596495418
 21
390.89680571371599
 31
0.0
  0
LINE
  5
35F2
  8
AM_0
 10
307.11375596495418
 20
387.196805713716
 30
0.0
 11
330.11375596495418
 21
387.19680571371612
 31
0.0
  0
LINE
  5
35F3
  8
AM_0
 10
307.11375596495418
 20
381.99680571371613
 30
0.0
 11
330.11375596495418
 21
381.99680571371613
 31
0.0
  0
LINE
  5
35F4
  8
AM_0
 10
307.11375596495418
 20
378.49680571371613
 30
0.0
 11
330.11375596495418
 21
378.49680571371613
 31
0.0
  0
LINE
  5
35F5
  8
AM_0
 10
307.11375596495418
 20
374.19680571371589
 30
0.0
 11
330.11375596495418
 21
374.19680571371589
 31
0.0
  0
LINE
  5
35F6
  8
AM_0
 10
307.11375596495418
 20
370.696805713716
 30
0.0
 11
330.11375596495418
 21
370.696805713716
 31
0.0
  0
LINE
  5
35F7
  8
AM_0
 10
307.11375596495418
 20
368.09680571371598
 30
0.0
 11
330.11375596495418
 21
368.09680571371598
 31
0.0
  0
ARC
  5
35F8
  8
AM_0
 10
307.11375596495418
 20
382.99680571371613
 30
0.0
 40
1.0
 50
180.0
 51
270.0
1001
GENIUS_GENOBJ-N-FIL_13
1002
{
1000
OWNER
1000
GEN
1002
}
1001
GENIUS_GENODEF_13
1002
{
1000
HIER
1070
     0
1002
}
1002
{
1000
MANEDIT
1070
     0
1002
}
1002
{
1000
NOSEL
1070
     0
1002
}
1002
{
1000
BEHIND
1070
     0
1002
}
1002
{
1000
OTHER
1070
     0
1002
}
1002
{
1000
REACTOR
1002
}
  0
LINE
  5
35F9
  8
AM_0
 10
306.11375596495418
 20
377.49680571371613
 30
0.0
 11
306.11375596495418
 21
375.196805713716
 31
0.0
  0
LINE
  5
35FA
  8
AM_0
 10
306.11375596495418
 20
369.69680571371589
 30
0.0
 11
306.11375596495418
 21
369.09680571371609
 31
0.0
  0
ARC
  5
35FB
  8
AM_0
 10
307.11375596495418
 20
369.69680571371589
 30
0.0
 40
1.0
 50
90.0
 51
180.0
1001
GENIUS_GENOBJ-N-FIL_13
1002
{
1000
OWNER
1000
GEN
1002
}
1001
GENIUS_GENODEF_13
1002
{
1000
HIER
1070
     0
1002
}
1002
{
1000
MANEDIT
1070
     0
1002
}
1002
{
1000
NOSEL
1070
     0
1002
}
1002
{
1000
BEHIND
1070
     0
1002
}
1002
{
1000
OTHER
1070
     0
1002
}
1002
{
1000
REACTOR
1002
}
  0
ARC
  5
35FC
  8
AM_0
 10
307.11375596495418
 20
375.196805713716
 30
0.0
 40
1.0
 50
180.0
 51
270.0
1001
GENIUS_GENOBJ-N-FIL_13
1002
{
1000
OWNER
1000
GEN
1002
}
1001
GENIUS_GENODEF_13
1002
{
1000
HIER
1070
     0
1002
}
1002
{
1000
MANEDIT
1070
     0
1002
}
1002
{
1000
NOSEL
1070
     0
1002
}
1002
{
1000
BEHIND
1070
     0
1002
}
1002
{
1000
OTHER
1070
     0
1002
}
1002
{
1000
REACTOR
1002
}
  0
ARC
  5
35FD
  8
AM_0
 10
307.11375596495418
 20
377.49680571371613
 30
0.0
 40
1.0
 50
90.0
 51
180.0
1001
GENIUS_GENODEF_13
1002
{
1000
HIER
1070
     0
1002
}
1002
{
1000
MANEDIT
1070
     0
1002
}
1002
{
1000
NOSEL
1070
     0
1002
}
1002
{
1000
BEHIND
1070
     0
1002
}
1002
{
1000
OTHER
1070
     0
1002
}
1002
{
1000
REACTOR
1002
}
1001
GENIUS_GENOBJ-N-FIL_13
1002
{
1000
OWNER
1000
GEN
1002
}
  0
ARC
  5
35FE
  8
AM_0
 10
307.11375596495418
 20
369.09680571371609
 30
0.0
 40
1.0
 50
180.0
 51
270.0
1001
GENIUS_GENODEF_13
1002
{
1000
HIER
1070
     0
1002
}
1002
{
1000
MANEDIT
1070
     0
1002
}
1002
{
1000
NOSEL
1070
     0
1002
}
1002
{
1000
BEHIND
1070
     0
1002
}
1002
{
1000
OTHER
1070
     0
1002
}
1002
{
1000
REACTOR
1002
}
1001
GENIUS_GENOBJ-N-FIL_13
1002
{
1000
OWNER
1000
GEN
1002
}
  0
LINE
  5
35FF
  8
AM_0
 10
306.11375596495418
 20
395.39680571371599
 30
0.0
 11
306.11375596495418
 21
391.89680571371611
 31
0.0
  0
ARC
  5
3600
  8
AM_0
 10
307.11375596495418
 20
391.89680571371611
 30
0.0
 40
1.0
 50
180.0
 51
270.0
1001
GENIUS_GENODEF_13
1002
{
1000
HIER
1070
     0
1002
}
1002
{
1000
MANEDIT
1070
     0
1002
}
1002
{
1000
NOSEL
1070
     0
1002
}
1002
{
1000
BEHIND
1070
     0
1002
}
1002
{
1000
OTHER
1070
     0
1002
}
1002
{
1000
REACTOR
1002
}
1001
GENIUS_GENOBJ-N-FIL_13
1002
{
1000
OWNER
1000
GEN
1002
}
  0
ARC
  5
3601
  8
AM_0
 10
307.11375596495418
 20
395.39680571371599
 30
0.0
 40
1.0
 50
90.0
 51
180.0
1001
GENIUS_GENODEF_13
1002
{
1000
HIER
1070
     0
1002
}
1002
{
1000
MANEDIT
1070
     0
1002
}
1002
{
1000
NOSEL
1070
     0
1002
}
1002
{
1000
BEHIND
1070
     0
1002
}
1002
{
1000
OTHER
1070
     0
1002
}
1002
{
1000
REACTOR
1002
}
1001
GENIUS_GENOBJ-N-FIL_13
1002
{
1000
OWNER
1000
GEN
1002
}
  0
ARC
  5
3602
  8
AM_0
 10
307.11375596495418
 20
386.19680571371589
 30
0.0
 40
1.0
 50
90.0
 51
180.0
1001
GENIUS_GENODEF_13
1002
{
1000
HIER
1070
     0
1002
}
1002
{
1000
MANEDIT
1070
     0
1002
}
1002
{
1000
NOSEL
1070
     0
1002
}
1002
{
1000
BEHIND
1070
     0
1002
}
1002
{
1000
OTHER
1070
     0
1002
}
1002
{
1000
REACTOR
1002
}
1001
GENIUS_GENOBJ-N-FIL_13
1002
{
1000
OWNER
1000
GEN
1002
}
  0
LINE
  5
3603
  8
AM_0
 10
306.11375596495418
 20
386.19680571371589
 30
0.0
 11
306.11375596495418
 21
382.99680571371613
 31
0.0
  0
LINE
  5
3604
  8
AM_0
 10
341.11375596495418
 20
364.39680571371599
 30
0.0
 11
352.61375596495429
 21
364.39680571371599
 31
0.0
  0
ARC
  5
3605
  8
AM_0
 10
330.11375596495418
 20
382.99680571371613
 30
0.0
 40
1.0
 50
270.0
 51
0.0
1001
GENIUS_GENODEF_13
1002
{
1000
HIER
1070
     0
1002
}
1002
{
1000
MANEDIT
1070
     0
1002
}
1002
{
1000
NOSEL
1070
     0
1002
}
1002
{
1000
BEHIND
1070
     0
1002
}
1002
{
1000
OTHER
1070
     0
1002
}
1002
{
1000
REACTOR
1002
}
1001
GENIUS_GENOBJ-N-FIL_13
1002
{
1000
OWNER
1000
GEN
1002
}
  0
LINE
  5
3606
  8
AM_0
 10
331.11375596495418
 20
377.49680571371613
 30
0.0
 11
331.11375596495418
 21
375.196805713716
 31
0.0
  0
ARC
  5
3607
  8
AM_0
 10
330.11375596495418
 20
369.69680571371589
 30
0.0
 40
1.0
 50
0.0
 51
90.0
1001
GENIUS_GENODEF_13
1002
{
1000
HIER
1070
     0
1002
}
1002
{
1000
MANEDIT
1070
     0
1002
}
1002
{
1000
NOSEL
1070
     0
1002
}
1002
{
1000
BEHIND
1070
     0
1002
}
1002
{
1000
OTHER
1070
     0
1002
}
1002
{
1000
REACTOR
1002
}
1001
GENIUS_GENOBJ-N-FIL_13
1002
{
1000
OWNER
1000
GEN
1002
}
  0
LINE
  5
3608
  8
AM_0
 10
331.11375596495418
 20
369.69680571371589
 30
0.0
 11
331.11375596495418
 21
369.09680571371609
 31
0.0
  0
ARC
  5
3609
  8
AM_0
 10
330.11375596495418
 20
375.196805713716
 30
0.0
 40
1.0
 50
270.0
 51
0.0
1001
GENIUS_GENODEF_13
1002
{
1000
HIER
1070
     0
1002
}
1002
{
1000
MANEDIT
1070
     0
1002
}
1002
{
1000
NOSEL
1070
     0
1002
}
1002
{
1000
BEHIND
1070
     0
1002
}
1002
{
1000
OTHER
1070
     0
1002
}
1002
{
1000
REACTOR
1002
}
1001
GENIUS_GENOBJ-N-FIL_13
1002
{
1000
OWNER
1000
GEN
1002
}
  0
ARC
  5
360A
  8
AM_0
 10
330.11375596495418
 20
377.49680571371613
 30
0.0
 40
1.0
 50
0.0
 51
90.0
1001
GENIUS_GENODEF_13
1002
{
1000
HIER
1070
     0
1002
}
1002
{
1000
MANEDIT
1070
     0
1002
}
1002
{
1000
NOSEL
1070
     0
1002
}
1002
{
1000
BEHIND
1070
     0
1002
}
1002
{
1000
OTHER
1070
     0
1002
}
1002
{
1000
REACTOR
1002
}
1001
GENIUS_GENOBJ-N-FIL_13
1002
{
1000
OWNER
1000
GEN
1002
}
  0
ARC
  5
360B
  8
AM_0
 10
330.11375596495418
 20
369.09680571371609
 30
0.0
 40
1.0
 50
270.0
 51
0.0
1001
GENIUS_GENOBJ-N-FIL_13
1002
{
1000
OWNER
1000
GEN
1002
}
1001
GENIUS_GENODEF_13
1002
{
1000
HIER
1070
     0
1002
}
1002
{
1000
MANEDIT
1070
     0
1002
}
1002
{
1000
NOSEL
1070
     0
1002
}
1002
{
1000
BEHIND
1070
     0
1002
}
1002
{
1000
OTHER
1070
     0
1002
}
1002
{
1000
REACTOR
1002
}
  0
LINE
  5
360C
  8
AM_0
 10
331.11375596495418
 20
395.39680571371599
 30
0.0
 11
331.11375596495418
 21
391.89680571371611
 31
0.0
  0
ARC
  5
360D
  8
AM_0
 10
330.11375596495418
 20
391.89680571371611
 30
0.0
 40
1.0
 50
270.0
 51
0.0
1001
GENIUS_GENODEF_13
1002
{
1000
HIER
1070
     0
1002
}
1002
{
1000
MANEDIT
1070
     0
1002
}
1002
{
1000
NOSEL
1070
     0
1002
}
1002
{
1000
BEHIND
1070
     0
1002
}
1002
{
1000
OTHER
1070
     0
1002
}
1002
{
1000
REACTOR
1002
}
1001
GENIUS_GENOBJ-N-FIL_13
1002
{
1000
OWNER
1000
GEN
1002
}
  0
ARC
  5
360E
  8
AM_0
 10
330.11375596495418
 20
395.39680571371599
 30
0.0
 40
1.0
 50
0.0
 51
90.0
1001
GENIUS_GENOBJ-N-FIL_13
1002
{
1000
OWNER
1000
GEN
1002
}
1001
GENIUS_GENODEF_13
1002
{
1000
HIER
1070
     0
1002
}
1002
{
1000
MANEDIT
1070
     0
1002
}
1002
{
1000
NOSEL
1070
     0
1002
}
1002
{
1000
BEHIND
1070
     0
1002
}
1002
{
1000
OTHER
1070
     0
1002
}
1002
{
1000
REACTOR
1002
}
  0
ARC
  5
360F
  8
AM_0
 10
330.11375596495418
 20
386.19680571371612
 30
0.0
 40
1.0
 50
0.0
 51
90.0
1001
GENIUS_GENODEF_13
1002
{
1000
HIER
1070
     0
1002
}
1002
{
1000
MANEDIT
1070
     0
1002
}
1002
{
1000
NOSEL
1070
     0
1002
}
1002
{
1000
BEHIND
1070
     0
1002
}
1002
{
1000
OTHER
1070
     0
1002
}
1002
{
1000
REACTOR
1002
}
1001
GENIUS_GENOBJ-N-FIL_13
1002
{
1000
OWNER
1000
GEN
1002
}
  0
LINE
  5
3610
  8
AM_0
 10
331.11375596495418
 20
386.19680571371612
 30
0.0
 11
331.11375596495418
 21
382.99680571371613
 31
0.0
  0
LINE
  5
3611
  8
AM_0
 10
359.61375596495418
 20
373.89681821371602
 30
0.0
 11
375.75335596495438
 21
374.46041821371603
 31
0.0
  0
LINE
  5
3612
  8
AM_0
 10
359.61375596495418
 20
367.39680571371611
 30
0.0
 11
352.61375596495429
 21
364.39680571371599
 31
0.0
  0
LINE
  5
3613
  8
AM_0
 10
307.11375596495418
 20
408.39680571371599
 30
0.0
 11
330.11375596495418
 21
408.39680571371599
 31
0.0
  0
LINE
  5
3614
  8
AM_0
 10
307.11375596495418
 20
401.89680571371588
 30
0.0
 11
330.11375596495418
 21
401.89680571371588
 31
0.0
  0
ARC
  5
3615
  8
AM_0
 10
307.11375596495418
 20
407.39680571371588
 30
0.0
 40
1.0
 50
90.0
 51
180.0
1001
GENIUS_GENOBJ-N-FIL_13
1002
{
1000
OWNER
1000
GEN
1002
}
1001
GENIUS_GENODEF_13
1002
{
1000
HIER
1070
     0
1002
}
1002
{
1000
MANEDIT
1070
     0
1002
}
1002
{
1000
NOSEL
1070
     0
1002
}
1002
{
1000
BEHIND
1070
     0
1002
}
1002
{
1000
OTHER
1070
     0
1002
}
1002
{
1000
REACTOR
1002
}
  0
ARC
  5
3616
  8
AM_0
 10
307.11375596495418
 20
402.89680571371588
 30
0.0
 40
1.0
 50
180.0
 51
270.0
1001
GENIUS_GENODEF_13
1002
{
1000
HIER
1070
     0
1002
}
1002
{
1000
MANEDIT
1070
     0
1002
}
1002
{
1000
NOSEL
1070
     0
1002
}
1002
{
1000
BEHIND
1070
     0
1002
}
1002
{
1000
OTHER
1070
     0
1002
}
1002
{
1000
REACTOR
1002
}
1001
GENIUS_GENOBJ-N-FIL_13
1002
{
1000
OWNER
1000
GEN
1002
}
  0
LINE
  5
3617
  8
AM_0
 10
306.11375596495418
 20
407.39680571371588
 30
0.0
 11
306.11375596495418
 21
402.89680571371588
 31
0.0
  0
ARC
  5
3618
  8
AM_0
 10
330.11375596495418
 20
407.39680571371588
 30
0.0
 40
1.0
 50
0.0
 51
90.0
1001
GENIUS_GENOBJ-N-FIL_13
1002
{
1000
OWNER
1000
GEN
1002
}
1001
GENIUS_GENODEF_13
1002
{
1000
HIER
1070
     0
1002
}
1002
{
1000
MANEDIT
1070
     0
1002
}
1002
{
1000
NOSEL
1070
     0
1002
}
1002
{
1000
BEHIND
1070
     0
1002
}
1002
{
1000
OTHER
1070
     0
1002
}
1002
{
1000
REACTOR
1002
}
  0
ARC
  5
3619
  8
AM_0
 10
330.11375596495418
 20
402.89680571371588
 30
0.0
 40
1.0
 50
270.0
 51
0.0
1001
GENIUS_GENODEF_13
1002
{
1000
HIER
1070
     0
1002
}
1002
{
1000
MANEDIT
1070
     0
1002
}
1002
{
1000
NOSEL
1070
     0
1002
}
1002
{
1000
BEHIND
1070
     0
1002
}
1002
{
1000
OTHER
1070
     0
1002
}
1002
{
1000
REACTOR
1002
}
1001
GENIUS_GENOBJ-N-FIL_13
1002
{
1000
OWNER
1000
GEN
1002
}
  0
LINE
  5
361A
  8
AM_0
 10
331.11375596495418
 20
407.39680571371588
 30
0.0
 11
331.11375596495418
 21
402.89680571371588
 31
0.0
  0
LINE
  5
361B
  8
AM_0
 10
379.61375596495429
 20
408.9012782137159
 30
0.0
 11
379.61375596495429
 21
378.45800821371603
 31
0.0
  0
LINE
  5
361C
  8
AM_0
 10
427.4742559649543
 20
384.61123821371598
 30
0.0
 11
433.61380596495428
 21
384.39681821371602
 31
0.0
  0
LINE
  5
361D
  8
AM_0
 10
423.61375596495418
 20
396.81817821371612
 30
0.0
 11
468.113805964954
 21
396.81817821371612
 31
0.0
  0
LINE
  5
361E
  8
AM_0
 10
425.11375596495418
 20
346.39678821371598
 30
0.0
 11
465.19250596495431
 21
346.39678821371598
 31
0.0
  0
ARC
  5
361F
  8
AM_0
 10
425.11375596495418
 20
342.39681821371602
 30
0.0
 40
4.000000049999997
 50
90.00000299999769
 51
180.00001000000091
  0
LINE
  5
3620
  8
AM_0
 10
383.7533559649541
 20
389.7745982137161
 30
0.0
 11
420.90130596495419
 21
388.47735821371612
 31
0.0
  0
ARC
  5
3621
  8
AM_0
 10
383.61375596495429
 20
385.77706821371589
 30
0.0
 40
4.000000049999997
 50
88.000000000002899
 51
180.00001000000091
  0
ARC
  5
3622
  8
AM_0
 10
420.76165596495451
 20
384.47979821371598
 30
0.0
 40
4.000000049999997
 50
31.072340999999
 51
88.000000000002899
  0
ARC
  5
3623
  8
AM_0
 10
427.61375596495429
 20
388.60879321371613
 30
0.0
 40
4.000000049999997
 50
211.0723399999998
 51
268.0000000000029
  0
ARC
  5
3624
  8
AM_0
 10
465.19250596495431
 20
354.39681821371602
 30
0.0
 40
8.0
 50
270.0
 51
322.22431999999611
  0
LINE
  5
3625
  8
AM_0
 10
441.35230596495433
 20
375.657228213716
 30
0.0
 11
465.3751559649545
 21
373.55547821371613
 31
0.0
  0
ARC
  5
3626
  8
AM_0
 10
435.61380596495422
 20
381.825163213716
 30
0.0
 40
3.0000000500000001
 50
0.0
 51
88.000000000002899
  0
LINE
  5
3627
  8
AM_0
 10
438.6137559649539
 20
378.64578321371602
 30
0.0
 11
438.6137559649539
 21
396.39678821371598
 31
0.0
  0
ARC
  5
3628
  8
AM_0
 10
441.61380596495439
 20
378.64578321371602
 30
0.0
 40
3.0000000500000001
 50
179.999989999999
 51
265.00000000000028
  0
LINE
  5
3629
  8
AM_0
 10
433.6137559649539
 20
384.89681821371602
 30
0.0
 11
435.7184559649545
 21
384.82333321371613
 31
0.0
  0
ARC
  5
362A
  8
AM_0
 10
465.11375596495429
 20
370.566923213716
 30
0.0
 40
3.0000000500000001
 50
0.0
 51
84.999996999998572
  0
LINE
  5
362B
  8
AM_0
 10
423.61375596495418
 20
418.92211821371592
 30
0.0
 11
468.113805964954
 21
418.92211821371592
 31
0.0
  0
LINE
  5
362C
  8
AM_0
 10
398.76525596495452
 20
463.20263821371589
 30
0.0
 11
423.61375596495418
 21
418.82980321371599
 31
0.0
  0
LINE
  5
362D
  8
AM_0
 10
384.61375596495418
 20
413.9012782137159
 30
0.0
 11
423.61375596495418
 21
413.9012782137159
 31
0.0
  0
ARC
  5
362E
  8
AM_0
 10
384.61375596495418
 20
408.9012782137159
 30
0.0
 40
5.0
 50
90.00000299999769
 51
180.00001000000091
  0
LINE
  5
362F
  8
AM_0
 10
398.76525596495452
 20
463.20266821371592
 30
0.0
 11
406.83805596495432
 21
471.2755132137159
 31
0.0
  0
LINE
  5
3630
  8
ﾁｭｳｼﾝｾﾝ1
 10
592.11375596495407
 20
350.90469321371597
 30
0.0
 11
592.11375596495407
 21
316.50518821371611
 31
0.0
  0
LINE
  5
3631
  8
ｶｸﾚｾﾝ2
 10
601.61380596495451
 20
346.39678821371598
 30
0.0
 11
601.61380596495451
 21
321.39678821371598
 31
0.0
  0
LINE
  5
3632
  8
AM_0
 10
613.11380596495428
 20
342.39681821371602
 30
0.0
 11
613.11380596495428
 21
321.39678821371598
 31
0.0
  0
LINE
  5
3633
  8
ｶｸﾚｾﾝ2
 10
582.61375596495441
 20
346.39678821371598
 30
0.0
 11
582.61375596495441
 21
321.39678821371598
 31
0.0
  0
LINE
  5
3634
  8
AM_0
 10
573.11380596495405
 20
346.39678821371598
 30
0.0
 11
609.11380596495428
 21
346.39678821371598
 31
0.0
  0
LINE
  5
3635
  8
AM_0
 10
500.11375596495418
 20
432.20870821371591
 30
0.0
 11
500.11375596495418
 21
386.39678821371598
 31
0.0
  0
ARC
  5
3636
  8
AM_0
 10
495.11375596495418
 20
388.10751321371589
 30
0.0
 40
5.0
 50
322.22431999999611
 51
0.0
  0
ARC
  5
3637
  8
AM_0
 10
573.11380596495405
 20
354.39681821371602
 30
0.0
 40
8.0
 50
180.00001000000091
 51
270.0
  0
LINE
  5
3638
  8
AM_0
 10
577.11375596495418
 20
391.99468821371607
 30
0.0
 11
568.59705596495451
 21
391.99468821371607
 31
0.0
  0
ARC
  5
3639
  8
AM_0
 10
577.11375596495418
 20
399.99465821371598
 30
0.0
 40
8.0
 50
270.0
 51
0.0
  0
LINE
  5
363A
  8
AM_0
 10
510.11375596495429
 20
438.78646821371592
 30
0.0
 11
510.11375596495429
 21
432.20870821371591
 31
0.0
  0
LINE
  5
363B
  8
AM_0
 10
500.11375596495418
 20
432.20870821371591
 30
0.0
 11
510.11375596495429
 21
432.20870821371591
 31
0.0
  0
LINE
  5
363C
  8
AM_0
 10
512.87140596495385
 20
440.48190321371612
 30
0.0
 11
526.10725596495445
 21
450.39187821371598
 31
0.0
  0
LINE
  5
363D
  8
AM_0
 10
514.61375596495418
 20
470.88464321371612
 30
0.0
 11
514.61375596495418
 21
443.77249321371579
 31
0.0
  0
LINE
  5
363E
  8
AM_0
 10
495.11375596495418
 20
441.78649821371567
 30
0.0
 11
507.11375596495418
 21
441.78649821371567
 31
0.0
  0
ARC
  5
363F
  8
AM_0
 10
507.11375596495418
 20
438.78646821371592
 30
0.0
 40
3.0000000500000001
 50
0.0
 51
90.00000299999769
  0
ARC
  5
3640
  8
AM_0
 10
520.11375596495441
 20
458.39682321371589
 30
0.0
 40
10.0
 50
306.82304000000198
 51
41.102821999997772
  0
ARC
  5
3641
  8
AM_0
 10
609.11380596495428
 20
342.39681821371602
 30
0.0
 40
4.000000049999997
 50
0.0
 51
90.00000299999769
  0
ARC
  5
3642
  8
AM_0
 10
611.11375596495418
 20
350.14279321371612
 30
0.0
 40
4.000000049999997
 50
179.999989999999
 51
255.52248999999699
  0
ARC
  5
3643
  8
AM_0
 10
610.11375596495441
 20
454.15417321371598
 30
0.0
 40
3.0000000500000001
 50
135.0
 51
180.00001000000091
  0
ARC
  5
3644
  8
AM_0
 10
610.11375596495441
 20
462.63943821371589
 30
0.0
 40
3.0000000500000001
 50
315.0
 51
0.0
  0
LINE
  5
3645
  8
AM_0
 10
607.99250596495449
 20
456.27548321371597
 30
0.0
 11
612.23510596495419
 21
460.51812821371573
 31
0.0
  0
LINE
  5
3646
  8
AM_0
 10
197.61375596495429
 20
495.9968057137159
 30
0.0
 11
341.11375596495418
 21
495.99680571371579
 31
0.0
  0
LINE
  5
3647
  8
AM_0
 10
194.94248364261409
 20
487.80011920496912
 30
0.0
 11
191.78502828729441
 21
484.99349222246281
 31
0.0
  0
ARC
  5
3648
  8
AM_0
 10
193.11375596495421
 20
483.4986735850955
 30
0.0
 40
2.0
 50
131.63353933656751
 51
180.0
1001
GENIUS_GENODEF_13
1002
{
1000
HIER
1070
     0
1002
}
1002
{
1000
MANEDIT
1070
     0
1002
}
1002
{
1000
NOSEL
1070
     0
1002
}
1002
{
1000
BEHIND
1070
     0
1002
}
1002
{
1000
OTHER
1070
     0
1002
}
1002
{
1000
REACTOR
1002
}
1001
GENIUS_GENOBJ-N-FIL_13
1002
{
1000
OWNER
1000
GEN
1002
}
  0
ARC
  5
3649
  8
AM_0
 10
193.61375596495421
 20
489.29493784233659
 30
0.0
 40
2.0
 50
311.63353933656748
 51
0.0
1001
GENIUS_GENOBJ-N-FIL_13
1002
{
1000
OWNER
1000
GEN
1002
}
1001
GENIUS_GENODEF_13
1002
{
1000
HIER
1070
     0
1002
}
1002
{
1000
MANEDIT
1070
     0
1002
}
1002
{
1000
NOSEL
1070
     0
1002
}
1002
{
1000
BEHIND
1070
     0
1002
}
1002
{
1000
OTHER
1070
     0
1002
}
1002
{
1000
REACTOR
1002
}
  0
ARC
  5
364A
  8
AM_0
 10
197.61375596495429
 20
493.99680571371618
 30
0.0
 40
2.0
 50
90.0
 51
180.0
1001
GENIUS_GENOBJ-N-FIL_13
1002
{
1000
OWNER
1000
GEN
1002
}
1001
GENIUS_GENODEF_13
1002
{
1000
HIER
1070
     0
1002
}
1002
{
1000
MANEDIT
1070
     0
1002
}
1002
{
1000
NOSEL
1070
     0
1002
}
1002
{
1000
BEHIND
1070
     0
1002
}
1002
{
1000
OTHER
1070
     0
1002
}
1002
{
1000
REACTOR
1002
}
  0
ARC
  5
364C
  8
AM_0
 10
493.03075596495432
 20
588.73325821371554
 30
0.0
 40
4.000000049999997
 50
124.6136499999978
 51
187.86824999999911
  0
ARC
  5
364D
  8
AM_0
 10
479.11380596495439
 20
608.89685821371597
 30
0.0
 40
20.500000500000009
 50
304.61364000000412
 51
235.38635000000221
  0
CIRCLE
  5
364E
  8
AM_0
 10
479.11380596495439
 20
608.89685821371597
 30
0.0
 40
12.5
  0
LINE
  5
364F
  8
AM_0
 10
489.03665596495421
 20
588.18465821371592
 30
0.0
 11
487.40155596495418
 21
594.28685821371585
 31
0.0
  0
LINE
  5
3650
  8
AM_0
 10
484.04400596495441
 20
588.01025821371593
 30
0.0
 11
495.11370596495448
 21
588.39680821371564
 31
0.0
  0
LINE
  5
3651
  8
AM_0
 10
482.11375596495418
 20
580.98010821371554
 30
0.0
 11
495.11375596495418
 21
580.98010821371554
 31
0.0
  0
LINE
  5
3652
  8
AM_0
 10
482.11375596495418
 20
562.72105821371588
 30
0.0
 11
495.11375596495418
 21
562.72105821371588
 31
0.0
  0
LINE
  5
3653
  8
AM_0
 10
482.11375596495418
 20
473.40860321371599
 30
0.0
 11
495.11375596495418
 21
473.40860321371599
 31
0.0
  0
LINE
  5
3654
  8
ﾁｭｳｼﾝｾﾝ
 10
454.31789199807298
 20
496.39679321371591
 30
0.0
 11
691.58520596495441
 21
496.39679321371591
 31
0.0
  0
LINE
  5
3655
  8
AM_0
 10
483.36980596495442
 20
579.64040821371589
 30
0.0
 11
510.11375596495429
 21
579.64040821371589
 31
0.0
  0
ARC
  5
3656
  8
AM_0
 10
377.65445596495442
 20
491.5292382137161
 30
0.0
 40
4.000000049999997
 50
271.9999999999971
 51
309.62979000000041
  0
LINE
  5
3657
  8
AM_0
 10
359.61375596495418
 20
476.39679321371591
 30
0.0
 11
404.71685596495422
 21
476.39679321371591
 31
0.0
  0
LINE
  5
3658
  8
AM_0
 10
377.79400596495452
 20
487.53167821371602
 30
0.0
 11
383.42560596495417
 21
487.72833321371593
 31
0.0
  0
LINE
  5
3659
  8
AM_0
 10
341.11375596495418
 20
496.39680571371599
 30
0.0
 11
352.61375596495429
 21
496.39680571371599
 31
0.0
  0
LINE
  5
365A
  8
AM_0
 10
359.61375596495418
 20
486.89682321371589
 30
0.0
 11
377.79400596495452
 21
487.53167821371602
 31
0.0
  0
LINE
  5
365B
  8
AM_0
 10
352.61375596495429
 20
496.39680571371599
 30
0.0
 11
359.61375596495418
 21
493.39680571371599
 31
0.0
  0
LINE
  5
365C
  8
AM_0
 10
427.47410596495399
 20
532.18240321371593
 30
0.0
 11
433.6137559649539
 21
532.39682321371595
 31
0.0
  0
LINE
  5
365D
  8
AM_0
 10
423.61375596495418
 20
519.97543321371586
 30
0.0
 11
468.113805964954
 21
519.97543321371586
 31
0.0
  0
LINE
  5
365E
  8
AM_0
 10
423.61375596495418
 20
497.87149321371589
 30
0.0
 11
468.113805964954
 21
497.87149321371589
 31
0.0
  0
LINE
  5
365F
  8
AM_0
 10
382.61375596495441
 20
518.49972821371625
 30
0.0
 11
382.61375596495441
 21
491.85348821371588
 31
0.0
  0
LINE
  5
3660
  8
AM_0
 10
386.1143559649546
 20
488.89749321371579
 30
0.0
 11
421.03050596495427
 21
523.81359821371586
 31
0.0
  0
ARC
  5
3661
  8
AM_0
 10
379.61375596495429
 20
491.85348821371588
 30
0.0
 40
3.0000000500000001
 50
309.62979000000041
 51
0.0
  0
ARC
  5
3662
  8
AM_0
 10
383.28600596495431
 20
491.72589321371589
 30
0.0
 40
4.000000049999997
 50
271.9999999999971
 51
315.0
  0
LINE
  5
3663
  8
AM_0
 10
385.00025596495419
 20
487.783263213716
 30
0.0
 11
391.3766559649543
 21
476.39679321371591
 31
0.0
  0
LINE
  5
3664
  8
AM_0
 10
381.52720596495442
 20
489.54290821371598
 30
0.0
 11
380.20575596495428
 21
488.44848821371608
 31
0.0
  0
LINE
  5
3665
  8
AM_0
 10
385.50910596495441
 20
521.49792821371625
 30
0.0
 11
418.34165596495421
 21
522.64447321371586
 31
0.0
  0
ARC
  5
3666
  8
AM_0
 10
385.61380596495428
 20
518.49972821371625
 30
0.0
 40
3.0000000500000001
 50
91.999998000000545
 51
180.00001000000091
  0
ARC
  5
3667
  8
AM_0
 10
419.61480596495431
 20
528.05474821371581
 30
0.0
 40
4.000000049999997
 50
315.0
 51
0.9319899800013384
  0
ARC
  5
3668
  8
AM_0
 10
418.20215596495422
 20
526.64199821371596
 30
0.0
 40
4.000000049999997
 50
271.9999999999971
 51
315.0
  0
LINE
  5
3669
  8
AM_0
 10
421.03050596495427
 20
523.81359821371586
 30
0.0
 11
422.4432059649543
 21
525.22631821371567
 31
0.0
  0
ARC
  5
366A
  8
AM_0
 10
427.61375596495429
 20
528.18487821371593
 30
0.0
 40
4.000000049999997
 50
91.999998000000545
 51
180.93197999999961
  0
LINE
  5
366B
  8
AM_0
 10
433.61370596495448
 20
531.89682321371595
 30
0.0
 11
463.28825596495432
 21
532.93307821371593
 31
0.0
  0
ARC
  5
366C
  8
AM_0
 10
463.11380596495428
 20
537.93005821371605
 30
0.0
 40
5.0
 50
271.9999999999971
 51
0.0
  0
LINE
  5
366D
  8
AM_0
 10
470.59275596495439
 20
575.47580821371594
 30
0.0
 11
479.63465596495439
 21
577.070208213716
 31
0.0
  0
ARC
  5
366E
  8
AM_0
 10
471.1137559649539
 20
572.52135821371587
 30
0.0
 40
3.0000000500000001
 50
99.999999999998593
 51
180.00001000000091
  0
ARC
  5
366F
  8
AM_0
 10
479.11380596495439
 20
580.02455821371598
 30
0.0
 40
3.0000000500000001
 50
279.99999999999852
 51
0.0
  0
LINE
  5
3670
  8
AM_0
 10
471.61040596495423
 20
595.01155821371594
 30
0.0
 11
479.11380596495439
 21
596.39685821371597
 31
0.0
  0
LINE
  5
3671
  8
AM_0
 10
471.29660596495432
 20
594.89685821371575
 30
0.0
 11
486.93090596495449
 21
594.89685821371575
 31
0.0
  0
LINE
  5
3672
  8
AM_0
 10
468.79095596495432
 20
587.89685821371597
 30
0.0
 11
483.44645596495451
 21
587.89685821371597
 31
0.0
  0
ARC
  5
3673
  8
AM_0
 10
471.79190596495442
 20
594.02805821371601
 30
0.0
 40
1.0
 50
100.4607200000025
 51
164.99999000000179
  0
ARC
  5
3674
  8
AM_0
 10
465.19675596495398
 20
588.73325821371554
 30
0.0
 40
4.000000049999997
 50
347.9293300000017
 51
55.386359000001512
  0
ARC
  5
3675
  8
AM_0
 10
470.11375596495418
 20
586.39685821371575
 30
0.0
 40
2.0000000500000001
 50
131.40962000000329
 51
180.00001000000091
  0
LINE
  5
3676
  8
AM_0
 10
469.11370596495448
 20
587.89685821371597
 30
0.0
 11
470.8259059649543
 21
594.28700821371592
 31
0.0
  0
ARC
  5
3677
  8
AM_0
 10
486.43565596495432
 20
594.02805821371601
 30
0.0
 40
1.0
 50
15.000000000000741
 51
79.539281000002589
  0
ARC
  5
3678
  8
AM_0
 10
484.11380596495428
 20
586.01145821371597
 30
0.0
 40
2.0000000500000001
 50
91.999998000000545
 51
180.00001000000091
  0
LINE
  5
3679
  8
AM_0
 10
479.11375596495401
 20
596.39685821371597
 30
0.0
 11
486.61720596495411
 21
595.01145821371585
 31
0.0
  0
LINE
  5
367B
  8
AM_0
 10
593.11380596495405
 20
556.39680821371564
 30
0.0
 11
604.11380596495439
 21
556.39680821371564
 31
0.0
  0
LINE
  5
367C
  8
AM_0
 10
510.11375596495429
 20
476.40860321371599
 30
0.0
 11
510.11375596495429
 21
559.72105821371599
 31
0.0
  0
LINE
  5
367D
  8
AM_0
 10
495.11375596495418
 20
473.40860321371599
 30
0.0
 11
507.11375596495418
 21
473.40860321371599
 31
0.0
  0
ARC
  5
367E
  8
AM_0
 10
507.11375596495418
 20
476.40860321371599
 30
0.0
 40
3.0000000500000001
 50
270.0
 51
0.0
  0
ARC
  5
367F
  8
AM_0
 10
513.24985596495435
 20
476.91207821371592
 30
0.0
 40
3.0000000500000001
 50
41.102821999997772
 51
90.00000299999769
  0
ARC
  5
3680
  8
AM_0
 10
575.11375596495441
 20
530.56967321371587
 30
0.0
 40
10.0
 50
90.00000299999769
 51
180.00001000000091
  0
LINE
  5
3681
  8
AM_0
 10
580.17205596495432
 20
540.56965821371602
 30
0.0
 11
575.11375596495441
 21
540.56965821371602
 31
0.0
  0
LINE
  5
3682
  8
AM_0
 10
512.04405596495417
 20
582.51940821371591
 30
0.0
 11
577.39300596495423
 21
580.23735821371599
 31
0.0
  0
ARC
  5
3683
  8
AM_0
 10
513.80530596495453
 20
577.98010821371588
 30
0.0
 40
3.0000000500000001
 50
59.83387800000353
 51
90.00000299999769
  0
LINE
  5
3684
  8
AM_0
 10
515.31280596495435
 20
580.57380821371601
 30
0.0
 11
525.13885596495425
 21
574.86265821371592
 31
0.0
  0
LINE
  5
3685
  8
AM_0
 10
511.48015596495452
 20
552.79065821371603
 30
0.0
 11
523.28155596495435
 21
556.73205821371585
 31
0.0
  0
ARC
  5
3686
  8
AM_0
 10
507.11375596495418
 20
559.72105821371599
 30
0.0
 40
3.0000000500000001
 50
0.0
 51
90.00000299999769
  0
LINE
  5
3687
  8
AM_0
 10
514.61375596495418
 20
557.87250821371583
 30
0.0
 11
514.61375596495418
 21
579.04565821371591
 31
0.0
  0
LINE
  5
3688
  8
AM_0
 10
495.11375596495418
 20
562.72105821371588
 30
0.0
 11
507.11375596495418
 21
562.72105821371588
 31
0.0
  0
ARC
  5
3689
  8
AM_0
 10
514.12610596495438
 20
556.83710821371596
 30
0.0
 40
3.0000000500000001
 50
270.0
 51
288.46821999999912
  0
ARC
  5
368A
  8
AM_0
 10
520.11375596495441
 20
566.21695821371588
 30
0.0
 40
10.0
 50
288.46820999999841
 51
59.83387800000353
  0
LINE
  5
368B
  8
AM_0
 10
495.11380596495428
 20
588.39680821371564
 30
0.0
 11
508.18365596495431
 21
587.94035821371585
 31
0.0
  0
LINE
  5
368C
  8
AM_0
 10
495.11375596495418
 20
580.98010821371554
 30
0.0
 11
513.80530596495453
 21
580.98010821371554
 31
0.0
  0
LINE
  5
368D
  8
AM_0
 10
493.113805964954
 20
588.32695821371601
 30
0.0
 11
493.113805964954
 21
588.39685821371575
 31
0.0
  0
LINE
  5
368E
  8
AM_0
 10
493.113805964954
 20
588.39685821371575
 30
0.0
 11
495.11375596495418
 21
588.39685821371575
 31
0.0
  0
ARC
  5
368F
  8
AM_0
 10
512.11375596495395
 20
584.51820821371575
 30
0.0
 40
2.0000000500000001
 50
179.999989999999
 51
268.00000999999861
  0
ARC
  5
3690
  8
AM_0
 10
508.11380596495428
 20
585.94165821371575
 30
0.0
 40
2.0000000500000001
 50
0.0
 51
88.000000000002899
  0
LINE
  5
3691
  8
AM_0
 10
510.11375596495429
 20
580.98010821371554
 30
0.0
 11
510.11375596495429
 21
585.94165821371575
 31
0.0
  0
ARC
  5
3692
  8
AM_0
 10
577.11375596495418
 20
572.24220821371603
 30
0.0
 40
8.0
 50
0.0
 51
88.000000000002899
  0
ARC
  5
3693
  8
AM_0
 10
593.11380596495405
 20
564.39685821371586
 30
0.0
 40
8.0
 50
180.00001000000091
 51
270.0
  0
LINE
  5
3695
  8
AM_0
 10
607.11375596495418
 20
496.39679321371591
 30
0.0
 11
607.11375596495418
 21
553.39680821371587
 31
0.0
  0
LINE
  5
3696
  8
AM_0
 10
617.11375596495407
 20
517.39682321371595
 30
0.0
 11
687.11375596495407
 21
517.39682321371595
 31
0.0
  0
LINE
  5
3697
  8
AM_0
 10
617.11375596495407
 20
475.39682321371589
 30
0.0
 11
687.11375596495407
 21
475.39682321371589
 31
0.0
  0
LINE
  5
3698
  8
AM_0
 10
631.11375596495418
 20
520.39682321371595
 30
0.0
 11
687.11375596495407
 21
520.39682321371595
 31
0.0
  0
LINE
  5
3699
  8
AM_0
 10
613.11380596495428
 20
496.39679321371591
 30
0.0
 11
613.11380596495428
 21
536.15415821371585
 31
0.0
  0
LINE
  5
369A
  8
AM_0
 10
617.11375596495407
 20
473.89679321371602
 30
0.0
 11
617.11375596495407
 21
518.89679321371602
 31
0.0
  0
LINE
  5
369B
  8
AM_0
 10
613.11380596495428
 20
473.89679321371602
 30
0.0
 11
617.11375596495407
 21
473.89679321371602
 31
0.0
  0
LINE
  5
369C
  8
AM_0
 10
613.11380596495428
 20
518.89679321371602
 30
0.0
 11
617.11375596495407
 21
518.89679321371602
 31
0.0
  0
ARC
  5
369D
  8
AM_0
 10
610.11375596495441
 20
544.63945821371556
 30
0.0
 40
3.0000000500000001
 50
179.999989999999
 51
225.0
  0
ARC
  5
369E
  8
AM_0
 10
610.11375596495441
 20
536.15415821371585
 30
0.0
 40
3.0000000500000001
 50
0.0
 51
45.00000100000149
  0
LINE
  5
369F
  8
AM_0
 10
607.9924059649544
 20
542.51815821371565
 30
0.0
 11
612.23510596495419
 21
538.27550821371585
 31
0.0
  0
LINE
  5
36A0
  8
AM_0
 10
631.11375596495418
 20
520.39682321371595
 30
0.0
 11
631.11375596495418
 21
517.39682321371595
 31
0.0
  0
LINE
  5
36A1
  8
AM_0
 10
687.11375596495407
 20
475.39682321371589
 30
0.0
 11
687.11375596495407
 21
520.39682321371595
 31
0.0
  0
ARC
  5
36A2
  8
AM_0
 10
604.11380596495439
 20
553.39680821371587
 30
0.0
 40
3.0000000500000001
 50
0.0
 51
90.00000299999769
  0
ARC
  5
36A6
  8
AM_0
 10
829.04819588538544
 20
475.7269932137159
 30
0.0
 40
5.0
 50
315.0
 51
352.62448999999992
  0
ARC
  5
36A7
  8
AM_0
 10
1096.8141858853851
 20
475.7269932137159
 30
0.0
 40
5.0
 50
187.37550999999999
 51
225.0
  0
ARC
  5
36A8
  8
AM_0
 10
962.93119088538549
 20
468.39682321371589
 30
0.0
 40
88.0
 50
0.0
 51
186.5249800000004
  0
CIRCLE
  5
36A9
  8
AM_0
 10
962.93119088538549
 20
496.39679321371568
 30
0.0
 40
41.000000499999992
  0
LINE
  5
36AA
  8
AM_0
 10
1056.9311908853861
 20
540.03165821371567
 30
0.0
 11
1056.9311908853861
 21
420.78216821371598
 31
0.0
  0
LINE
  5
36AB
  8
AM_0
 10
1086.4761158853851
 20
473.78839321371561
 30
0.0
 11
1102.892830885386
 21
342.0149532137159
 31
0.0
  0
LINE
  5
36AC
  8
AM_0
 10
868.93116088538545
 20
540.03165821371567
 30
0.0
 11
868.93116088538545
 21
424.3869632137156
 31
0.0
  0
LINE
  5
36AD
  8
AM_0
 10
839.3861958853854
 20
473.78839321371561
 30
0.0
 11
822.9694958853853
 21
342.0149532137159
 31
0.0
  0
LINE
  5
36AE
  8
AM_0
 10
825.86014588538535
 20
465.46786821371569
 30
0.0
 11
839.19999588538553
 21
478.80777321371602
 31
0.0
  0
LINE
  5
36AF
  8
AM_0
 10
1100.002265885385
 20
465.46786821371569
 30
0.0
 11
1086.6623958853861
 21
478.80773821371588
 31
0.0
  0
LINE
  5
36B0
  8
ﾁｭｳｼﾝｾﾝ
 10
962.93119088538549
 20
630.93950821371561
 30
0.0
 11
962.93119088538549
 21
320.4272132137159
 31
0.0
  0
LINE
  5
36B3
  8
ﾁｭｳｼﾝｾﾝ
 10
844.00403763357315
 20
430.39681821371568
 30
0.0
 11
1081.8583441371979
 21
430.39681821371568
 31
0.0
  0
LINE
  5
36B6
  8
AM_0
 10
892.57672588538503
 20
336.12747321371597
 30
0.0
 11
1033.285655885385
 21
336.12747321371597
 31
0.0
  0
LINE
  5
36B7
  8
AM_0
 10
895.93116088538545
 20
341.39678821371609
 30
0.0
 11
1029.931190885384
 21
341.39678821371609
 31
0.0
  0
LINE
  5
36B8
  8
AM_0
 10
881.93116088538545
 20
326.39678821371598
 30
0.0
 11
1044.296945885385
 21
326.39678821371598
 31
0.0
  0
ARC
  5
36B9
  8
AM_0
 10
879.95301088538542
 20
334.23263321371581
 30
0.0
 40
8.0
 50
279.48829999999668
 51
357.00553999999909
  0
LINE
  5
36BA
  8
ｶｸﾚｾﾝ2
 10
857.43119588538525
 20
346.39678821371598
 30
0.0
 11
857.43119588538525
 21
321.39678821371598
 31
0.0
  0
LINE
  5
36BB
  8
AM_0
 10
874.23117588538571
 20
342.3968182137159
 30
0.0
 11
874.23117588538571
 21
321.39678821371598
 31
0.0
  0
LINE
  5
36BC
  8
ｶｸﾚｾﾝ2
 10
838.43119588538548
 20
346.39678821371598
 30
0.0
 11
838.43119588538548
 21
321.39678821371598
 31
0.0
  0
LINE
  5
36BD
  8
AM_0
 10
822.93119588538525
 20
341.39678821371609
 30
0.0
 11
822.93119588538525
 21
321.39678821371598
 31
0.0
  0
LINE
  5
36BE
  8
ﾁｭｳｼﾝｾﾝ1
 10
847.93119588538525
 20
350.90469321371597
 30
0.0
 11
847.93119588538525
 21
316.50518821371588
 31
0.0
  0
LINE
  5
36BF
  8
AM_0
 10
822.93119588538525
 20
321.39678821371598
 30
0.0
 11
877.93119088538515
 21
321.39678821371598
 31
0.0
  0
ARC
  5
36C0
  8
AM_0
 10
881.93116088538545
 20
322.39681821371568
 30
0.0
 40
4.000000049999997
 50
99.488295999997277
 51
180.00001000000091
  0
LINE
  5
36C1
  8
AM_0
 10
877.93119088538515
 20
322.39681821371568
 30
0.0
 11
877.93119088538515
 21
321.39678821371598
 31
0.0
  0
ARC
  5
36C2
  8
AM_0
 10
962.93119088538549
 20
424.3869632137156
 30
0.0
 40
93.999994999999984
 50
179.999989999999
 51
200.58196000000129
  0
LINE
  5
36C3
  8
AM_0
 10
874.93119088538526
 20
458.39682321371589
 30
0.0
 11
874.93119088538526
 21
354.3968182137159
 31
0.0
  0
LINE
  5
36C4
  8
AM_0
 10
827.93119588538525
 20
346.39678821371598
 30
0.0
 11
870.23117588538526
 21
346.39678821371598
 31
0.0
  0
ARC
  5
36C5
  8
AM_0
 10
827.93119588538525
 20
341.39678821371609
 30
0.0
 40
5.0
 50
90.00000299999769
 51
180.00001000000091
  0
ARC
  5
36C6
  8
AM_0
 10
866.93116088538545
 20
354.3968182137159
 30
0.0
 40
8.0
 50
270.0
 51
0.0
  0
ARC
  5
36C7
  8
AM_0
 10
870.23117588538526
 20
342.3968182137159
 30
0.0
 40
4.000000049999997
 50
0.0
 51
90.00000299999769
  0
ARC
  5
36C8
  8
AM_0
 10
892.57672588538503
 20
331.12747321371597
 30
0.0
 40
5.0
 50
90.00000299999769
 51
166.18077999999969
  0
ARC
  5
36C9
  8
AM_0
 10
895.93116088538545
 20
333.3968182137159
 30
0.0
 40
8.0
 50
90.00000299999769
 51
177.00553999999909
  0
LINE
  5
36CA
  8
AM_0
 10
825.86014588538535
 20
451.3257432137159
 30
0.0
 11
833.67104588538541
 21
443.5147732137159
 31
0.0
  0
ARC
  5
36CB
  8
AM_0
 10
832.93119588538525
 20
458.39682321371589
 30
0.0
 40
10.0
 50
135.0
 51
225.0
  0
ARC
  5
36CC
  8
AM_0
 10
829.04819588538544
 20
441.06665321371582
 30
0.0
 40
5.0
 50
7.375508100000534
 51
45.00000100000149
  0
ARC
  5
36CD
  8
AM_0
 10
830.13554588538545
 20
439.97921821371602
 30
0.0
 40
5.0
 50
352.89851999999883
 51
45.00000100000149
  0
ARC
  5
36CE
  8
AM_0
 10
962.93119088538549
 20
458.39682321371589
 30
0.0
 40
130.0
 50
187.37550999999999
 51
189.62446000000119
  0
ARC
  5
36CF
  8
AM_0
 10
1045.9093408853851
 20
334.23263321371581
 30
0.0
 40
8.0
 50
182.99446000000091
 51
260.51170000000332
  0
LINE
  5
36D0
  8
AM_0
 10
1102.9311758853851
 20
341.39678821371609
 30
0.0
 11
1102.9311758853851
 21
321.39678821371598
 31
0.0
  0
LINE
  5
36D1
  8
ｶｸﾚｾﾝ2
 10
1068.431160885385
 20
346.39678821371598
 30
0.0
 11
1068.431160885385
 21
321.39678821371598
 31
0.0
  0
LINE
  5
36D2
  8
ｶｸﾚｾﾝ2
 10
1087.431160885385
 20
346.39678821371598
 30
0.0
 11
1087.431160885385
 21
321.39678821371598
 31
0.0
  0
LINE
  5
36D3
  8
AM_0
 10
1051.631175885384
 20
342.3968182137159
 30
0.0
 11
1051.631175885384
 21
321.39678821371598
 31
0.0
  0
LINE
  5
36D4
  8
ﾁｭｳｼﾝｾﾝ1
 10
1077.9311908853849
 20
350.24697821371598
 30
0.0
 11
1077.9311908853849
 21
314.4212932137159
 31
0.0
  0
LINE
  5
36D5
  8
AM_0
 10
1047.931190885384
 20
321.39678821371598
 30
0.0
 11
1102.9311758853851
 21
321.39678821371598
 31
0.0
  0
ARC
  5
36D6
  8
AM_0
 10
1043.931160885385
 20
322.39681821371568
 30
0.0
 40
4.000000049999997
 50
0.0
 51
80.511702000002984
  0
LINE
  5
36D7
  8
AM_0
 10
1047.931190885384
 20
322.39681821371568
 30
0.0
 11
1047.931190885384
 21
321.39678821371598
 31
0.0
  0
ARC
  5
36D8
  8
AM_0
 10
962.93119088538549
 20
424.3869632137156
 30
0.0
 40
93.999994999999984
 50
339.95002000000011
 51
20.049975999999859
  0
LINE
  5
36D9
  8
AM_0
 10
1050.931160885385
 20
468.39682321371589
 30
0.0
 11
1050.931160885385
 21
354.3968182137159
 31
0.0
  0
LINE
  5
36DA
  8
AM_0
 10
1058.931160885385
 20
346.39678821371598
 30
0.0
 11
1097.931190885384
 21
346.39678821371598
 31
0.0
  0
ARC
  5
36DB
  8
AM_0
 10
1058.931160885385
 20
354.3968182137159
 30
0.0
 40
8.0
 50
180.00001000000091
 51
270.0
  0
ARC
  5
36DC
  8
AM_0
 10
1033.285655885385
 20
331.12747321371597
 30
0.0
 40
5.0
 50
13.819217000001251
 51
90.00000299999769
  0
ARC
  5
36DD
  8
AM_0
 10
1029.931190885384
 20
333.3968182137159
 30
0.0
 40
8.0
 50
2.9944644000003162
 51
90.00000299999769
  0
ARC
  5
36DE
  8
AM_0
 10
1055.631175885384
 20
342.3968182137159
 30
0.0
 40
4.000000049999997
 50
90.00000299999769
 51
180.00001000000091
  0
ARC
  5
36DF
  8
AM_0
 10
1055.931160885385
 20
390.44583321371601
 30
0.0
 40
5.0
 50
159.95003000000011
 51
180.00001000000091
  0
ARC
  5
36E0
  8
AM_0
 10
1097.931190885384
 20
341.39678821371609
 30
0.0
 40
5.0
 50
0.0
 51
90.00000299999769
  0
ARC
  5
36E1
  8
AM_0
 10
1055.931160885385
 20
458.32806321371572
 30
0.0
 40
5.0
 50
179.999989999999
 51
200.0499699999998
  0
ARC
  5
36E2
  8
AM_0
 10
1092.931190885384
 20
458.39682321371589
 30
0.0
 40
10.0
 50
315.0
 51
45.00000100000149
  0
ARC
  5
36E3
  8
AM_0
 10
1096.8141858853851
 20
441.06665321371582
 30
0.0
 40
5.0
 50
135.0
 51
172.6244899999997
  0
ARC
  5
36E4
  8
AM_0
 10
1095.7268158853849
 20
439.97921821371602
 30
0.0
 40
5.0
 50
135.0
 51
187.10148999999851
  0
ARC
  5
36E5
  8
AM_0
 10
962.93119088538549
 20
458.39682321371589
 30
0.0
 40
130.0
 50
350.37554999999838
 51
352.62448999999992
  0
LINE
  5
36E6
  8
AM_0
 10
1100.002265885385
 20
451.3257432137159
 30
0.0
 11
1092.191295885385
 21
443.5147732137159
 31
0.0
  0
ARC
  5
36E7
  8
AM_0
 10
910.9980558853855
 20
583.00800821371593
 30
0.0
 40
5.0
 50
254.99999999999841
 51
292.62449000000288
  0
ARC
  5
36E8
  8
AM_0
 10
962.93119088538549
 20
458.39682321371589
 30
0.0
 40
124.5
 50
7.1014839000006411
 51
172.8985199999988
  0
LINE
  5
36E9
  8
ﾁｭｳｼﾝｾﾝ
 10
887.04068619112275
 20
496.39679321371568
 30
0.0
 11
1038.8216955796479
 21
496.39679321371568
 31
0.0
  0
LINE
  5
36EA
  8
AM_0
 10
900.51941588538523
 20
580.6394082137158
 30
0.0
 11
918.74201088538564
 21
575.75665821371547
 31
0.0
  0
ARC
  5
36ED
  8
AM_0
 10
962.93119088538549
 20
458.39682321371589
 30
0.0
 40
130.0
 50
127.3755000000039
 51
172.6244899999997
  0
ARC
  5
36EE
  8
AM_0
 10
835.66444588538548
 20
482.34329321371581
 30
0.0
 40
5.0
 50
315.0
 51
349.34382000000022
  0
ARC
  5
36EF
  8
AM_0
 10
897.93119088538572
 20
570.98010821371577
 30
0.0
 40
10.0
 50
74.99999899999662
 51
164.99999000000179
  0
ARC
  5
36F0
  8
AM_0
 10
878.55954588538555
 20
556.63975821371582
 30
0.0
 40
5.0
 50
310.6561800000004
 51
344.99999999999932
  0
ARC
  5
36F1
  8
AM_0
 10
880.98130088538539
 20
565.67785821371592
 30
0.0
 40
5.0
 50
307.37551000000281
 51
344.99999999999932
  0
LINE
  5
36F2
  8
AM_0
 10
888.27195088538542
 20
573.56835821371556
 30
0.0
 11
883.38919588538545
 21
555.34570821371597
 31
0.0
  0
LINE
  5
36F3
  8
AM_0
 10
966.93116088538534
 20
625.39680821371564
 30
0.0
 11
966.93116088538534
 21
591.89685821371575
 31
0.0
  0
LINE
  5
36F4
  8
AM_0
 10
958.93116088538534
 20
625.39680821371564
 30
0.0
 11
958.93116088538534
 21
591.89685821371575
 31
0.0
  0
LINE
  5
36F5
  8
AM_0
 10
1025.3429958853851
 20
580.6393582137157
 30
0.0
 11
1007.120370885385
 21
575.75660821371559
 31
0.0
  0
CIRCLE
  5
36F6
  8
AM_5
 10
962.93119088538549
 20
496.39679321371568
 30
0.0
 40
5.0
  0
ARC
  5
36F7
  8
AM_0
 10
962.93119088538549
 20
496.39679321371568
 30
0.0
 40
20.9999985
 50
106.6015499999988
 51
73.398451999997818
  0
LINE
  5
36F8
  8
AM_0
 10
956.93116088538534
 20
512.39682321371583
 30
0.0
 11
968.93116088538545
 21
512.39682321371583
 31
0.0
  0
LINE
  5
36F9
  8
AM_0
 10
956.93116088538534
 20
520.39682321371583
 30
0.0
 11
968.93116088538545
 21
520.39682321371583
 31
0.0
  0
CIRCLE
  5
36FA
  8
AM_0
 10
962.93119088538549
 20
496.39679321371568
 30
0.0
 40
3.5000000500000001
  0
LINE
  5
36FB
  8
AM_0
 10
956.93116088538534
 20
520.39682321371583
 30
0.0
 11
956.93116088538534
 21
512.39682321371583
 31
0.0
  0
LINE
  5
36FC
  8
AM_0
 10
968.93116088538545
 20
520.39682321371583
 30
0.0
 11
968.93116088538545
 21
512.39682321371583
 31
0.0
  0
ARC
  5
36FD
  8
AM_0
 10
968.93116088538545
 20
591.89685821371575
 30
0.0
 40
2.0000000500000001
 50
179.999989999999
 51
270.0
  0
ARC
  5
36FE
  8
AM_0
 10
962.93119088538549
 20
458.39682321371589
 30
0.0
 40
130.0
 50
67.375506000002574
 51
112.62449000000299
  0
ARC
  5
36FF
  8
AM_0
 10
920.03608088538556
 20
580.58625821371595
 30
0.0
 40
5.0
 50
254.99999999999841
 51
289.34381999999982
  0
ARC
  5
3700
  8
AM_0
 10
955.6093208853855
 20
594.02805821371589
 30
0.0
 40
1.0
 50
100.4607200000025
 51
164.99999000000179
  0
ARC
  5
3701
  8
AM_0
 10
956.93116088538534
 20
591.89685821371575
 30
0.0
 40
2.0000000500000001
 50
270.0
 51
0.0
  0
LINE
  5
3702
  8
AM_0
 10
958.93119088538515
 20
595.65825821371561
 30
0.0
 11
955.42774088538522
 21
595.01145821371585
 31
0.0
  0
LINE
  5
3703
  8
AM_0
 10
952.96262588538525
 20
588.01405821371554
 30
0.0
 11
954.64344088538564
 21
594.28690821371595
 31
0.0
  0
ARC
  5
3704
  8
AM_0
 10
1005.826270885385
 20
580.58625821371595
 30
0.0
 40
5.0
 50
250.65618000000021
 51
285.00000000000171
  0
ARC
  5
3705
  8
AM_0
 10
1014.864325885385
 20
583.00800821371593
 30
0.0
 40
5.0
 50
247.37550999999689
 51
285.00000000000171
  0
ARC
  5
3706
  8
AM_0
 10
970.25303088538556
 20
594.02805821371589
 30
0.0
 40
1.0
 50
15.000000000000741
 51
79.539281000002589
  0
LINE
  5
3707
  8
AM_0
 10
966.93116088538534
 20
595.65830821371594
 30
0.0
 11
970.43457588538524
 21
595.01145821371585
 31
0.0
  0
LINE
  5
3708
  8
AM_0
 10
972.89975588538528
 20
588.01405821371554
 30
0.0
 11
971.2189708853856
 21
594.28685821371562
 31
0.0
  0
ARC
  5
3709
  8
AM_0
 10
962.93119088538549
 20
458.39682321371589
 30
0.0
 40
130.0
 50
7.3755072000005972
 51
52.624493999996417
  0
ARC
  5
370A
  8
AM_0
 10
1090.1978858853849
 20
482.34329321371581
 30
0.0
 40
5.0
 50
190.65617999999969
 51
225.0
  0
ARC
  5
370B
  8
AM_0
 10
1027.931190885384
 20
570.98010821371577
 30
0.0
 40
10.0
 50
15.000000000000741
 51
105.00000000000161
  0
ARC
  5
370C
  8
AM_0
 10
1044.8810508853851
 20
565.67785821371592
 30
0.0
 40
5.0
 50
195.0000099999981
 51
232.62449999999609
  0
LINE
  5
370D
  8
AM_0
 10
1037.590460885385
 20
573.56825821371547
 30
0.0
 11
1042.473185885385
 21
555.34565821371575
 31
0.0
  0
ARC
  5
370E
  8
AM_0
 10
1047.3028058853849
 20
556.63975821371582
 30
0.0
 40
5.0
 50
195.0000099999981
 51
229.3438199999996
  0
ARC
  5
370F
  8
AM_0
 10
962.93119088538549
 20
625.39680821371564
 30
0.0
 40
4.000000049999997
 50
359.999989999999
 51
179.999989999999
  0
POINT
  5
3710
  8
0
 10
221.86902307413209
 20
715.90010239993364
 30
0.0
1001
GENIUS_GENOLIS_13
1002
{
1000
ENT
1005
0
1005
3599
1005
35CE
1002
}
1001
GENIUS_GENOENT_13
1002
{
1000
MYREF
1005
3710
1002
}
1002
{
1000
GRP
1005
0
1002
}
1001
GENIUS_GENOBJ-NBEHI-BHB_13
1002
{
1000
OWNER
1000
genbehi
1002
}
1001
GENIUS_GENBH_13
1002
{
1000
FGO
1005
0
1002
}
1001
GENIUS_GENODEF_13
1002
{
1000
HIER
1070
     1
1002
}
1002
{
1000
MANEDIT
1070
     1
1002
}
1002
{
1000
NOSEL
1070
     1
1002
}
1002
{
1000
BEHIND
1070
     0
1002
}
1002
{
1000
OTHER
1070
     1
1002
}
1002
{
1000
REACTOR
1002
}
  0
TEXT
  5
3C02
  8
AM_0
 10
838.31609875774575
 20
908.57189350584395
 30
0.0
 40
15.0
  1
VX02-800S~VX02-K20S
  0
ENDSEC
  0
EOF
