  0
SECTION
  2
HEADER
  9
$ACADVER
  1
AC1009
  9
$INSBASE
 10
0.0
 20
0.0
 30
0.0
  9
$EXTMIN
 10
103.5871957459494
 20
123.2469885683535
 30
-0.0015258207003583
  9
$EXTMAX
 10
632.15165886917953
 20
555.9594763052412
 30
0.0000000349246037
  9
$LIMMIN
 10
0.0
 20
0.0
  9
$LIMMAX
 10
853.5
 20
555.00000000000011
  9
$ORTHOMODE
 70
     0
  9
$REGENMODE
 70
     1
  9
$FILLMODE
 70
     1
  9
$QTEXTMODE
 70
     0
  9
$MIRRTEXT
 70
     1
  9
$DRAGMODE
 70
     2
  9
$LTSCALE
 40
3.0
  9
$OSMODE
 70
   551
  9
$ATTMODE
 70
     1
  9
$TEXTSIZE
 40
2.5
  9
$TRACEWID
 40
1.0
  9
$TEXTSTYLE
  7
STANDARD
  9
$CLAYER
  8
AM_0
  9
$CELTYPE
  6
BYLAYER
  9
$CECOLOR
 62
   256
  9
$DIMSCALE
 40
1.0
  9
$DIMASZ
 40
2.5
  9
$DIMEXO
 40
1.0
  9
$DIMDLI
 40
8.0
  9
$DIMRND
 40
0.0
  9
$DIMDLE
 40
0.0
  9
$DIMEXE
 40
0.6
  9
$DIMTP
 40
0.1
  9
$DIMTM
 40
0.1
  9
$DIMTXT
 40
2.5
  9
$DIMCEN
 40
0.0
  9
$DIMTSZ
 40
0.0
  9
$DIMTOL
 70
     0
  9
$DIMLIM
 70
     0
  9
$DIMTIH
 70
     0
  9
$DIMTOH
 70
     0
  9
$DIMSE1
 70
     0
  9
$DIMSE2
 70
     0
  9
$DIMTAD
 70
     1
  9
$DIMZIN
 70
     8
  9
$DIMBLK
  1

  9
$DIMASO
 70
     1
  9
$DIMSHO
 70
     1
  9
$DIMPOST
  1

  9
$DIMAPOST
  1
"
  9
$DIMALT
 70
     0
  9
$DIMALTD
 70
     2
  9
$DIMALTF
 40
0.0393701
  9
$DIMLFAC
 40
1.0
  9
$DIMTOFL
 70
     1
  9
$DIMTVP
 40
0.0
  9
$DIMTIX
 70
     0
  9
$DIMSOXD
 70
     0
  9
$DIMSAH
 70
     0
  9
$DIMBLK1
  1

  9
$DIMBLK2
  1

  9
$DIMSTYLE
  2
AM_ISO
  9
$DIMCLRD
 70
   256
  9
$DIMCLRE
 70
   256
  9
$DIMCLRT
 70
     4
  9
$DIMTFAC
 40
0.71
  9
$DIMGAP
 40
0.8
  9
$LUNITS
 70
     2
  9
$LUPREC
 70
     2
  9
$SKETCHINC
 40
1.0
  9
$FILLETRAD
 40
15.0
  9
$AUNITS
 70
     0
  9
$AUPREC
 70
     0
  9
$MENU
  1
.
  9
$ELEVATION
 40
0.0
  9
$PELEVATION
 40
0.0
  9
$THICKNESS
 40
0.0
  9
$LIMCHECK
 70
     0
  9
$BLIPMODE
 70
     0
  9
$CHAMFERA
 40
6.0
  9
$CHAMFERB
 40
3.0
  9
$SKPOLY
 70
     0
  9
$TDCREATE
 40
2452065.6079038191
  9
$TDUPDATE
 40
2458541.586401667
  9
$TDINDWG
 40
0.1498916898
  9
$TDUSRTIMER
 40
0.149891331
  9
$USRTIMER
 70
     1
  9
$ANGBASE
 50
0.0
  9
$ANGDIR
 70
     0
  9
$PDMODE
 70
     0
  9
$PDSIZE
 40
0.0
  9
$PLINEWID
 40
0.0
  9
$COORDS
 70
     1
  9
$SPLFRAME
 70
     0
  9
$SPLINETYPE
 70
     6
  9
$SPLINESEGS
 70
     8
  9
$ATTDIA
 70
     1
  9
$ATTREQ
 70
     1
  9
$HANDLING
 70
     1
  9
$HANDSEED
  5
3B27
  9
$SURFTAB1
 70
     6
  9
$SURFTAB2
 70
     6
  9
$SURFTYPE
 70
     6
  9
$SURFU
 70
     6
  9
$SURFV
 70
     6
  9
$UCSNAME
  2

  9
$UCSORG
 10
0.0
 20
0.0
 30
0.0
  9
$UCSXDIR
 10
1.0
 20
0.0
 30
0.0
  9
$UCSYDIR
 10
0.0
 20
1.0
 30
0.0
  9
$PUCSNAME
  2

  9
$PUCSORG
 10
0.0
 20
0.0
 30
0.0
  9
$PUCSXDIR
 10
1.0
 20
0.0
 30
0.0
  9
$PUCSYDIR
 10
0.0
 20
1.0
 30
0.0
  9
$USERI1
 70
     0
  9
$USERI2
 70
     0
  9
$USERI3
 70
     0
  9
$USERI4
 70
     0
  9
$USERI5
 70
     0
  9
$USERR1
 40
0.0
  9
$USERR2
 40
0.0
  9
$USERR3
 40
0.0
  9
$USERR4
 40
0.0
  9
$USERR5
 40
0.0
  9
$WORLDVIEW
 70
     1
  9
$SHADEDGE
 70
     3
  9
$SHADEDIF
 70
    70
  9
$TILEMODE
 70
     1
  9
$MAXACTVP
 70
    64
  9
$PLIMCHECK
 70
     0
  9
$PEXTMIN
 10
1.0000000000000000E+020
 20
1.0000000000000000E+020
 30
1.0000000000000000E+020
  9
$PEXTMAX
 10
-1.0000000000000000E+020
 20
-1.0000000000000000E+020
 30
-1.0000000000000000E+020
  9
$PLIMMIN
 10
0.0
 20
0.0
  9
$PLIMMAX
 10
420.0
 20
297.0
  9
$UNITMODE
 70
     0
  9
$VISRETAIN
 70
     1
  9
$PLINEGEN
 70
     0
  9
$PSLTSCALE
 70
     1
  0
ENDSEC
  0
SECTION
  2
TABLES
  0
TABLE
  2
VPORT
 70
     1
  0
VPORT
  2
*ACTIVE
 70
     0
 10
0.0
 20
0.0
 11
1.0
 21
1.0
 12
367.86942730756448
 22
339.60323243679738
 13
0.0
 23
0.0
 14
7.5
 24
7.5
 15
30.0
 25
30.0
 16
0.0
 26
0.0
 36
1.0
 17
0.0
 27
0.0
 37
0.0
 40
435.68305401425749
 41
1.7571592210767459
 42
50.0
 43
0.0
 44
0.0
 50
0.0
 51
0.0
 71
     0
 72
   100
 73
     1
 74
     3
 75
     0
 76
     0
 77
     0
 78
     0
  0
ENDTAB
  0
TABLE
  2
LTYPE
 70
    18
  0
LTYPE
  2
CONTINUOUS
 70
     0
  3
Solid line
 72
    65
 73
     0
 40
0.0
  0
LTYPE
  2
AM_ISO02W050
 70
     0
  3
__ __ __ __ __ __ __ __ __ __ __ __ __ __ __
 72
    65
 73
     2
 40
7.5
 49
6.0
 49
-1.5
  0
LTYPE
  2
AM_ISO08W050
 70
     0
  3
____ . ____ . ____ . ____ . ____ . ____ . ____
 72
    65
 73
     4
 40
18.0
 49
12.0
 49
-1.5
 49
3.0
 49
-1.5
  0
LTYPE
  2
AM_ISO09W050
 70
     0
  3
_____ . . _____ . . _____ . . ____ .. ____
 72
    65
 73
     6
 40
22.5
 49
12.0
 49
-1.5
 49
3.0
 49
-1.5
 49
3.0
 49
-1.5
  0
LTYPE
  2
AMCONSTR
 70
     0
  3
_______________________
 72
    65
 73
     2
 40
9999.0
 49
9999.0
 49
0.0
  0
LTYPE
  2
AM_ISO08W050X2
 70
     0
  3
__ . __ . __ . __ . __ . __
 72
    65
 73
     4
 40
9.0
 49
6.0
 49
-0.75
 49
1.5
 49
-0.75
  0
LTYPE
  2
AM_ISO02W050X2
 70
     0
  3
 _ _ _ _ _ _ _ _ _ _ _ _
 72
    65
 73
     2
 40
3.75
 49
3.0
 49
-0.75
  0
LTYPE
  2
AMZIGZAG
 70
     0
  3
/\/-/\/-/\/-/\/-/\/-/\/
 72
    65
 73
     2
 40
11.0001
 49
0.0001
 49
-11.0
  0
LTYPE
  2
CENTER
 70
     0
  3
__ . __
 72
    65
 73
     4
 40
7.0
 49
4.0
 49
-1.0
 49
1.0
 49
-1.0
  0
LTYPE
  2
PHANTOM2
 70
     0
  3
Phantom (.5x) ___ _ _ ___ _ _ ___ _ _ ___ _ _
 72
    65
 73
     6
 40
31.75
 49
15.875
 49
-3.174999999999998
 49
3.174999999999998
 49
-3.174999999999998
 49
3.174999999999998
 49
-3.174999999999998
  0
LTYPE
  2
GEN7
 70
     0
  3
____ . ____ . ____ . ____ . ____ . ____ . ____
 72
    65
 73
     4
 40
14.25
 49
9.75
 49
-1.5
 49
1.5
 49
-1.5
  0
LTYPE
  2
HIDDEN
 70
     0
  3
Hidden __ __ __ __ __ __ __ __ __ __ __ __ __ _
 72
    65
 73
     2
 40
0.375
 49
0.25
 49
-0.125
  0
LTYPE
  2
CENTER2
 70
     0
  3
Center (.5x) ___ _ ___ _ ___ _ ___ _ ___ _ ___
 72
    65
 73
     4
 40
1.125
 49
0.75
 49
-0.125
 49
0.125
 49
-0.125
  0
LTYPE
  2
HIDDEN2
 70
     0
  3
Hidden (.5x) _ _ _ _ _ _ _ _ _ _ _ _ _ _ _ _ _
 72
    65
 73
     2
 40
0.1875
 49
0.125
 49
-0.0625
  0
LTYPE
  2
AMZIGZAG2
 70
     0
  3
/\/-/\/-/\/-/\/-/\/-/\/
 72
    65
 73
     2
 40
0.4401
 49
0.0001
 49
-0.4400000000000001
  0
LTYPE
  2
ACANSTGB
 70
     0
  3
__ . . __ . .
 72
    65
 73
     6
 40
0.35433070866
 49
0.15748031496
 49
-0.03937007874
 49
0.03937007874
 49
-0.03937007874
 49
0.03937007874
 49
-0.03937007874
  0
LTYPE
  2
ACANSTGL
 70
     0
  3
_ _ _ _ _
 72
    65
 73
     2
 40
0.11811023622
 49
0.07874015748
 49
-0.03937007874
  0
ENDTAB
  0
TABLE
  2
LAYER
 70
     9
  0
LAYER
  2
0
 70
     0
 62
     7
  6
CONTINUOUS
  0
LAYER
  2
AM_0
 70
     0
 62
     7
  6
CONTINUOUS
  0
LAYER
  2
AM_5
 70
     0
 62
     2
  6
CONTINUOUS
  0
LAYER
  2
DEFPOINTS
 70
     0
 62
     7
  6
CONTINUOUS
  0
LAYER
  2
ﾁｭｳｼﾝｾﾝ
 70
     0
 62
     1
  6
GEN7
  0
LAYER
  2
ｽﾝﾎ_ｳｾﾝ
 70
     0
 62
     2
  6
CONTINUOUS
  0
LAYER
  2
AM_7
 70
     0
 62
     1
  6
AM_ISO08W050
  0
LAYER
  2
AM_0N
 70
     0
 62
     7
  6
CONTINUOUS
  0
LAYER
  2
AM_3N
 70
     0
 62
     3
  6
AM_ISO02W050
  0
ENDTAB
  0
TABLE
  2
STYLE
 70
     5
  0
STYLE
  2
STANDARD
 70
     0
 40
0.0
 41
0.8299999999999999
 50
0.0
 71
     0
 42
2.5
  3
txt.shx
  4
bigfont.shx
  0
STYLE
  2
ANNOTATIVE
 70
     0
 40
0.0
 41
1.0
 50
0.0
 71
     0
 42
0.2
  3
txt
  4

  0
STYLE
  2

 70
     1
 40
0.0
 41
1.0
 50
0.0
 71
     0
 42
2.5
  3
genltshp.shx
  4

  0
STYLE
  2
ACANSTS
 70
     0
 40
0.0
 41
1.0
 50
0.0
 71
     0
 42
2.5
  3
romans.shx
  4
extfont.shx
  0
STYLE
  2
ACANSGDT
 70
     0
 40
0.0
 41
1.0
 50
0.0
 71
     0
 42
2.5
  3
amgdt.shx
  4

  0
ENDTAB
  0
TABLE
  2
VIEW
 70
     6
  0
VIEW
  2
AM_VIEW1
 70
     0
 40
277.50000000000011
 10
249.64779005524869
 20
416.24999999999989
 41
499.2955801104971
 11
0.0
 21
0.0
 31
1.0
 12
0.0
 22
0.0
 32
0.0
 42
50.0
 43
0.0
 44
0.0
 50
0.0
 71
     0
  0
VIEW
  2
AM_VIEW2
 70
     0
 40
277.50000000000011
 10
603.85220994475117
 20
416.24999999999989
 41
499.2955801104971
 11
0.0
 21
0.0
 31
1.0
 12
0.0
 22
0.0
 32
0.0
 42
50.0
 43
0.0
 44
0.0
 50
0.0
 71
     0
  0
VIEW
  2
AM_VIEW3
 70
     0
 40
277.50000000000011
 10
249.64779005524869
 20
138.75
 41
499.2955801104971
 11
0.0
 21
0.0
 31
1.0
 12
0.0
 22
0.0
 32
0.0
 42
50.0
 43
0.0
 44
0.0
 50
0.0
 71
     0
  0
VIEW
  2
AM_VIEW4
 70
     0
 40
277.50000000000011
 10
603.85220994475117
 20
138.75
 41
499.2955801104971
 11
0.0
 21
0.0
 31
1.0
 12
0.0
 22
0.0
 32
0.0
 42
50.0
 43
0.0
 44
0.0
 50
0.0
 71
     0
  0
VIEW
  2
AM_VIEW5
 70
     0
 40
277.50000000000011
 10
426.75
 20
277.50000000000011
 41
499.2955801104971
 11
0.0
 21
0.0
 31
1.0
 12
0.0
 22
0.0
 32
0.0
 42
50.0
 43
0.0
 44
0.0
 50
0.0
 71
     0
  0
VIEW
  2
AM_VIEW6
 70
     0
 40
554.99445000000014
 10
426.75
 20
277.5
 41
998.5811743093924
 11
0.0
 21
0.0
 31
1.0
 12
0.0
 22
0.0
 32
0.0
 42
50.0
 43
0.0
 44
0.0
 50
0.0
 71
     0
  0
ENDTAB
  0
TABLE
  2
UCS
 70
     0
  0
ENDTAB
  0
TABLE
  2
APPID
 70
    97
  0
APPID
  2
ACAD
 70
     0
  0
APPID
  2
ACADANNOTATIVE
 70
     0
  0
APPID
  2
MCAD_NO_VIS
 70
     0
  0
APPID
  2
ACAD_TEMP_GRAPHIC
 70
     0
  0
APPID
  2
ACATTRIBSERVICES
 70
     0
  0
APPID
  2
GENIUS_GENREC_14
 70
     0
  0
APPID
  2
GENIUS_GENOBJ-N-REC_13
 70
     0
  0
APPID
  2
GENIUS_GENODEF_13
 70
     0
  0
APPID
  2
GENIUS_GENOLIS_13
 70
     0
  0
APPID
  2
GENIUS_GENOBJ-N-TIT_13
 70
     0
  0
APPID
  2
GENIUS_GENOENT_13
 70
     0
  0
APPID
  2
GENIUS_GENTITLE_13
 70
     0
  0
APPID
  2
GENIUS_GENOREF_13
 70
     0
  0
APPID
  2
GENIUS_GENSCREG_15
 70
     0
  0
APPID
  2
GENIUS_GENOBJ-N-SDF_13
 70
     0
  0
APPID
  2
GENIUS_GENFIL_13
 70
     0
  0
APPID
  2
GENIUS_GENOBJ-N-CHA_13
 70
     0
  0
APPID
  2
GENIUS_GENDTOL_13
 70
     0
  0
APPID
  2
GENIUS_GENOBJ-N-FIL_13
 70
     0
  0
APPID
  2
AD_DRAW
 70
     0
  0
APPID
  2
DESIGNERASSEMBLIES
 70
     0
  0
APPID
  2
ASURF_PCURVE_APPNAME
 70
     0
  0
APPID
  2
GENIUS_GE3SECT_13
 70
     0
  0
APPID
  2
GENIUS_GENCFG_13
 70
     0
  0
APPID
  2
GENIUS_GE3CFG0_13
 70
     0
  0
APPID
  2
GENIUS_GENCFG0_13
 70
     0
  0
APPID
  2
GENIUS_GENCFG1_13
 70
     0
  0
APPID
  2
GENIUS_GENCFG2_13
 70
     0
  0
APPID
  2
GENIUS_GENCFG3_13
 70
     0
  0
APPID
  2
GENIUS_GENCFG4_13
 70
     0
  0
APPID
  2
GENIUS_GEVCFG0_13
 70
     0
  0
APPID
  2
GENIUS_GENHINW_13
 70
     0
  0
APPID
  2
GENIUS_FIRSTVISTXT_14
 70
     0
  0
APPID
  2
GENIUS_GENOBJ-N-LEADER_13
 70
     0
  0
APPID
  2
GEV_VCCNULL_SWITCH_OFF
 70
     0
  0
APPID
  2
GENIUS_GEFCFG0_13
 70
     0
  0
APPID
  2
GENIUS_GENZVEED_13
 70
     0
  0
APPID
  2
GENIUS_GENSCREG_13
 70
     0
  0
APPID
  2
GENIUS_DUMCFG0_13
 70
     0
  0
APPID
  2
GEVID936201362
 70
     0
  0
APPID
  2
GEVDC
 70
     0
  0
APPID
  2
GEVCON
 70
     0
  0
APPID
  2
VCC
 70
     0
  0
APPID
  2
GEVPT
 70
     0
  0
APPID
  2
GEVIT
 70
     0
  0
APPID
  2
GENBH
 70
     0
  0
APPID
  2
GEVMK
 70
     0
  0
APPID
  2
GENIUS_GENBH_13
 70
     0
  0
APPID
  2
GENIUS_GENOBJ-NBEHI-BHF_13
 70
     0
  0
APPID
  2
GENIUS_GENOBJ-NBEHI-BHB_13
 70
     0
  0
APPID
  2
GENIUS_GENOBJ-F-DESC_13
 70
     0
  0
APPID
  2
GENIUS_GEFDESC_14
 70
     0
  0
APPID
  2
GENIUS_GENOBJ-F-PART_13
 70
     0
  0
APPID
  2
GENIUS_GEFSTDP_13
 70
     0
  0
APPID
  2
GENIUS_GEFPARTINS_13
 70
     0
  0
APPID
  2
GENIUS_GENTRA_14
 70
     0
  0
APPID
  2
GENIUS_GENINF13_13
 70
     0
  0
APPID
  2
GENIUS_GENOBJ-N-INFOPT_13
 70
     0
  0
APPID
  2
GENIUS_GENOBJ-N-RSSYM_13
 70
     0
  0
APPID
  2
GENIUS_GENSYMENT_13
 70
     0
  0
APPID
  2
GENIUS_GENSCSYM_13
 70
     0
  0
APPID
  2
GENIUS_GEFINFNAM_13
 70
     0
  0
APPID
  2
GENIUS_GENOBJ-N-CEN_13
 70
     0
  0
APPID
  2
GENIUS_GENOBJ-N-CRS_13
 70
     0
  0
APPID
  2
GENIUS_GENOBJ-N-CRC_13
 70
     0
  0
APPID
  2
GENIUS_GENCRC_14
 70
     0
  0
APPID
  2
GEVID942827039
 70
     0
  0
APPID
  2
GEVID942827040
 70
     0
  0
APPID
  2
GEVID942827041
 70
     0
  0
APPID
  2
GENIUS_GENOBJ-F-SCPASSM_13
 70
     0
  0
APPID
  2
GENIUS_GENDIMSH_14
 70
     0
  0
APPID
  2
GEVID942827042
 70
     0
  0
APPID
  2
GEVID946020473
 70
     0
  0
APPID
  2
GEVID946020474
 70
     0
  0
APPID
  2
GEVID946020475
 70
     0
  0
APPID
  2
GENIUS_GENOBJ-N-HTC_13
 70
     0
  0
APPID
  2
GENIUS_GENHATCH_13
 70
     0
  0
APPID
  2
GEVID948854295
 70
     0
  0
APPID
  2
GEVID939402019
 70
     0
  0
APPID
  2
GEVID952919491
 70
     0
  0
APPID
  2
GEVID952919492
 70
     0
  0
APPID
  2
GENIUS_GEFWELD_13
 70
     0
  0
APPID
  2
GENIUS_GENOBJ-F-WELS_13
 70
     0
  0
APPID
  2
GEVID952919493
 70
     0
  0
APPID
  2
GENIUS_GENOBJ-N-RSBK_13
 70
     0
  0
APPID
  2
GENIUS_GENOBJ-N-LIB_13
 70
     0
  0
APPID
  2
GENIUS_GENSCALE_13
 70
     0
  0
APPID
  2
GEVID986376691
 70
     0
  0
APPID
  2
DCO15
 70
     0
  0
APPID
  2
ACADM_DIM_EDIT
 70
     0
  0
APPID
  2
AMDT_DM_ADJ
 70
     0
  0
APPID
  2
ACAD_DSTYLE_DIMJAG
 70
     0
  0
APPID
  2
ACAD_DSTYLE_DIMBREAK
 70
     0
  0
APPID
  2
ACAD_NAV_VCDISPLAY
 70
     0
  0
APPID
  2
ACADANNOPO
 70
     0
  0
APPID
  2
ACAD_EXEMPT_FROM_CAD_STANDARDS
 70
     0
  0
APPID
  2
ACAD_MLEADERVER
 70
     0
  0
ENDTAB
  0
TABLE
  2
DIMSTYLE
 70
     9
  0
DIMSTYLE
  2
STANDARD
 70
     0
  3

  4

  5

  6

  7

 40
1.0
 41
0.18
 42
0.0625
 43
0.38
 44
0.18
 45
0.0
 46
0.0
 47
0.0
 48
0.0
140
0.18
141
0.09
142
0.0
143
25.399999999999999
144
1.0
145
0.0
146
1.0
147
0.09
 71
     0
 72
     0
 73
     1
 74
     1
 75
     0
 76
     0
 77
     0
 78
     0
170
     0
171
     2
172
     0
173
     0
174
     0
175
     0
176
     0
177
     0
178
     0
  0
DIMSTYLE
  2
ANNOTATIVE
 70
     0
  3

  4

  5

  6

  7

 40
1.0
 41
0.18
 42
0.0625
 43
0.38
 44
0.18
 45
0.0
 46
0.0
 47
0.0
 48
0.0
140
0.18
141
0.09
142
0.0
143
25.399999999999999
144
1.0
145
0.0
146
1.0
147
0.09
 71
     0
 72
     0
 73
     1
 74
     1
 75
     0
 76
     0
 77
     0
 78
     0
170
     0
171
     2
172
     0
173
     0
174
     0
175
     0
176
     0
177
     0
178
     0
  0
DIMSTYLE
  2
AM_ISO
 70
     0
  3

  4
"
  5

  6

  7

 40
1.0
 41
2.5
 42
1.0
 43
8.0
 44
0.6
 45
0.0
 46
0.0
 47
0.1
 48
0.1
140
2.5
141
0.0
142
0.0
143
0.0393701
144
1.0
145
0.0
146
0.71
147
0.8
 71
     0
 72
     0
 73
     0
 74
     0
 75
     0
 76
     0
 77
     1
 78
     8
170
     0
171
     2
172
     1
173
     0
174
     0
175
     0
176
   256
177
   256
178
     4
  0
DIMSTYLE
  2
AM_ANSI
 70
     0
  3

  4
mm
  5

  6

  7

 40
1.0
 41
0.12
 42
0.05
 43
0.5
 44
0.1
 45
0.0
 46
0.0
 47
0.1
 48
0.1
140
0.12
141
0.0
142
0.0
143
25.399999999999999
144
1.0
145
0.0
146
0.71
147
0.06
 71
     0
 72
     0
 73
     1
 74
     1
 75
     0
 76
     0
 77
     0
 78
     7
170
     0
171
     2
172
     0
173
     0
174
     0
175
     0
176
   256
177
   256
178
     2
  0
DIMSTYLE
  2
AM_ANSI$3
 70
     0
  3

  4
mm
  5

  6

  7

 40
1.0
 41
0.12
 42
0.05
 43
0.5
 44
0.1
 45
0.0
 46
0.0
 47
0.1
 48
0.1
140
0.12
141
0.0
142
0.0
143
25.399999999999999
144
1.0
145
0.0
146
0.71
147
0.06
 71
     0
 72
     0
 73
     1
 74
     1
 75
     0
 76
     0
 77
     0
 78
     7
170
     0
171
     2
172
     0
173
     0
174
     0
175
     0
176
   256
177
   256
178
     2
  0
DIMSTYLE
  2
AM_ANSI$4
 70
     0
  3

  4
mm
  5

  6

  7

 40
1.0
 41
0.12
 42
0.05
 43
0.5
 44
0.1
 45
0.0
 46
0.0
 47
0.1
 48
0.1
140
0.12
141
0.0
142
0.0
143
25.399999999999999
144
1.0
145
0.0
146
0.71
147
0.06
 71
     0
 72
     0
 73
     1
 74
     1
 75
     0
 76
     0
 77
     0
 78
     7
170
     0
171
     2
172
     0
173
     0
174
     0
175
     0
176
   256
177
   256
178
     2
  0
DIMSTYLE
  2
AM_ANSI$7
 70
     0
  3

  4
mm
  5

  6

  7

 40
1.0
 41
0.12
 42
0.05
 43
0.5
 44
0.1
 45
0.0
 46
0.0
 47
0.1
 48
0.1
140
0.12
141
0.0
142
0.0
143
25.399999999999999
144
1.0
145
0.0
146
0.71
147
0.06
 71
     0
 72
     0
 73
     1
 74
     1
 75
     0
 76
     0
 77
     0
 78
     7
170
     0
171
     2
172
     0
173
     0
174
     0
175
     0
176
   256
177
   256
178
     2
  0
DIMSTYLE
  2
AM_ANSI$SF
 70
     0
  3

  4
mm
  5

  6

  7

 40
1.0
 41
0.12
 42
0.05
 43
0.5
 44
0.1
 45
0.0
 46
0.0
 47
0.1
 48
0.1
140
0.12
141
0.0
142
0.0
143
25.399999999999999
144
1.0
145
0.0
146
0.71
147
0.06
 71
     0
 72
     0
 73
     1
 74
     1
 75
     1
 76
     1
 77
     0
 78
     7
170
     0
171
     2
172
     0
173
     0
174
     0
175
     0
176
   256
177
   256
178
     2
  0
DIMSTYLE
  2
AM_ANSI$SH
 70
     0
  3

  4
mm
  5

  6
GENAXEH
  7

 40
1.0
 41
0.12
 42
0.05
 43
0.5
 44
0.1
 45
0.0
 46
0.0
 47
0.1
 48
0.1
140
0.12
141
0.0
142
0.0
143
25.399999999999999
144
1.0
145
0.0
146
0.71
147
0.06
 71
     0
 72
     0
 73
     1
 74
     1
 75
     1
 76
     1
 77
     0
 78
     7
170
     0
171
     2
172
     0
173
     1
174
     0
175
     0
176
   256
177
   256
178
     2
  0
ENDTAB
  0
ENDSEC
  0
SECTION
  2
BLOCKS
  0
BLOCK
  8
0
  2
$MODEL_SPACE
 70
     0
 10
0.0
 20
0.0
 30
0.0
  3
$MODEL_SPACE
  1

  0
ENDBLK
  5
39AB
  8
0
  0
BLOCK
 67
     1
  8
0
  2
$PAPER_SPACE
 70
     0
 10
0.0
 20
0.0
 30
0.0
  3
$PAPER_SPACE
  1

  0
ENDBLK
  5
39A7
 67
     1
  8
0
  0
BLOCK
  8
0
  2
*U2
 70
     1
 10
0.0
 20
0.0
 30
0.0
  3
*U2
  1

  0
TEXT
  5
37FD
  8
AM_0
 10
504.32626962887269
 20
142.67601259671619
 30
0.0
 40
10.0
  1
VX01-050SF
 41
0.8299999999999999
  0
ENDBLK
  5
37FF
  8
0
  0
BLOCK
  8
0
  2
GENAXEH
 70
     0
 10
0.0
 20
0.0
 30
0.0
  3
GENAXEH
  1

  0
LINE
  5
3A78
  8
0
 10
-1.0
 20
0.0
 30
0.0
 11
1.0
 21
0.0
 31
0.0
  0
ENDBLK
  5
3A7A
  8
0
  0
BLOCK
  8
0
  2
_ACMFILLEDHALF
 70
     0
 10
0.0
 20
0.0
 30
0.0
  3
_ACMFILLEDHALF
  1

  0
TRACE
  5
3A88
  8
AM_0
 62
     0
 10
-0.8
 20
0.0
 30
0.0
 11
-1.0
 21
0.166666666
 31
0.0
 12
0.0
 22
0.0
 32
0.0
 13
0.0
 23
0.0
 33
0.0
  0
LINE
  5
3A89
  8
AM_0
 62
     0
 10
-1.0
 20
0.0
 30
0.0
 11
-0.8
 21
0.0
 31
0.0
  0
ENDBLK
  5
3A87
  8
0
  0
ENDSEC
  0
SECTION
  2
ENTITIES
  0
LINE
  5
2840
  8
ﾁｭｳｼﾝｾﾝ
 10
103.6328853291968
 20
480.9252757069645
 30
0.0
 11
392.8462580493765
 21
480.9252757069645
 31
0.0
  0
LINE
  5
29CA
  8
AM_0
 10
357.48245804937642
 20
499.95111570696457
 30
0.0
 11
357.48245804937642
 21
461.68085570696451
 31
0.0
  0
LINE
  5
29CB
  8
AM_0
 10
347.4824880493764
 20
540.42530570696454
 30
0.0
 11
347.4824880493764
 21
421.4252757069645
 31
0.0
  0
LINE
  5
29CC
  8
AM_0
 10
352.48245804937642
 20
555.9252757069645
 30
0.0
 11
352.48245804937642
 21
405.9252757069645
 31
0.0
  0
LINE
  5
29CD
  8
AM_0
 10
356.4824880493764
 20
550.92530570696454
 30
0.0
 11
356.4824880493764
 21
410.92527570696433
 31
0.0
  0
LINE
  5
29CE
  8
AM_0
 10
329.4824880493764
 20
545.15641570696459
 30
0.0
 11
329.4824880493764
 21
416.71167570696463
 31
0.0
  0
LINE
  5
29D2
  8
AM_0
 10
291.48245804937642
 20
423.03073570696461
 30
0.0
 11
291.48245804937642
 21
538.81986570696438
 31
0.0
  0
LINE
  5
29D3
  8
AM_0
 10
297.48245804937642
 20
420.9252757069645
 30
0.0
 11
297.48245804937642
 21
540.92530570696454
 31
0.0
  0
LINE
  5
29D5
  8
AM_0
 10
334.30798804937638
 20
411.69718570696432
 30
0.0
 11
339.58719804937641
 21
411.51285570696427
 31
0.0
  0
ARC
  5
29D6
  8
AM_0
 10
293.48245804937642
 20
423.03073570696461
 30
0.0
 40
2.0
 50
180.00001000000091
 51
268.5000000000004
  0
ARC
  5
29D7
  8
AM_0
 10
289.48245804937642
 20
432.50534570696431
 30
0.0
 40
2.0
 50
0.0
 51
88.499997000000747
  0
ARC
  5
29D8
  8
AM_0
 10
280.48245804937642
 20
432.74100570696459
 30
0.0
 40
2.0
 50
0.0
 51
88.499997000000747
  0
LINE
  5
29DA
  8
AM_0
 10
273.4824880493764
 20
434.9249957069643
 30
0.0
 11
289.53482804937647
 21
434.50464570696448
 31
0.0
  0
LINE
  5
29E1
  8
AM_0
 10
273.4824880493764
 20
424.42530570696431
 30
0.0
 11
283.47681804937639
 21
424.16358570696451
 31
0.0
  0
ARC
  5
29E2
  8
AM_0
 10
284.48245804937642
 20
425.89234570696431
 30
0.0
 40
2.0
 50
180.00001000000091
 51
268.5000000000004
  0
LINE
  5
29E3
  8
AM_0
 10
284.4301180493764
 20
423.89304570696447
 30
0.0
 11
290.11111804937639
 21
423.74427570696429
 31
0.0
  0
ARC
  5
29E4
  8
AM_0
 10
290.07187804937649
 20
422.24478570696459
 30
0.0
 40
1.5
 50
12.97665300000153
 51
88.499997000000747
  0
LINE
  5
29E5
  8
AM_0
 10
282.48245804937642
 20
432.74100570696459
 30
0.0
 11
282.48245804937642
 21
425.89234570696431
 31
0.0
  0
LINE
  5
29ED
  8
AM_0
 10
273.48245804937642
 20
448.9853257069646
 30
0.0
 11
289.48245804937642
 21
448.9853257069646
 31
0.0
  0
ARC
  5
29EE
  8
AM_0
 10
289.48245804937642
 20
446.9853257069646
 30
0.0
 40
2.0
 50
0.0
 51
90.000003000000945
  0
LINE
  5
29EF
  8
AM_0
 10
329.4824880493764
 20
420.08731570696432
 30
0.0
 11
293.4301480493765
 21
421.03141570696431
 31
0.0
  0
LINE
  5
29F0
  8
AM_0
 10
297.48245804937642
 20
425.3989657069643
 30
0.0
 11
329.4824880493764
 21
425.3989657069643
 31
0.0
  0
ARC
  5
29F1
  8
AM_0
 10
334.48245804937642
 20
416.6941657069645
 30
0.0
 40
5.0
 50
179.999989999999
 51
268.00000999999861
  0
LINE
  5
29F2
  8
AM_0
 10
342.48245804937642
 20
408.2058757069646
 30
0.0
 11
342.48245804937642
 21
440.48490570696458
 31
0.0
  0
LINE
  5
29F3
  8
AM_0
 10
344.4126980493765
 20
406.20707570696459
 30
0.0
 11
352.48245804937642
 21
405.9252757069645
 31
0.0
  0
ARC
  5
29F4
  8
AM_0
 10
344.4824880493764
 20
408.2058757069646
 30
0.0
 40
2.0
 50
179.999989999999
 51
268.00000999999861
  0
ARC
  5
29F5
  8
AM_0
 10
339.48245804937642
 20
408.5146857069646
 30
0.0
 40
3.0
 50
0.0
 51
87.999999999999659
  0
LINE
  5
29F6
  8
AM_0
 10
352.48245804937642
 20
410.92527570696433
 30
0.0
 11
356.4824880493764
 21
410.92527570696433
 31
0.0
  0
ARC
  5
29F7
  8
AM_0
 10
344.4824880493764
 20
421.4252757069645
 30
0.0
 40
3.0
 50
270.0
 51
0.0
  0
ARC
  5
29F8
  8
AM_0
 10
344.4824880493764
 20
440.48490570696458
 30
0.0
 40
2.0
 50
88.485353000001012
 51
180.00001000000091
  0
ARC
  5
29F9
  8
AM_0
 10
355.48245804937642
 20
461.82657570696472
 30
0.0
 40
2.0
 50
315.0
 51
0.0
  0
LINE
  5
29FA
  8
AM_0
 10
356.4824880493764
 20
459.99811570696431
 30
0.0
 11
356.89670804937651
 21
460.4123357069646
 31
0.0
  0
LINE
  5
29FB
  8
AM_0
 10
334.30798804937638
 20
550.15338570696463
 30
0.0
 11
339.58716804937637
 21
550.33774570696426
 31
0.0
  0
LINE
  5
29FF
  8
AM_0
 10
293.43011804937618
 20
540.81919570696459
 30
0.0
 11
329.4824880493764
 21
541.76325570696463
 31
0.0
  0
ARC
  5
2A00
  8
AM_0
 10
293.48245804937642
 20
538.81986570696438
 30
0.0
 40
2.0
 50
91.500001000001546
 51
180.00001000000091
  0
LINE
  5
2A13
  8
AM_0
 10
273.48245804937642
 20
512.86521570696448
 30
0.0
 11
289.48245804937642
 21
512.86521570696448
 31
0.0
  0
ARC
  5
2A14
  8
AM_0
 10
289.48245804937642
 20
514.86521570696459
 30
0.0
 40
2.0
 50
270.0
 51
0.0
  0
ARC
  5
2A15
  8
AM_0
 10
280.48245804937642
 20
529.10959570696457
 30
0.0
 40
2.0
 50
271.49999999999949
 51
0.0
  0
LINE
  5
2A16
  8
AM_0
 10
273.48245804937642
 20
526.92560570696469
 30
0.0
 11
289.53482804937647
 21
527.34592570696452
 31
0.0
  0
LINE
  5
2A17
  8
AM_0
 10
273.4824880493764
 20
537.42530570696454
 30
0.0
 11
283.47681804937639
 21
537.68698570696461
 31
0.0
  0
LINE
  5
2A18
  8
AM_0
 10
282.48245804937642
 20
529.10959570696457
 30
0.0
 11
282.48245804937642
 21
535.95822570696453
 31
0.0
  0
ARC
  5
2A19
  8
AM_0
 10
289.48245804937642
 20
529.34525570696462
 30
0.0
 40
2.0
 50
271.49999999999949
 51
0.0
  0
LINE
  5
2A1A
  8
AM_0
 10
284.4301180493764
 20
537.95755570696463
 30
0.0
 11
290.11114804937648
 21
538.10633570696461
 31
0.0
  0
ARC
  5
2A1B
  8
AM_0
 10
284.48245804937642
 20
535.95822570696453
 30
0.0
 40
2.0
 50
91.500001000001546
 51
180.00001000000091
  0
ARC
  5
2A1C
  8
AM_0
 10
290.07187804937649
 20
539.60581570696445
 30
0.0
 40
1.5
 50
271.49999999999949
 51
347.02334999999908
  0
LINE
  5
2A1D
  8
AM_0
 10
297.48245804937642
 20
536.45163570696445
 30
0.0
 11
329.4824880493764
 21
536.45163570696445
 31
0.0
  0
ARC
  5
2A1E
  8
AM_0
 10
334.48245804937642
 20
545.15641570696459
 30
0.0
 40
5.0
 50
91.999998000000545
 51
180.00001000000091
  0
ARC
  5
2A1F
  8
AM_0
 10
344.4824880493764
 20
540.42530570696454
 30
0.0
 40
3.0
 50
0.0
 51
90.000003000000945
  0
LINE
  5
2A20
  8
AM_0
 10
342.48245804937642
 20
553.64469570696451
 30
0.0
 11
342.48245804937642
 21
521.36566570696459
 31
0.0
  0
LINE
  5
2A21
  8
AM_0
 10
365.48245804937642
 20
483.9252757069645
 30
0.0
 11
387.48245804937631
 21
483.9252757069645
 31
0.0
  0
LINE
  5
2A22
  8
AM_0
 10
365.48245804937642
 20
477.92527570696433
 30
0.0
 11
387.48245804937631
 21
477.92527570696433
 31
0.0
  0
LINE
  5
2A23
  8
AM_0
 10
359.48245804937642
 20
490.42530570696431
 30
0.0
 11
387.48245804937631
 21
490.42530570696431
 31
0.0
  0
LINE
  5
2A24
  8
AM_0
 10
359.48245804937642
 20
471.42530570696448
 30
0.0
 11
387.48245804937631
 21
471.42530570696448
 31
0.0
  0
ARC
  5
2A25
  8
AM_0
 10
365.48245804937642
 20
480.9252757069645
 30
0.0
 40
3.0
 50
89.986013999999244
 51
270.01398999999998
  0
LINE
  5
2A26
  8
AM_0
 10
359.48245804937642
 20
470.92530570696431
 30
0.0
 11
359.48245804937642
 21
490.92530570696431
 31
0.0
  0
LINE
  5
2A27
  8
AM_0
 10
357.48245804937642
 20
470.92530570696431
 30
0.0
 11
359.48245804937642
 21
470.92530570696431
 31
0.0
  0
LINE
  5
2A28
  8
AM_0
 10
357.48245804937642
 20
490.92530570696431
 30
0.0
 11
359.48245804937642
 21
490.92530570696431
 31
0.0
  0
LINE
  5
2A29
  8
AM_0
 10
356.4824880493764
 20
501.85242570696442
 30
0.0
 11
356.89667804937648
 21
501.43824570696421
 31
0.0
  0
ARC
  5
2A2A
  8
AM_0
 10
355.48245804937642
 20
500.02399570696451
 30
0.0
 40
2.0
 50
0.0
 51
45.000000999999187
  0
LINE
  5
2A2B
  8
AM_0
 10
365.48245804937642
 20
477.92527570696433
 30
0.0
 11
365.48245804937642
 21
483.9252757069645
 31
0.0
  0
ARC
  5
2A2C
  8
AM_0
 10
344.4824880493764
 20
521.36566570696459
 30
0.0
 40
2.0
 50
179.999989999999
 51
271.51463999999908
  0
LINE
  5
2A2D
  8
AM_0
 10
387.48245804937631
 20
471.42530570696448
 30
0.0
 11
387.48245804937631
 21
490.42530570696431
 31
0.0
  0
LINE
  5
2A2E
  8
AM_0
 10
344.41266804937652
 20
555.64350570696445
 30
0.0
 11
352.48245804937642
 21
555.92530570696454
 31
0.0
  0
ARC
  5
2A2F
  8
AM_0
 10
339.48245804937642
 20
553.33588570696452
 30
0.0
 40
3.0
 50
272.0000000000004
 51
0.0
  0
ARC
  5
2A30
  8
AM_0
 10
344.4824880493764
 20
553.64469570696451
 30
0.0
 40
2.0
 50
91.999998000000545
 51
180.00001000000091
  0
LINE
  5
2A31
  8
AM_0
 10
352.48245804937642
 20
550.92530570696454
 30
0.0
 11
356.4824880493764
 21
550.92530570696454
 31
0.0
  0
LINE
  5
3310
  8
AM_0
 10
365.48243804937641
 20
275.8793641839921
 30
0.0
 11
387.48245804937631
 21
275.8793641839921
 31
0.0
  0
LINE
  5
3311
  8
ﾁｭｳｼﾝｾﾝ
 10
286.13303804937641
 20
263.8793621839921
 30
0.0
 11
389.21594804937632
 21
263.8793621839921
 31
0.0
  0
LINE
  5
3312
  8
AM_0
 10
359.48243804937641
 20
254.37936418399221
 30
0.0
 11
387.48245804937631
 21
254.37936418399221
 31
0.0
  0
LINE
  5
3313
  8
AM_0
 10
359.48243804937641
 20
273.37936318399221
 30
0.0
 11
387.48245804937631
 21
273.37936318399221
 31
0.0
  0
LINE
  5
331A
  8
AM_0
 10
297.48245804937642
 20
306.8793641839921
 30
0.0
 11
297.48245804937642
 21
182.06544118399211
 31
0.0
  0
LINE
  5
331B
  8
AM_0
 10
273.48245804937642
 20
309.87937768399217
 30
0.0
 11
273.48245804937642
 21
183.87937768399209
 31
0.0
  0
LINE
  5
331C
  8
AM_0
 10
291.48245804937642
 20
305.26101718399218
 30
0.0
 11
291.48245804937642
 21
290.87936518399209
 31
0.0
  0
LINE
  5
331D
  8
AM_0
 10
347.48246804937622
 20
323.37937918399211
 30
0.0
 11
347.48246804937622
 21
209.2640501839922
 31
0.0
  0
LINE
  5
331E
  8
AM_0
 10
352.48241804937641
 20
338.87935918399222
 30
0.0
 11
352.48241804937641
 21
193.97553718399209
 31
0.0
  0
LINE
  5
331F
  8
AM_0
 10
356.48246804937622
 20
333.87937918399211
 30
0.0
 11
356.48246804937622
 21
263.8793621839921
 31
0.0
  0
LINE
  5
3320
  8
AM_0
 10
329.48246804937628
 20
328.11046918399211
 30
0.0
 11
329.48246804937628
 21
222.14405518399221
 31
0.0
  0
ARC
  5
3323
  8
AM_0
 10
1062.1685818591959
 20
246.879377683992
 30
0.0
 40
940.68612380981915
 50
176.76392470776159
 51
183.2360752922383
  0
LINE
  5
3324
  8
AM_0
 10
122.9824580493764
 20
299.98124555537157
 30
0.0
 11
122.9824580493764
 21
193.77750981261269
 31
0.0
  0
LINE
  5
3325
  8
AM_0
 10
127.4824580493765
 20
310.47937768399231
 30
0.0
 11
127.4824580493764
 21
183.27937768399221
 31
0.0
  0
LINE
  5
3326
  8
AM_0
 10
129.98245804937639
 20
312.4793776839922
 30
0.0
 11
129.98245804937639
 21
181.27937768399221
 31
0.0
  0
LINE
  5
3327
  8
AM_0
 10
266.48245804937642
 20
312.87937768399217
 30
0.0
 11
266.48245804937642
 21
180.8793776839922
 31
0.0
  0
LINE
  5
3328
  8
AM_0
 10
254.98245804937639
 20
312.87937768399217
 30
0.0
 11
254.98245804937631
 21
180.8793776839922
 31
0.0
  0
LINE
  5
332A
  8
ﾁｭｳｼﾝｾﾝ
 10
103.6328853291968
 20
246.8793641839921
 30
0.0
 11
295.44602804937642
 21
246.8793641839921
 31
0.0
  0
LINE
  5
332B
  8
AM_0
 10
114.9824580493764
 20
226.8793776839922
 30
0.0
 11
121.6950928504185
 21
226.8793776839922
 31
0.0
  0
LINE
  5
332C
  8
AM_0
 10
114.9824580493764
 20
266.87937768399217
 30
0.0
 11
121.6950928504185
 21
266.87937768399217
 31
0.0
  0
LINE
  5
332D
  8
AM_0
 10
111.9824580493764
 20
263.87937768399217
 30
0.0
 11
111.9824580493764
 21
229.8793776839922
 31
0.0
  0
ARC
  5
332E
  8
AM_0
 10
114.9824580493764
 20
229.8793776839922
 30
0.0
 40
3.0
 50
180.0
 51
270.0
1001
GENIUS_GENODEF_13
1002
{
1000
HIER
1070
     0
1002
}
1002
{
1000
MANEDIT
1070
     0
1002
}
1002
{
1000
NOSEL
1070
     0
1002
}
1002
{
1000
BEHIND
1070
     0
1002
}
1002
{
1000
OTHER
1070
     0
1002
}
1002
{
1000
REACTOR
1002
}
1001
GENIUS_GENOBJ-N-FIL_13
1002
{
1000
OWNER
1000
GEN
1002
}
  0
ARC
  5
332F
  8
AM_0
 10
114.9824580493764
 20
263.87937768399217
 30
0.0
 40
3.0
 50
90.0
 51
180.0
1001
GENIUS_GENOBJ-N-FIL_13
1002
{
1000
OWNER
1000
GEN
1002
}
1001
GENIUS_GENODEF_13
1002
{
1000
HIER
1070
     0
1002
}
1002
{
1000
MANEDIT
1070
     0
1002
}
1002
{
1000
NOSEL
1070
     0
1002
}
1002
{
1000
BEHIND
1070
     0
1002
}
1002
{
1000
OTHER
1070
     0
1002
}
1002
{
1000
REACTOR
1002
}
  0
LINE
  5
3330
  8
AM_0
 10
220.98245804937631
 20
218.3793776839922
 30
0.0
 11
243.98245804937631
 21
218.3793776839922
 31
0.0
  0
LINE
  5
3331
  8
AM_0
 10
220.98245804937631
 20
224.8793776839922
 30
0.0
 11
243.98245804937631
 21
224.8793776839922
 31
0.0
  0
LINE
  5
3332
  8
AM_0
 10
220.98245804937631
 20
184.57937768399211
 30
0.0
 11
243.98245804937639
 21
184.57937768399211
 31
0.0
  0
LINE
  5
3333
  8
AM_0
 10
220.98245804937631
 20
187.17937768399199
 30
0.0
 11
243.98245804937639
 21
187.17937768399199
 31
0.0
  0
LINE
  5
3334
  8
AM_0
 10
220.98245804937631
 20
190.67937768399199
 30
0.0
 11
243.98245804937639
 21
190.67937768399199
 31
0.0
  0
LINE
  5
3335
  8
AM_0
 10
220.98245804937631
 20
194.9793776839922
 30
0.0
 11
243.98245804937639
 21
194.9793776839922
 31
0.0
  0
LINE
  5
3336
  8
AM_0
 10
220.98245804937631
 20
198.4793776839922
 30
0.0
 11
243.98245804937639
 21
198.4793776839922
 31
0.0
  0
LINE
  5
3337
  8
AM_0
 10
220.98245804937631
 20
203.67937768399219
 30
0.0
 11
243.98245804937639
 21
203.6793776839923
 31
0.0
  0
LINE
  5
3338
  8
AM_0
 10
220.98245804937631
 20
207.3793776839922
 30
0.0
 11
243.98245804937639
 21
207.3793776839922
 31
0.0
  0
LINE
  5
3339
  8
AM_0
 10
220.98245804937631
 20
212.8793776839922
 30
0.0
 11
243.98245804937631
 21
212.8793776839922
 31
0.0
  0
LINE
  5
333A
  8
AM_0
 10
129.48245804937639
 20
181.27937768399221
 30
0.0
 11
176.98245804937639
 21
181.27937768399221
 31
0.0
  0
LINE
  5
333C
  8
ﾁｭｳｼﾝｾﾝ
 10
180.98245804937639
 20
228.1997488923592
 30
0.0
 11
180.98245804937639
 21
123.2888668163184
 31
0.0
  0
LINE
  5
333D
  8
AM_0
 10
154.98245804937631
 20
211.8793776839922
 30
0.0
 11
154.98245804937631
 21
208.3793776839922
 31
0.0
  0
LINE
  5
333F
  8
AM_0
 10
219.98245804937631
 20
211.8793776839922
 30
0.0
 11
219.98245804937631
 21
208.3793776839922
 31
0.0
  0
LINE
  5
3340
  8
AM_0
 10
126.8111857270362
 20
189.4760641927391
 30
0.0
 11
123.65373037171661
 21
192.2826911752453
 31
0.0
  0
ARC
  5
3341
  8
AM_0
 10
129.48245804937639
 20
183.27937768399221
 30
0.0
 40
2.0
 50
180.0
 51
270.0
1001
GENIUS_GENOBJ-N-FIL_13
1002
{
1000
OWNER
1000
GEN
1002
}
1001
GENIUS_GENODEF_13
1002
{
1000
HIER
1070
     0
1002
}
1002
{
1000
MANEDIT
1070
     0
1002
}
1002
{
1000
NOSEL
1070
     0
1002
}
1002
{
1000
BEHIND
1070
     0
1002
}
1002
{
1000
OTHER
1070
     0
1002
}
1002
{
1000
REACTOR
1002
}
  0
ARC
  5
3342
  8
AM_0
 10
125.4824580493764
 20
187.9812455553716
 30
0.0
 40
2.0
 50
0.0
 51
48.366460663431418
1001
GENIUS_GENOBJ-N-FIL_13
1002
{
1000
OWNER
1000
GEN
1002
}
1001
GENIUS_GENODEF_13
1002
{
1000
HIER
1070
     0
1002
}
1002
{
1000
MANEDIT
1070
     0
1002
}
1002
{
1000
NOSEL
1070
     0
1002
}
1002
{
1000
BEHIND
1070
     0
1002
}
1002
{
1000
OTHER
1070
     0
1002
}
1002
{
1000
REACTOR
1002
}
  0
ARC
  5
3343
  8
AM_0
 10
124.9824580493764
 20
193.77750981261269
 30
0.0
 40
2.0
 50
180.0
 51
228.36646066343141
1001
GENIUS_GENODEF_13
1002
{
1000
HIER
1070
     0
1002
}
1002
{
1000
MANEDIT
1070
     0
1002
}
1002
{
1000
NOSEL
1070
     0
1002
}
1002
{
1000
BEHIND
1070
     0
1002
}
1002
{
1000
OTHER
1070
     0
1002
}
1002
{
1000
REACTOR
1002
}
1001
GENIUS_GENOBJ-N-FIL_13
1002
{
1000
OWNER
1000
GEN
1002
}
  0
LINE
  5
3344
  8
AM_0
 10
155.98245804937631
 20
187.17937768399199
 30
0.0
 11
176.98245804937639
 21
187.17937768399199
 31
0.0
  0
LINE
  5
3345
  8
AM_0
 10
155.98245804937631
 20
184.57937768399211
 30
0.0
 11
176.98245804937639
 21
184.57937768399211
 31
0.0
  0
ARC
  5
3346
  8
AM_0
 10
155.98245804937631
 20
185.57937768399219
 30
0.0
 40
1.0
 50
180.0
 51
270.0
1001
GENIUS_GENODEF_13
1002
{
1000
HIER
1070
     0
1002
}
1002
{
1000
MANEDIT
1070
     0
1002
}
1002
{
1000
NOSEL
1070
     0
1002
}
1002
{
1000
BEHIND
1070
     0
1002
}
1002
{
1000
OTHER
1070
     0
1002
}
1002
{
1000
REACTOR
1002
}
1001
GENIUS_GENOBJ-N-FIL_13
1002
{
1000
OWNER
1000
GEN
1002
}
  0
ARC
  5
3347
  8
AM_0
 10
155.98245804937631
 20
186.1793776839921
 30
0.0
 40
1.0
 50
90.0
 51
180.0
1001
GENIUS_GENOBJ-N-FIL_13
1002
{
1000
OWNER
1000
GEN
1002
}
1001
GENIUS_GENODEF_13
1002
{
1000
HIER
1070
     0
1002
}
1002
{
1000
MANEDIT
1070
     0
1002
}
1002
{
1000
NOSEL
1070
     0
1002
}
1002
{
1000
BEHIND
1070
     0
1002
}
1002
{
1000
OTHER
1070
     0
1002
}
1002
{
1000
REACTOR
1002
}
  0
LINE
  5
3348
  8
AM_0
 10
154.98245804937631
 20
186.1793776839921
 30
0.0
 11
154.98245804937631
 21
185.57937768399219
 31
0.0
  0
LINE
  5
334C
  8
AM_0
 10
155.98245804937631
 20
203.67937768399219
 30
0.0
 11
176.98245804937639
 21
203.6793776839923
 31
0.0
  0
LINE
  5
334D
  8
AM_0
 10
155.98245804937631
 20
198.4793776839922
 30
0.0
 11
176.98245804937639
 21
198.4793776839922
 31
0.0
  0
LINE
  5
334E
  8
AM_0
 10
155.98245804937631
 20
207.3793776839922
 30
0.0
 11
176.98245804937639
 21
207.3793776839922
 31
0.0
  0
LINE
  5
334F
  8
AM_0
 10
155.98245804937631
 20
190.67937768399199
 30
0.0
 11
176.98245804937639
 21
190.67937768399199
 31
0.0
  0
LINE
  5
3350
  8
AM_0
 10
155.98245804937631
 20
194.9793776839922
 30
0.0
 11
176.98245804937639
 21
194.9793776839922
 31
0.0
  0
LINE
  5
3351
  8
AM_0
 10
154.98245804937631
 20
202.67937768399219
 30
0.0
 11
154.98245804937631
 21
199.4793776839922
 31
0.0
  0
ARC
  5
3352
  8
AM_0
 10
155.98245804937631
 20
193.9793776839922
 30
0.0
 40
1.0
 50
90.0
 51
180.0
1001
GENIUS_GENODEF_13
1002
{
1000
HIER
1070
     0
1002
}
1002
{
1000
MANEDIT
1070
     0
1002
}
1002
{
1000
NOSEL
1070
     0
1002
}
1002
{
1000
BEHIND
1070
     0
1002
}
1002
{
1000
OTHER
1070
     0
1002
}
1002
{
1000
REACTOR
1002
}
1001
GENIUS_GENOBJ-N-FIL_13
1002
{
1000
OWNER
1000
GEN
1002
}
  0
ARC
  5
3353
  8
AM_0
 10
155.98245804937631
 20
191.67937768399219
 30
0.0
 40
1.0
 50
180.0
 51
270.0
1001
GENIUS_GENOBJ-N-FIL_13
1002
{
1000
OWNER
1000
GEN
1002
}
1001
GENIUS_GENODEF_13
1002
{
1000
HIER
1070
     0
1002
}
1002
{
1000
MANEDIT
1070
     0
1002
}
1002
{
1000
NOSEL
1070
     0
1002
}
1002
{
1000
BEHIND
1070
     0
1002
}
1002
{
1000
OTHER
1070
     0
1002
}
1002
{
1000
REACTOR
1002
}
  0
LINE
  5
3354
  8
AM_0
 10
154.98245804937631
 20
193.9793776839922
 30
0.0
 11
154.98245804937631
 21
191.67937768399219
 31
0.0
  0
ARC
  5
3355
  8
AM_0
 10
155.98245804937631
 20
199.4793776839922
 30
0.0
 40
1.0
 50
180.0
 51
270.0
1001
GENIUS_GENOBJ-N-FIL_13
1002
{
1000
OWNER
1000
GEN
1002
}
1001
GENIUS_GENODEF_13
1002
{
1000
HIER
1070
     0
1002
}
1002
{
1000
MANEDIT
1070
     0
1002
}
1002
{
1000
NOSEL
1070
     0
1002
}
1002
{
1000
BEHIND
1070
     0
1002
}
1002
{
1000
OTHER
1070
     0
1002
}
1002
{
1000
REACTOR
1002
}
  0
ARC
  5
3356
  8
AM_0
 10
155.98245804937631
 20
202.67937768399219
 30
0.0
 40
1.0
 50
90.0
 51
180.0
1001
GENIUS_GENODEF_13
1002
{
1000
HIER
1070
     0
1002
}
1002
{
1000
MANEDIT
1070
     0
1002
}
1002
{
1000
NOSEL
1070
     0
1002
}
1002
{
1000
BEHIND
1070
     0
1002
}
1002
{
1000
OTHER
1070
     0
1002
}
1002
{
1000
REACTOR
1002
}
1001
GENIUS_GENOBJ-N-FIL_13
1002
{
1000
OWNER
1000
GEN
1002
}
  0
ARC
  5
3357
  8
AM_0
 10
155.98245804937631
 20
208.3793776839922
 30
0.0
 40
1.0
 50
180.0
 51
270.0
1001
GENIUS_GENODEF_13
1002
{
1000
HIER
1070
     0
1002
}
1002
{
1000
MANEDIT
1070
     0
1002
}
1002
{
1000
NOSEL
1070
     0
1002
}
1002
{
1000
BEHIND
1070
     0
1002
}
1002
{
1000
OTHER
1070
     0
1002
}
1002
{
1000
REACTOR
1002
}
1001
GENIUS_GENOBJ-N-FIL_13
1002
{
1000
OWNER
1000
GEN
1002
}
  0
ARC
  5
335F
  8
AM_0
 10
220.98245804937631
 20
185.57937768399219
 30
0.0
 40
1.0
 50
180.0
 51
270.0
1001
GENIUS_GENODEF_13
1002
{
1000
HIER
1070
     0
1002
}
1002
{
1000
MANEDIT
1070
     0
1002
}
1002
{
1000
NOSEL
1070
     0
1002
}
1002
{
1000
BEHIND
1070
     0
1002
}
1002
{
1000
OTHER
1070
     0
1002
}
1002
{
1000
REACTOR
1002
}
1001
GENIUS_GENOBJ-N-FIL_13
1002
{
1000
OWNER
1000
GEN
1002
}
  0
ARC
  5
3360
  8
AM_0
 10
220.98245804937631
 20
186.1793776839921
 30
0.0
 40
1.0
 50
90.0
 51
180.0
1001
GENIUS_GENOBJ-N-FIL_13
1002
{
1000
OWNER
1000
GEN
1002
}
1001
GENIUS_GENODEF_13
1002
{
1000
HIER
1070
     0
1002
}
1002
{
1000
MANEDIT
1070
     0
1002
}
1002
{
1000
NOSEL
1070
     0
1002
}
1002
{
1000
BEHIND
1070
     0
1002
}
1002
{
1000
OTHER
1070
     0
1002
}
1002
{
1000
REACTOR
1002
}
  0
LINE
  5
3361
  8
AM_0
 10
219.98245804937639
 20
186.1793776839921
 30
0.0
 11
219.98245804937631
 21
185.57937768399219
 31
0.0
  0
LINE
  5
3362
  8
AM_0
 10
219.98245804937631
 20
202.67937768399219
 30
0.0
 11
219.98245804937631
 21
199.4793776839922
 31
0.0
  0
ARC
  5
3363
  8
AM_0
 10
220.98245804937631
 20
193.9793776839922
 30
0.0
 40
1.0
 50
90.0
 51
180.0
1001
GENIUS_GENODEF_13
1002
{
1000
HIER
1070
     0
1002
}
1002
{
1000
MANEDIT
1070
     0
1002
}
1002
{
1000
NOSEL
1070
     0
1002
}
1002
{
1000
BEHIND
1070
     0
1002
}
1002
{
1000
OTHER
1070
     0
1002
}
1002
{
1000
REACTOR
1002
}
1001
GENIUS_GENOBJ-N-FIL_13
1002
{
1000
OWNER
1000
GEN
1002
}
  0
ARC
  5
3364
  8
AM_0
 10
220.98245804937631
 20
191.67937768399219
 30
0.0
 40
1.0
 50
180.0
 51
270.0
1001
GENIUS_GENOBJ-N-FIL_13
1002
{
1000
OWNER
1000
GEN
1002
}
1001
GENIUS_GENODEF_13
1002
{
1000
HIER
1070
     0
1002
}
1002
{
1000
MANEDIT
1070
     0
1002
}
1002
{
1000
NOSEL
1070
     0
1002
}
1002
{
1000
BEHIND
1070
     0
1002
}
1002
{
1000
OTHER
1070
     0
1002
}
1002
{
1000
REACTOR
1002
}
  0
LINE
  5
3365
  8
AM_0
 10
219.98245804937631
 20
193.9793776839922
 30
0.0
 11
219.98245804937631
 21
191.67937768399219
 31
0.0
  0
ARC
  5
3366
  8
AM_0
 10
220.98245804937631
 20
199.4793776839922
 30
0.0
 40
1.0
 50
180.0
 51
270.0
1001
GENIUS_GENOBJ-N-FIL_13
1002
{
1000
OWNER
1000
GEN
1002
}
1001
GENIUS_GENODEF_13
1002
{
1000
HIER
1070
     0
1002
}
1002
{
1000
MANEDIT
1070
     0
1002
}
1002
{
1000
NOSEL
1070
     0
1002
}
1002
{
1000
BEHIND
1070
     0
1002
}
1002
{
1000
OTHER
1070
     0
1002
}
1002
{
1000
REACTOR
1002
}
  0
ARC
  5
3367
  8
AM_0
 10
220.98245804937631
 20
202.67937768399219
 30
0.0
 40
1.0
 50
90.0
 51
180.0
1001
GENIUS_GENODEF_13
1002
{
1000
HIER
1070
     0
1002
}
1002
{
1000
MANEDIT
1070
     0
1002
}
1002
{
1000
NOSEL
1070
     0
1002
}
1002
{
1000
BEHIND
1070
     0
1002
}
1002
{
1000
OTHER
1070
     0
1002
}
1002
{
1000
REACTOR
1002
}
1001
GENIUS_GENOBJ-N-FIL_13
1002
{
1000
OWNER
1000
GEN
1002
}
  0
ARC
  5
3368
  8
AM_0
 10
220.98245804937631
 20
208.3793776839922
 30
0.0
 40
1.0
 50
180.0
 51
270.0
1001
GENIUS_GENODEF_13
1002
{
1000
HIER
1070
     0
1002
}
1002
{
1000
MANEDIT
1070
     0
1002
}
1002
{
1000
NOSEL
1070
     0
1002
}
1002
{
1000
BEHIND
1070
     0
1002
}
1002
{
1000
OTHER
1070
     0
1002
}
1002
{
1000
REACTOR
1002
}
1001
GENIUS_GENOBJ-N-FIL_13
1002
{
1000
OWNER
1000
GEN
1002
}
  0
LINE
  5
3369
  8
AM_0
 10
133.98245804937639
 20
226.8793776839922
 30
0.0
 11
189.98245804937639
 21
226.8793776839922
 31
0.0
  0
LINE
  5
336A
  8
AM_0
 10
133.98245804937639
 20
272.87937768399217
 30
0.0
 11
189.98245804937639
 21
272.87937768399217
 31
0.0
1001
GENIUS_GENOREF_13
1005
34E9
  0
LINE
  5
336B
  8
AM_0
 10
132.98245804937639
 20
271.87937768399217
 30
0.0
 11
132.98245804937639
 21
227.8793776839922
 31
0.0
  0
CIRCLE
  5
336C
  8
AM_0N
 10
155.48245804937639
 20
222.8793776839922
 30
0.0
 40
2.799999999999998
  0
LINE
  5
336D
  8
AM_0
 10
149.48245804937639
 20
218.8793776839922
 30
0.0
 11
161.48245804937639
 21
218.8793776839922
 31
0.0
  0
ARC
  5
336E
  8
AM_0
 10
133.98245804937639
 20
227.8793776839922
 30
0.0
 40
1.0
 50
180.0
 51
270.0
1001
GENIUS_GENOBJ-N-FIL_13
1002
{
1000
OWNER
1000
GEN
1002
}
1001
GENIUS_GENODEF_13
1002
{
1000
HIER
1070
     0
1002
}
1002
{
1000
MANEDIT
1070
     0
1002
}
1002
{
1000
NOSEL
1070
     0
1002
}
1002
{
1000
BEHIND
1070
     0
1002
}
1002
{
1000
OTHER
1070
     0
1002
}
1002
{
1000
REACTOR
1002
}
  0
LINE
  5
336F
  8
AM_0
 10
147.48245804937639
 20
220.8793776839922
 30
0.0
 11
147.48245804937639
 21
226.8793776839922
 31
0.0
  0
LINE
  5
3370
  8
AM_0
 10
151.48245804937639
 20
218.8793776839922
 30
0.0
 11
151.48245804937639
 21
226.8793776839922
 31
0.0
  0
ARC
  5
3371
  8
AM_0
 10
149.48245804937639
 20
220.8793776839922
 30
0.0
 40
2.0
 50
180.0
 51
270.0
1001
GENIUS_GENOBJ-N-FIL_13
1002
{
1000
OWNER
1000
GEN
1002
}
1001
GENIUS_GENODEF_13
1002
{
1000
HIER
1070
     0
1002
}
1002
{
1000
MANEDIT
1070
     0
1002
}
1002
{
1000
NOSEL
1070
     0
1002
}
1002
{
1000
BEHIND
1070
     0
1002
}
1002
{
1000
OTHER
1070
     0
1002
}
1002
{
1000
REACTOR
1002
}
  0
LINE
  5
3372
  8
AM_0
 10
155.98245804937631
 20
212.8793776839922
 30
0.0
 11
176.98245804937639
 21
212.8793776839922
 31
0.0
  0
LINE
  5
3373
  8
AM_0N
 10
155.22995804937639
 20
221.40078248922109
 30
0.0
 11
155.22995804937639
 21
222.62687768399209
 31
0.0
  0
LINE
  5
3374
  8
AM_0N
 10
155.73495804937639
 20
221.40078248922109
 30
0.0
 11
155.73495804937639
 21
222.62687768399209
 31
0.0
  0
LINE
  5
3375
  8
AM_0
 10
159.48245804937639
 20
218.8793776839922
 30
0.0
 11
159.48245804937639
 21
226.8793776839922
 31
0.0
  0
LINE
  5
3376
  8
AM_0
 10
163.48245804937639
 20
220.8793776839922
 30
0.0
 11
163.48245804937639
 21
226.8793776839922
 31
0.0
  0
ARC
  5
3377
  8
AM_0
 10
161.48245804937639
 20
220.8793776839922
 30
0.0
 40
2.0
 50
270.0
 51
0.0
1001
GENIUS_GENOBJ-N-FIL_13
1002
{
1000
OWNER
1000
GEN
1002
}
1001
GENIUS_GENODEF_13
1002
{
1000
HIER
1070
     0
1002
}
1002
{
1000
MANEDIT
1070
     0
1002
}
1002
{
1000
NOSEL
1070
     0
1002
}
1002
{
1000
BEHIND
1070
     0
1002
}
1002
{
1000
OTHER
1070
     0
1002
}
1002
{
1000
REACTOR
1002
}
  0
ARC
  5
3378
  8
AM_0
 10
155.98245804937631
 20
211.8793776839922
 30
0.0
 40
1.0
 50
90.0
 51
180.0
1001
GENIUS_GENODEF_13
1002
{
1000
HIER
1070
     0
1002
}
1002
{
1000
MANEDIT
1070
     0
1002
}
1002
{
1000
NOSEL
1070
     0
1002
}
1002
{
1000
BEHIND
1070
     0
1002
}
1002
{
1000
OTHER
1070
     0
1002
}
1002
{
1000
REACTOR
1002
}
1001
GENIUS_GENOBJ-N-FIL_13
1002
{
1000
OWNER
1000
GEN
1002
}
  0
LINE
  5
3379
  8
AM_0N
 10
155.22995804937639
 20
221.40078248922109
 30
0.0
 11
155.73495804937639
 21
221.40078248922109
 31
0.0
  0
LINE
  5
337A
  8
AM_0N
 10
156.96105324414751
 20
223.1318776839922
 30
0.0
 11
155.73495804937639
 21
223.1318776839922
 31
0.0
  0
LINE
  5
337B
  8
AM_0N
 10
156.96105324414751
 20
222.62687768399209
 30
0.0
 11
155.73495804937639
 21
222.62687768399209
 31
0.0
  0
LINE
  5
337C
  8
AM_0N
 10
155.22995804937639
 20
223.1318776839922
 30
0.0
 11
154.0038628546053
 21
223.1318776839922
 31
0.0
  0
LINE
  5
337D
  8
AM_0N
 10
155.22995804937639
 20
222.62687768399209
 30
0.0
 11
154.0038628546053
 21
222.62687768399209
 31
0.0
  0
LINE
  5
337E
  8
AM_0N
 10
154.0038628546053
 20
223.1318776839922
 30
0.0
 11
154.0038628546053
 21
222.62687768399209
 31
0.0
  0
LINE
  5
337F
  8
AM_0N
 10
155.73495804937639
 20
223.1318776839922
 30
0.0
 11
155.73495804937639
 21
224.35797287876329
 31
0.0
  0
LINE
  5
3380
  8
AM_0N
 10
155.22995804937639
 20
223.1318776839922
 30
0.0
 11
155.22995804937639
 21
224.35797287876329
 31
0.0
  0
LINE
  5
3381
  8
AM_0N
 10
155.22995804937639
 20
224.35797287876329
 30
0.0
 11
155.73495804937639
 21
224.35797287876329
 31
0.0
  0
LINE
  5
3382
  8
AM_0N
 10
156.96105324414751
 20
223.1318776839922
 30
0.0
 11
156.96105324414751
 21
222.62687768399209
 31
0.0
  0
CIRCLE
  5
3399
  8
AM_0N
 10
155.48245804937639
 20
276.87937768399217
 30
0.0
 40
2.799999999999998
1001
GENIUS_GENOREF_13
1005
0
  0
LINE
  5
339A
  8
AM_0
 10
149.48245804937639
 20
280.87937768399217
 30
0.0
 11
161.48245804937639
 21
280.87937768399217
 31
0.0
1001
GENIUS_GENOREF_13
1005
34E9
  0
LINE
  5
339B
  8
AM_0
 10
147.48245804937639
 20
278.87937768399217
 30
0.0
 11
147.48245804937639
 21
272.87937768399217
 31
0.0
  0
LINE
  5
339C
  8
AM_0
 10
151.48245804937639
 20
280.87937768399217
 30
0.0
 11
151.48245804937639
 21
272.87937768399217
 31
0.0
  0
ARC
  5
339D
  8
AM_0
 10
133.98245804937639
 20
271.87937768399217
 30
0.0
 40
1.0
 50
90.0
 51
180.0
1001
GENIUS_GENODEF_13
1002
{
1000
HIER
1070
     0
1002
}
1002
{
1000
MANEDIT
1070
     0
1002
}
1002
{
1000
NOSEL
1070
     0
1002
}
1002
{
1000
BEHIND
1070
     0
1002
}
1002
{
1000
OTHER
1070
     0
1002
}
1002
{
1000
REACTOR
1002
}
1001
GENIUS_GENOBJ-N-FIL_13
1002
{
1000
OWNER
1000
GEN
1002
}
  0
ARC
  5
339E
  8
AM_0
 10
149.48245804937639
 20
278.87937768399217
 30
0.0
 40
2.0
 50
90.0
 51
180.0
1001
GENIUS_GENOBJ-N-FIL_13
1002
{
1000
OWNER
1000
GEN
1002
}
1001
GENIUS_GENODEF_13
1002
{
1000
HIER
1070
     0
1002
}
1002
{
1000
MANEDIT
1070
     0
1002
}
1002
{
1000
NOSEL
1070
     0
1002
}
1002
{
1000
BEHIND
1070
     0
1002
}
1002
{
1000
OTHER
1070
     0
1002
}
1002
{
1000
REACTOR
1002
}
  0
LINE
  5
339F
  8
AM_0N
 10
154.0038628546053
 20
276.62687768399212
 30
0.0
 11
154.0038628546053
 21
277.13187768399229
 31
0.0
1001
GENIUS_GENOREF_13
1005
0
  0
LINE
  5
33A0
  8
AM_0
 10
159.48245804937639
 20
280.87937768399217
 30
0.0
 11
159.48245804937639
 21
272.87937768399217
 31
0.0
  0
LINE
  5
33A1
  8
AM_0
 10
163.48245804937639
 20
278.87937768399217
 30
0.0
 11
163.48245804937639
 21
272.87937768399217
 31
0.0
  0
LINE
  5
33A2
  8
AM_0N
 10
156.96105324414751
 20
276.62687768399212
 30
0.0
 11
156.96105324414751
 21
277.13187768399229
 31
0.0
1001
GENIUS_GENOREF_13
1005
0
  0
LINE
  5
33A3
  8
AM_0N
 10
156.96105324414751
 20
276.62687768399212
 30
0.0
 11
155.73495804937639
 21
276.62687768399212
 31
0.0
1001
GENIUS_GENOREF_13
1005
0
  0
LINE
  5
33A4
  8
AM_0N
 10
155.22995804937639
 20
276.62687768399212
 30
0.0
 11
154.0038628546053
 21
276.62687768399212
 31
0.0
1001
GENIUS_GENOREF_13
1005
0
  0
LINE
  5
33A5
  8
AM_0N
 10
155.22995804937639
 20
276.62687768399212
 30
0.0
 11
155.22995804937639
 21
275.40078248922111
 31
0.0
1001
GENIUS_GENOREF_13
1005
0
  0
LINE
  5
33A6
  8
AM_0N
 10
155.73495804937639
 20
276.62687768399212
 30
0.0
 11
155.73495804937639
 21
275.40078248922111
 31
0.0
1001
GENIUS_GENOREF_13
1005
0
  0
LINE
  5
33A7
  8
AM_0N
 10
155.22995804937639
 20
275.40078248922111
 30
0.0
 11
155.73495804937639
 21
275.40078248922111
 31
0.0
1001
GENIUS_GENOREF_13
1005
0
  0
ARC
  5
33A8
  8
AM_0
 10
161.48245804937639
 20
278.87937768399217
 30
0.0
 40
2.0
 50
0.0
 51
90.0
1001
GENIUS_GENOBJ-N-FIL_13
1002
{
1000
OWNER
1000
GEN
1002
}
1001
GENIUS_GENODEF_13
1002
{
1000
HIER
1070
     0
1002
}
1002
{
1000
MANEDIT
1070
     0
1002
}
1002
{
1000
NOSEL
1070
     0
1002
}
1002
{
1000
BEHIND
1070
     0
1002
}
1002
{
1000
OTHER
1070
     0
1002
}
1002
{
1000
REACTOR
1002
}
  0
LINE
  5
33A9
  8
AM_0N
 10
156.96105324414751
 20
277.13187768399229
 30
0.0
 11
155.73495804937639
 21
277.13187768399229
 31
0.0
1001
GENIUS_GENOREF_13
1005
0
  0
LINE
  5
33AA
  8
AM_0N
 10
155.22995804937639
 20
277.13187768399229
 30
0.0
 11
154.0038628546053
 21
277.13187768399229
 31
0.0
1001
GENIUS_GENOREF_13
1005
0
  0
LINE
  5
33AB
  8
AM_0N
 10
155.73495804937639
 20
278.35797287876318
 30
0.0
 11
155.73495804937639
 21
277.13187768399229
 31
0.0
1001
GENIUS_GENOREF_13
1005
0
  0
LINE
  5
33AC
  8
AM_0N
 10
155.22995804937639
 20
278.35797287876318
 30
0.0
 11
155.22995804937639
 21
277.13187768399229
 31
0.0
1001
GENIUS_GENOREF_13
1005
0
  0
LINE
  5
33AD
  8
AM_0N
 10
155.22995804937639
 20
278.35797287876318
 30
0.0
 11
155.73495804937639
 21
278.35797287876318
 31
0.0
1001
GENIUS_GENOREF_13
1005
0
  0
LINE
  5
33AE
  8
AM_0
 10
190.98245804937639
 20
271.87937768399217
 30
0.0
 11
190.98245804937639
 21
227.8793776839922
 31
0.0
  0
ARC
  5
33AF
  8
AM_0
 10
189.98245804937639
 20
227.8793776839922
 30
0.0
 40
1.0
 50
270.0
 51
0.0
1001
GENIUS_GENOBJ-N-FIL_13
1002
{
1000
OWNER
1000
GEN
1002
}
1001
GENIUS_GENODEF_13
1002
{
1000
HIER
1070
     0
1002
}
1002
{
1000
MANEDIT
1070
     0
1002
}
1002
{
1000
NOSEL
1070
     0
1002
}
1002
{
1000
BEHIND
1070
     0
1002
}
1002
{
1000
OTHER
1070
     0
1002
}
1002
{
1000
REACTOR
1002
}
  0
LINE
  5
33B0
  8
AM_0
 10
219.98245804937631
 20
223.8793776839922
 30
0.0
 11
219.98245804937631
 21
219.3793776839922
 31
0.0
  0
ARC
  5
33B1
  8
AM_0
 10
220.98245804937631
 20
211.8793776839922
 30
0.0
 40
1.0
 50
90.0
 51
180.0
1001
GENIUS_GENODEF_13
1002
{
1000
HIER
1070
     0
1002
}
1002
{
1000
MANEDIT
1070
     0
1002
}
1002
{
1000
NOSEL
1070
     0
1002
}
1002
{
1000
BEHIND
1070
     0
1002
}
1002
{
1000
OTHER
1070
     0
1002
}
1002
{
1000
REACTOR
1002
}
1001
GENIUS_GENOBJ-N-FIL_13
1002
{
1000
OWNER
1000
GEN
1002
}
  0
ARC
  5
33B2
  8
AM_0
 10
220.98245804937631
 20
219.3793776839922
 30
0.0
 40
1.0
 50
180.0
 51
270.0
1001
GENIUS_GENODEF_13
1002
{
1000
HIER
1070
     0
1002
}
1002
{
1000
MANEDIT
1070
     0
1002
}
1002
{
1000
NOSEL
1070
     0
1002
}
1002
{
1000
BEHIND
1070
     0
1002
}
1002
{
1000
OTHER
1070
     0
1002
}
1002
{
1000
REACTOR
1002
}
1001
GENIUS_GENOBJ-N-FIL_13
1002
{
1000
OWNER
1000
GEN
1002
}
  0
ARC
  5
33B3
  8
AM_0
 10
220.98245804937631
 20
223.8793776839922
 30
0.0
 40
1.0
 50
90.0
 51
180.0
1001
GENIUS_GENOBJ-N-FIL_13
1002
{
1000
OWNER
1000
GEN
1002
}
1001
GENIUS_GENODEF_13
1002
{
1000
HIER
1070
     0
1002
}
1002
{
1000
MANEDIT
1070
     0
1002
}
1002
{
1000
NOSEL
1070
     0
1002
}
1002
{
1000
BEHIND
1070
     0
1002
}
1002
{
1000
OTHER
1070
     0
1002
}
1002
{
1000
REACTOR
1002
}
  0
ARC
  5
33B4
  8
AM_0
 10
189.98245804937639
 20
271.87937768399217
 30
0.0
 40
1.0
 50
0.0
 51
90.0
1001
GENIUS_GENODEF_13
1002
{
1000
HIER
1070
     0
1002
}
1002
{
1000
MANEDIT
1070
     0
1002
}
1002
{
1000
NOSEL
1070
     0
1002
}
1002
{
1000
BEHIND
1070
     0
1002
}
1002
{
1000
OTHER
1070
     0
1002
}
1002
{
1000
REACTOR
1002
}
1001
GENIUS_GENOBJ-N-FIL_13
1002
{
1000
OWNER
1000
GEN
1002
}
  0
LINE
  5
33B5
  8
AM_0
 10
291.48245804937642
 20
196.08747718399209
 30
0.0
 11
291.48245804937642
 21
246.8793641839921
 31
0.0
  0
LINE
  5
33B6
  8
AM_0
 10
356.48246804937622
 20
263.8793621839921
 30
0.0
 11
356.48246804937622
 21
198.3793451839922
 31
0.0
  0
LINE
  5
33B7
  8
AM_0
 10
342.48245804937642
 20
196.25613118399221
 30
0.0
 11
342.48245804937642
 21
223.3443581839922
 31
0.0
  0
LINE
  5
33B8
  8
AM_0
 10
244.98245804937631
 20
211.8793776839922
 30
0.0
 11
244.98245804937631
 21
208.3793776839922
 31
0.0
  0
LINE
  5
33B9
  8
AM_0
 10
297.48245804937642
 20
182.06544118399211
 30
0.0
 11
333.48248804937629
 21
180.80828518399221
 31
0.0
  0
LINE
  5
33BA
  8
AM_0
 10
297.48245804937642
 20
194.09872318399209
 30
0.0
 11
333.48245804937631
 21
194.09872318399209
 31
0.0
  0
LINE
  5
33BB
  8
AM_0
 10
273.48245804937642
 20
183.8793776839922
 30
0.0
 11
266.48245804937642
 21
180.8793776839922
 31
0.0
  0
ARC
  5
33BC
  8
AM_0
 10
243.98245804937639
 20
185.57937768399219
 30
0.0
 40
1.0
 50
270.0
 51
0.0
1001
GENIUS_GENOBJ-N-FIL_13
1002
{
1000
OWNER
1000
GEN
1002
}
1001
GENIUS_GENODEF_13
1002
{
1000
HIER
1070
     0
1002
}
1002
{
1000
MANEDIT
1070
     0
1002
}
1002
{
1000
NOSEL
1070
     0
1002
}
1002
{
1000
BEHIND
1070
     0
1002
}
1002
{
1000
OTHER
1070
     0
1002
}
1002
{
1000
REACTOR
1002
}
  0
LINE
  5
33BD
  8
AM_0
 10
244.98245804937639
 20
186.1793776839921
 30
0.0
 11
244.98245804937639
 21
185.57937768399219
 31
0.0
  0
ARC
  5
33BE
  8
AM_0
 10
243.98245804937639
 20
186.1793776839921
 30
0.0
 40
1.0
 50
0.0
 51
90.0
1001
GENIUS_GENODEF_13
1002
{
1000
HIER
1070
     0
1002
}
1002
{
1000
MANEDIT
1070
     0
1002
}
1002
{
1000
NOSEL
1070
     0
1002
}
1002
{
1000
BEHIND
1070
     0
1002
}
1002
{
1000
OTHER
1070
     0
1002
}
1002
{
1000
REACTOR
1002
}
1001
GENIUS_GENOBJ-N-FIL_13
1002
{
1000
OWNER
1000
GEN
1002
}
  0
LINE
  5
33BF
  8
AM_0
 10
254.98245804937639
 20
180.8793776839922
 30
0.0
 11
266.48245804937642
 21
180.8793776839922
 31
0.0
  0
LINE
  5
33C0
  8
AM_0
 10
244.98245804937639
 20
202.6793776839923
 30
0.0
 11
244.98245804937639
 21
199.4793776839922
 31
0.0
  0
ARC
  5
33C1
  8
AM_0
 10
243.98245804937639
 20
193.9793776839922
 30
0.0
 40
1.0
 50
0.0
 51
90.0
1001
GENIUS_GENODEF_13
1002
{
1000
HIER
1070
     0
1002
}
1002
{
1000
MANEDIT
1070
     0
1002
}
1002
{
1000
NOSEL
1070
     0
1002
}
1002
{
1000
BEHIND
1070
     0
1002
}
1002
{
1000
OTHER
1070
     0
1002
}
1002
{
1000
REACTOR
1002
}
1001
GENIUS_GENOBJ-N-FIL_13
1002
{
1000
OWNER
1000
GEN
1002
}
  0
ARC
  5
33C2
  8
AM_0
 10
243.98245804937639
 20
191.67937768399219
 30
0.0
 40
1.0
 50
270.0
 51
0.0
1001
GENIUS_GENODEF_13
1002
{
1000
HIER
1070
     0
1002
}
1002
{
1000
MANEDIT
1070
     0
1002
}
1002
{
1000
NOSEL
1070
     0
1002
}
1002
{
1000
BEHIND
1070
     0
1002
}
1002
{
1000
OTHER
1070
     0
1002
}
1002
{
1000
REACTOR
1002
}
1001
GENIUS_GENOBJ-N-FIL_13
1002
{
1000
OWNER
1000
GEN
1002
}
  0
LINE
  5
33C3
  8
AM_0
 10
244.98245804937639
 20
193.9793776839922
 30
0.0
 11
244.98245804937639
 21
191.67937768399219
 31
0.0
  0
ARC
  5
33C4
  8
AM_0
 10
243.98245804937639
 20
199.4793776839922
 30
0.0
 40
1.0
 50
270.0
 51
0.0
1001
GENIUS_GENODEF_13
1002
{
1000
HIER
1070
     0
1002
}
1002
{
1000
MANEDIT
1070
     0
1002
}
1002
{
1000
NOSEL
1070
     0
1002
}
1002
{
1000
BEHIND
1070
     0
1002
}
1002
{
1000
OTHER
1070
     0
1002
}
1002
{
1000
REACTOR
1002
}
1001
GENIUS_GENOBJ-N-FIL_13
1002
{
1000
OWNER
1000
GEN
1002
}
  0
ARC
  5
33C5
  8
AM_0
 10
243.98245804937639
 20
202.6793776839923
 30
0.0
 40
1.0
 50
0.0
 51
90.0
1001
GENIUS_GENODEF_13
1002
{
1000
HIER
1070
     0
1002
}
1002
{
1000
MANEDIT
1070
     0
1002
}
1002
{
1000
NOSEL
1070
     0
1002
}
1002
{
1000
BEHIND
1070
     0
1002
}
1002
{
1000
OTHER
1070
     0
1002
}
1002
{
1000
REACTOR
1002
}
1001
GENIUS_GENOBJ-N-FIL_13
1002
{
1000
OWNER
1000
GEN
1002
}
  0
ARC
  5
33C6
  8
AM_0
 10
243.98245804937639
 20
208.3793776839922
 30
0.0
 40
1.0
 50
270.0
 51
0.0
1001
GENIUS_GENODEF_13
1002
{
1000
HIER
1070
     0
1002
}
1002
{
1000
MANEDIT
1070
     0
1002
}
1002
{
1000
NOSEL
1070
     0
1002
}
1002
{
1000
BEHIND
1070
     0
1002
}
1002
{
1000
OTHER
1070
     0
1002
}
1002
{
1000
REACTOR
1002
}
1001
GENIUS_GENOBJ-N-FIL_13
1002
{
1000
OWNER
1000
GEN
1002
}
  0
LINE
  5
33C7
  8
AM_0
 10
285.48245804937631
 20
194.50894018399211
 30
0.0
 11
285.48245804937631
 21
183.84091018399209
 31
0.0
  0
ARC
  5
33C8
  8
AM_0
 10
283.98245804937642
 20
189.1038941839922
 30
0.0
 40
1.500000029999998
 50
0.0
 51
88.499997000000747
  0
ARC
  5
33C9
  8
AM_0
 10
286.98245804937642
 20
183.84091018399209
 30
0.0
 40
1.500000029999998
 50
179.99999000000059
 51
268.50000999999878
  0
LINE
  5
33CA
  8
AM_0
 10
286.94321804937641
 20
182.3414291839922
 30
0.0
 11
297.48245804937642
 21
182.06544118399211
 31
0.0
  0
LINE
  5
33CB
  8
AM_0
 10
273.48245804937642
 20
200.87934718399219
 30
0.0
 11
291.48245804937642
 21
200.87934718399219
 31
0.0
  0
ARC
  5
33CC
  8
AM_0
 10
283.48244804937639
 20
194.50894018399211
 30
0.0
 40
2.00000007
 50
0.0
 51
90.00000299999769
  0
LINE
  5
33CD
  8
AM_0
 10
273.4823980493764
 20
190.87934518399209
 30
0.0
 11
284.02169804937631
 21
190.60337518399211
 31
0.0
  0
LINE
  5
33CE
  8
AM_0
 10
291.48245804937642
 20
194.08747618399201
 30
0.0
 11
297.48245804937642
 21
194.08747618399201
 31
0.0
  0
LINE
  5
33CF
  8
AM_0
 10
285.48245804937631
 20
196.50895318399211
 30
0.0
 11
291.48245804937642
 21
196.50895318399211
 31
0.0
  0
ARC
  5
33D0
  8
AM_0
 10
289.48244804937639
 20
196.08747718399209
 30
0.0
 40
2.00000007
 50
270.0
 51
0.0
  0
LINE
  5
33D1
  8
AM_0
 10
334.45625804937617
 20
197.8025651839921
 30
0.0
 11
342.48245804937642
 21
198.01273918399201
 31
0.0
  0
LINE
  5
33D2
  8
AM_0
 10
337.03766804937618
 20
194.42494018399199
 30
0.0
 11
333.48245804937631
 21
194.42494018399199
 31
0.0
  0
LINE
  5
33D3
  8
AM_0
 10
337.03766804937618
 20
182.9249381839922
 30
0.0
 11
333.48245804937631
 21
182.9249381839922
 31
0.0
  0
LINE
  5
33D4
  8
AM_0
 10
337.03766804937618
 20
191.54995618399209
 30
0.0
 11
333.48245804937631
 21
191.54995618399209
 31
0.0
  0
LINE
  5
33D5
  8
AM_0
 10
337.03766804937618
 20
185.79994018399211
 30
0.0
 11
333.48245804937631
 21
185.79994018399211
 31
0.0
  0
LINE
  5
33D6
  8
AM_0
 10
333.48245804937631
 20
197.0781371839922
 30
0.0
 11
333.48245804937631
 21
180.8793461839922
 31
0.0
  0
ARC
  5
33D7
  8
AM_0
 10
334.48241804937629
 20
196.80292918399221
 30
0.0
 40
1.0000000199999981
 50
91.500001000001546
 51
180.00000999999941
  0
LINE
  5
33D8
  8
AM_0
 10
337.48241804937641
 20
192.98743918399211
 30
0.0
 11
337.48241804937641
 21
184.36242418399209
 31
0.0
  0
ARC
  5
33D9
  8
AM_0
 10
327.96794804937639
 20
188.674939183992
 30
0.0
 40
9.5144921999999994
 50
342.41195999999752
 51
17.588032999999289
  0
ARC
  5
33DA
  8
AM_0
 10
334.93703804937638
 20
184.36242418399209
 30
0.0
 40
2.5454064299999981
 50
325.61556999999959
 51
34.38443900000275
  0
LINE
  5
33DB
  8
AM_0
 10
344.4126880493763
 20
194.25733618399209
 30
0.0
 11
352.48241804937641
 21
193.97553718399209
 31
0.0
  0
ARC
  5
33DC
  8
AM_0
 10
344.48246804937622
 20
196.25613118399221
 30
0.0
 40
2.00000007
 50
179.99999000000059
 51
268.00000999999872
  0
ARC
  5
33DD
  8
AM_0
 10
334.93703804937638
 20
192.98743918399211
 30
0.0
 40
2.5454064299999981
 50
325.61556999999959
 51
34.38443900000275
  0
ARC
  5
33DE
  8
AM_0
 10
345.48245804937642
 20
209.2640501839922
 30
0.0
 40
2.00000007
 50
268.0000000000029
 51
0.0
  0
LINE
  5
33DF
  8
AM_0
 10
352.48244804937639
 20
198.27459418399221
 30
0.0
 11
356.48246804937622
 21
198.3793451839922
 31
0.0
  0
LINE
  5
33E0
  8
AM_0
 10
297.48245804937642
 20
289.48620718399218
 30
0.0
 11
327.67847804937628
 21
289.48620718399218
 31
0.0
  0
LINE
  5
33E1
  8
AM_0
 10
291.48245804937642
 20
286.75299118399221
 30
0.0
 11
291.48245804937642
 21
246.8793641839921
 31
0.0
  0
LINE
  5
33E3
  8
AM_0
 10
244.98245804937639
 20
223.8793776839922
 30
0.0
 11
244.98245804937631
 21
219.3793776839922
 31
0.0
  0
ARC
  5
33E4
  8
AM_0
 10
243.98245804937631
 20
211.8793776839922
 30
0.0
 40
1.0
 50
0.0
 51
90.0
1001
GENIUS_GENOBJ-N-FIL_13
1002
{
1000
OWNER
1000
GEN
1002
}
1001
GENIUS_GENODEF_13
1002
{
1000
HIER
1070
     0
1002
}
1002
{
1000
MANEDIT
1070
     0
1002
}
1002
{
1000
NOSEL
1070
     0
1002
}
1002
{
1000
BEHIND
1070
     0
1002
}
1002
{
1000
OTHER
1070
     0
1002
}
1002
{
1000
REACTOR
1002
}
  0
ARC
  5
33E5
  8
AM_0
 10
243.98245804937631
 20
219.3793776839922
 30
0.0
 40
1.0
 50
270.0
 51
0.0
1001
GENIUS_GENODEF_13
1002
{
1000
HIER
1070
     0
1002
}
1002
{
1000
MANEDIT
1070
     0
1002
}
1002
{
1000
NOSEL
1070
     0
1002
}
1002
{
1000
BEHIND
1070
     0
1002
}
1002
{
1000
OTHER
1070
     0
1002
}
1002
{
1000
REACTOR
1002
}
1001
GENIUS_GENOBJ-N-FIL_13
1002
{
1000
OWNER
1000
GEN
1002
}
  0
ARC
  5
33E6
  8
AM_0
 10
243.98245804937631
 20
223.8793776839922
 30
0.0
 40
1.0
 50
0.0
 51
90.0
1001
GENIUS_GENOBJ-N-FIL_13
1002
{
1000
OWNER
1000
GEN
1002
}
1001
GENIUS_GENODEF_13
1002
{
1000
HIER
1070
     0
1002
}
1002
{
1000
MANEDIT
1070
     0
1002
}
1002
{
1000
NOSEL
1070
     0
1002
}
1002
{
1000
BEHIND
1070
     0
1002
}
1002
{
1000
OTHER
1070
     0
1002
}
1002
{
1000
REACTOR
1002
}
  0
LINE
  5
33E7
  8
AM_0
 10
273.48245804937642
 20
214.9419221839922
 30
0.0
 11
291.48245804937642
 21
214.9419221839922
 31
0.0
  0
LINE
  5
33E8
  8
AM_0
 10
285.48245804937631
 20
290.87936518399209
 30
0.0
 11
285.48245804937631
 21
272.66207818399221
 31
0.0
  0
LINE
  5
33E9
  8
AM_0
 10
285.48245804937631
 20
272.66207818399221
 30
0.0
 11
291.48245804937642
 21
272.66207818399221
 31
0.0
  0
LINE
  5
33EA
  8
AM_0
 10
273.48245804937642
 20
292.8793631839921
 30
0.0
 11
291.48245804937642
 21
292.8793631839921
 31
0.0
  0
LINE
  5
33EB
  8
AM_0
 10
273.48245804937642
 20
278.81680318399219
 30
0.0
 11
285.48245804937631
 21
278.81680318399219
 31
0.0
  0
LINE
  5
33EC
  8
AM_0
 10
285.48245804937631
 20
289.48620718399218
 30
0.0
 11
297.48245804937642
 21
289.48620718399218
 31
0.0
  0
LINE
  5
33ED
  8
AM_0
 10
285.48245804937631
 20
290.87936518399209
 30
0.0
 11
291.48245804937642
 21
290.87936518399209
 31
0.0
  0
LINE
  5
33EE
  8
AM_0
 10
359.48243804937641
 20
253.87937818399209
 30
0.0
 11
359.48243804937641
 21
263.8793621839921
 31
0.0
  0
LINE
  5
33EF
  8
AM_0
 10
357.48245804937642
 20
282.90521218399221
 30
0.0
 11
357.48245804937642
 21
244.63493218399211
 31
0.0
  0
LINE
  5
33F0
  8
AM_0
 10
334.48241804937629
 20
217.14407218399219
 30
0.0
 11
342.48245804937642
 21
217.14407218399219
 31
0.0
  0
ARC
  5
33F1
  8
AM_0
 10
334.48241804937629
 20
222.14405518399221
 30
0.0
 40
5.0000001000000003
 50
179.99999000000059
 51
270.0
  0
ARC
  5
33F2
  8
AM_0
 10
344.48246804937622
 20
223.3443581839922
 30
0.0
 40
2.00000007
 50
90.00000299999769
 51
180.00000999999941
  0
ARC
  5
33F3
  8
AM_0
 10
355.48241804937629
 20
244.63493218399211
 30
0.0
 40
2.00000007
 50
315.0
 51
0.0
  0
LINE
  5
33F4
  8
AM_0
 10
356.48246804937622
 20
242.80647118399219
 30
0.0
 11
356.89667804937631
 21
243.2206871839922
 31
0.0
  0
LINE
  5
33F5
  8
AM_0
 10
357.48245804937642
 20
253.87937818399209
 30
0.0
 11
359.48243804937641
 21
253.87937818399209
 31
0.0
  0
LINE
  5
33F6
  8
AM_0
 10
365.48243804937641
 20
273.37936318399221
 30
0.0
 11
365.48243804937641
 21
275.8793641839921
 31
0.0
  0
LINE
  5
33F7
  8
AM_0
 10
359.48243804937641
 20
273.8793641839921
 30
0.0
 11
359.48243804937641
 21
263.8793621839921
 31
0.0
  0
LINE
  5
33F8
  8
AM_0
 10
357.48245804937642
 20
273.8793641839921
 30
0.0
 11
359.48243804937641
 21
273.8793641839921
 31
0.0
  0
LINE
  5
33F9
  8
AM_0
 10
356.48246804937622
 20
284.80651918399212
 30
0.0
 11
356.89667804937631
 21
284.39227318399219
 31
0.0
  0
ARC
  5
33FA
  8
AM_0
 10
355.48241804937629
 20
282.97805818399218
 30
0.0
 40
2.00000007
 50
0.0
 51
45.000001000002641
  0
LINE
  5
33FB
  8
AM_0
 10
129.4824580493765
 20
312.47937768399231
 30
0.0
 11
254.98245804937639
 21
312.4793776839922
 31
0.0
  0
ARC
  5
33FC
  8
AM_0
 10
125.4824580493764
 20
305.77750981261278
 30
0.0
 40
2.0
 50
311.63353933656862
 51
0.0
1001
GENIUS_GENOBJ-N-FIL_13
1002
{
1000
OWNER
1000
GEN
1002
}
1001
GENIUS_GENODEF_13
1002
{
1000
HIER
1070
     0
1002
}
1002
{
1000
MANEDIT
1070
     0
1002
}
1002
{
1000
NOSEL
1070
     0
1002
}
1002
{
1000
BEHIND
1070
     0
1002
}
1002
{
1000
OTHER
1070
     0
1002
}
1002
{
1000
REACTOR
1002
}
  0
ARC
  5
33FD
  8
AM_0
 10
124.9824580493764
 20
299.98124555537157
 30
0.0
 40
2.0
 50
131.6335393365685
 51
180.0
1001
GENIUS_GENODEF_13
1002
{
1000
HIER
1070
     0
1002
}
1002
{
1000
MANEDIT
1070
     0
1002
}
1002
{
1000
NOSEL
1070
     0
1002
}
1002
{
1000
BEHIND
1070
     0
1002
}
1002
{
1000
OTHER
1070
     0
1002
}
1002
{
1000
REACTOR
1002
}
1001
GENIUS_GENOBJ-N-FIL_13
1002
{
1000
OWNER
1000
GEN
1002
}
  0
LINE
  5
33FE
  8
AM_0
 10
126.8111857270362
 20
304.2826911752453
 30
0.0
 11
123.65373037171661
 21
301.47606419273922
 31
0.0
  0
ARC
  5
33FF
  8
AM_0
 10
129.4824580493765
 20
310.47937768399231
 30
0.0
 40
2.0
 50
90.0
 51
180.0
1001
GENIUS_GENOBJ-N-FIL_13
1002
{
1000
OWNER
1000
GEN
1002
}
1001
GENIUS_GENODEF_13
1002
{
1000
HIER
1070
     0
1002
}
1002
{
1000
MANEDIT
1070
     0
1002
}
1002
{
1000
NOSEL
1070
     0
1002
}
1002
{
1000
BEHIND
1070
     0
1002
}
1002
{
1000
OTHER
1070
     0
1002
}
1002
{
1000
REACTOR
1002
}
  0
LINE
  5
3400
  8
AM_0
 10
297.48245804937642
 20
306.8793641839921
 30
0.0
 11
326.56097804937627
 21
307.64080918399208
 31
0.0
  0
LINE
  5
3402
  8
AM_0
 10
266.48245804937642
 20
312.87937768399217
 30
0.0
 11
273.48245804937642
 21
309.87937768399217
 31
0.0
  0
LINE
  5
3403
  8
AM_0
 10
254.98245804937631
 20
312.87937768399217
 30
0.0
 11
266.48245804937642
 21
312.87937768399217
 31
0.0
  0
LINE
  5
3404
  8
AM_0
 10
273.48245804937642
 20
302.87936518399209
 30
0.0
 11
290.02169804937631
 21
303.31246918399211
 31
0.0
  0
LINE
  5
3405
  8
AM_0
 10
292.94321804937641
 20
306.76052818399211
 30
0.0
 11
297.48245804937642
 21
306.8793641839921
 31
0.0
  0
ARC
  5
3406
  8
AM_0
 10
292.98245804937642
 20
305.26101718399218
 30
0.0
 40
1.500000029999998
 50
91.500001000001546
 51
180.00000999999941
  0
ARC
  5
3407
  8
AM_0
 10
289.98245804937631
 20
304.81195018399222
 30
0.0
 40
1.500000029999998
 50
271.50000000000267
 51
0.0
  0
LINE
  5
3409
  8
AM_0
 10
334.30799804937618
 20
333.10744918399212
 30
0.0
 11
339.5871580493764
 21
333.291799183992
 31
0.0
  0
ARC
  5
340A
  8
AM_0
 10
326.48246804937628
 20
310.63977118399208
 30
0.0
 40
3.0
 50
271.50000000000267
 51
0.0
  0
ARC
  5
340B
  8
AM_0
 10
334.48241804937629
 20
328.11046918399211
 30
0.0
 40
5.0000001000000003
 50
91.999998000000545
 51
180.00000999999941
  0
LINE
  5
340C
  8
AM_0
 10
342.48245804937642
 20
336.5987891839921
 30
0.0
 11
342.48245804937642
 21
304.31973418399218
 31
0.0
  0
ARC
  5
340D
  8
AM_0
 10
344.48246804937622
 20
304.31973418399218
 30
0.0
 40
2.00000007
 50
179.99999000000059
 51
271.51463999999908
  0
LINE
  5
340E
  8
AM_0
 10
344.41265804937638
 20
338.59756918399211
 30
0.0
 11
352.48244804937639
 21
338.87935918399222
 31
0.0
  0
ARC
  5
340F
  8
AM_0
 10
344.48246804937622
 20
323.37937918399211
 30
0.0
 40
3.0
 50
0.0
 51
90.00000299999769
  0
ARC
  5
3410
  8
AM_0
 10
344.48246804937622
 20
336.5987891839921
 30
0.0
 40
2.00000007
 50
91.999998000000545
 51
180.00000999999941
  0
ARC
  5
3411
  8
AM_0
 10
339.48245804937642
 20
336.28996918399218
 30
0.0
 40
3.0
 50
271.9999999999971
 51
0.0
  0
LINE
  5
3412
  8
AM_0
 10
352.48241804937641
 20
333.87937918399211
 30
0.0
 11
356.48246804937622
 21
333.87937918399211
 31
0.0
  0
LINE
  5
3413
  8
ﾁｭｳｼﾝｾﾝ
 10
542.36793629553949
 20
177.20759218399209
 30
0.0
 11
542.36793629553949
 21
343.31975145645782
 31
0.0
  0
LINE
  5
3414
  8
AM_0
 10
520.7170262955392
 20
288.35870518399219
 30
0.0
 11
499.37496029553949
 21
309.70074418399219
 31
0.0
  0
LINE
  5
3415
  8
AM_0
 10
517.88859629553951
 20
285.53027518399222
 30
0.0
 11
496.54653029553953
 21
306.87231418399222
 31
0.0
  0
LINE
  5
3416
  8
AM_0
 10
566.84727929553947
 20
285.53027518399222
 30
0.0
 11
588.18936629553934
 21
306.87234718399208
 31
0.0
  0
LINE
  5
3417
  8
AM_0
 10
564.01884629553945
 20
288.35870518399219
 30
0.0
 11
585.36093629553943
 21
309.70077718399222
 31
0.0
  0
LINE
  5
3418
  8
AM_0
 10
617.36793929553949
 20
283.87933318399212
 30
0.0
 11
613.67450429553946
 21
326.095519183992
 31
0.0
  0
LINE
  5
3419
  8
AM_0
 10
467.3679302955394
 20
283.87933318399212
 30
0.0
 11
471.06138029553949
 21
326.095519183992
 31
0.0
  0
ARC
  5
341A
  8
AM_0
 10
542.36793629553949
 20
263.8793621839921
 30
0.0
 40
66.000003000000007
 50
291.2799600000028
 51
248.72003000000129
  0
ARC
  5
341B
  8
AM_0
 10
542.36793629553949
 20
263.8793621839921
 30
0.0
 40
70.000001999999995
 50
290.6561499999973
 51
249.34384000000179
  0
ARC
  5
341C
  8
AM_0
 10
542.36793629553949
 20
263.8793621839921
 30
0.0
 40
44.000000999999983
 50
47.547317000000739
 51
84.505819000000585
  0
ARC
  5
3420
  8
AM_0
 10
542.36793629553949
 20
263.8793621839925
 30
0.0
 40
44.000000999999983
 50
95.494178999999249
 51
132.4526799999978
  0
LINE
  5
3423
  8
ﾁｭｳｼﾝｾﾝ
 10
465.9299102955394
 20
263.8793621839921
 30
0.0
 11
621.09836722207274
 21
263.8793621839921
 31
0.0
  0
LINE
  5
3424
  8
AM_0
 10
605.20700429553949
 20
265.37936218399221
 30
0.0
 11
590.74643429553953
 21
265.37936218399221
 31
0.0
  0
LINE
  5
3425
  8
AM_0
 10
605.20700429553949
 20
262.37936218399221
 30
0.0
 11
594.02214329553942
 21
262.37936218399221
 31
0.0
  0
LINE
  5
3426
  8
AM_0
 10
580.86687029553946
 20
192.87934618399211
 30
0.0
 11
603.74271029553961
 21
192.87934618399211
 31
0.0
  0
LINE
  5
3427
  8
AM_7
 10
594.69823229553947
 20
211.54905418399221
 30
0.0
 11
609.8464082955395
 21
196.40087518399201
 31
0.0
  0
CIRCLE
  5
3428
  8
AM_0
 10
602.47200329553948
 20
203.77526518399219
 30
0.0
 40
5.0000001000000003
  0
ARC
  5
3429
  8
AM_7
 10
542.36793629553949
 20
263.8793621839921
 30
0.0
 40
85.000001999999981
 50
305.69552999999621
 51
324.14258000000262
  0
LINE
  5
342B
  8
AM_0
 10
467.3679302955394
 20
243.87933118399209
 30
0.0
 11
471.03123029553939
 21
202.0077791839922
 31
0.0
  0
ARC
  5
342C
  8
AM_0
 10
480.99315029553941
 20
202.8793451839922
 30
0.0
 40
10.000000200000001
 50
184.99998999999951
 51
270.0
  0
LINE
  5
342D
  8
AM_0
 10
387.48245804937631
 20
254.37936418399221
 30
0.0
 11
387.48245804937631
 21
275.8793641839921
 31
0.0
  0
LINE
  5
3432
  8
AM_0
 10
467.3679302955394
 20
263.8793621839921
 30
0.0
 11
467.3679302955394
 21
243.87934918399219
 31
0.0
  0
ARC
  5
3433
  8
AM_0
 10
726.30797156660094
 20
238.85339690877009
 30
0.0
 40
264.99999999999989
 50
173.53019364652329
 51
181.46980635347501
  0
ARC
  5
3434
  8
AM_0
 10
466.39351654314601
 20
232.18435875770669
 30
0.0
 40
5.0
 50
181.46980635347501
 51
267.50000000000148
1001
GENIUS_GENOBJ-N-FIL_13
1002
{
1000
OWNER
1000
GEN
1002
}
1001
GENIUS_GENODEF_13
1002
{
1000
HIER
1070
     0
1002
}
1002
{
1000
MANEDIT
1070
     0
1002
}
1002
{
1000
NOSEL
1070
     0
1002
}
1002
{
1000
BEHIND
1070
     0
1002
}
1002
{
1000
OTHER
1070
     0
1002
}
1002
{
1000
REACTOR
1002
}
  0
LINE
  5
3435
  8
AM_0
 10
466.17541960631922
 20
227.1891176497974
 30
0.0
 11
468.83831215803002
 21
227.0728532501256
 31
0.0
  0
LINE
  5
3436
  8
AM_0
 10
467.3679302955394
 20
263.8793621839921
 30
0.0
 11
467.3679302955394
 21
283.87933318399212
 31
0.0
  0
ARC
  5
3437
  8
AM_0
 10
467.96381448829823
 20
268.15009473465352
 30
0.0
 40
5.0
 50
96.844597986967344
 51
173.53019364652329
1001
GENIUS_GENODEF_13
1002
{
1000
HIER
1070
     0
1002
}
1002
{
1000
MANEDIT
1070
     0
1002
}
1002
{
1000
NOSEL
1070
     0
1002
}
1002
{
1000
BEHIND
1070
     0
1002
}
1002
{
1000
OTHER
1070
     0
1002
}
1002
{
1000
REACTOR
1002
}
1001
GENIUS_GENOBJ-N-FIL_13
1002
{
1000
OWNER
1000
GEN
1002
}
  0
LINE
  5
3438
  8
AM_0
 10
576.07884629553951
 20
213.12129118399221
 30
0.0
 11
577.07818829553935
 21
211.5038141839922
 31
0.0
  0
LINE
  5
3439
  8
AM_0
 10
512.6694512955396
 20
231.35243218399211
 30
0.0
 11
536.52122729553935
 21
207.5006681839921
 31
0.0
  0
ARC
  5
343A
  8
AM_0
 10
563.91794129553955
 20
228.99934318399221
 30
0.0
 40
20.000000700000001
 50
225.8260300000002
 51
17.592214000000201
  0
ARC
  5
343B
  8
AM_7
 10
542.36793629553949
 20
263.8793621839921
 30
0.0
 40
85.000001999999981
 50
215.6955299999976
 51
234.14257999999799
  0
LINE
  5
343C
  8
AM_0
 10
566.32101629553949
 20
202.37934718399219
 30
0.0
 11
518.41487429553945
 21
202.37934718399219
 31
0.0
  0
LINE
  5
343D
  8
AM_0
 10
507.04441829553951
 20
198.3793451839922
 30
0.0
 11
542.36793629553949
 21
198.3793451839922
 31
0.0
  0
LINE
  5
343E
  8
AM_0
 10
518.25886829553951
 20
181.67494018399211
 30
0.0
 11
566.4769922955395
 21
181.67494018399211
 31
0.0
  0
ARC
  5
343F
  8
AM_0
 10
534.39988829553943
 20
205.37936218399221
 30
0.0
 40
3.0
 50
270.0
 51
45.000001000002641
  0
LINE
  5
3440
  8
AM_0
 10
503.86900529553941
 20
192.87934618399211
 30
0.0
 11
480.99315029553941
 21
192.87934618399211
 31
0.0
  0
LINE
  5
3441
  8
AM_7
 10
490.03767029553927
 20
211.54905418399221
 30
0.0
 11
474.88947029553952
 21
196.40086018399199
 31
0.0
  0
CIRCLE
  5
3442
  8
AM_0
 10
482.26386029553942
 20
203.77526518399219
 30
0.0
 40
5.0000001000000003
  0
LINE
  5
3443
  8
AM_0
 10
523.25886629553952
 20
185.7881741839922
 30
0.0
 11
523.25886629553952
 21
191.56170418399199
 31
0.0
  0
LINE
  5
3444
  8
AM_0
 10
513.25889729553944
 20
191.56170418399199
 30
0.0
 11
513.25889729553944
 21
185.7881741839922
 31
0.0
  0
CIRCLE
  5
3445
  8
AM_0
 10
518.25886829553951
 20
188.67495418399221
 30
0.0
 40
4.9999998000000003
  0
ARC
  5
3446
  8
AM_0
 10
518.25886829553951
 20
188.67492418399209
 30
0.0
 40
7.0000007999999987
 50
161.74802000000011
 51
270.0
  0
LINE
  5
3447
  8
AM_0
 10
518.25886829553951
 20
182.90147218399221
 30
0.0
 11
523.25886629553952
 21
185.78821918399211
 31
0.0
  0
LINE
  5
3448
  8
AM_0
 10
513.25889729553944
 20
185.78818918399199
 30
0.0
 11
518.25889829553944
 21
182.90143918399201
 31
0.0
  0
LINE
  5
3449
  8
AM_0
 10
523.25886629553952
 20
191.56168918399209
 30
0.0
 11
518.25889829553944
 21
194.44843918399209
 31
0.0
  0
ARC
  5
344A
  8
AM_0
 10
506.86262729553971
 20
192.43330018399209
 30
0.0
 40
5.0000001000000003
 50
341.74802
 51
56.890858999998073
  0
LINE
  5
344B
  8
AM_0
 10
503.86900529553941
 20
192.87934618399211
 30
0.0
 11
507.04441829553951
 21
198.3793451839922
 31
0.0
  0
ARC
  5
344C
  8
AM_0
 10
542.36793629553949
 20
246.8793491839921
 30
0.0
 40
60.000002999999992
 50
233.9334100000016
 51
236.89085000000259
  0
LINE
  5
344D
  8
AM_0
 10
518.25886829553951
 20
194.4484541839922
 30
0.0
 11
513.25886729553918
 21
191.56170418399199
 31
0.0
  0
LINE
  5
344E
  8
AM_0
 10
566.4769922955395
 20
182.90145718399211
 30
0.0
 11
571.4769932955395
 21
185.78820418399209
 31
0.0
  0
LINE
  5
344F
  8
AM_0
 10
571.4769932955395
 20
191.56168918399209
 30
0.0
 11
566.47700729553935
 21
194.44843918399209
 31
0.0
  0
LINE
  5
3450
  8
AM_0
 10
577.69145429553942
 20
198.3793451839922
 30
0.0
 11
542.36793629553949
 21
198.3793451839922
 31
0.0
  0
CIRCLE
  5
3451
  8
AM_0
 10
566.4769922955395
 20
188.67495418399221
 30
0.0
 40
4.9999998000000003
  0
ARC
  5
3452
  8
AM_0
 10
566.4769922955395
 20
188.67492418399209
 30
0.0
 40
7.0000007999999987
 50
270.0
 51
18.25197800000095
  0
LINE
  5
3453
  8
AM_0
 10
561.47697629553943
 20
191.56170418399199
 30
0.0
 11
561.47697629553943
 21
185.7881741839922
 31
0.0
  0
LINE
  5
3454
  8
AM_0
 10
561.47700929553935
 20
185.7881741839922
 30
0.0
 11
566.4769922955395
 21
182.90142418399211
 31
0.0
  0
LINE
  5
3455
  8
AM_0
 10
566.4769922955395
 20
194.4484691839921
 30
0.0
 11
561.47697629553943
 21
191.56171918399201
 31
0.0
  0
LINE
  5
3456
  8
AM_0
 10
571.4769932955395
 20
185.7881741839922
 30
0.0
 11
571.4769932955395
 21
191.56170418399199
 31
0.0
  0
LINE
  5
3457
  8
AM_0
 10
580.86687029553946
 20
192.87933118399221
 30
0.0
 11
577.69143929553945
 21
198.37933018399221
 31
0.0
  0
ARC
  5
3458
  8
AM_0
 10
542.36793629553949
 20
246.8793491839921
 30
0.0
 40
60.000002999999992
 50
303.10914000000122
 51
304.41150999999923
  0
ARC
  5
3459
  8
AM_0
 10
577.8732482955395
 20
192.43330018399209
 30
0.0
 40
5.0000001000000003
 50
123.1091299999986
 51
198.2519799999998
  0
ARC
  5
345A
  8
AM_0
 10
542.36793629553949
 20
246.8793491839921
 30
0.0
 40
60.000002999999992
 50
303.10914000000122
 51
306.06658999999843
  0
ARC
  5
345B
  8
AM_0
 10
579.63037529553935
 20
213.0806111839922
 30
0.0
 40
3.0
 50
211.70912000000089
 51
306.2611999999969
  0
LINE
  5
345C
  8
AM_0
 10
572.67593729553937
 20
211.01885818399211
 30
0.0
 11
573.67528229553955
 21
209.4013811839921
 31
0.0
  0
ARC
  5
345D
  8
AM_0
 10
571.12309529553943
 20
207.8245511839921
 30
0.0
 40
3.0
 50
297.15705000000168
 51
31.709121999999109
  0
LINE
  5
345E
  8
ﾁｭｳｼﾝｾﾝ
 10
576.61039113229594
 20
246.8793641839921
 30
0.0
 11
508.12548145878282
 21
246.8793641839921
 31
0.0
  0
LINE
  5
345F
  8
AM_0
 10
549.98115929553967
 20
214.6547981839922
 30
0.0
 11
521.46275429553953
 21
242.36253118399219
 31
0.0
  0
ARC
  5
3460
  8
AM_0
 10
542.36793629553949
 20
263.8793621839921
 30
0.0
 40
9.5000003999999993
 50
108.40848
 51
71.591512000000776
  0
ARC
  5
3461
  8
AM_0
 10
542.36793629553949
 20
263.8793621839921
 30
0.0
 40
20.000000700000001
 50
270.0
 51
90.00000299999769
  0
ARC
  5
3462
  8
AM_0
 10
542.36793629553949
 20
263.8793621839921
 30
0.0
 40
20.000000700000001
 50
90.00000299999769
 51
270.0
  0
ARC
  5
3463
  8
AM_0
 10
542.36793629553949
 20
263.8793621839921
 30
0.0
 40
20.000000700000001
 50
270.0
 51
90.00000299999769
  0
ARC
  5
3464
  8
AM_0
 10
542.36793629553949
 20
263.8793621839921
 30
0.0
 40
20.000000700000001
 50
90.00000299999769
 51
270.0
  0
ARC
  5
3465
  8
AM_0
 10
542.36793629553949
 20
263.8793621839921
 30
0.0
 40
30.0
 50
17.592214000000201
 51
225.8260300000002
  0
ARC
  5
3466
  8
AM_0
 10
542.36793629553949
 20
263.8793621839921
 30
0.0
 40
44.000000999999983
 50
185.49418999999949
 51
222.45268000000121
  0
LINE
  5
3467
  8
AM_0
 10
517.88859629553951
 20
242.2284371839921
 30
0.0
 11
496.54653029553953
 21
220.88635018399219
 31
0.0
  0
LINE
  5
3468
  8
AM_0
 10
520.49617229553951
 20
239.17915318399201
 30
0.0
 11
499.37496029553949
 21
218.0579201839922
 31
0.0
  0
ARC
  5
3469
  8
AM_0
 10
494.42523029553911
 20
223.00767418399221
 30
0.0
 40
3.0
 50
220.4479200000022
 51
315.0
  0
ARC
  5
346A
  8
AM_0
 10
501.49626329553939
 20
215.9365991839922
 30
0.0
 40
3.0
 50
135.0
 51
229.5520800000001
  0
ARC
  5
346B
  8
AM_0
 10
515.76726029553913
 20
244.3497611839922
 30
0.0
 40
3.0
 50
315.0
 51
36.285256999998218
  0
ARC
  5
346C
  8
AM_0
 10
522.61751129553943
 20
237.05784418399219
 30
0.0
 40
3.0
 50
45.82603099999853
 51
135.0
  0
ARC
  5
346D
  8
AM_0
 10
542.36793629553949
 20
263.8793621839921
 30
0.0
 40
44.000000999999983
 50
137.54731999999879
 51
174.50581000000039
  0
LINE
  5
346E
  8
AM_0
 10
479.52885029553931
 20
262.37936218399221
 30
0.0
 11
495.58386029553941
 21
262.37936218399221
 31
0.0
  0
LINE
  5
346F
  8
AM_0
 10
479.52885029553931
 20
265.37936218399221
 30
0.0
 11
495.58386029553941
 21
265.37936218399221
 31
0.0
  0
ARC
  5
3470
  8
AM_0
 10
479.52885029553931
 20
268.37936518399221
 30
0.0
 40
3.0
 50
175.90395000000069
 51
270.0
  0
ARC
  5
3471
  8
AM_0
 10
479.52885029553931
 20
259.37936218399221
 30
0.0
 40
3.0
 50
90.00000299999769
 51
184.09603999999911
  0
ARC
  5
3472
  8
AM_0
 10
495.58386029553941
 20
268.37936518399221
 30
0.0
 40
3.0
 50
270.0
 51
354.50582000000048
  0
ARC
  5
3473
  8
AM_0
 10
495.58386029553941
 20
259.37936218399221
 30
0.0
 40
3.0
 50
5.4941789999992992
 51
90.00000299999769
  0
LINE
  5
3474
  8
AM_0
 10
487.3866602955394
 20
288.11807218399213
 30
0.0
 11
487.3866602955394
 21
282.34457518399211
 31
0.0
  0
LINE
  5
3475
  8
AM_0
 10
497.38668029553918
 20
282.34457518399211
 30
0.0
 11
497.38668029553918
 21
288.11807218399213
 31
0.0
  0
CIRCLE
  5
3476
  8
AM_0
 10
492.3866702955392
 20
285.23132218399218
 30
0.0
 40
4.9999998000000003
  0
LINE
  5
3477
  8
AM_0
 10
492.3866702955392
 20
279.4578251839921
 30
0.0
 11
497.38668029553918
 21
282.34457518399211
 31
0.0
  0
LINE
  5
3478
  8
AM_0
 10
487.3866602955394
 20
282.34457518399211
 30
0.0
 11
492.3866702955392
 21
279.4578251839921
 31
0.0
  0
LINE
  5
3479
  8
AM_0
 10
497.38668029553918
 20
288.11807218399213
 30
0.0
 11
492.3866702955392
 21
291.00482218399208
 31
0.0
  0
LINE
  5
347A
  8
AM_0
 10
492.38670029553941
 20
291.00482218399208
 30
0.0
 11
487.3866602955394
 21
288.11807218399213
 31
0.0
  0
ARC
  5
347B
  8
AM_0
 10
515.76726029553913
 20
283.40893618399218
 30
0.0
 40
3.0
 50
323.71473999999768
 51
45.000001000002641
  0
ARC
  5
347C
  8
AM_0
 10
522.83833529553942
 20
290.48001118399219
 30
0.0
 40
3.0
 50
225.0
 51
306.28525999999772
  0
LINE
  5
347D
  8
AM_0
 10
591.20308229553939
 20
258.35328718399211
 30
0.0
 11
600.22728329553945
 21
233.55947818399221
 31
0.0
  0
LINE
  5
347E
  8
AM_0
 10
582.98256329553942
 20
235.04415718399221
 30
0.0
 11
570.96489329553947
 21
272.94656218399223
 31
0.0
  0
CIRCLE
  5
347F
  8
AM_0
 10
542.36793629553949
 20
263.8793621839921
 30
0.0
 40
2.4999998400000001
  0
CIRCLE
  5
3480
  8
AM_5
 10
542.36793629553949
 20
263.8793621839921
 30
0.0
 40
3.0
  0
LINE
  5
3481
  8
AM_0
 10
545.36793629553927
 20
275.87936518399209
 30
0.0
 11
539.36793629553949
 21
275.87936518399209
 31
0.0
  0
LINE
  5
3482
  8
AM_0
 10
539.36793629553949
 20
269.87936518399209
 30
0.0
 11
545.36793629553927
 21
269.87936518399209
 31
0.0
  0
LINE
  5
3483
  8
AM_0
 10
539.36793629553949
 20
275.87936518399209
 30
0.0
 11
539.36793629553949
 21
269.87936518399209
 31
0.0
  0
LINE
  5
3484
  8
AM_0
 10
545.36793629553927
 20
269.87936518399209
 30
0.0
 11
545.36793629553927
 21
275.87936518399209
 31
0.0
  0
ARC
  5
3485
  8
AM_0
 10
561.89752529553948
 20
290.48001118399219
 30
0.0
 40
3.0
 50
233.71475000000049
 51
315.0
  0
ARC
  5
3486
  8
AM_0
 10
568.96860029553943
 20
283.40893618399218
 30
0.0
 40
3.0
 50
135.0
 51
216.28526000000221
  0
LINE
  5
3487
  8
AM_0
 10
583.71440429553945
 20
278.92822318399209
 30
0.0
 11
587.92734029553935
 21
267.35328718399222
 31
0.0
  0
ARC
  5
3488
  8
AM_0
 10
590.74643429553953
 20
268.37936518399221
 30
0.0
 40
3.0
 50
200.0000000000006
 51
270.0
  0
ARC
  5
3489
  8
AM_0
 10
594.02214329553942
 20
259.37936218399221
 30
0.0
 40
3.0
 50
90.00000299999769
 51
200.0000000000006
  0
ARC
  5
348A
  8
AM_0
 10
542.36793629553949
 20
263.8793621839921
 30
0.0
 40
44.000000999999983
 50
19.999999000003221
 51
42.452681999999967
  0
LINE
  5
348B
  8
AM_0
 10
597.3492002955395
 20
282.34457518399211
 30
0.0
 11
597.3492002955395
 21
288.11807218399213
 31
0.0
  0
LINE
  5
348C
  8
AM_0
 10
587.34918629553943
 20
288.11807218399213
 30
0.0
 11
587.34918629553943
 21
282.34457518399211
 31
0.0
  0
CIRCLE
  5
348D
  8
AM_0
 10
592.34918729553942
 20
285.23132218399218
 30
0.0
 40
4.9999998000000003
  0
LINE
  5
348E
  8
AM_0
 10
592.3492022955395
 20
279.4578251839921
 30
0.0
 11
597.3492002955395
 21
282.34460518399209
 31
0.0
  0
LINE
  5
348F
  8
AM_0
 10
587.34920129553916
 20
282.34457518399211
 30
0.0
 11
592.34918729553942
 21
279.4578251839921
 31
0.0
  0
LINE
  5
3490
  8
AM_0
 10
597.3492002955395
 20
288.11807218399213
 30
0.0
 11
592.3492022955395
 21
291.00482218399208
 31
0.0
  0
LINE
  5
3491
  8
AM_0
 10
592.34918729553942
 20
291.00485218399223
 30
0.0
 11
587.34918629553943
 21
288.11810218399211
 31
0.0
  0
LINE
  5
3492
  8
AM_0
 10
617.36793929553949
 20
243.87934918399219
 30
0.0
 11
613.70465429553951
 21
202.00779418399219
 31
0.0
  0
ARC
  5
3494
  8
AM_0
 10
603.74271029553961
 20
202.8793451839922
 30
0.0
 40
10.000000200000001
 50
270.0
 51
354.99999999999977
  0
LINE
  5
3495
  8
AM_0
 10
617.36793929553949
 20
263.8793621839921
 30
0.0
 11
617.36793929553949
 21
243.87934918399219
 31
0.0
  0
LINE
  5
3496
  8
AM_0
 10
617.36793929553949
 20
263.8793621839921
 30
0.0
 11
617.36793929553949
 21
283.87933318399212
 31
0.0
  0
ARC
  5
3497
  8
AM_0
 10
605.20700429553949
 20
268.37936518399221
 30
0.0
 40
3.0
 50
270.0
 51
4.096044000000556
  0
ARC
  5
3498
  8
AM_0
 10
605.20700429553949
 20
259.37936218399221
 30
0.0
 40
3.0
 50
355.90396000000089
 51
90.00000299999769
  0
LINE
  5
3499
  8
AM_0
 10
562.36793729553915
 20
338.87935918399222
 30
0.0
 11
604.58411129553951
 21
335.18590918399218
 31
0.0
  0
LINE
  5
349A
  8
AM_7
 10
594.69823229553947
 20
316.20961918399217
 30
0.0
 11
609.84642629553946
 21
331.35781918399221
 31
0.0
  0
CIRCLE
  5
349B
  8
AM_0
 10
602.47200329553948
 20
323.9834291839922
 30
0.0
 40
5.0000001000000003
  0
ARC
  5
349C
  8
AM_7
 10
542.36793629553949
 20
263.8793621839921
 30
0.0
 40
85.000001999999981
 50
35.69552799999677
 51
54.142581999996843
  0
ARC
  5
349D
  8
AM_0
 10
481.02333029553949
 20
325.22395918399218
 30
0.0
 40
10.000000200000001
 50
95.00000199999856
 51
175.0000100000004
  0
LINE
  5
349E
  8
AM_0
 10
542.36793629553949
 20
338.87935918399222
 30
0.0
 11
522.36793829553949
 21
338.87935918399222
 31
0.0
  0
LINE
  5
34A1
  8
AM_0
 10
522.36793829553949
 20
338.87932918399213
 30
0.0
 11
480.15177029553928
 21
335.18590918399218
 31
0.0
  0
LINE
  5
34A2
  8
AM_7
 10
490.0376402955394
 20
316.20961918399217
 30
0.0
 11
474.88947029553952
 21
331.35781918399221
 31
0.0
  0
ARC
  5
34A3
  8
AM_7
 10
542.36793629553949
 20
263.8793621839921
 30
0.0
 40
85.000001999999981
 50
125.6955299999962
 51
144.1425800000026
  0
CIRCLE
  5
34A4
  8
AM_0
 10
482.26386029553942
 20
323.9834291839922
 30
0.0
 40
5.0000001000000003
  0
ARC
  5
34A5
  8
AM_0
 10
494.42523029553911
 20
304.75100818399221
 30
0.0
 40
3.0
 50
45.000001000002641
 51
139.5520799999978
  0
ARC
  5
34A6
  8
AM_0
 10
501.49626329553939
 20
311.82208318399222
 30
0.0
 40
3.0
 50
130.4479300000001
 51
225.0
  0
LINE
  5
34A9
  8
AM_0
 10
540.86793629553927
 20
326.71840918399209
 30
0.0
 11
540.86793629553927
 21
310.66342318399211
 31
0.0
  0
LINE
  5
34AA
  8
AM_0
 10
543.86793629553949
 20
326.71840918399209
 30
0.0
 11
543.86793629553949
 21
310.66342318399211
 31
0.0
  0
ARC
  5
34AB
  8
AM_0
 10
537.86793629553915
 20
310.66342318399211
 30
0.0
 40
3.0
 50
275.49418000000247
 51
0.0
  0
ARC
  5
34AC
  8
AM_0
 10
546.8679392955396
 20
310.66342318399211
 30
0.0
 40
3.0
 50
179.99999000000059
 51
264.50581999999741
  0
LINE
  5
34AD
  8
AM_0
 10
542.36793629553949
 20
338.87935918399222
 30
0.0
 11
562.36792229553953
 21
338.87935918399222
 31
0.0
  0
ARC
  5
34AE
  8
AM_0
 10
546.8679392955396
 20
326.71840918399209
 30
0.0
 40
3.0
 50
85.903958999999986
 51
180.00000999999941
  0
ARC
  5
34AF
  8
AM_0
 10
537.86793629553915
 20
326.71840918399209
 30
0.0
 40
3.0
 50
0.0
 51
94.096045999998367
  0
ARC
  5
34B0
  8
AM_0
 10
583.23961229553925
 20
311.82208318399222
 30
0.0
 40
3.0
 50
315.0
 51
49.552073000000021
  0
ARC
  5
34B1
  8
AM_0
 10
590.31067229553935
 20
304.75100818399221
 30
0.0
 40
3.0
 50
40.447928999998211
 51
135.0
  0
ARC
  5
34B2
  8
AM_0
 10
603.71254529553914
 20
325.22395918399218
 30
0.0
 40
10.000000200000001
 50
4.999999899999449
 51
84.999996999998729
  0
ARC
  5
34B3
  8
AM_0
 10
183.92853004937629
 20
128.25530286983849
 30
0.0
 40
2.3091486599999991
 50
249.1278038531041
 51
15.094728000000879
  0
LINE
  5
34B4
  8
AM_0
 10
176.98245804937639
 20
226.8793776839922
 30
0.0
 11
176.98245804937639
 21
138.959859236878
 31
0.0
  0
LINE
  5
34B5
  8
AM_0
 10
178.98245804937639
 20
226.8793776839922
 30
0.0
 11
178.98245804937639
 21
138.96060878382551
 31
0.0
  0
LINE
  5
34B6
  8
AM_0
 10
179.98245804937551
 20
226.8793776839922
 30
0.0
 11
179.98245804937639
 21
137.5842769464999
 31
0.0
  0
LINE
  5
34B7
  8
AM_0
 10
183.1903247892372
 20
226.8793776839922
 30
0.0
 11
182.9734700493764
 21
138.96060878382551
 31
0.0
  0
LINE
  5
34B8
  8
AM_0
 10
184.9734700493776
 20
226.8793776839922
 30
0.0
 11
184.9734700493764
 21
138.959859236878
 31
0.0
  0
LINE
  5
34B9
  8
AM_0
 10
181.98245804937639
 20
226.8793776839922
 30
0.0
 11
181.98245804937639
 21
137.58576380341901
 31
0.0
  0
ARC
  5
34BA
  8
AM_0
 10
181.02290404937639
 20
126.8794427839921
 30
0.0
 40
2.3091486599999991
 50
164.90527199999909
 51
16.267320000003402
  0
ARC
  5
34BB
  8
ｽﾝﾎ_ｳｾﾝ
 10
177.98695204937641
 20
128.2552377698386
 30
0.0
 40
1.5050001119999981
 50
34.081774240385151
 51
298.90870486052597
  0
ARC
  5
34BC
  8
AM_0
 10
178.0273980493765
 20
128.25530286983849
 30
0.0
 40
2.3091486599999991
 50
164.90527199999909
 51
290.87219614689587
  0
LINE
  5
34BD
  8
AM_0
 10
179.82831904937629
 20
131.28585598399209
 30
0.0
 11
178.79346004937639
 21
127.48081138399201
 31
0.0
  0
ARC
  5
34BE
  8
ｽﾝﾎ_ｳｾﾝ
 10
183.96897604937629
 20
128.2552377698386
 30
0.0
 40
1.5050001119999981
 50
241.09129513947391
 51
145.9182257596149
  0
LINE
  5
34BF
  8
AM_0
 10
182.13981004937631
 20
131.28370768399199
 30
0.0
 11
183.23958004937651
 21
127.526293183992
 31
0.0
  0
CIRCLE
  5
34C0
  8
ｽﾝﾎ_ｳｾﾝ
 10
180.98245804937639
 20
126.8793776839922
 30
0.0
 40
1.5050001119999981
  0
LINE
  5
34C1
  8
AM_0
 10
177.98856904937631
 20
132.66062616983859
 30
0.0
 11
179.2665994027175
 21
132.6594442059781
 31
0.0
  0
LINE
  5
34C2
  8
AM_0
 10
176.26638004937629
 20
138.95959086983859
 30
0.0
 11
179.6984532619642
 21
138.9608771198385
 31
0.0
  0
LINE
  5
34C3
  8
AM_0
 10
176.2724070493764
 20
132.66286896983851
 30
0.0
 11
176.26638004937629
 21
138.95959086983859
 31
0.0
  0
LINE
  5
34C4
  8
AM_0
 10
176.8328130493764
 20
132.66169506983849
 30
0.0
 11
177.98856904937631
 21
132.66062616983859
 31
0.0
  0
LINE
  5
34C5
  8
AM_0
 10
176.8328130493764
 20
132.66169506983849
 30
0.0
 11
176.27244904937641
 21
132.66284796983859
 31
0.0
  0
LINE
  5
34C6
  8
AM_0
 10
176.8328130493764
 20
132.6617160698386
 30
0.0
 11
175.79795404937639
 21
128.85667146983849
 31
0.0
  0
LINE
  5
34C7
  8
AM_0
 10
185.6835210493764
 20
132.66286896983851
 30
0.0
 11
185.6895480493765
 21
138.95959086983859
 31
0.0
  0
LINE
  5
34C8
  8
AM_0
 10
182.69395804937639
 20
137.58629278399201
 30
0.0
 11
182.6999430493764
 21
131.28954148399211
 31
0.0
  0
LINE
  5
34C9
  8
AM_0
 10
179.26791304937629
 20
131.287008883992
 30
0.0
 11
179.2618860493763
 21
137.58373078399211
 31
0.0
  0
LINE
  5
34CA
  8
AM_0
 10
180.98407504937609
 20
131.2847660839922
 30
0.0
 11
182.13985204937649
 21
131.28369718399199
 31
0.0
  0
LINE
  5
34CB
  8
AM_0
 10
179.5462165341344
 20
131.2864153852845
 30
0.0
 11
179.6925232015239
 21
130.7865519652095
 31
0.0
  0
LINE
  5
34CC
  8
AM_0
 10
179.1443040493763
 20
132.6595677698385
 30
0.0
 11
179.2670005260978
 21
132.24036964592869
 31
0.0
  0
LINE
  5
34CD
  8
AM_0
 10
179.82831904937629
 20
131.28583498399209
 30
0.0
 11
180.98407504937609
 21
131.2847660839922
 31
0.0
  0
LINE
  5
34CE
  8
AM_0
 10
179.82831904937629
 20
131.28583498399209
 30
0.0
 11
179.26795504937641
 21
131.28698788399211
 31
0.0
  0
LINE
  5
34CF
  8
AM_0
 10
185.12311504937639
 20
132.66169506983849
 30
0.0
 11
185.6834790493763
 21
132.66284796983859
 31
0.0
  0
LINE
  5
34D0
  8
AM_0
 10
183.9673590493764
 20
132.66062616983859
 30
0.0
 11
182.6893286960352
 21
132.6594442059781
 31
0.0
  0
LINE
  5
34D1
  8
AM_0
 10
182.81162404937641
 20
132.6595677698385
 30
0.0
 11
182.6889275726549
 21
132.24036964592869
 31
0.0
  0
LINE
  5
34D2
  8
AM_0
 10
185.12311504937639
 20
132.66169506983849
 30
0.0
 11
183.9673590493764
 21
132.66062616983859
 31
0.0
  0
LINE
  5
34D3
  8
AM_0
 10
185.12311504937639
 20
132.6617160698386
 30
0.0
 11
186.15797404937629
 21
128.85667146983849
 31
0.0
  0
LINE
  5
34D4
  8
AM_0
 10
182.40971156461831
 20
131.2864153852845
 30
0.0
 11
182.26340489722881
 21
130.7865519652095
 31
0.0
  0
LINE
  5
34D5
  8
AM_0
 10
182.69998504937629
 20
131.289572983992
 30
0.0
 11
182.13985204937649
 21
131.28373078399221
 31
0.0
  0
LINE
  5
34D6
  8
AM_0
 10
179.26192804937631
 20
137.583741283992
 30
0.0
 11
182.6940000493764
 21
137.58629278399201
 31
0.0
  0
LINE
  5
34D7
  8
AM_0
 10
179.6984520493765
 20
138.96215286983849
 30
0.0
 11
179.69976190660961
 21
137.584066782142
 31
0.0
  0
LINE
  5
34D8
  8
AM_0
 10
182.25747604937621
 20
138.96215286983849
 30
0.0
 11
182.2561661921431
 21
137.584066782142
 31
0.0
  0
LINE
  5
34D9
  8
AM_0
 10
185.6895480493765
 20
138.95959086983859
 30
0.0
 11
182.25747483678839
 21
138.9608771198385
 31
0.0
  0
POINT
  5
34E9
  8
0
 10
91.360332582808212
 20
544.78885537944166
 30
0.0
1001
GENIUS_GENOLIS_13
1002
{
1000
ENT
1005
0
1005
336A
1005
339A
1002
}
1001
GENIUS_GENOENT_13
1002
{
1000
MYREF
1005
34E9
1002
}
1002
{
1000
GRP
1005
0
1002
}
1001
GENIUS_GENOBJ-NBEHI-BHB_13
1002
{
1000
OWNER
1000
genbehi
1002
}
1001
GENIUS_GENBH_13
1002
{
1000
FGO
1005
0
1002
}
1001
GENIUS_GENODEF_13
1002
{
1000
HIER
1070
     1
1002
}
1002
{
1000
MANEDIT
1070
     1
1002
}
1002
{
1000
NOSEL
1070
     1
1002
}
1002
{
1000
BEHIND
1070
     0
1002
}
1002
{
1000
OTHER
1070
     1
1002
}
1002
{
1000
REACTOR
1002
}
  0
LINE
  5
3652
  8
AM_0
 10
184.9734700493768
 20
181.27937768399221
 30
0.0
 11
254.98245804937631
 21
181.2793776839921
 31
0.0
  0
LINE
  5
3696
  8
AM_0N
 10
147.48245804937639
 20
421.08273293577662
 30
0.0
 11
163.48245804937639
 21
421.08273293577662
 31
0.0
1001
GENIUS_GENOREF_13
1005
0
  0
LINE
  5
3697
  8
AM_0
 10
163.48245804937639
 20
424.63451722749551
 30
0.0
 11
147.48245804937639
 21
424.63451722749551
 31
0.0
1001
GENIUS_GENOREF_13
1005
36D0
  0
LINE
  5
3698
  8
AM_0
 10
151.48245804937639
 20
411.7757142742696
 30
0.0
 11
147.48245804937639
 21
411.7757142742696
 31
0.0
  0
LINE
  5
3699
  8
AM_0
 10
188.98245804937631
 20
399.86531097802617
 30
0.0
 11
134.98245804937639
 21
399.86531097802629
 31
0.0
  0
LINE
  5
369A
  8
AM_0
 10
188.98245804937639
 20
403.27291197673293
 30
0.0
 11
134.98245804937639
 21
403.27291197673293
 31
0.0
  0
LINE
  5
369B
  8
AM_0
 10
129.4824580493765
 20
546.52531020696426
 30
0.0
 11
254.98245804937639
 21
546.52531020696426
 31
0.0
  0
LINE
  5
369C
  8
AM_0
 10
122.9824580493765
 20
534.02717807834392
 30
0.0
 11
122.9824580493764
 21
427.82344233558479
 31
0.0
  0
ARC
  5
369D
  8
AM_0
 10
1062.1685818591959
 20
480.9253102069639
 30
0.0
 40
940.68612380981915
 50
176.76392470776139
 51
183.2360752922385
  0
LINE
  5
369E
  8
AM_0
 10
129.9824580493765
 20
546.52531020696426
 30
0.0
 11
129.98245804937639
 21
415.32531020696422
 31
0.0
  0
LINE
  5
369F
  8
AM_0
 10
127.4824580493765
 20
544.5253102069646
 30
0.0
 11
127.4824580493765
 21
417.32531020696422
 31
0.0
  0
ARC
  5
36A0
  8
AM_0
 10
134.98245804937639
 20
401.865310978026
 30
0.0
 40
2.0
 50
180.0
 51
270.0
1001
GENIUS_GENOBJ-N-FIL_13
1002
{
1000
OWNER
1000
GEN
1002
}
1001
GENIUS_GENODEF_13
1002
{
1000
HIER
1070
     0
1002
}
1002
{
1000
MANEDIT
1070
     0
1002
}
1002
{
1000
NOSEL
1070
     0
1002
}
1002
{
1000
BEHIND
1070
     0
1002
}
1002
{
1000
OTHER
1070
     0
1002
}
1002
{
1000
REACTOR
1002
}
  0
LINE
  5
36A1
  8
AM_0
 10
147.48245804937639
 20
424.63451722749551
 30
0.0
 11
147.48245804937639
 21
411.7757142742696
 31
0.0
  0
LINE
  5
36A2
  8
AM_0
 10
129.4824580493765
 20
415.32531020696422
 30
0.0
 11
132.98245804937639
 21
415.3253102069641
 31
0.0
  0
ARC
  5
36A3
  8
AM_0
 10
129.4824580493765
 20
417.32531020696422
 30
0.0
 40
2.0
 50
180.0
 51
270.0
1001
GENIUS_GENOBJ-N-FIL_13
1002
{
1000
OWNER
1000
GEN
1002
}
1001
GENIUS_GENODEF_13
1002
{
1000
HIER
1070
     0
1002
}
1002
{
1000
MANEDIT
1070
     0
1002
}
1002
{
1000
NOSEL
1070
     0
1002
}
1002
{
1000
BEHIND
1070
     0
1002
}
1002
{
1000
OTHER
1070
     0
1002
}
1002
{
1000
REACTOR
1002
}
  0
LINE
  5
36A4
  8
AM_0
 10
132.98245804937639
 20
418.66633723378538
 30
0.0
 11
132.98245804937639
 21
401.865310978026
 31
0.0
  0
ARC
  5
36A5
  8
AM_0
 10
134.98245804937639
 20
405.2729119767327
 30
0.0
 40
2.0
 50
180.0
 51
270.0
1001
GENIUS_GENODEF_13
1002
{
1000
HIER
1070
     0
1002
}
1002
{
1000
MANEDIT
1070
     0
1002
}
1002
{
1000
NOSEL
1070
     0
1002
}
1002
{
1000
BEHIND
1070
     0
1002
}
1002
{
1000
OTHER
1070
     0
1002
}
1002
{
1000
REACTOR
1002
}
1001
GENIUS_GENOBJ-N-FIL_13
1002
{
1000
OWNER
1000
GEN
1002
}
  0
LINE
  5
36A6
  8
AM_0
 10
147.48245804937639
 20
420.66633723378521
 30
0.0
 11
134.98245804937639
 21
420.6663372337851
 31
0.0
  0
ARC
  5
36A7
  8
AM_0
 10
134.98245804937639
 20
418.66633723378538
 30
0.0
 40
2.0
 50
90.0
 51
180.0
1001
GENIUS_GENOBJ-N-FIL_13
1002
{
1000
OWNER
1000
GEN
1002
}
1001
GENIUS_GENODEF_13
1002
{
1000
HIER
1070
     0
1002
}
1002
{
1000
MANEDIT
1070
     0
1002
}
1002
{
1000
NOSEL
1070
     0
1002
}
1002
{
1000
BEHIND
1070
     0
1002
}
1002
{
1000
OTHER
1070
     0
1002
}
1002
{
1000
REACTOR
1002
}
  0
ARC
  5
36A8
  8
AM_0
 10
125.4824580493765
 20
422.02717807834398
 30
0.0
 40
2.0
 50
0.0
 51
48.366460663430352
1001
GENIUS_GENOBJ-N-FIL_13
1002
{
1000
OWNER
1000
GEN
1002
}
1001
GENIUS_GENODEF_13
1002
{
1000
HIER
1070
     0
1002
}
1002
{
1000
MANEDIT
1070
     0
1002
}
1002
{
1000
NOSEL
1070
     0
1002
}
1002
{
1000
BEHIND
1070
     0
1002
}
1002
{
1000
OTHER
1070
     0
1002
}
1002
{
1000
REACTOR
1002
}
  0
LINE
  5
36A9
  8
AM_0
 10
126.8111857270363
 20
423.52199671571123
 30
0.0
 11
123.65373037171661
 21
426.3286236982176
 31
0.0
  0
ARC
  5
36AA
  8
AM_0
 10
124.9824580493764
 20
427.82344233558479
 30
0.0
 40
2.0
 50
180.0
 51
228.3664606634303
1001
GENIUS_GENODEF_13
1002
{
1000
HIER
1070
     0
1002
}
1002
{
1000
MANEDIT
1070
     0
1002
}
1002
{
1000
NOSEL
1070
     0
1002
}
1002
{
1000
BEHIND
1070
     0
1002
}
1002
{
1000
OTHER
1070
     0
1002
}
1002
{
1000
REACTOR
1002
}
1001
GENIUS_GENOBJ-N-FIL_13
1002
{
1000
OWNER
1000
GEN
1002
}
  0
LINE
  5
36AB
  8
AM_0
 10
111.9824580493765
 20
497.92531020696453
 30
0.0
 11
111.9824580493764
 21
463.9253102069643
 31
0.0
  0
ARC
  5
36AC
  8
AM_0
 10
114.9824580493764
 20
463.9253102069643
 30
0.0
 40
3.0
 50
180.0
 51
270.0
1001
GENIUS_GENODEF_13
1002
{
1000
HIER
1070
     0
1002
}
1002
{
1000
MANEDIT
1070
     0
1002
}
1002
{
1000
NOSEL
1070
     0
1002
}
1002
{
1000
BEHIND
1070
     0
1002
}
1002
{
1000
OTHER
1070
     0
1002
}
1002
{
1000
REACTOR
1002
}
1001
GENIUS_GENOBJ-N-FIL_13
1002
{
1000
OWNER
1000
GEN
1002
}
  0
LINE
  5
36AD
  8
AM_0
 10
114.9824580493764
 20
460.92531020696453
 30
0.0
 11
121.6950928504186
 21
460.92531020696453
 31
0.0
  0
ARC
  5
36AE
  8
AM_0
 10
114.9824580493765
 20
497.92531020696453
 30
0.0
 40
3.0
 50
90.0
 51
180.0
1001
GENIUS_GENOBJ-N-FIL_13
1002
{
1000
OWNER
1000
GEN
1002
}
1001
GENIUS_GENODEF_13
1002
{
1000
HIER
1070
     0
1002
}
1002
{
1000
MANEDIT
1070
     0
1002
}
1002
{
1000
NOSEL
1070
     0
1002
}
1002
{
1000
BEHIND
1070
     0
1002
}
1002
{
1000
OTHER
1070
     0
1002
}
1002
{
1000
REACTOR
1002
}
  0
LINE
  5
36AF
  8
AM_0
 10
114.9824580493765
 20
500.9253102069643
 30
0.0
 11
121.6950928504186
 21
500.9253102069643
 31
0.0
  0
ARC
  5
36B0
  8
AM_0
 10
129.4824580493765
 20
544.5253102069646
 30
0.0
 40
2.0
 50
90.0
 51
180.0
1001
GENIUS_GENOBJ-N-FIL_13
1002
{
1000
OWNER
1000
GEN
1002
}
1001
GENIUS_GENODEF_13
1002
{
1000
HIER
1070
     0
1002
}
1002
{
1000
MANEDIT
1070
     0
1002
}
1002
{
1000
NOSEL
1070
     0
1002
}
1002
{
1000
BEHIND
1070
     0
1002
}
1002
{
1000
OTHER
1070
     0
1002
}
1002
{
1000
REACTOR
1002
}
  0
ARC
  5
36B1
  8
AM_0
 10
124.9824580493765
 20
534.02717807834392
 30
0.0
 40
2.0
 50
131.63353933656961
 51
180.0
1001
GENIUS_GENODEF_13
1002
{
1000
HIER
1070
     0
1002
}
1002
{
1000
MANEDIT
1070
     0
1002
}
1002
{
1000
NOSEL
1070
     0
1002
}
1002
{
1000
BEHIND
1070
     0
1002
}
1002
{
1000
OTHER
1070
     0
1002
}
1002
{
1000
REACTOR
1002
}
1001
GENIUS_GENOBJ-N-FIL_13
1002
{
1000
OWNER
1000
GEN
1002
}
  0
LINE
  5
36B2
  8
AM_0
 10
126.8111857270363
 20
538.3286236982176
 30
0.0
 11
123.65373037171661
 21
535.52199671571134
 31
0.0
  0
ARC
  5
36B3
  8
AM_0
 10
125.4824580493765
 20
539.8234423355849
 30
0.0
 40
2.0
 50
311.63353933656958
 51
0.0
1001
GENIUS_GENOBJ-N-FIL_13
1002
{
1000
OWNER
1000
GEN
1002
}
1001
GENIUS_GENODEF_13
1002
{
1000
HIER
1070
     0
1002
}
1002
{
1000
MANEDIT
1070
     0
1002
}
1002
{
1000
NOSEL
1070
     0
1002
}
1002
{
1000
BEHIND
1070
     0
1002
}
1002
{
1000
OTHER
1070
     0
1002
}
1002
{
1000
REACTOR
1002
}
  0
LINE
  5
36B4
  8
AM_0
 10
254.98245804937639
 20
546.92531020696435
 30
0.0
 11
254.98245804937639
 21
414.92531020696453
 31
0.0
  0
LINE
  5
36B5
  8
AM_0
 10
266.48245804937642
 20
546.92531020696435
 30
0.0
 11
266.48245804937642
 21
414.92531020696453
 31
0.0
  0
LINE
  5
36B6
  8
AM_0
 10
190.98245804937639
 20
415.3253102069645
 30
0.0
 11
254.98245804937639
 21
415.32531020696422
 31
0.0
  0
ARC
  5
36B7
  8
AM_0
 10
188.98245804937631
 20
401.865310978026
 30
0.0
 40
2.0
 50
270.0
 51
0.0
1001
GENIUS_GENOBJ-N-FIL_13
1002
{
1000
OWNER
1000
GEN
1002
}
1001
GENIUS_GENODEF_13
1002
{
1000
HIER
1070
     0
1002
}
1002
{
1000
MANEDIT
1070
     0
1002
}
1002
{
1000
NOSEL
1070
     0
1002
}
1002
{
1000
BEHIND
1070
     0
1002
}
1002
{
1000
OTHER
1070
     0
1002
}
1002
{
1000
REACTOR
1002
}
  0
LINE
  5
36B8
  8
AM_0
 10
188.98245804937639
 20
420.6663372337851
 30
0.0
 11
163.48245804937639
 21
420.6663372337851
 31
0.0
  0
LINE
  5
36B9
  8
AM_0
 10
163.48245804937639
 20
424.63451722749551
 30
0.0
 11
163.48245804937639
 21
411.7757142742696
 31
0.0
  0
LINE
  5
36BA
  8
AM_3N
  6
AM_ISO02W050X2
 10
156.98245804937639
 20
418.91303692869172
 30
0.0
 11
155.48245804937639
 21
420.80044695725059
 31
0.0
1001
GENIUS_GENOREF_13
1005
0
  0
ARC
  5
36BB
  8
AM_0N
 10
155.48245804937639
 20
423.68273293577641
 30
0.0
 40
5.0
 50
246.4528627629231
 51
293.54713723707698
1001
GENIUS_GENOREF_13
1005
0
  0
LINE
  5
36BC
  8
AM_0
 10
159.4824580493765
 20
417.05177707277852
 30
0.0
 11
151.48245804937639
 21
417.05177707277852
 31
0.0
  0
LINE
  5
36BD
  8
AM_3N
  6
AM_ISO02W050X2
 10
155.22995804937639
 20
418.68911263082742
 30
0.0
 11
155.22995804937639
 21
420.48273293577648
 31
0.0
1001
GENIUS_GENOREF_13
1005
0
  0
LINE
  5
36BE
  8
AM_3N
  6
AM_ISO02W050X2
 10
155.73495804937639
 20
418.68911263082742
 30
0.0
 11
155.73495804937639
 21
420.48273293577648
 31
0.0
1001
GENIUS_GENOREF_13
1005
0
  0
LINE
  5
36BF
  8
AM_3N
  6
AM_ISO02W050X2
 10
153.98245804937639
 20
418.91303692869172
 30
0.0
 11
155.48245804937639
 21
420.80044695725059
 31
0.0
1001
GENIUS_GENOREF_13
1005
0
  0
LINE
  5
36C0
  8
AM_3N
  6
AM_ISO02W050X2
 10
155.73495804937639
 20
420.48273293577648
 30
0.0
 11
155.22995804937639
 21
420.48273293577648
 31
0.0
1001
GENIUS_GENOREF_13
1005
0
  0
ARC
  5
36C1
  8
AM_0N
 10
153.96434513238609
 20
420.19915242554453
 30
0.0
 40
1.1999999999999991
 50
184.99999999999969
 51
246.4528627629231
1001
GENIUS_GENOREF_13
1005
0
  0
LINE
  5
36C2
  8
AM_0N
 10
152.7689114946761
 20
420.09456553424752
 30
0.0
 11
152.68245804937641
 21
421.08273293577662
 31
0.0
1001
GENIUS_GENOREF_13
1005
0
  0
LINE
  5
36C3
  8
AM_0
 10
151.48245804937639
 20
421.08273293577651
 30
0.0
 11
151.48245804937639
 21
411.7757142742696
 31
0.0
  0
ARC
  5
36C4
  8
AM_0N
 10
157.00057096636669
 20
420.19915242554453
 30
0.0
 40
1.1999999999999991
 50
293.54713723707698
 51
355.00000000000023
1001
GENIUS_GENOREF_13
1005
0
  0
LINE
  5
36C5
  8
AM_0N
 10
158.19600460407671
 20
420.09456553424752
 30
0.0
 11
158.2824580493764
 21
421.08273293577662
 31
0.0
1001
GENIUS_GENOREF_13
1005
0
  0
LINE
  5
36C6
  8
AM_0
 10
159.4824580493765
 20
421.08273293577662
 30
0.0
 11
159.4824580493765
 21
411.7757142742696
 31
0.0
  0
LINE
  5
36C7
  8
AM_0
 10
163.48245804937639
 20
411.7757142742696
 30
0.0
 11
159.4824580493765
 21
411.7757142742696
 31
0.0
  0
LINE
  5
36C8
  8
AM_0
 10
190.98245804937639
 20
418.66633723378538
 30
0.0
 11
190.98245804937631
 21
401.865310978026
 31
0.0
  0
ARC
  5
36C9
  8
AM_0
 10
188.98245804937639
 20
405.2729119767327
 30
0.0
 40
2.0
 50
270.0
 51
0.0
1001
GENIUS_GENOBJ-N-FIL_13
1002
{
1000
OWNER
1000
GEN
1002
}
1001
GENIUS_GENODEF_13
1002
{
1000
HIER
1070
     0
1002
}
1002
{
1000
MANEDIT
1070
     0
1002
}
1002
{
1000
NOSEL
1070
     0
1002
}
1002
{
1000
BEHIND
1070
     0
1002
}
1002
{
1000
OTHER
1070
     0
1002
}
1002
{
1000
REACTOR
1002
}
  0
ARC
  5
36CA
  8
AM_0
 10
188.98245804937639
 20
418.66633723378538
 30
0.0
 40
2.0
 50
0.0
 51
90.0
1001
GENIUS_GENODEF_13
1002
{
1000
HIER
1070
     0
1002
}
1002
{
1000
MANEDIT
1070
     0
1002
}
1002
{
1000
NOSEL
1070
     0
1002
}
1002
{
1000
BEHIND
1070
     0
1002
}
1002
{
1000
OTHER
1070
     0
1002
}
1002
{
1000
REACTOR
1002
}
1001
GENIUS_GENOBJ-N-FIL_13
1002
{
1000
OWNER
1000
GEN
1002
}
  0
LINE
  5
36CB
  8
AM_0
 10
254.98245804937639
 20
414.92531020696453
 30
0.0
 11
266.48245804937642
 21
414.92531020696453
 31
0.0
  0
LINE
  5
36CC
  8
AM_0
 10
273.48245804937642
 20
417.9253102069643
 30
0.0
 11
266.48245804937642
 21
414.92531020696453
 31
0.0
  0
LINE
  5
36CD
  8
AM_0
 10
254.98245804937639
 20
546.92531020696435
 30
0.0
 11
266.48245804937642
 21
546.92531020696435
 31
0.0
  0
LINE
  5
36CE
  8
AM_0
 10
266.48245804937642
 20
546.92531020696435
 30
0.0
 11
273.48245804937642
 21
543.92531020696447
 31
0.0
  0
LINE
  5
36CF
  8
AM_0
 10
273.48245804937642
 20
543.92531020696435
 30
0.0
 11
273.48245804937642
 21
417.9253102069643
 31
0.0
  0
POINT
  5
36D0
  8
0
 10
-12.39178055193201
 20
-49.58849968270907
 30
0.0
1001
GENIUS_GENOLIS_13
1002
{
1000
ENT
1005
0
1005
0
1005
0
1005
3697
1002
}
1001
GENIUS_GENOENT_13
1002
{
1000
MYREF
1005
36D0
1002
}
1002
{
1000
GRP
1005
0
1002
}
1001
GENIUS_GENOBJ-NBEHI-BHB_13
1002
{
1000
OWNER
1000
genbehi
1002
}
1001
GENIUS_GENBH_13
1002
{
1000
FGO
1005
0
1002
}
1001
GENIUS_GENODEF_13
1002
{
1000
HIER
1070
     1
1002
}
1002
{
1000
MANEDIT
1070
     1
1002
}
1002
{
1000
NOSEL
1070
     1
1002
}
1002
{
1000
BEHIND
1070
     0
1002
}
1002
{
1000
OTHER
1070
     1
1002
}
1002
{
1000
REACTOR
1002
}
  0
TEXT
  5
3AB2
  8
AM_0
 10
435.43530350655868
 20
487.14480827067013
 30
0.0
 40
10.0
  1
VX01-005SF~VX01-050SF
  0
ENDSEC
  0
EOF
