  0
SECTION
  2
HEADER
  9
$ACADVER
  1
AC1009
  9
$INSBASE
 10
0.0
 20
0.0
 30
0.0
  9
$EXTMIN
 10
79.541786749732637
 20
123.66485262734859
 30
-0.0015258207003583
  9
$EXTMAX
 10
667.79260856738244
 20
583.11403599472476
 30
0.0000000349246037
  9
$LIMMIN
 10
0.0
 20
0.0
  9
$LIMMAX
 10
853.5
 20
555.00000000000011
  9
$ORTHOMODE
 70
     0
  9
$REGENMODE
 70
     1
  9
$FILLMODE
 70
     1
  9
$QTEXTMODE
 70
     0
  9
$MIRRTEXT
 70
     1
  9
$DRAGMODE
 70
     2
  9
$LTSCALE
 40
3.0
  9
$OSMODE
 70
   551
  9
$ATTMODE
 70
     1
  9
$TEXTSIZE
 40
2.5
  9
$TRACEWID
 40
1.0
  9
$TEXTSTYLE
  7
STANDARD
  9
$CLAYER
  8
AM_0
  9
$CELTYPE
  6
BYLAYER
  9
$CECOLOR
 62
   256
  9
$DIMSCALE
 40
1.0
  9
$DIMASZ
 40
2.5
  9
$DIMEXO
 40
1.0
  9
$DIMDLI
 40
8.0
  9
$DIMRND
 40
0.0
  9
$DIMDLE
 40
0.0
  9
$DIMEXE
 40
0.6
  9
$DIMTP
 40
0.1
  9
$DIMTM
 40
0.1
  9
$DIMTXT
 40
2.5
  9
$DIMCEN
 40
0.0
  9
$DIMTSZ
 40
0.0
  9
$DIMTOL
 70
     0
  9
$DIMLIM
 70
     0
  9
$DIMTIH
 70
     0
  9
$DIMTOH
 70
     0
  9
$DIMSE1
 70
     0
  9
$DIMSE2
 70
     0
  9
$DIMTAD
 70
     1
  9
$DIMZIN
 70
     8
  9
$DIMBLK
  1

  9
$DIMASO
 70
     1
  9
$DIMSHO
 70
     1
  9
$DIMPOST
  1

  9
$DIMAPOST
  1
"
  9
$DIMALT
 70
     0
  9
$DIMALTD
 70
     2
  9
$DIMALTF
 40
0.0393701
  9
$DIMLFAC
 40
1.0
  9
$DIMTOFL
 70
     1
  9
$DIMTVP
 40
0.0
  9
$DIMTIX
 70
     0
  9
$DIMSOXD
 70
     0
  9
$DIMSAH
 70
     0
  9
$DIMBLK1
  1

  9
$DIMBLK2
  1

  9
$DIMSTYLE
  2
AM_ISO
  9
$DIMCLRD
 70
   256
  9
$DIMCLRE
 70
   256
  9
$DIMCLRT
 70
     4
  9
$DIMTFAC
 40
0.71
  9
$DIMGAP
 40
0.8
  9
$LUNITS
 70
     2
  9
$LUPREC
 70
     2
  9
$SKETCHINC
 40
1.0
  9
$FILLETRAD
 40
15.0
  9
$AUNITS
 70
     0
  9
$AUPREC
 70
     0
  9
$MENU
  1
.
  9
$ELEVATION
 40
0.0
  9
$PELEVATION
 40
0.0
  9
$THICKNESS
 40
0.0
  9
$LIMCHECK
 70
     0
  9
$BLIPMODE
 70
     0
  9
$CHAMFERA
 40
6.0
  9
$CHAMFERB
 40
3.0
  9
$SKPOLY
 70
     0
  9
$TDCREATE
 40
2452065.618108171
  9
$TDUPDATE
 40
2458541.5866920832
  9
$TDINDWG
 40
0.1860584259
  9
$TDUSRTIMER
 40
0.1860582292
  9
$USRTIMER
 70
     1
  9
$ANGBASE
 50
0.0
  9
$ANGDIR
 70
     0
  9
$PDMODE
 70
     0
  9
$PDSIZE
 40
0.0
  9
$PLINEWID
 40
0.0
  9
$COORDS
 70
     1
  9
$SPLFRAME
 70
     0
  9
$SPLINETYPE
 70
     6
  9
$SPLINESEGS
 70
     8
  9
$ATTDIA
 70
     1
  9
$ATTREQ
 70
     1
  9
$HANDLING
 70
     1
  9
$HANDSEED
  5
3AC2
  9
$SURFTAB1
 70
     6
  9
$SURFTAB2
 70
     6
  9
$SURFTYPE
 70
     6
  9
$SURFU
 70
     6
  9
$SURFV
 70
     6
  9
$UCSNAME
  2

  9
$UCSORG
 10
0.0
 20
0.0
 30
0.0
  9
$UCSXDIR
 10
1.0
 20
0.0
 30
0.0
  9
$UCSYDIR
 10
0.0
 20
1.0
 30
0.0
  9
$PUCSNAME
  2

  9
$PUCSORG
 10
0.0
 20
0.0
 30
0.0
  9
$PUCSXDIR
 10
1.0
 20
0.0
 30
0.0
  9
$PUCSYDIR
 10
0.0
 20
1.0
 30
0.0
  9
$USERI1
 70
     0
  9
$USERI2
 70
     0
  9
$USERI3
 70
     0
  9
$USERI4
 70
     0
  9
$USERI5
 70
     0
  9
$USERR1
 40
0.0
  9
$USERR2
 40
0.0
  9
$USERR3
 40
0.0
  9
$USERR4
 40
0.0
  9
$USERR5
 40
0.0
  9
$WORLDVIEW
 70
     1
  9
$SHADEDGE
 70
     3
  9
$SHADEDIF
 70
    70
  9
$TILEMODE
 70
     1
  9
$MAXACTVP
 70
    64
  9
$PLIMCHECK
 70
     0
  9
$PEXTMIN
 10
1.0000000000000000E+020
 20
1.0000000000000000E+020
 30
1.0000000000000000E+020
  9
$PEXTMAX
 10
-1.0000000000000000E+020
 20
-1.0000000000000000E+020
 30
-1.0000000000000000E+020
  9
$PLIMMIN
 10
0.0
 20
0.0
  9
$PLIMMAX
 10
420.0
 20
297.0
  9
$UNITMODE
 70
     0
  9
$VISRETAIN
 70
     1
  9
$PLINEGEN
 70
     0
  9
$PSLTSCALE
 70
     1
  0
ENDSEC
  0
SECTION
  2
TABLES
  0
TABLE
  2
VPORT
 70
     1
  0
VPORT
  2
*ACTIVE
 70
     0
 10
0.0
 20
0.0
 11
1.0
 21
1.0
 12
373.6671976585576
 22
353.38944431103681
 13
0.0
 23
0.0
 14
7.5
 24
7.5
 15
30.0
 25
30.0
 16
0.0
 26
0.0
 36
1.0
 17
0.0
 27
0.0
 37
0.0
 40
462.60329675433758
 41
1.7571592210767459
 42
50.0
 43
0.0
 44
0.0
 50
0.0
 51
0.0
 71
     0
 72
   100
 73
     1
 74
     3
 75
     0
 76
     0
 77
     0
 78
     0
  0
ENDTAB
  0
TABLE
  2
LTYPE
 70
    19
  0
LTYPE
  2
CONTINUOUS
 70
     0
  3
Solid line
 72
    65
 73
     0
 40
0.0
  0
LTYPE
  2
AM_ISO02W050
 70
     0
  3
__ __ __ __ __ __ __ __ __ __ __ __ __ __ __
 72
    65
 73
     2
 40
7.5
 49
6.0
 49
-1.5
  0
LTYPE
  2
AM_ISO08W050
 70
     0
  3
____ . ____ . ____ . ____ . ____ . ____ . ____
 72
    65
 73
     4
 40
18.0
 49
12.0
 49
-1.5
 49
3.0
 49
-1.5
  0
LTYPE
  2
AM_ISO09W050
 70
     0
  3
_____ . . _____ . . _____ . . ____ .. ____
 72
    65
 73
     6
 40
22.5
 49
12.0
 49
-1.5
 49
3.0
 49
-1.5
 49
3.0
 49
-1.5
  0
LTYPE
  2
AMCONSTR
 70
     0
  3
_______________________
 72
    65
 73
     2
 40
9999.0
 49
9999.0
 49
0.0
  0
LTYPE
  2
AM_ISO08W050X2
 70
     0
  3
__ . __ . __ . __ . __ . __
 72
    65
 73
     4
 40
9.0
 49
6.0
 49
-0.75
 49
1.5
 49
-0.75
  0
LTYPE
  2
AM_ISO02W050X2
 70
     0
  3
 _ _ _ _ _ _ _ _ _ _ _ _
 72
    65
 73
     2
 40
3.75
 49
3.0
 49
-0.75
  0
LTYPE
  2
AMZIGZAG
 70
     0
  3
/\/-/\/-/\/-/\/-/\/-/\/
 72
    65
 73
     2
 40
11.0001
 49
0.0001
 49
-11.0
  0
LTYPE
  2
CENTER
 70
     0
  3
__ . __
 72
    65
 73
     4
 40
7.0
 49
4.0
 49
-1.0
 49
1.0
 49
-1.0
  0
LTYPE
  2
PHANTOM2
 70
     0
  3
Phantom (.5x) ___ _ _ ___ _ _ ___ _ _ ___ _ _
 72
    65
 73
     6
 40
31.75
 49
15.875
 49
-3.174999999999998
 49
3.174999999999998
 49
-3.174999999999998
 49
3.174999999999998
 49
-3.174999999999998
  0
LTYPE
  2
GEN7
 70
     0
  3
____ . ____ . ____ . ____ . ____ . ____ . ____
 72
    65
 73
     4
 40
14.25
 49
9.75
 49
-1.5
 49
1.5
 49
-1.5
  0
LTYPE
  2
GEN7A
 70
     0
  3
__ . __ . __
 72
    65
 73
     4
 40
7.375
 49
4.75
 49
-0.875
 49
0.875
 49
-0.875
  0
LTYPE
  2
HIDDEN
 70
     0
  3
Hidden __ __ __ __ __ __ __ __ __ __ __ __ __ _
 72
    65
 73
     2
 40
0.375
 49
0.25
 49
-0.125
  0
LTYPE
  2
CENTER2
 70
     0
  3
Center (.5x) ___ _ ___ _ ___ _ ___ _ ___ _ ___
 72
    65
 73
     4
 40
1.125
 49
0.75
 49
-0.125
 49
0.125
 49
-0.125
  0
LTYPE
  2
HIDDEN2
 70
     0
  3
Hidden (.5x) _ _ _ _ _ _ _ _ _ _ _ _ _ _ _ _ _
 72
    65
 73
     2
 40
0.1875
 49
0.125
 49
-0.0625
  0
LTYPE
  2
AMZIGZAG2
 70
     0
  3
/\/-/\/-/\/-/\/-/\/-/\/
 72
    65
 73
     2
 40
0.4401
 49
0.0001
 49
-0.4400000000000001
  0
LTYPE
  2
ACANSTGB
 70
     0
  3
__ . . __ . .
 72
    65
 73
     6
 40
0.35433070866
 49
0.15748031496
 49
-0.03937007874
 49
0.03937007874
 49
-0.03937007874
 49
0.03937007874
 49
-0.03937007874
  0
LTYPE
  2
ACANSTGL
 70
     0
  3
_ _ _ _ _
 72
    65
 73
     2
 40
0.11811023622
 49
0.07874015748
 49
-0.03937007874
  0
ENDTAB
  0
TABLE
  2
LAYER
 70
     8
  0
LAYER
  2
0
 70
     0
 62
     7
  6
CONTINUOUS
  0
LAYER
  2
AM_0
 70
     0
 62
     7
  6
CONTINUOUS
  0
LAYER
  2
DEFPOINTS
 70
     0
 62
     7
  6
CONTINUOUS
  0
LAYER
  2
ﾁｭｳｼﾝｾﾝ
 70
     0
 62
     1
  6
GEN7
  0
LAYER
  2
ﾁｭｳｼﾝｾﾝ1
 70
     0
 62
     1
  6
GEN7A
  0
LAYER
  2
AM_0N
 70
     0
 62
     7
  6
CONTINUOUS
  0
LAYER
  2
AM_3N
 70
     0
 62
     3
  6
AM_ISO02W050
  0
LAYER
  2
ｽﾝﾎ_ｳｾﾝ
 70
     0
 62
     2
  6
CONTINUOUS
  0
ENDTAB
  0
TABLE
  2
STYLE
 70
     5
  0
STYLE
  2
STANDARD
 70
     0
 40
0.0
 41
0.8299999999999999
 50
0.0
 71
     0
 42
2.5
  3
txt.shx
  4
bigfont.shx
  0
STYLE
  2
ANNOTATIVE
 70
     0
 40
0.0
 41
1.0
 50
0.0
 71
     0
 42
0.2
  3
txt
  4

  0
STYLE
  2

 70
     1
 40
0.0
 41
1.0
 50
0.0
 71
     0
 42
2.5
  3
genltshp.shx
  4

  0
STYLE
  2
ACANSTS
 70
     0
 40
0.0
 41
1.0
 50
0.0
 71
     0
 42
2.5
  3
romans.shx
  4
extfont.shx
  0
STYLE
  2
ACANSGDT
 70
     0
 40
0.0
 41
1.0
 50
0.0
 71
     0
 42
2.5
  3
amgdt.shx
  4

  0
ENDTAB
  0
TABLE
  2
VIEW
 70
     6
  0
VIEW
  2
AM_VIEW1
 70
     0
 40
277.50000000000011
 10
249.64779005524869
 20
416.24999999999989
 41
499.2955801104971
 11
0.0
 21
0.0
 31
1.0
 12
0.0
 22
0.0
 32
0.0
 42
50.0
 43
0.0
 44
0.0
 50
0.0
 71
     0
  0
VIEW
  2
AM_VIEW2
 70
     0
 40
277.50000000000011
 10
603.85220994475117
 20
416.24999999999989
 41
499.2955801104971
 11
0.0
 21
0.0
 31
1.0
 12
0.0
 22
0.0
 32
0.0
 42
50.0
 43
0.0
 44
0.0
 50
0.0
 71
     0
  0
VIEW
  2
AM_VIEW3
 70
     0
 40
277.50000000000011
 10
249.64779005524869
 20
138.75
 41
499.2955801104971
 11
0.0
 21
0.0
 31
1.0
 12
0.0
 22
0.0
 32
0.0
 42
50.0
 43
0.0
 44
0.0
 50
0.0
 71
     0
  0
VIEW
  2
AM_VIEW4
 70
     0
 40
277.50000000000011
 10
603.85220994475117
 20
138.75
 41
499.2955801104971
 11
0.0
 21
0.0
 31
1.0
 12
0.0
 22
0.0
 32
0.0
 42
50.0
 43
0.0
 44
0.0
 50
0.0
 71
     0
  0
VIEW
  2
AM_VIEW5
 70
     0
 40
277.50000000000011
 10
426.75
 20
277.50000000000011
 41
499.2955801104971
 11
0.0
 21
0.0
 31
1.0
 12
0.0
 22
0.0
 32
0.0
 42
50.0
 43
0.0
 44
0.0
 50
0.0
 71
     0
  0
VIEW
  2
AM_VIEW6
 70
     0
 40
554.99445000000014
 10
426.75
 20
277.5
 41
998.5811743093924
 11
0.0
 21
0.0
 31
1.0
 12
0.0
 22
0.0
 32
0.0
 42
50.0
 43
0.0
 44
0.0
 50
0.0
 71
     0
  0
ENDTAB
  0
TABLE
  2
UCS
 70
     0
  0
ENDTAB
  0
TABLE
  2
APPID
 70
    97
  0
APPID
  2
ACAD
 70
     0
  0
APPID
  2
ACADANNOTATIVE
 70
     0
  0
APPID
  2
MCAD_NO_VIS
 70
     0
  0
APPID
  2
ACAD_TEMP_GRAPHIC
 70
     0
  0
APPID
  2
ACATTRIBSERVICES
 70
     0
  0
APPID
  2
GENIUS_GENREC_14
 70
     0
  0
APPID
  2
GENIUS_GENOBJ-N-REC_13
 70
     0
  0
APPID
  2
GENIUS_GENODEF_13
 70
     0
  0
APPID
  2
GENIUS_GENOLIS_13
 70
     0
  0
APPID
  2
GENIUS_GENOBJ-N-TIT_13
 70
     0
  0
APPID
  2
GENIUS_GENOENT_13
 70
     0
  0
APPID
  2
GENIUS_GENTITLE_13
 70
     0
  0
APPID
  2
GENIUS_GENOREF_13
 70
     0
  0
APPID
  2
GENIUS_GENSCREG_15
 70
     0
  0
APPID
  2
GENIUS_GENOBJ-N-SDF_13
 70
     0
  0
APPID
  2
GENIUS_GENFIL_13
 70
     0
  0
APPID
  2
GENIUS_GENOBJ-N-CHA_13
 70
     0
  0
APPID
  2
GENIUS_GENDTOL_13
 70
     0
  0
APPID
  2
GENIUS_GENOBJ-N-FIL_13
 70
     0
  0
APPID
  2
AD_DRAW
 70
     0
  0
APPID
  2
DESIGNERASSEMBLIES
 70
     0
  0
APPID
  2
ASURF_PCURVE_APPNAME
 70
     0
  0
APPID
  2
GENIUS_GE3SECT_13
 70
     0
  0
APPID
  2
GENIUS_GENCFG_13
 70
     0
  0
APPID
  2
GENIUS_GE3CFG0_13
 70
     0
  0
APPID
  2
GENIUS_GENCFG0_13
 70
     0
  0
APPID
  2
GENIUS_GENCFG1_13
 70
     0
  0
APPID
  2
GENIUS_GENCFG2_13
 70
     0
  0
APPID
  2
GENIUS_GENCFG3_13
 70
     0
  0
APPID
  2
GENIUS_GENCFG4_13
 70
     0
  0
APPID
  2
GENIUS_GEVCFG0_13
 70
     0
  0
APPID
  2
GENIUS_GENHINW_13
 70
     0
  0
APPID
  2
GENIUS_FIRSTVISTXT_14
 70
     0
  0
APPID
  2
GENIUS_GENOBJ-N-LEADER_13
 70
     0
  0
APPID
  2
GEV_VCCNULL_SWITCH_OFF
 70
     0
  0
APPID
  2
GENIUS_GEFCFG0_13
 70
     0
  0
APPID
  2
GENIUS_GENZVEED_13
 70
     0
  0
APPID
  2
GENIUS_GENSCREG_13
 70
     0
  0
APPID
  2
GENIUS_DUMCFG0_13
 70
     0
  0
APPID
  2
GEVID936201362
 70
     0
  0
APPID
  2
GEVDC
 70
     0
  0
APPID
  2
GEVCON
 70
     0
  0
APPID
  2
VCC
 70
     0
  0
APPID
  2
GEVPT
 70
     0
  0
APPID
  2
GEVIT
 70
     0
  0
APPID
  2
GENBH
 70
     0
  0
APPID
  2
GEVMK
 70
     0
  0
APPID
  2
GENIUS_GENBH_13
 70
     0
  0
APPID
  2
GENIUS_GENOBJ-NBEHI-BHF_13
 70
     0
  0
APPID
  2
GENIUS_GENOBJ-NBEHI-BHB_13
 70
     0
  0
APPID
  2
GENIUS_GENOBJ-F-DESC_13
 70
     0
  0
APPID
  2
GENIUS_GEFDESC_14
 70
     0
  0
APPID
  2
GENIUS_GENOBJ-F-PART_13
 70
     0
  0
APPID
  2
GENIUS_GEFSTDP_13
 70
     0
  0
APPID
  2
GENIUS_GEFPARTINS_13
 70
     0
  0
APPID
  2
GENIUS_GENTRA_14
 70
     0
  0
APPID
  2
GENIUS_GENINF13_13
 70
     0
  0
APPID
  2
GENIUS_GENOBJ-N-INFOPT_13
 70
     0
  0
APPID
  2
GENIUS_GENOBJ-N-RSSYM_13
 70
     0
  0
APPID
  2
GENIUS_GENSYMENT_13
 70
     0
  0
APPID
  2
GENIUS_GENSCSYM_13
 70
     0
  0
APPID
  2
GENIUS_GEFINFNAM_13
 70
     0
  0
APPID
  2
GENIUS_GENOBJ-N-CEN_13
 70
     0
  0
APPID
  2
GENIUS_GENOBJ-N-CRS_13
 70
     0
  0
APPID
  2
GENIUS_GENOBJ-N-CRC_13
 70
     0
  0
APPID
  2
GENIUS_GENCRC_14
 70
     0
  0
APPID
  2
GEVID942827039
 70
     0
  0
APPID
  2
GEVID942827040
 70
     0
  0
APPID
  2
GEVID942827041
 70
     0
  0
APPID
  2
GENIUS_GENOBJ-F-SCPASSM_13
 70
     0
  0
APPID
  2
GENIUS_GENDIMSH_14
 70
     0
  0
APPID
  2
GEVID942827042
 70
     0
  0
APPID
  2
GEVID946020473
 70
     0
  0
APPID
  2
GEVID946020474
 70
     0
  0
APPID
  2
GEVID946020475
 70
     0
  0
APPID
  2
GENIUS_GENOBJ-N-HTC_13
 70
     0
  0
APPID
  2
GENIUS_GENHATCH_13
 70
     0
  0
APPID
  2
GEVID948854295
 70
     0
  0
APPID
  2
GEVID939402019
 70
     0
  0
APPID
  2
GEVID952919491
 70
     0
  0
APPID
  2
GEVID952919492
 70
     0
  0
APPID
  2
GENIUS_GEFWELD_13
 70
     0
  0
APPID
  2
GENIUS_GENOBJ-F-WELS_13
 70
     0
  0
APPID
  2
GEVID952919493
 70
     0
  0
APPID
  2
GENIUS_GENOBJ-N-RSBK_13
 70
     0
  0
APPID
  2
GENIUS_GENOBJ-N-LIB_13
 70
     0
  0
APPID
  2
GENIUS_GENSCALE_13
 70
     0
  0
APPID
  2
GEVID986376691
 70
     0
  0
APPID
  2
DCO15
 70
     0
  0
APPID
  2
ACADM_DIM_EDIT
 70
     0
  0
APPID
  2
AMDT_DM_ADJ
 70
     0
  0
APPID
  2
ACAD_DSTYLE_DIMJAG
 70
     0
  0
APPID
  2
ACAD_DSTYLE_DIMBREAK
 70
     0
  0
APPID
  2
ACAD_NAV_VCDISPLAY
 70
     0
  0
APPID
  2
ACADANNOPO
 70
     0
  0
APPID
  2
ACAD_EXEMPT_FROM_CAD_STANDARDS
 70
     0
  0
APPID
  2
ACAD_MLEADERVER
 70
     0
  0
ENDTAB
  0
TABLE
  2
DIMSTYLE
 70
     9
  0
DIMSTYLE
  2
STANDARD
 70
     0
  3

  4

  5

  6

  7

 40
1.0
 41
0.18
 42
0.0625
 43
0.38
 44
0.18
 45
0.0
 46
0.0
 47
0.0
 48
0.0
140
0.18
141
0.09
142
0.0
143
25.399999999999999
144
1.0
145
0.0
146
1.0
147
0.09
 71
     0
 72
     0
 73
     1
 74
     1
 75
     0
 76
     0
 77
     0
 78
     0
170
     0
171
     2
172
     0
173
     0
174
     0
175
     0
176
     0
177
     0
178
     0
  0
DIMSTYLE
  2
ANNOTATIVE
 70
     0
  3

  4

  5

  6

  7

 40
1.0
 41
0.18
 42
0.0625
 43
0.38
 44
0.18
 45
0.0
 46
0.0
 47
0.0
 48
0.0
140
0.18
141
0.09
142
0.0
143
25.399999999999999
144
1.0
145
0.0
146
1.0
147
0.09
 71
     0
 72
     0
 73
     1
 74
     1
 75
     0
 76
     0
 77
     0
 78
     0
170
     0
171
     2
172
     0
173
     0
174
     0
175
     0
176
     0
177
     0
178
     0
  0
DIMSTYLE
  2
AM_ISO
 70
     0
  3

  4
"
  5

  6

  7

 40
1.0
 41
2.5
 42
1.0
 43
8.0
 44
0.6
 45
0.0
 46
0.0
 47
0.1
 48
0.1
140
2.5
141
0.0
142
0.0
143
0.0393701
144
1.0
145
0.0
146
0.71
147
0.8
 71
     0
 72
     0
 73
     0
 74
     0
 75
     0
 76
     0
 77
     1
 78
     8
170
     0
171
     2
172
     1
173
     0
174
     0
175
     0
176
   256
177
   256
178
     4
  0
DIMSTYLE
  2
AM_ANSI
 70
     0
  3

  4
mm
  5

  6

  7

 40
1.0
 41
0.12
 42
0.05
 43
0.5
 44
0.1
 45
0.0
 46
0.0
 47
0.1
 48
0.1
140
0.12
141
0.0
142
0.0
143
25.399999999999999
144
1.0
145
0.0
146
0.71
147
0.06
 71
     0
 72
     0
 73
     1
 74
     1
 75
     0
 76
     0
 77
     0
 78
     7
170
     0
171
     2
172
     0
173
     0
174
     0
175
     0
176
   256
177
   256
178
     2
  0
DIMSTYLE
  2
AM_ANSI$3
 70
     0
  3

  4
mm
  5

  6

  7

 40
1.0
 41
0.12
 42
0.05
 43
0.5
 44
0.1
 45
0.0
 46
0.0
 47
0.1
 48
0.1
140
0.12
141
0.0
142
0.0
143
25.399999999999999
144
1.0
145
0.0
146
0.71
147
0.06
 71
     0
 72
     0
 73
     1
 74
     1
 75
     0
 76
     0
 77
     0
 78
     7
170
     0
171
     2
172
     0
173
     0
174
     0
175
     0
176
   256
177
   256
178
     2
  0
DIMSTYLE
  2
AM_ANSI$4
 70
     0
  3

  4
mm
  5

  6

  7

 40
1.0
 41
0.12
 42
0.05
 43
0.5
 44
0.1
 45
0.0
 46
0.0
 47
0.1
 48
0.1
140
0.12
141
0.0
142
0.0
143
25.399999999999999
144
1.0
145
0.0
146
0.71
147
0.06
 71
     0
 72
     0
 73
     1
 74
     1
 75
     0
 76
     0
 77
     0
 78
     7
170
     0
171
     2
172
     0
173
     0
174
     0
175
     0
176
   256
177
   256
178
     2
  0
DIMSTYLE
  2
AM_ANSI$7
 70
     0
  3

  4
mm
  5

  6

  7

 40
1.0
 41
0.12
 42
0.05
 43
0.5
 44
0.1
 45
0.0
 46
0.0
 47
0.1
 48
0.1
140
0.12
141
0.0
142
0.0
143
25.399999999999999
144
1.0
145
0.0
146
0.71
147
0.06
 71
     0
 72
     0
 73
     1
 74
     1
 75
     0
 76
     0
 77
     0
 78
     7
170
     0
171
     2
172
     0
173
     0
174
     0
175
     0
176
   256
177
   256
178
     2
  0
DIMSTYLE
  2
AM_ANSI$SF
 70
     0
  3

  4
mm
  5

  6

  7

 40
1.0
 41
0.12
 42
0.05
 43
0.5
 44
0.1
 45
0.0
 46
0.0
 47
0.1
 48
0.1
140
0.12
141
0.0
142
0.0
143
25.399999999999999
144
1.0
145
0.0
146
0.71
147
0.06
 71
     0
 72
     0
 73
     1
 74
     1
 75
     1
 76
     1
 77
     0
 78
     7
170
     0
171
     2
172
     0
173
     0
174
     0
175
     0
176
   256
177
   256
178
     2
  0
DIMSTYLE
  2
AM_ANSI$SH
 70
     0
  3

  4
mm
  5

  6
GENAXEH
  7

 40
1.0
 41
0.12
 42
0.05
 43
0.5
 44
0.1
 45
0.0
 46
0.0
 47
0.1
 48
0.1
140
0.12
141
0.0
142
0.0
143
25.399999999999999
144
1.0
145
0.0
146
0.71
147
0.06
 71
     0
 72
     0
 73
     1
 74
     1
 75
     1
 76
     1
 77
     0
 78
     7
170
     0
171
     2
172
     0
173
     1
174
     0
175
     0
176
   256
177
   256
178
     2
  0
ENDTAB
  0
ENDSEC
  0
SECTION
  2
BLOCKS
  0
BLOCK
  8
0
  2
$MODEL_SPACE
 70
     0
 10
0.0
 20
0.0
 30
0.0
  3
$MODEL_SPACE
  1

  0
ENDBLK
  5
395C
  8
0
  0
BLOCK
 67
     1
  8
0
  2
$PAPER_SPACE
 70
     0
 10
0.0
 20
0.0
 30
0.0
  3
$PAPER_SPACE
  1

  0
ENDBLK
  5
3958
 67
     1
  8
0
  0
BLOCK
  8
0
  2
*U2
 70
     1
 10
0.0
 20
0.0
 30
0.0
  3
*U2
  1

  0
TEXT
  5
37A4
  8
AM_0
 10
524.17763065741815
 20
129.6167300876424
 30
0.0
 40
12.0
  1
VX01-200SF
 41
0.8299999999999999
  0
ENDBLK
  5
37A6
  8
0
  0
BLOCK
  8
0
  2
GENAXEH
 70
     0
 10
0.0
 20
0.0
 30
0.0
  3
GENAXEH
  1

  0
LINE
  5
3A29
  8
0
 10
-1.0
 20
0.0
 30
0.0
 11
1.0
 21
0.0
 31
0.0
  0
ENDBLK
  5
3A2B
  8
0
  0
BLOCK
  8
0
  2
_ACMFILLEDHALF
 70
     0
 10
0.0
 20
0.0
 30
0.0
  3
_ACMFILLEDHALF
  1

  0
TRACE
  5
3A39
  8
AM_0
 62
     0
 10
-0.8
 20
0.0
 30
0.0
 11
-1.0
 21
0.166666666
 31
0.0
 12
0.0
 22
0.0
 32
0.0
 13
0.0
 23
0.0
 33
0.0
  0
LINE
  5
3A3A
  8
AM_0
 62
     0
 10
-1.0
 20
0.0
 30
0.0
 11
-0.8
 21
0.0
 31
0.0
  0
ENDBLK
  5
3A38
  8
0
  0
ENDSEC
  0
SECTION
  2
ENTITIES
  0
LINE
  5
2885
  8
ﾁｭｳｼﾝｾﾝ
 10
79.606239398966451
 20
498.0837601462344
 30
0.0
 11
396.22883928113288
 21
498.08376014623491
 31
0.0
  0
LINE
  5
2A10
  8
AM_0
 10
347.0091792811329
 20
568.08376014623491
 30
0.0
 11
347.0091792811329
 21
428.08376014623491
 31
0.0
  0
LINE
  5
2A11
  8
AM_0
 10
337.00914928113292
 20
431.30241014623488
 30
0.0
 11
337.00914928113292
 21
564.86510014623491
 31
0.0
  0
LINE
  5
2A12
  8
AM_0
 10
343.00914928113292
 20
413.08376014623479
 30
0.0
 11
343.00914928113292
 21
583.08376014623491
 31
0.0
  0
LINE
  5
2A13
  8
AM_0
 10
315.00914928113292
 20
568.47273014623477
 30
0.0
 11
315.00914928113292
 21
427.69478014623462
 31
0.0
  0
LINE
  5
2A15
  8
AM_0
 10
276.0091792811329
 20
429.21538014623462
 30
0.0
 11
276.0091792811329
 21
566.95213014623471
 31
0.0
  0
LINE
  5
2A18
  8
AM_0
 10
348.00914928113292
 20
472.54942014623481
 30
0.0
 11
348.00914928113292
 21
523.61806014623494
 31
0.0
  0
LINE
  5
2A19
  8
AM_0
 10
283.00914928113281
 20
569.08376014623491
 30
0.0
 11
283.00914928113281
 21
427.08376014623491
 31
0.0
  0
LINE
  5
2A1A
  8
AM_0
 10
350.00911928113283
 20
510.58373014623481
 30
0.0
 11
350.00911928113283
 21
485.58379014623489
 31
0.0
  0
LINE
  5
2A1B
  8
AM_0
 10
390.00914928113292
 20
510.08376014623491
 30
0.0
 11
390.00914928113292
 21
486.08376014623491
 31
0.0
  0
LINE
  5
2A1C
  8
AM_0
 10
330.55198928113288
 20
435.92165014623481
 30
0.0
 11
317.46632928113291
 21
443.65071014623481
 31
0.0
  0
LINE
  5
2A1D
  8
AM_0
 10
330.55198928113288
 20
439.40590014623479
 30
0.0
 11
317.46632928113291
 21
447.1349601462349
 31
0.0
  0
LINE
  5
2A1E
  8
AM_0
 10
316.00914928113292
 20
450.38564014623489
 30
0.0
 11
331.00914928113281
 21
450.38564014623489
 31
0.0
  0
LINE
  5
2A1F
  8
AM_0
 10
317.93065928113288
 20
424.6957901462348
 30
0.0
 11
330.08769928113293
 21
424.37746014623491
 31
0.0
  0
ARC
  5
2A20
  8
AM_0
 10
274.0091792811329
 20
430.87248014623458
 30
0.0
 40
2.0
 50
0.0
 51
90.000003000000945
  0
LINE
  5
2A21
  8
AM_0
 10
245.0091792811329
 20
466.14382014623482
 30
0.0
 11
276.0091792811329
 21
466.14382014623482
 31
0.0
  0
LINE
  5
2A22
  8
AM_0
 10
245.0091792811329
 20
452.08345014623478
 30
0.0
 11
276.0091792811329
 21
452.08345014623478
 31
0.0
  0
LINE
  5
2A24
  8
AM_0
 10
271.00914928113292
 20
441.40294014623481
 30
0.0
 11
245.00920928113291
 21
442.08376014623479
 31
0.0
  0
LINE
  5
2A2B
  8
AM_0
 10
271.00914928113292
 20
434.87248014623458
 30
0.0
 11
271.00914928113292
 21
450.0834501462349
 31
0.0
  0
ARC
  5
2A2C
  8
AM_0
 10
273.00914928113292
 20
434.87248014623458
 30
0.0
 40
2.0
 50
180.00001000000091
 51
270.0
  0
LINE
  5
2A2D
  8
AM_0
 10
273.00914928113292
 20
432.87248014623492
 30
0.0
 11
274.0091792811329
 21
432.87248014623492
 31
0.0
  0
ARC
  5
2A2E
  8
AM_0
 10
269.00914928113292
 20
450.0834501462349
 30
0.0
 40
2.0
 50
0.0
 51
90.000003000000945
  0
LINE
  5
2A35
  8
AM_0
 10
314.03273928113288
 20
426.27138014623478
 30
0.0
 11
277.95680928113291
 21
427.21605014623481
 31
0.0
  0
ARC
  5
2A36
  8
AM_0
 10
278.0091792811329
 20
429.21538014623462
 30
0.0
 40
2.0
 50
180.00001000000091
 51
268.5000000000004
  0
ARC
  5
2A37
  8
AM_0
 10
318.00914928113292
 20
427.69478014623462
 30
0.0
 40
3.0
 50
179.999989999999
 51
268.50000999999878
  0
ARC
  5
2A38
  8
AM_0
 10
313.95421928113291
 20
423.27239014623478
 30
0.0
 40
3.0
 50
47.481952000001627
 51
88.499997000000747
  0
ARC
  5
2A39
  8
AM_0
 10
320.00914928113292
 20
447.9558301462348
 30
0.0
 40
5.0
 50
179.999989999999
 51
239.431710000001
  0
ARC
  5
2A3A
  8
AM_0
 10
320.00914928113292
 20
451.44008014623478
 30
0.0
 40
5.0
 50
179.999989999999
 51
239.431710000001
  0
ARC
  5
2A3B
  8
AM_0
 10
316.00914928113292
 20
451.38564014623489
 30
0.0
 40
1.0
 50
179.999989999999
 51
270.0
  0
LINE
  5
2A3C
  8
AM_0
 10
333.00914928113281
 20
456.13210014623451
 30
0.0
 11
333.00914928113281
 21
415.36437014623482
 31
0.0
  0
LINE
  5
2A3D
  8
AM_0
 10
334.93931928113278
 20
413.36556014623488
 30
0.0
 11
343.00914928113292
 21
413.08376014623479
 31
0.0
  0
ARC
  5
2A3E
  8
AM_0
 10
335.00917928113279
 20
415.36437014623482
 30
0.0
 40
2.0
 50
179.999989999999
 51
268.00000999999861
  0
LINE
  5
2A3F
  8
AM_0
 10
350.00911928113283
 20
486.08376014623491
 30
0.0
 11
390.00914928113292
 21
486.08376014623491
 31
0.0
  0
ARC
  5
2A40
  8
AM_0
 10
336.00914928113292
 20
456.13210014623451
 30
0.0
 40
3.0
 50
90.000003000000945
 51
180.00001000000091
  0
ARC
  5
2A41
  8
AM_0
 10
328.00914928113292
 20
435.10079014623489
 30
0.0
 40
5.0
 50
0.0
 51
59.431709000000481
  0
ARC
  5
2A42
  8
AM_0
 10
334.00914928113292
 20
431.30241014623488
 30
0.0
 40
3.0
 50
270.0
 51
0.0
  0
ARC
  5
2A43
  8
AM_0
 10
330.00914928113292
 20
421.3785001462349
 30
0.0
 40
3.0
 50
0.0
 51
88.499997000000747
  0
ARC
  5
2A44
  8
AM_0
 10
328.00914928113292
 20
431.61653014623488
 30
0.0
 40
5.0
 50
0.0
 51
59.431709000000481
  0
LINE
  5
2A45
  8
AM_0
 10
343.00914928113292
 20
428.08376014623491
 30
0.0
 11
347.0091792811329
 21
428.08376014623491
 31
0.0
  0
ARC
  5
2A46
  8
AM_0
 10
331.00914928113281
 20
448.38564014623478
 30
0.0
 40
2.0
 50
0.0
 51
90.000003000000945
  0
ARC
  5
2A47
  8
AM_0
 10
347.00914928113292
 20
472.54942014623481
 30
0.0
 40
1.0
 50
272.0000000000004
 51
0.0
  0
LINE
  5
2A48
  8
AM_0
 10
347.0091792811329
 20
471.5488401462348
 30
0.0
 11
347.04402928113279
 21
471.55007014623487
 31
0.0
  0
LINE
  5
2A49
  8
AM_0
 10
348.00914928113292
 20
485.58379014623489
 30
0.0
 11
350.00911928113283
 21
485.58379014623489
 31
0.0
  0
LINE
  5
2A4A
  8
AM_0
 10
330.55198928113288
 20
560.24584014623485
 30
0.0
 11
317.46632928113291
 21
552.5168001462348
 31
0.0
  0
LINE
  5
2A4B
  8
AM_0
 10
316.00914928113292
 20
545.78188014623493
 30
0.0
 11
331.00914928113281
 21
545.78188014623493
 31
0.0
  0
LINE
  5
2A4C
  8
AM_0
 10
330.55198928113288
 20
556.76161014623472
 30
0.0
 11
317.46632928113291
 21
549.03258014623475
 31
0.0
  0
LINE
  5
2A4D
  8
AM_0
 10
317.93062928113278
 20
571.47170014623475
 30
0.0
 11
330.08766928113278
 21
571.79002014623484
 31
0.0
  0
ARC
  5
2A4E
  8
AM_0
 10
278.0091792811329
 20
566.95213014623471
 30
0.0
 40
2.0
 50
91.500001000001546
 51
180.00001000000091
  0
ARC
  5
2A4F
  8
AM_0
 10
274.0091792811329
 20
565.29506014623485
 30
0.0
 40
2.0
 50
270.0
 51
0.0
  0
LINE
  5
2A50
  8
AM_0
 10
245.0091792811329
 20
530.02370014623455
 30
0.0
 11
276.0091792811329
 21
530.02370014623455
 31
0.0
  0
LINE
  5
2A51
  8
AM_0
 10
245.0091792811329
 20
544.08406014623483
 30
0.0
 11
276.0091792811329
 21
544.08406014623483
 31
0.0
  0
LINE
  5
2A55
  8
AM_0
 10
271.0091792811329
 20
554.76460014623456
 30
0.0
 11
245.00920928113291
 21
554.08376014623491
 31
0.0
  0
LINE
  5
2A67
  8
AM_0
 10
271.00914928113292
 20
561.29506014623485
 30
0.0
 11
271.00914928113292
 21
546.08406014623483
 31
0.0
  0
ARC
  5
2A68
  8
AM_0
 10
269.00914928113292
 20
546.08406014623483
 30
0.0
 40
2.0
 50
270.0
 51
0.0
  0
ARC
  5
2A69
  8
AM_0
 10
273.00914928113292
 20
561.29506014623485
 30
0.0
 40
2.0
 50
90.000003000000945
 51
180.00001000000091
  0
LINE
  5
2A6A
  8
AM_0
 10
273.00914928113292
 20
563.29506014623485
 30
0.0
 11
274.0091792811329
 21
563.29506014623485
 31
0.0
  0
ARC
  5
2A6B
  8
AM_0
 10
320.00914928113292
 20
548.21169014623456
 30
0.0
 40
5.0
 50
120.5682899999989
 51
180.00001000000091
  0
ARC
  5
2A6C
  8
AM_0
 10
320.00914928113292
 20
544.72743014623484
 30
0.0
 40
5.0
 50
120.5682899999989
 51
180.00001000000091
  0
ARC
  5
2A6D
  8
AM_0
 10
316.00914928113292
 20
544.78188014623493
 30
0.0
 40
1.0
 50
90.000003000000945
 51
180.00001000000091
  0
LINE
  5
2A6E
  8
AM_0
 10
314.03276928113291
 20
569.89616014623471
 30
0.0
 11
277.95683928113289
 21
568.95146014623447
 31
0.0
  0
ARC
  5
2A6F
  8
AM_0
 10
318.00914928113292
 20
568.47273014623477
 30
0.0
 40
3.0
 50
91.500001000001546
 51
180.00001000000091
  0
ARC
  5
2A70
  8
AM_0
 10
313.95421928113291
 20
572.89510014623454
 30
0.0
 40
3.0
 50
271.49999999999949
 51
312.51811999999887
  0
ARC
  5
2A71
  8
AM_0
 10
334.00914928113292
 20
564.86510014623491
 30
0.0
 40
3.0
 50
0.0
 51
90.000003000000945
  0
LINE
  5
2A72
  8
AM_0
 10
333.00914928113281
 20
540.03542014623486
 30
0.0
 11
333.00914928113281
 21
580.80315014623454
 31
0.0
  0
LINE
  5
2A73
  8
AM_0
 10
358.00914928113281
 20
502.08373014623481
 30
0.0
 11
390.00914928113292
 21
502.08373014623481
 31
0.0
  0
LINE
  5
2A74
  8
AM_0
 10
358.00914928113281
 20
494.08376014623491
 30
0.0
 11
390.00914928113292
 21
494.08376014623491
 31
0.0
  0
LINE
  5
2A75
  8
AM_0
 10
350.00911928113283
 20
510.08376014623491
 30
0.0
 11
390.00914928113292
 21
510.08376014623491
 31
0.0
  0
ARC
  5
2A76
  8
AM_0
 10
347.00914928113292
 20
523.61806014623494
 30
0.0
 40
1.0
 50
0.0
 51
87.999999999999659
  0
LINE
  5
2A77
  8
AM_0
 10
347.0091792811329
 20
524.61867014623454
 30
0.0
 11
347.04405928113289
 21
524.61745014623455
 31
0.0
  0
ARC
  5
2A78
  8
AM_0
 10
358.00914928113281
 20
498.08373014623481
 30
0.0
 40
3.9999962
 50
90.000003000000945
 51
270.0
  0
LINE
  5
2A79
  8
AM_0
 10
358.00914928113281
 20
502.08373014623481
 30
0.0
 11
358.00914928113281
 21
494.08376014623491
 31
0.0
  0
LINE
  5
2A7A
  8
AM_0
 10
348.00914928113292
 20
510.58373014623481
 30
0.0
 11
350.00911928113283
 21
510.58373014623481
 31
0.0
  0
ARC
  5
2A7B
  8
AM_0
 10
336.00914928113292
 20
540.03542014623486
 30
0.0
 40
3.0
 50
179.999989999999
 51
270.0
  0
ARC
  5
2A7C
  8
AM_0
 10
331.00914928113281
 20
547.78188014623493
 30
0.0
 40
2.0
 50
270.0
 51
0.0
  0
ARC
  5
2A7D
  8
AM_0
 10
328.00914928113292
 20
561.06673014623493
 30
0.0
 40
5.0
 50
300.56828999999891
 51
0.0
  0
ARC
  5
2A7E
  8
AM_0
 10
328.00914928113292
 20
564.55098014623491
 30
0.0
 40
5.0
 50
300.56828999999891
 51
0.0
  0
LINE
  5
2A7F
  8
AM_0
 10
343.00914928113292
 20
568.08376014623491
 30
0.0
 11
347.0091792811329
 21
568.08376014623491
 31
0.0
  0
LINE
  5
2A80
  8
AM_0
 10
334.93934928113288
 20
582.80196014623448
 30
0.0
 11
343.00911928113283
 21
583.08376014623491
 31
0.0
  0
ARC
  5
2A81
  8
AM_0
 10
330.00914928113292
 20
574.78902014623475
 30
0.0
 40
3.0
 50
271.49999999999949
 51
0.0
  0
ARC
  5
2A82
  8
AM_0
 10
335.00917928113279
 20
580.80315014623454
 30
0.0
 40
2.0
 50
91.999998000000545
 51
180.00001000000091
  0
LINE
  5
3065
  8
AM_0
 10
135.0091792811329
 20
428.9341987135399
 30
0.0
 11
131.00917928113299
 21
428.9341987135399
 31
0.0
  0
LINE
  5
3066
  8
AM_0
 10
101.009179281133
 20
563.6837946462349
 30
0.0
 11
226.5091792811329
 21
563.68379464623479
 31
0.0
  0
LINE
  5
3067
  8
AM_0
 10
160.5091792811329
 20
420.431396416003
 30
0.0
 11
106.5091792811329
 21
420.431396416003
 31
0.0
  0
LINE
  5
3068
  8
AM_0
 10
160.50917928113279
 20
417.02379541729653
 30
0.0
 11
106.5091792811329
 21
417.02379541729653
 31
0.0
  0
LINE
  5
3069
  8
AM_0
 10
135.0091792811329
 20
441.7930016667658
 30
0.0
 11
119.0091792811329
 21
441.7930016667658
 31
0.0
1001
GENIUS_GENOREF_13
1005
309F
  0
LINE
  5
306A
  8
AM_0N
 10
119.0091792811329
 20
438.2412173750468
 30
0.0
 11
135.0091792811329
 21
438.2412173750468
 31
0.0
1001
GENIUS_GENOREF_13
1005
0
  0
LINE
  5
306B
  8
AM_0
 10
99.009179281133015
 20
561.68379464623456
 30
0.0
 11
99.009179281133015
 21
434.48379464623451
 31
0.0
  0
LINE
  5
306C
  8
AM_0
 10
101.509179281133
 20
563.68379464623479
 30
0.0
 11
101.5091792811329
 21
432.48379464623451
 31
0.0
  0
ARC
  5
306D
  8
AM_0
 10
1033.6953030909519
 20
498.08379464623448
 30
0.0
 40
940.68612380981915
 50
176.76392470776139
 51
183.2360752922385
  0
LINE
  5
306E
  8
AM_0
 10
94.509179281133001
 20
551.18566251761422
 30
0.0
 11
94.509179281132873
 21
444.98192677485508
 31
0.0
  0
LINE
  5
306F
  8
AM_0
 10
104.5091792811329
 20
435.82482167305562
 30
0.0
 11
104.5091792811329
 21
419.02379541729658
 31
0.0
  0
ARC
  5
3070
  8
AM_0
 10
106.5091792811329
 20
422.43139641600311
 30
0.0
 40
2.0
 50
180.0
 51
270.0
1001
GENIUS_GENODEF_13
1002
{
1000
HIER
1070
     0
1002
}
1002
{
1000
MANEDIT
1070
     0
1002
}
1002
{
1000
NOSEL
1070
     0
1002
}
1002
{
1000
BEHIND
1070
     0
1002
}
1002
{
1000
OTHER
1070
     0
1002
}
1002
{
1000
REACTOR
1002
}
1001
GENIUS_GENOBJ-N-FIL_13
1002
{
1000
OWNER
1000
GEN
1002
}
  0
ARC
  5
3071
  8
AM_0
 10
106.5091792811329
 20
419.02379541729658
 30
0.0
 40
2.0
 50
180.0
 51
270.0
1001
GENIUS_GENOBJ-N-FIL_13
1002
{
1000
OWNER
1000
GEN
1002
}
1001
GENIUS_GENODEF_13
1002
{
1000
HIER
1070
     0
1002
}
1002
{
1000
MANEDIT
1070
     0
1002
}
1002
{
1000
NOSEL
1070
     0
1002
}
1002
{
1000
BEHIND
1070
     0
1002
}
1002
{
1000
OTHER
1070
     0
1002
}
1002
{
1000
REACTOR
1002
}
  0
LINE
  5
3072
  8
AM_0
 10
98.3379069587928
 20
440.68048115498158
 30
0.0
 11
95.180451603473131
 21
443.48710813748772
 31
0.0
  0
ARC
  5
3073
  8
AM_0
 10
96.509179281132901
 20
444.98192677485508
 30
0.0
 40
2.0
 50
180.0
 51
228.3664606634303
1001
GENIUS_GENODEF_13
1002
{
1000
HIER
1070
     0
1002
}
1002
{
1000
MANEDIT
1070
     0
1002
}
1002
{
1000
NOSEL
1070
     0
1002
}
1002
{
1000
BEHIND
1070
     0
1002
}
1002
{
1000
OTHER
1070
     0
1002
}
1002
{
1000
REACTOR
1002
}
1001
GENIUS_GENOBJ-N-FIL_13
1002
{
1000
OWNER
1000
GEN
1002
}
  0
LINE
  5
3074
  8
AM_0
 10
119.0091792811329
 20
437.82482167305568
 30
0.0
 11
106.5091792811329
 21
437.82482167305568
 31
0.0
  0
ARC
  5
3075
  8
AM_0
 10
101.009179281133
 20
434.48379464623451
 30
0.0
 40
2.0
 50
180.0
 51
270.0
1001
GENIUS_GENOBJ-N-FIL_13
1002
{
1000
OWNER
1000
GEN
1002
}
1001
GENIUS_GENODEF_13
1002
{
1000
HIER
1070
     0
1002
}
1002
{
1000
MANEDIT
1070
     0
1002
}
1002
{
1000
NOSEL
1070
     0
1002
}
1002
{
1000
BEHIND
1070
     0
1002
}
1002
{
1000
OTHER
1070
     0
1002
}
1002
{
1000
REACTOR
1002
}
  0
LINE
  5
3076
  8
AM_0
 10
101.009179281133
 20
432.48379464623451
 30
0.0
 11
104.5091792811329
 21
432.48379464623451
 31
0.0
  0
ARC
  5
3077
  8
AM_0
 10
97.009179281133001
 20
439.18566251761422
 30
0.0
 40
2.0
 50
0.0
 51
48.366460663430352
1001
GENIUS_GENOBJ-N-FIL_13
1002
{
1000
OWNER
1000
GEN
1002
}
1001
GENIUS_GENODEF_13
1002
{
1000
HIER
1070
     0
1002
}
1002
{
1000
MANEDIT
1070
     0
1002
}
1002
{
1000
NOSEL
1070
     0
1002
}
1002
{
1000
BEHIND
1070
     0
1002
}
1002
{
1000
OTHER
1070
     0
1002
}
1002
{
1000
REACTOR
1002
}
  0
ARC
  5
3078
  8
AM_0
 10
106.5091792811329
 20
435.82482167305562
 30
0.0
 40
2.0
 50
90.0
 51
180.0
1001
GENIUS_GENOBJ-N-FIL_13
1002
{
1000
OWNER
1000
GEN
1002
}
1001
GENIUS_GENODEF_13
1002
{
1000
HIER
1070
     0
1002
}
1002
{
1000
MANEDIT
1070
     0
1002
}
1002
{
1000
NOSEL
1070
     0
1002
}
1002
{
1000
BEHIND
1070
     0
1002
}
1002
{
1000
OTHER
1070
     0
1002
}
1002
{
1000
REACTOR
1002
}
  0
LINE
  5
3079
  8
AM_0
 10
131.00917928113299
 20
438.2412173750468
 30
0.0
 11
131.00917928113299
 21
428.9341987135399
 31
0.0
  0
LINE
  5
307A
  8
AM_0
 10
123.0091792811329
 20
438.24121737504652
 30
0.0
 11
123.0091792811329
 21
428.9341987135399
 31
0.0
  0
LINE
  5
307B
  8
AM_0
 10
119.0091792811329
 20
441.7930016667658
 30
0.0
 11
119.0091792811329
 21
428.9341987135399
 31
0.0
  0
LINE
  5
307C
  8
AM_0
 10
131.00917928113299
 20
434.21026151204882
 30
0.0
 11
123.0091792811329
 21
434.21026151204882
 31
0.0
  0
LINE
  5
307D
  8
AM_0
 10
123.0091792811329
 20
428.9341987135399
 30
0.0
 11
119.0091792811329
 21
428.9341987135399
 31
0.0
  0
LINE
  5
307E
  8
AM_0N
 10
129.72272583583319
 20
437.2530499735177
 30
0.0
 11
129.80917928113291
 21
438.2412173750468
 31
0.0
1001
GENIUS_GENOREF_13
1005
0
  0
ARC
  5
307F
  8
AM_0N
 10
128.52729219812301
 20
437.35763686481488
 30
0.0
 40
1.1999999999999991
 50
293.54713723707698
 51
355.00000000000023
1001
GENIUS_GENOREF_13
1005
0
  0
LINE
  5
3080
  8
AM_0N
 10
124.2956327264326
 20
437.2530499735177
 30
0.0
 11
124.2091792811329
 21
438.2412173750468
 31
0.0
1001
GENIUS_GENOREF_13
1005
0
  0
ARC
  5
3081
  8
AM_0N
 10
125.4910663641426
 20
437.35763686481488
 30
0.0
 40
1.1999999999999991
 50
184.99999999999969
 51
246.4528627629231
1001
GENIUS_GENOREF_13
1005
0
  0
LINE
  5
3082
  8
AM_3N
  6
AM_ISO02W050X2
 10
127.2616792811329
 20
437.64121737504678
 30
0.0
 11
126.7566792811329
 21
437.64121737504678
 31
0.0
1001
GENIUS_GENOREF_13
1005
0
  0
LINE
  5
3083
  8
AM_3N
  6
AM_ISO02W050X2
 10
125.5091792811329
 20
436.07152136796202
 30
0.0
 11
127.0091792811329
 21
437.95893139652082
 31
0.0
1001
GENIUS_GENOREF_13
1005
0
  0
LINE
  5
3084
  8
AM_3N
  6
AM_ISO02W050X2
 10
127.2616792811329
 20
435.84759707009761
 30
0.0
 11
127.2616792811329
 21
437.64121737504678
 31
0.0
1001
GENIUS_GENOREF_13
1005
0
  0
LINE
  5
3085
  8
AM_3N
  6
AM_ISO02W050X2
 10
126.7566792811329
 20
435.84759707009761
 30
0.0
 11
126.7566792811329
 21
437.64121737504678
 31
0.0
1001
GENIUS_GENOREF_13
1005
0
  0
ARC
  5
3086
  8
AM_0N
 10
127.0091792811329
 20
440.84121737504682
 30
0.0
 40
5.0
 50
246.4528627629231
 51
293.54713723707698
1001
GENIUS_GENOREF_13
1005
0
  0
LINE
  5
3087
  8
AM_3N
  6
AM_ISO02W050X2
 10
128.5091792811329
 20
436.07152136796202
 30
0.0
 11
127.0091792811329
 21
437.95893139652082
 31
0.0
1001
GENIUS_GENOREF_13
1005
0
  0
LINE
  5
3088
  8
AM_0
 10
98.3379069587928
 20
555.48710813748755
 30
0.0
 11
95.180451603473131
 21
552.68048115498163
 31
0.0
  0
LINE
  5
3089
  8
AM_0
 10
83.509179281133015
 20
515.08379464623454
 30
0.0
 11
83.509179281132901
 21
481.08379464623471
 31
0.0
  0
ARC
  5
308A
  8
AM_0
 10
86.509179281132901
 20
481.08379464623471
 30
0.0
 40
3.0
 50
180.0
 51
270.0
1001
GENIUS_GENODEF_13
1002
{
1000
HIER
1070
     0
1002
}
1002
{
1000
MANEDIT
1070
     0
1002
}
1002
{
1000
NOSEL
1070
     0
1002
}
1002
{
1000
BEHIND
1070
     0
1002
}
1002
{
1000
OTHER
1070
     0
1002
}
1002
{
1000
REACTOR
1002
}
1001
GENIUS_GENOBJ-N-FIL_13
1002
{
1000
OWNER
1000
GEN
1002
}
  0
LINE
  5
308B
  8
AM_0
 10
86.509179281132901
 20
478.08379464623471
 30
0.0
 11
93.221814082175115
 21
478.08379464623471
 31
0.0
  0
LINE
  5
308C
  8
AM_0
 10
86.509179281133044
 20
518.08379464623454
 30
0.0
 11
93.221814082175115
 21
518.08379464623454
 31
0.0
  0
ARC
  5
308D
  8
AM_0
 10
86.509179281133044
 20
515.08379464623454
 30
0.0
 40
3.0
 50
90.0
 51
180.0
1001
GENIUS_GENOBJ-N-FIL_13
1002
{
1000
OWNER
1000
GEN
1002
}
1001
GENIUS_GENODEF_13
1002
{
1000
HIER
1070
     0
1002
}
1002
{
1000
MANEDIT
1070
     0
1002
}
1002
{
1000
NOSEL
1070
     0
1002
}
1002
{
1000
BEHIND
1070
     0
1002
}
1002
{
1000
OTHER
1070
     0
1002
}
1002
{
1000
REACTOR
1002
}
  0
ARC
  5
308E
  8
AM_0
 10
96.509179281133015
 20
551.18566251761422
 30
0.0
 40
2.0
 50
131.63353933656961
 51
180.0
1001
GENIUS_GENODEF_13
1002
{
1000
HIER
1070
     0
1002
}
1002
{
1000
MANEDIT
1070
     0
1002
}
1002
{
1000
NOSEL
1070
     0
1002
}
1002
{
1000
BEHIND
1070
     0
1002
}
1002
{
1000
OTHER
1070
     0
1002
}
1002
{
1000
REACTOR
1002
}
1001
GENIUS_GENOBJ-N-FIL_13
1002
{
1000
OWNER
1000
GEN
1002
}
  0
ARC
  5
308F
  8
AM_0
 10
101.009179281133
 20
561.68379464623456
 30
0.0
 40
2.0
 50
90.0
 51
180.0
1001
GENIUS_GENOBJ-N-FIL_13
1002
{
1000
OWNER
1000
GEN
1002
}
1001
GENIUS_GENODEF_13
1002
{
1000
HIER
1070
     0
1002
}
1002
{
1000
MANEDIT
1070
     0
1002
}
1002
{
1000
NOSEL
1070
     0
1002
}
1002
{
1000
BEHIND
1070
     0
1002
}
1002
{
1000
OTHER
1070
     0
1002
}
1002
{
1000
REACTOR
1002
}
  0
ARC
  5
3090
  8
AM_0
 10
97.009179281133001
 20
556.9819267748552
 30
0.0
 40
2.0
 50
311.63353933656958
 51
0.0
1001
GENIUS_GENOBJ-N-FIL_13
1002
{
1000
OWNER
1000
GEN
1002
}
1001
GENIUS_GENODEF_13
1002
{
1000
HIER
1070
     0
1002
}
1002
{
1000
MANEDIT
1070
     0
1002
}
1002
{
1000
NOSEL
1070
     0
1002
}
1002
{
1000
BEHIND
1070
     0
1002
}
1002
{
1000
OTHER
1070
     0
1002
}
1002
{
1000
REACTOR
1002
}
  0
LINE
  5
3091
  8
AM_0
 10
238.0091792811329
 20
564.08379464623454
 30
0.0
 11
238.0091792811329
 21
432.08379464623471
 31
0.0
  0
LINE
  5
3092
  8
AM_0
 10
226.5091792811329
 20
564.08379464623454
 30
0.0
 11
226.5091792811329
 21
432.08379464623471
 31
0.0
  0
LINE
  5
3093
  8
AM_0
 10
162.5091792811329
 20
432.4837946462348
 30
0.0
 11
226.5091792811329
 21
432.48379464623451
 31
0.0
  0
LINE
  5
3094
  8
AM_0
 10
162.5091792811329
 20
435.82482167305562
 30
0.0
 11
162.50917928113279
 21
419.02379541729653
 31
0.0
  0
ARC
  5
3095
  8
AM_0
 10
160.5091792811329
 20
422.43139641600328
 30
0.0
 40
2.0
 50
270.0
 51
0.0
1001
GENIUS_GENOBJ-N-FIL_13
1002
{
1000
OWNER
1000
GEN
1002
}
1001
GENIUS_GENODEF_13
1002
{
1000
HIER
1070
     0
1002
}
1002
{
1000
MANEDIT
1070
     0
1002
}
1002
{
1000
NOSEL
1070
     0
1002
}
1002
{
1000
BEHIND
1070
     0
1002
}
1002
{
1000
OTHER
1070
     0
1002
}
1002
{
1000
REACTOR
1002
}
  0
ARC
  5
3096
  8
AM_0
 10
160.50917928113279
 20
419.02379541729653
 30
0.0
 40
2.0
 50
270.0
 51
0.0
1001
GENIUS_GENOBJ-N-FIL_13
1002
{
1000
OWNER
1000
GEN
1002
}
1001
GENIUS_GENODEF_13
1002
{
1000
HIER
1070
     0
1002
}
1002
{
1000
MANEDIT
1070
     0
1002
}
1002
{
1000
NOSEL
1070
     0
1002
}
1002
{
1000
BEHIND
1070
     0
1002
}
1002
{
1000
OTHER
1070
     0
1002
}
1002
{
1000
REACTOR
1002
}
  0
LINE
  5
3097
  8
AM_0
 10
160.5091792811329
 20
437.82482167305568
 30
0.0
 11
135.0091792811329
 21
437.82482167305568
 31
0.0
  0
LINE
  5
3098
  8
AM_0
 10
135.0091792811329
 20
441.79300166676552
 30
0.0
 11
135.0091792811329
 21
428.9341987135399
 31
0.0
  0
ARC
  5
3099
  8
AM_0
 10
160.5091792811329
 20
435.82482167305562
 30
0.0
 40
2.0
 50
0.0
 51
90.0
1001
GENIUS_GENODEF_13
1002
{
1000
HIER
1070
     0
1002
}
1002
{
1000
MANEDIT
1070
     0
1002
}
1002
{
1000
NOSEL
1070
     0
1002
}
1002
{
1000
BEHIND
1070
     0
1002
}
1002
{
1000
OTHER
1070
     0
1002
}
1002
{
1000
REACTOR
1002
}
1001
GENIUS_GENOBJ-N-FIL_13
1002
{
1000
OWNER
1000
GEN
1002
}
  0
LINE
  5
309A
  8
AM_0
 10
226.5091792811329
 20
432.08379464623471
 30
0.0
 11
238.0091792811329
 21
432.08379464623471
 31
0.0
  0
LINE
  5
309B
  8
AM_0
 10
245.0091792811329
 20
435.08379464623471
 30
0.0
 11
238.0091792811329
 21
432.08379464623471
 31
0.0
  0
LINE
  5
309C
  8
AM_0
 10
226.5091792811329
 20
564.08379464623454
 30
0.0
 11
238.0091792811329
 21
564.08379464623454
 31
0.0
  0
LINE
  5
309D
  8
AM_0
 10
238.0091792811329
 20
564.08379464623454
 30
0.0
 11
245.0091792811329
 21
561.08379464623454
 31
0.0
  0
LINE
  5
309E
  8
AM_0
 10
245.0091792811329
 20
561.08379464623454
 30
0.0
 11
245.0091792811329
 21
435.08379464623471
 31
0.0
  0
POINT
  5
309F
  8
0
 10
-40.865059320175533
 20
-54.336444026114407
 30
0.0
1001
GENIUS_GENOLIS_13
1002
{
1000
ENT
1005
0
1005
0
1005
0
1005
3069
1002
}
1001
GENIUS_GENOENT_13
1002
{
1000
MYREF
1005
309F
1002
}
1002
{
1000
GRP
1005
0
1002
}
1001
GENIUS_GENOBJ-NBEHI-BHB_13
1002
{
1000
OWNER
1000
genbehi
1002
}
1001
GENIUS_GENBH_13
1002
{
1000
FGO
1005
0
1002
}
1001
GENIUS_GENODEF_13
1002
{
1000
HIER
1070
     1
1002
}
1002
{
1000
MANEDIT
1070
     1
1002
}
1002
{
1000
NOSEL
1070
     1
1002
}
1002
{
1000
BEHIND
1070
     0
1002
}
1002
{
1000
OTHER
1070
     1
1002
}
1002
{
1000
REACTOR
1002
}
  0
ARC
  5
3364
  8
AM_0
 10
1033.695283090952
 20
247.62467064988999
 30
0.0
 40
940.68612380981915
 50
176.76392470776159
 51
183.2360752922383
  0
LINE
  5
3365
  8
AM_0
 10
94.509159281133066
 20
300.72653852126979
 30
0.0
 11
94.509159281133066
 21
194.52280277851079
 31
0.0
  0
LINE
  5
3366
  8
AM_0
 10
99.009159281133137
 20
311.22467064989041
 30
0.0
 11
99.009159281133066
 21
184.02467064989011
 31
0.0
  0
LINE
  5
3367
  8
AM_0
 10
101.50915928113299
 20
313.2246706498903
 30
0.0
 11
101.50915928113299
 21
182.02467064989011
 31
0.0
  0
LINE
  5
3368
  8
AM_0
 10
238.00915928113301
 20
313.62467064989028
 30
0.0
 11
238.00915928113301
 21
181.62467064989031
 31
0.0
  0
LINE
  5
3369
  8
AM_0
 10
226.50915928113301
 20
313.62467064989028
 30
0.0
 11
226.50915928113301
 21
181.62467064989031
 31
0.0
  0
ARC
  5
3371
  8
AM_0
 10
273.00917928113307
 20
297.29179464989028
 30
0.0
 40
2.00000007
 50
90.00000299999769
 51
180.00000999999941
  0
LINE
  5
3372
  8
AM_0
 10
337.00910928113308
 20
203.34332364989029
 30
0.0
 11
337.00910928113308
 21
334.40599764989042
 31
0.0
  0
LINE
  5
3373
  8
AM_0
 10
283.00910928113308
 20
318.62465064989021
 30
0.0
 11
283.00910928113308
 21
174.1246616498903
 31
0.0
  0
LINE
  5
3374
  8
AM_0
 10
315.00914928113281
 20
331.69861764989031
 30
0.0
 11
315.00914928113281
 21
286.46949864989023
 31
0.0
  0
LINE
  5
3375
  8
AM_0
 10
343.00910928113308
 20
185.12464764989011
 30
0.0
 11
343.00910928113308
 21
352.62466764989023
 31
0.0
  0
LINE
  5
3376
  8
AM_0
 10
343.72136928113281
 20
299.85527364989019
 30
0.0
 11
347.00909928113282
 21
295.93706064989038
 31
0.0
  0
LINE
  5
3377
  8
AM_0
 10
245.00915928113301
 20
184.62467064989011
 30
0.0
 11
245.00915928113301
 21
310.62467064989028
 31
0.0
  0
CIRCLE
  5
3378
  8
AM_0N
 10
127.00915928113299
 20
277.62467064989028
 30
0.0
 40
2.799999999999998
1001
GENIUS_GENOREF_13
1005
0
  0
LINE
  5
3379
  8
AM_0
 10
121.00915928113299
 20
281.62467064989028
 30
0.0
 11
133.00915928113301
 21
281.62467064989028
 31
0.0
1001
GENIUS_GENOREF_13
1005
3547
  0
LINE
  5
337A
  8
AM_0
 10
127.5091592811329
 20
213.62467064989031
 30
0.0
 11
148.50915928113301
 21
213.62467064989031
 31
0.0
  0
CIRCLE
  5
337B
  8
AM_0N
 10
127.00915928113299
 20
223.62467064989031
 30
0.0
 40
2.799999999999998
  0
LINE
  5
337C
  8
AM_0
 10
121.00915928113299
 20
219.62467064989031
 30
0.0
 11
133.00915928113301
 21
219.62467064989031
 31
0.0
  0
LINE
  5
337D
  8
AM_0
 10
105.50915928113299
 20
227.62467064989031
 30
0.0
 11
161.50915928113309
 21
227.62467064989031
 31
0.0
  0
LINE
  5
337E
  8
AM_0
 10
105.50915928113299
 20
273.62467064989028
 30
0.0
 11
161.50915928113309
 21
273.62467064989028
 31
0.0
1001
GENIUS_GENOREF_13
1005
3547
  0
LINE
  5
337F
  8
AM_0
 10
127.5091592811329
 20
199.2246706498903
 30
0.0
 11
148.50915928113301
 21
199.2246706498903
 31
0.0
  0
LINE
  5
3380
  8
AM_0
 10
127.5091592811329
 20
191.4246706498902
 30
0.0
 11
148.50915928113301
 21
191.4246706498902
 31
0.0
  0
LINE
  5
3381
  8
AM_0
 10
127.5091592811329
 20
195.7246706498903
 30
0.0
 11
148.50915928113301
 21
195.7246706498903
 31
0.0
  0
LINE
  5
3382
  8
AM_0
 10
127.5091592811329
 20
204.4246706498902
 30
0.0
 11
148.50915928113301
 21
204.42467064989029
 31
0.0
  0
LINE
  5
3383
  8
AM_0
 10
127.5091592811329
 20
208.12467064989031
 30
0.0
 11
148.50915928113301
 21
208.12467064989031
 31
0.0
  0
LINE
  5
3384
  8
AM_0
 10
127.5091592811329
 20
187.9246706498902
 30
0.0
 11
148.50915928113301
 21
187.9246706498902
 31
0.0
  0
LINE
  5
3385
  8
AM_0
 10
127.5091592811329
 20
185.32467064989029
 30
0.0
 11
148.50915928113301
 21
185.32467064989029
 31
0.0
  0
LINE
  5
3386
  8
AM_0
 10
101.00915928113299
 20
182.02467064989011
 30
0.0
 11
148.50915928113301
 21
182.02467064989011
 31
0.0
  0
LINE
  5
3387
  8
ﾁｭｳｼﾝｾﾝ
 10
79.606239398966451
 20
247.62466464989029
 30
0.0
 11
289.98305928113308
 21
247.62466464989029
 31
0.0
  0
LINE
  5
3388
  8
AM_0
 10
126.5091592811329
 20
212.62467064989031
 30
0.0
 11
126.5091592811329
 21
209.12467064989031
 31
0.0
  0
LINE
  5
3389
  8
AM_0
 10
98.337886958792922
 20
190.22135715863709
 30
0.0
 11
95.180431603473266
 21
193.02798414114341
 31
0.0
  0
ARC
  5
338A
  8
AM_0
 10
96.509159281133066
 20
194.52280277851079
 30
0.0
 40
2.0
 50
180.0
 51
228.36646066343141
1001
GENIUS_GENODEF_13
1002
{
1000
HIER
1070
     0
1002
}
1002
{
1000
MANEDIT
1070
     0
1002
}
1002
{
1000
NOSEL
1070
     0
1002
}
1002
{
1000
BEHIND
1070
     0
1002
}
1002
{
1000
OTHER
1070
     0
1002
}
1002
{
1000
REACTOR
1002
}
1001
GENIUS_GENOBJ-N-FIL_13
1002
{
1000
OWNER
1000
GEN
1002
}
  0
ARC
  5
338B
  8
AM_0
 10
97.009159281133066
 20
188.72653852126959
 30
0.0
 40
2.0
 50
0.0
 51
48.366460663431418
1001
GENIUS_GENOBJ-N-FIL_13
1002
{
1000
OWNER
1000
GEN
1002
}
1001
GENIUS_GENODEF_13
1002
{
1000
HIER
1070
     0
1002
}
1002
{
1000
MANEDIT
1070
     0
1002
}
1002
{
1000
NOSEL
1070
     0
1002
}
1002
{
1000
BEHIND
1070
     0
1002
}
1002
{
1000
OTHER
1070
     0
1002
}
1002
{
1000
REACTOR
1002
}
  0
ARC
  5
338C
  8
AM_0
 10
101.00915928113299
 20
184.02467064989011
 30
0.0
 40
2.0
 50
180.0
 51
270.0
1001
GENIUS_GENOBJ-N-FIL_13
1002
{
1000
OWNER
1000
GEN
1002
}
1001
GENIUS_GENODEF_13
1002
{
1000
HIER
1070
     0
1002
}
1002
{
1000
MANEDIT
1070
     0
1002
}
1002
{
1000
NOSEL
1070
     0
1002
}
1002
{
1000
BEHIND
1070
     0
1002
}
1002
{
1000
OTHER
1070
     0
1002
}
1002
{
1000
REACTOR
1002
}
  0
ARC
  5
338D
  8
AM_0
 10
127.5091592811329
 20
186.32467064989029
 30
0.0
 40
1.0
 50
180.0
 51
270.0
1001
GENIUS_GENODEF_13
1002
{
1000
HIER
1070
     0
1002
}
1002
{
1000
MANEDIT
1070
     0
1002
}
1002
{
1000
NOSEL
1070
     0
1002
}
1002
{
1000
BEHIND
1070
     0
1002
}
1002
{
1000
OTHER
1070
     0
1002
}
1002
{
1000
REACTOR
1002
}
1001
GENIUS_GENOBJ-N-FIL_13
1002
{
1000
OWNER
1000
GEN
1002
}
  0
ARC
  5
338E
  8
AM_0
 10
127.5091592811329
 20
186.9246706498902
 30
0.0
 40
1.0
 50
90.0
 51
180.0
1001
GENIUS_GENOBJ-N-FIL_13
1002
{
1000
OWNER
1000
GEN
1002
}
1001
GENIUS_GENODEF_13
1002
{
1000
HIER
1070
     0
1002
}
1002
{
1000
MANEDIT
1070
     0
1002
}
1002
{
1000
NOSEL
1070
     0
1002
}
1002
{
1000
BEHIND
1070
     0
1002
}
1002
{
1000
OTHER
1070
     0
1002
}
1002
{
1000
REACTOR
1002
}
  0
LINE
  5
338F
  8
AM_0
 10
126.50915928113299
 20
186.9246706498902
 30
0.0
 11
126.5091592811329
 21
186.32467064989029
 31
0.0
  0
LINE
  5
3390
  8
AM_0
 10
126.5091592811329
 20
203.4246706498902
 30
0.0
 11
126.5091592811329
 21
200.2246706498903
 31
0.0
  0
ARC
  5
3391
  8
AM_0
 10
127.5091592811329
 20
200.2246706498903
 30
0.0
 40
1.0
 50
180.0
 51
270.0
1001
GENIUS_GENOBJ-N-FIL_13
1002
{
1000
OWNER
1000
GEN
1002
}
1001
GENIUS_GENODEF_13
1002
{
1000
HIER
1070
     0
1002
}
1002
{
1000
MANEDIT
1070
     0
1002
}
1002
{
1000
NOSEL
1070
     0
1002
}
1002
{
1000
BEHIND
1070
     0
1002
}
1002
{
1000
OTHER
1070
     0
1002
}
1002
{
1000
REACTOR
1002
}
  0
ARC
  5
3392
  8
AM_0
 10
127.5091592811329
 20
194.7246706498903
 30
0.0
 40
1.0
 50
90.0
 51
180.0
1001
GENIUS_GENODEF_13
1002
{
1000
HIER
1070
     0
1002
}
1002
{
1000
MANEDIT
1070
     0
1002
}
1002
{
1000
NOSEL
1070
     0
1002
}
1002
{
1000
BEHIND
1070
     0
1002
}
1002
{
1000
OTHER
1070
     0
1002
}
1002
{
1000
REACTOR
1002
}
1001
GENIUS_GENOBJ-N-FIL_13
1002
{
1000
OWNER
1000
GEN
1002
}
  0
ARC
  5
3393
  8
AM_0
 10
127.5091592811329
 20
192.42467064989009
 30
0.0
 40
1.0
 50
180.0
 51
270.0
1001
GENIUS_GENOBJ-N-FIL_13
1002
{
1000
OWNER
1000
GEN
1002
}
1001
GENIUS_GENODEF_13
1002
{
1000
HIER
1070
     0
1002
}
1002
{
1000
MANEDIT
1070
     0
1002
}
1002
{
1000
NOSEL
1070
     0
1002
}
1002
{
1000
BEHIND
1070
     0
1002
}
1002
{
1000
OTHER
1070
     0
1002
}
1002
{
1000
REACTOR
1002
}
  0
LINE
  5
3394
  8
AM_0
 10
126.5091592811329
 20
194.7246706498903
 30
0.0
 11
126.5091592811329
 21
192.42467064989009
 31
0.0
  0
ARC
  5
3395
  8
AM_0
 10
127.5091592811329
 20
203.4246706498902
 30
0.0
 40
1.0
 50
90.0
 51
180.0
1001
GENIUS_GENODEF_13
1002
{
1000
HIER
1070
     0
1002
}
1002
{
1000
MANEDIT
1070
     0
1002
}
1002
{
1000
NOSEL
1070
     0
1002
}
1002
{
1000
BEHIND
1070
     0
1002
}
1002
{
1000
OTHER
1070
     0
1002
}
1002
{
1000
REACTOR
1002
}
1001
GENIUS_GENOBJ-N-FIL_13
1002
{
1000
OWNER
1000
GEN
1002
}
  0
ARC
  5
3396
  8
AM_0
 10
127.5091592811329
 20
209.12467064989031
 30
0.0
 40
1.0
 50
180.0
 51
270.0
1001
GENIUS_GENODEF_13
1002
{
1000
HIER
1070
     0
1002
}
1002
{
1000
MANEDIT
1070
     0
1002
}
1002
{
1000
NOSEL
1070
     0
1002
}
1002
{
1000
BEHIND
1070
     0
1002
}
1002
{
1000
OTHER
1070
     0
1002
}
1002
{
1000
REACTOR
1002
}
1001
GENIUS_GENOBJ-N-FIL_13
1002
{
1000
OWNER
1000
GEN
1002
}
  0
LINE
  5
3397
  8
AM_0
 10
104.50915928113299
 20
272.62467064989028
 30
0.0
 11
104.50915928113299
 21
228.62467064989039
 31
0.0
  0
LINE
  5
3398
  8
AM_0
 10
83.509159281133122
 20
264.62467064989028
 30
0.0
 11
83.509159281133122
 21
230.62467064989031
 31
0.0
  0
LINE
  5
3399
  8
AM_0
 10
86.509159281133108
 20
227.62467064989031
 30
0.0
 11
93.221794082175222
 21
227.62467064989031
 31
0.0
  0
ARC
  5
339A
  8
AM_0
 10
86.509159281133108
 20
230.62467064989031
 30
0.0
 40
3.0
 50
180.0
 51
270.0
1001
GENIUS_GENODEF_13
1002
{
1000
HIER
1070
     0
1002
}
1002
{
1000
MANEDIT
1070
     0
1002
}
1002
{
1000
NOSEL
1070
     0
1002
}
1002
{
1000
BEHIND
1070
     0
1002
}
1002
{
1000
OTHER
1070
     0
1002
}
1002
{
1000
REACTOR
1002
}
1001
GENIUS_GENOBJ-N-FIL_13
1002
{
1000
OWNER
1000
GEN
1002
}
  0
ARC
  5
339B
  8
AM_0
 10
105.50915928113299
 20
228.62467064989039
 30
0.0
 40
1.0
 50
180.0
 51
270.0
1001
GENIUS_GENOBJ-N-FIL_13
1002
{
1000
OWNER
1000
GEN
1002
}
1001
GENIUS_GENODEF_13
1002
{
1000
HIER
1070
     0
1002
}
1002
{
1000
MANEDIT
1070
     0
1002
}
1002
{
1000
NOSEL
1070
     0
1002
}
1002
{
1000
BEHIND
1070
     0
1002
}
1002
{
1000
OTHER
1070
     0
1002
}
1002
{
1000
REACTOR
1002
}
  0
LINE
  5
339C
  8
AM_0N
 10
126.756659281133
 20
222.14607545511919
 30
0.0
 11
126.756659281133
 21
223.37217064989019
 31
0.0
  0
LINE
  5
339D
  8
AM_0N
 10
127.26165928113301
 20
222.14607545511919
 30
0.0
 11
127.26165928113301
 21
223.37217064989019
 31
0.0
  0
LINE
  5
339E
  8
AM_0
 10
119.00915928113299
 20
221.62467064989031
 30
0.0
 11
119.00915928113299
 21
227.62467064989031
 31
0.0
  0
LINE
  5
339F
  8
AM_0
 10
123.00915928113299
 20
219.62467064989031
 30
0.0
 11
123.00915928113299
 21
227.62467064989031
 31
0.0
  0
ARC
  5
33A0
  8
AM_0
 10
121.00915928113299
 20
221.62467064989031
 30
0.0
 40
2.0
 50
180.0
 51
270.0
1001
GENIUS_GENOBJ-N-FIL_13
1002
{
1000
OWNER
1000
GEN
1002
}
1001
GENIUS_GENODEF_13
1002
{
1000
HIER
1070
     0
1002
}
1002
{
1000
MANEDIT
1070
     0
1002
}
1002
{
1000
NOSEL
1070
     0
1002
}
1002
{
1000
BEHIND
1070
     0
1002
}
1002
{
1000
OTHER
1070
     0
1002
}
1002
{
1000
REACTOR
1002
}
  0
ARC
  5
33A1
  8
AM_0
 10
127.5091592811329
 20
212.62467064989031
 30
0.0
 40
1.0
 50
90.0
 51
180.0
1001
GENIUS_GENODEF_13
1002
{
1000
HIER
1070
     0
1002
}
1002
{
1000
MANEDIT
1070
     0
1002
}
1002
{
1000
NOSEL
1070
     0
1002
}
1002
{
1000
BEHIND
1070
     0
1002
}
1002
{
1000
OTHER
1070
     0
1002
}
1002
{
1000
REACTOR
1002
}
1001
GENIUS_GENOBJ-N-FIL_13
1002
{
1000
OWNER
1000
GEN
1002
}
  0
LINE
  5
33A2
  8
AM_0N
 10
126.756659281133
 20
222.14607545511919
 30
0.0
 11
127.26165928113301
 21
222.14607545511919
 31
0.0
  0
LINE
  5
33A3
  8
AM_0N
 10
128.4877544759041
 20
223.8771706498903
 30
0.0
 11
127.26165928113301
 21
223.8771706498903
 31
0.0
  0
LINE
  5
33A4
  8
AM_0N
 10
128.4877544759041
 20
223.37217064989019
 30
0.0
 11
127.26165928113301
 21
223.37217064989019
 31
0.0
  0
LINE
  5
33A5
  8
AM_0N
 10
127.26165928113301
 20
223.8771706498903
 30
0.0
 11
127.26165928113301
 21
225.10326584466139
 31
0.0
  0
LINE
  5
33A6
  8
AM_0N
 10
126.756659281133
 20
223.8771706498903
 30
0.0
 11
126.756659281133
 21
225.10326584466139
 31
0.0
  0
LINE
  5
33A7
  8
AM_0N
 10
126.756659281133
 20
225.10326584466139
 30
0.0
 11
127.26165928113301
 21
225.10326584466139
 31
0.0
  0
LINE
  5
33A8
  8
AM_0N
 10
128.4877544759041
 20
223.8771706498903
 30
0.0
 11
128.4877544759041
 21
223.37217064989019
 31
0.0
  0
LINE
  5
33A9
  8
AM_0N
 10
125.53056408636201
 20
223.8771706498903
 30
0.0
 11
125.53056408636201
 21
223.37217064989019
 31
0.0
  0
LINE
  5
33AA
  8
AM_0N
 10
126.756659281133
 20
223.8771706498903
 30
0.0
 11
125.53056408636201
 21
223.8771706498903
 31
0.0
  0
LINE
  5
33AB
  8
AM_0N
 10
126.756659281133
 20
223.37217064989019
 30
0.0
 11
125.53056408636201
 21
223.37217064989019
 31
0.0
  0
ARC
  5
33AC
  8
AM_0
 10
86.509159281133108
 20
264.62467064989028
 30
0.0
 40
3.0
 50
90.0
 51
180.0
1001
GENIUS_GENOBJ-N-FIL_13
1002
{
1000
OWNER
1000
GEN
1002
}
1001
GENIUS_GENODEF_13
1002
{
1000
HIER
1070
     0
1002
}
1002
{
1000
MANEDIT
1070
     0
1002
}
1002
{
1000
NOSEL
1070
     0
1002
}
1002
{
1000
BEHIND
1070
     0
1002
}
1002
{
1000
OTHER
1070
     0
1002
}
1002
{
1000
REACTOR
1002
}
  0
LINE
  5
33AD
  8
AM_0
 10
86.509159281133108
 20
267.62467064989028
 30
0.0
 11
93.221794082175222
 21
267.62467064989028
 31
0.0
  0
LINE
  5
33AE
  8
AM_0N
 10
126.756659281133
 20
277.37217064989028
 30
0.0
 11
126.756659281133
 21
276.14607545511922
 31
0.0
1001
GENIUS_GENOREF_13
1005
0
  0
LINE
  5
33AF
  8
AM_0N
 10
127.26165928113301
 20
277.37217064989028
 30
0.0
 11
127.26165928113301
 21
276.14607545511922
 31
0.0
1001
GENIUS_GENOREF_13
1005
0
  0
LINE
  5
33B0
  8
AM_0
 10
119.00915928113299
 20
279.62467064989028
 30
0.0
 11
119.00915928113299
 21
273.62467064989028
 31
0.0
  0
LINE
  5
33B1
  8
AM_0
 10
123.00915928113299
 20
281.62467064989028
 30
0.0
 11
123.00915928113299
 21
273.62467064989028
 31
0.0
  0
ARC
  5
33B2
  8
AM_0
 10
105.50915928113299
 20
272.62467064989028
 30
0.0
 40
1.0
 50
90.0
 51
180.0
1001
GENIUS_GENODEF_13
1002
{
1000
HIER
1070
     0
1002
}
1002
{
1000
MANEDIT
1070
     0
1002
}
1002
{
1000
NOSEL
1070
     0
1002
}
1002
{
1000
BEHIND
1070
     0
1002
}
1002
{
1000
OTHER
1070
     0
1002
}
1002
{
1000
REACTOR
1002
}
1001
GENIUS_GENOBJ-N-FIL_13
1002
{
1000
OWNER
1000
GEN
1002
}
  0
LINE
  5
33B3
  8
AM_0N
 10
126.756659281133
 20
276.14607545511922
 30
0.0
 11
127.26165928113301
 21
276.14607545511922
 31
0.0
1001
GENIUS_GENOREF_13
1005
0
  0
ARC
  5
33B4
  8
AM_0
 10
121.00915928113299
 20
279.62467064989028
 30
0.0
 40
2.0
 50
90.0
 51
180.0
1001
GENIUS_GENOBJ-N-FIL_13
1002
{
1000
OWNER
1000
GEN
1002
}
1001
GENIUS_GENODEF_13
1002
{
1000
HIER
1070
     0
1002
}
1002
{
1000
MANEDIT
1070
     0
1002
}
1002
{
1000
NOSEL
1070
     0
1002
}
1002
{
1000
BEHIND
1070
     0
1002
}
1002
{
1000
OTHER
1070
     0
1002
}
1002
{
1000
REACTOR
1002
}
  0
LINE
  5
33B5
  8
AM_0N
 10
128.4877544759041
 20
277.87717064989027
 30
0.0
 11
127.26165928113301
 21
277.87717064989027
 31
0.0
1001
GENIUS_GENOREF_13
1005
0
  0
LINE
  5
33B6
  8
AM_0N
 10
127.26165928113301
 20
279.10326584466139
 30
0.0
 11
127.26165928113301
 21
277.87717064989027
 31
0.0
1001
GENIUS_GENOREF_13
1005
0
  0
LINE
  5
33B7
  8
AM_0N
 10
126.756659281133
 20
279.10326584466139
 30
0.0
 11
126.756659281133
 21
277.87717064989027
 31
0.0
1001
GENIUS_GENOREF_13
1005
0
  0
LINE
  5
33B8
  8
AM_0N
 10
126.756659281133
 20
279.10326584466139
 30
0.0
 11
127.26165928113301
 21
279.10326584466139
 31
0.0
1001
GENIUS_GENOREF_13
1005
0
  0
LINE
  5
33B9
  8
AM_0N
 10
126.756659281133
 20
277.87717064989027
 30
0.0
 11
125.53056408636201
 21
277.87717064989027
 31
0.0
1001
GENIUS_GENOREF_13
1005
0
  0
LINE
  5
33BA
  8
AM_0N
 10
128.4877544759041
 20
277.37217064989028
 30
0.0
 11
127.26165928113301
 21
277.37217064989028
 31
0.0
1001
GENIUS_GENOREF_13
1005
0
  0
LINE
  5
33BB
  8
AM_0N
 10
126.756659281133
 20
277.37217064989028
 30
0.0
 11
125.53056408636201
 21
277.37217064989028
 31
0.0
1001
GENIUS_GENOREF_13
1005
0
  0
LINE
  5
33BC
  8
AM_0N
 10
128.4877544759041
 20
277.37217064989028
 30
0.0
 11
128.4877544759041
 21
277.87717064989027
 31
0.0
1001
GENIUS_GENOREF_13
1005
0
  0
LINE
  5
33BD
  8
AM_0N
 10
125.53056408636201
 20
277.37217064989028
 30
0.0
 11
125.53056408636201
 21
277.87717064989027
 31
0.0
1001
GENIUS_GENOREF_13
1005
0
  0
LINE
  5
33BF
  8
AM_0
 10
245.00915928113301
 20
201.62464764989019
 30
0.0
 11
276.00917928113307
 21
201.62464764989019
 31
0.0
  0
LINE
  5
33C0
  8
AM_0
 10
245.00915928113301
 20
215.6876516498904
 30
0.0
 11
276.00917928113307
 21
215.6876516498904
 31
0.0
  0
LINE
  5
33C1
  8
AM_0
 10
245.00915928113301
 20
279.56166264989031
 30
0.0
 11
271.00910928113302
 21
279.56166264989031
 31
0.0
  0
LINE
  5
33C2
  8
AM_0
 10
245.00915928113301
 20
293.62465164989032
 30
0.0
 11
271.00910928113302
 21
293.62465164989032
 31
0.0
  0
LINE
  5
33C3
  8
AM_0
 10
245.00915928113301
 20
191.6246486498901
 30
0.0
 11
268.08764928113288
 21
191.02032264989029
 31
0.0
  0
LINE
  5
33C4
  8
ﾁｭｳｼﾝｾﾝ
 10
393.72161928113297
 20
267.62465064989021
 30
0.0
 11
260.68688928113301
 21
267.62465064989021
 31
0.0
  0
LINE
  5
33C5
  8
AM_0
 10
216.50915928113301
 20
212.62467064989031
 30
0.0
 11
216.50915928113301
 21
209.12467064989031
 31
0.0
  0
LINE
  5
33C8
  8
AM_0
 10
191.5091592811329
 20
212.62467064989031
 30
0.0
 11
191.5091592811329
 21
209.12467064989031
 31
0.0
  0
LINE
  5
33C9
  8
ﾁｭｳｼﾝｾﾝ
 10
152.50915928113301
 20
228.9450418582573
 30
0.0
 11
152.50915928113301
 21
123.68328175625339
 31
0.0
  0
LINE
  5
33CA
  8
AM_0
 10
192.5091592811329
 20
185.32467064989029
 30
0.0
 11
215.50915928113309
 21
185.32467064989029
 31
0.0
  0
LINE
  5
33CB
  8
AM_0
 10
192.5091592811329
 20
187.9246706498902
 30
0.0
 11
215.50915928113309
 21
187.9246706498902
 31
0.0
  0
LINE
  5
33CC
  8
AM_0
 10
192.5091592811329
 20
191.4246706498902
 30
0.0
 11
215.50915928113309
 21
191.4246706498902
 31
0.0
  0
LINE
  5
33CD
  8
AM_0
 10
192.5091592811329
 20
195.7246706498903
 30
0.0
 11
215.50915928113309
 21
195.7246706498903
 31
0.0
  0
LINE
  5
33CE
  8
AM_0
 10
192.5091592811329
 20
199.2246706498903
 30
0.0
 11
215.50915928113309
 21
199.2246706498903
 31
0.0
  0
LINE
  5
33CF
  8
AM_0
 10
192.5091592811329
 20
204.4246706498902
 30
0.0
 11
215.50915928113309
 21
204.4246706498904
 31
0.0
  0
LINE
  5
33D0
  8
AM_0
 10
192.5091592811329
 20
208.12467064989031
 30
0.0
 11
215.50915928113309
 21
208.12467064989031
 31
0.0
  0
LINE
  5
33D1
  8
AM_0
 10
151.2251532811332
 20
139.70744583573659
 30
0.0
 11
151.2264631383662
 21
138.3293597480401
 31
0.0
  0
LINE
  5
33D2
  8
AM_0
 10
153.78417728113291
 20
139.70744583573659
 30
0.0
 11
153.7828674238998
 21
138.3293597480401
 31
0.0
  0
LINE
  5
33D3
  8
AM_0
 10
157.2102222811331
 20
133.40816193573659
 30
0.0
 11
157.21624928113309
 21
139.70488383573669
 31
0.0
  0
LINE
  5
33D4
  8
AM_0
 10
147.79910828113299
 20
133.40816193573659
 30
0.0
 11
147.79308128113291
 21
139.70488383573669
 31
0.0
  0
LINE
  5
33D5
  8
AM_0
 10
151.5091592811321
 20
227.62467064989031
 30
0.0
 11
151.50915928113301
 21
138.329569912398
 31
0.0
  0
LINE
  5
33D6
  8
AM_0
 10
153.50915928113301
 20
227.62467064989031
 30
0.0
 11
153.50915928113301
 21
138.33105676931709
 31
0.0
  0
CIRCLE
  5
33D7
  8
ｽﾝﾎ_ｳｾﾝ
 10
152.50915928113301
 20
127.62467064989021
 30
0.0
 40
1.5050001119999981
  0
ARC
  5
33D8
  8
AM_0
 10
152.5496052811331
 20
127.62473574989021
 30
0.0
 40
2.3091486599999991
 50
164.90527199999909
 51
16.267320000003402
  0
ARC
  5
33D9
  8
ｽﾝﾎ_ｳｾﾝ
 10
149.51365328113309
 20
129.00053073573659
 30
0.0
 40
1.5050001119999981
 50
34.081774240385151
 51
298.90870486052597
  0
ARC
  5
33DA
  8
AM_0
 10
149.5540992811332
 20
129.00059583573659
 30
0.0
 40
2.3091486599999991
 50
164.90527199999909
 51
290.87219614689587
  0
ARC
  5
33DB
  8
ｽﾝﾎ_ｳｾﾝ
 10
155.495677281133
 20
129.00053073573659
 30
0.0
 40
1.5050001119999981
 50
241.09129513947391
 51
145.9182257596149
  0
LINE
  5
33DC
  8
AM_0
 10
153.6665112811329
 20
132.02900064989009
 30
0.0
 11
154.7662812811331
 21
128.27158614989011
 31
0.0
  0
LINE
  5
33DD
  8
AM_0
 10
151.35502028113299
 20
132.03114894989011
 30
0.0
 11
150.32016128113301
 21
128.22610434989011
 31
0.0
  0
ARC
  5
33DE
  8
AM_0
 10
155.45523128113291
 20
129.00059583573659
 30
0.0
 40
2.3091486599999991
 50
249.1278038531041
 51
15.094728000000879
  0
LINE
  5
33DF
  8
AM_0
 10
154.22668628113291
 20
132.0348659498901
 30
0.0
 11
153.6665532811331
 21
132.0290237498902
 31
0.0
  0
LINE
  5
33E0
  8
AM_0
 10
150.7886292811329
 20
138.3290342498901
 30
0.0
 11
154.22070128113299
 21
138.33158574989011
 31
0.0
  0
LINE
  5
33E1
  8
AM_0
 10
150.79461428113291
 20
132.0323018498901
 30
0.0
 11
150.78858728113281
 21
138.32902374989021
 31
0.0
  0
LINE
  5
33E2
  8
AM_0
 10
152.51077628113291
 20
132.03005904989021
 30
0.0
 11
153.6665532811331
 21
132.02899014989009
 31
0.0
  0
LINE
  5
33E3
  8
AM_0
 10
151.07291776589111
 20
132.0317083511826
 30
0.0
 11
151.2192244332806
 21
131.53184493110751
 31
0.0
  0
LINE
  5
33E4
  8
AM_0
 10
150.67100528113281
 20
133.40486073573661
 30
0.0
 11
150.79370175785451
 21
132.9856626118268
 31
0.0
  0
LINE
  5
33E5
  8
AM_0
 10
151.35502028113299
 20
132.03112794989019
 30
0.0
 11
152.51077628113291
 21
132.03005904989021
 31
0.0
  0
LINE
  5
33E6
  8
AM_0
 10
151.35502028113299
 20
132.03112794989019
 30
0.0
 11
150.79465628113309
 21
132.03228084989021
 31
0.0
  0
LINE
  5
33E7
  8
AM_0
 10
153.93641279637501
 20
132.0317083511826
 30
0.0
 11
153.79010612898551
 21
131.53184493110751
 31
0.0
  0
LINE
  5
33E8
  8
AM_0
 10
148.3595142811331
 20
133.40698803573659
 30
0.0
 11
149.51527028113301
 21
133.40591913573661
 31
0.0
  0
LINE
  5
33E9
  8
AM_0
 10
148.3595142811331
 20
133.40698803573659
 30
0.0
 11
147.799150281133
 21
133.4081409357367
 31
0.0
  0
LINE
  5
33EA
  8
AM_0
 10
148.3595142811331
 20
133.40700903573671
 30
0.0
 11
147.324655281133
 21
129.60196443573659
 31
0.0
  0
LINE
  5
33EB
  8
AM_0
 10
149.51527028113301
 20
133.40591913573661
 30
0.0
 11
150.79330063447421
 21
133.40473717187609
 31
0.0
  0
LINE
  5
33EC
  8
AM_0
 10
154.22065928113309
 20
138.33158574989011
 30
0.0
 11
154.22664428113299
 21
132.03483444989021
 31
0.0
  0
LINE
  5
33ED
  8
AM_0
 10
156.64981628113301
 20
133.40698803573659
 30
0.0
 11
157.21018028113301
 21
133.4081409357367
 31
0.0
  0
LINE
  5
33EE
  8
AM_0
 10
155.4940602811331
 20
133.40591913573661
 30
0.0
 11
154.21602992779191
 21
133.40473717187609
 31
0.0
  0
LINE
  5
33EF
  8
AM_0
 10
154.33832528113311
 20
133.40486073573661
 30
0.0
 11
154.21562880441161
 21
132.9856626118268
 31
0.0
  0
LINE
  5
33F0
  8
AM_0
 10
156.64981628113301
 20
133.40698803573659
 30
0.0
 11
155.4940602811331
 21
133.40591913573661
 31
0.0
  0
LINE
  5
33F1
  8
AM_0
 10
156.64981628113301
 20
133.40700903573671
 30
0.0
 11
157.684675281133
 21
129.60196443573659
 31
0.0
  0
LINE
  5
3401
  8
AM_0
 10
157.21624928113309
 20
139.70488383573669
 30
0.0
 11
153.78417606854509
 21
139.7061700857366
 31
0.0
  0
LINE
  5
3402
  8
AM_0
 10
147.79308128113291
 20
139.70488383573669
 30
0.0
 11
151.22515449372099
 21
139.7061700857366
 31
0.0
  0
LINE
  5
3403
  8
AM_0
 10
148.50915928113301
 20
227.62467064989031
 30
0.0
 11
148.50915928113301
 21
139.70515220277611
 31
0.0
  0
LINE
  5
3404
  8
AM_0
 10
150.50915928113309
 20
227.62467064989031
 30
0.0
 11
150.50915928113301
 21
139.70590174972361
 31
0.0
  0
LINE
  5
3405
  8
AM_0
 10
154.71702602099381
 20
227.62467064989031
 30
0.0
 11
154.50017128113299
 21
139.70590174972361
 31
0.0
  0
LINE
  5
3406
  8
AM_0
 10
156.50017128113419
 20
227.62467064989031
 30
0.0
 11
156.50017128113299
 21
139.70515220277611
 31
0.0
  0
ARC
  5
3411
  8
AM_0
 10
192.5091592811329
 20
186.32467064989029
 30
0.0
 40
1.0
 50
180.0
 51
270.0
1001
GENIUS_GENODEF_13
1002
{
1000
HIER
1070
     0
1002
}
1002
{
1000
MANEDIT
1070
     0
1002
}
1002
{
1000
NOSEL
1070
     0
1002
}
1002
{
1000
BEHIND
1070
     0
1002
}
1002
{
1000
OTHER
1070
     0
1002
}
1002
{
1000
REACTOR
1002
}
1001
GENIUS_GENOBJ-N-FIL_13
1002
{
1000
OWNER
1000
GEN
1002
}
  0
ARC
  5
3412
  8
AM_0
 10
192.5091592811329
 20
186.9246706498902
 30
0.0
 40
1.0
 50
90.0
 51
180.0
1001
GENIUS_GENOBJ-N-FIL_13
1002
{
1000
OWNER
1000
GEN
1002
}
1001
GENIUS_GENODEF_13
1002
{
1000
HIER
1070
     0
1002
}
1002
{
1000
MANEDIT
1070
     0
1002
}
1002
{
1000
NOSEL
1070
     0
1002
}
1002
{
1000
BEHIND
1070
     0
1002
}
1002
{
1000
OTHER
1070
     0
1002
}
1002
{
1000
REACTOR
1002
}
  0
LINE
  5
3413
  8
AM_0
 10
191.50915928113301
 20
186.9246706498902
 30
0.0
 11
191.5091592811329
 21
186.32467064989029
 31
0.0
  0
LINE
  5
3414
  8
AM_0
 10
191.5091592811329
 20
203.4246706498902
 30
0.0
 11
191.5091592811329
 21
200.2246706498903
 31
0.0
  0
ARC
  5
3415
  8
AM_0
 10
192.5091592811329
 20
200.2246706498903
 30
0.0
 40
1.0
 50
180.0
 51
270.0
1001
GENIUS_GENOBJ-N-FIL_13
1002
{
1000
OWNER
1000
GEN
1002
}
1001
GENIUS_GENODEF_13
1002
{
1000
HIER
1070
     0
1002
}
1002
{
1000
MANEDIT
1070
     0
1002
}
1002
{
1000
NOSEL
1070
     0
1002
}
1002
{
1000
BEHIND
1070
     0
1002
}
1002
{
1000
OTHER
1070
     0
1002
}
1002
{
1000
REACTOR
1002
}
  0
ARC
  5
3416
  8
AM_0
 10
192.5091592811329
 20
194.7246706498903
 30
0.0
 40
1.0
 50
90.0
 51
180.0
1001
GENIUS_GENODEF_13
1002
{
1000
HIER
1070
     0
1002
}
1002
{
1000
MANEDIT
1070
     0
1002
}
1002
{
1000
NOSEL
1070
     0
1002
}
1002
{
1000
BEHIND
1070
     0
1002
}
1002
{
1000
OTHER
1070
     0
1002
}
1002
{
1000
REACTOR
1002
}
1001
GENIUS_GENOBJ-N-FIL_13
1002
{
1000
OWNER
1000
GEN
1002
}
  0
ARC
  5
3417
  8
AM_0
 10
192.5091592811329
 20
192.42467064989009
 30
0.0
 40
1.0
 50
180.0
 51
270.0
1001
GENIUS_GENOBJ-N-FIL_13
1002
{
1000
OWNER
1000
GEN
1002
}
1001
GENIUS_GENODEF_13
1002
{
1000
HIER
1070
     0
1002
}
1002
{
1000
MANEDIT
1070
     0
1002
}
1002
{
1000
NOSEL
1070
     0
1002
}
1002
{
1000
BEHIND
1070
     0
1002
}
1002
{
1000
OTHER
1070
     0
1002
}
1002
{
1000
REACTOR
1002
}
  0
LINE
  5
3418
  8
AM_0
 10
191.5091592811329
 20
194.7246706498903
 30
0.0
 11
191.5091592811329
 21
192.42467064989009
 31
0.0
  0
ARC
  5
3419
  8
AM_0
 10
192.5091592811329
 20
203.4246706498902
 30
0.0
 40
1.0
 50
90.0
 51
180.0
1001
GENIUS_GENODEF_13
1002
{
1000
HIER
1070
     0
1002
}
1002
{
1000
MANEDIT
1070
     0
1002
}
1002
{
1000
NOSEL
1070
     0
1002
}
1002
{
1000
BEHIND
1070
     0
1002
}
1002
{
1000
OTHER
1070
     0
1002
}
1002
{
1000
REACTOR
1002
}
1001
GENIUS_GENOBJ-N-FIL_13
1002
{
1000
OWNER
1000
GEN
1002
}
  0
ARC
  5
341A
  8
AM_0
 10
192.5091592811329
 20
209.12467064989031
 30
0.0
 40
1.0
 50
180.0
 51
270.0
1001
GENIUS_GENODEF_13
1002
{
1000
HIER
1070
     0
1002
}
1002
{
1000
MANEDIT
1070
     0
1002
}
1002
{
1000
NOSEL
1070
     0
1002
}
1002
{
1000
BEHIND
1070
     0
1002
}
1002
{
1000
OTHER
1070
     0
1002
}
1002
{
1000
REACTOR
1002
}
1001
GENIUS_GENOBJ-N-FIL_13
1002
{
1000
OWNER
1000
GEN
1002
}
  0
LINE
  5
341B
  8
AM_0
 10
226.50915928113301
 20
181.62467064989031
 30
0.0
 11
238.00915928113301
 21
181.62467064989031
 31
0.0
  0
LINE
  5
341C
  8
AM_0
 10
216.50915928113309
 20
186.9246706498902
 30
0.0
 11
216.50915928113309
 21
186.32467064989029
 31
0.0
  0
ARC
  5
341D
  8
AM_0
 10
215.50915928113309
 20
186.32467064989029
 30
0.0
 40
1.0
 50
270.0
 51
0.0
1001
GENIUS_GENOBJ-N-FIL_13
1002
{
1000
OWNER
1000
GEN
1002
}
1001
GENIUS_GENODEF_13
1002
{
1000
HIER
1070
     0
1002
}
1002
{
1000
MANEDIT
1070
     0
1002
}
1002
{
1000
NOSEL
1070
     0
1002
}
1002
{
1000
BEHIND
1070
     0
1002
}
1002
{
1000
OTHER
1070
     0
1002
}
1002
{
1000
REACTOR
1002
}
  0
ARC
  5
341E
  8
AM_0
 10
215.50915928113309
 20
186.9246706498902
 30
0.0
 40
1.0
 50
0.0
 51
90.0
1001
GENIUS_GENODEF_13
1002
{
1000
HIER
1070
     0
1002
}
1002
{
1000
MANEDIT
1070
     0
1002
}
1002
{
1000
NOSEL
1070
     0
1002
}
1002
{
1000
BEHIND
1070
     0
1002
}
1002
{
1000
OTHER
1070
     0
1002
}
1002
{
1000
REACTOR
1002
}
1001
GENIUS_GENOBJ-N-FIL_13
1002
{
1000
OWNER
1000
GEN
1002
}
  0
LINE
  5
341F
  8
AM_0
 10
216.50915928113301
 20
203.42467064989029
 30
0.0
 11
216.50915928113309
 21
200.2246706498903
 31
0.0
  0
ARC
  5
3420
  8
AM_0
 10
215.50915928113309
 20
200.2246706498903
 30
0.0
 40
1.0
 50
270.0
 51
0.0
1001
GENIUS_GENODEF_13
1002
{
1000
HIER
1070
     0
1002
}
1002
{
1000
MANEDIT
1070
     0
1002
}
1002
{
1000
NOSEL
1070
     0
1002
}
1002
{
1000
BEHIND
1070
     0
1002
}
1002
{
1000
OTHER
1070
     0
1002
}
1002
{
1000
REACTOR
1002
}
1001
GENIUS_GENOBJ-N-FIL_13
1002
{
1000
OWNER
1000
GEN
1002
}
  0
LINE
  5
3421
  8
AM_0
 10
216.50915928113309
 20
194.7246706498903
 30
0.0
 11
216.50915928113309
 21
192.42467064989009
 31
0.0
  0
ARC
  5
3422
  8
AM_0
 10
215.50915928113309
 20
194.7246706498903
 30
0.0
 40
1.0
 50
0.0
 51
90.0
1001
GENIUS_GENODEF_13
1002
{
1000
HIER
1070
     0
1002
}
1002
{
1000
MANEDIT
1070
     0
1002
}
1002
{
1000
NOSEL
1070
     0
1002
}
1002
{
1000
BEHIND
1070
     0
1002
}
1002
{
1000
OTHER
1070
     0
1002
}
1002
{
1000
REACTOR
1002
}
1001
GENIUS_GENOBJ-N-FIL_13
1002
{
1000
OWNER
1000
GEN
1002
}
  0
ARC
  5
3423
  8
AM_0
 10
215.50915928113309
 20
192.42467064989009
 30
0.0
 40
1.0
 50
270.0
 51
0.0
1001
GENIUS_GENODEF_13
1002
{
1000
HIER
1070
     0
1002
}
1002
{
1000
MANEDIT
1070
     0
1002
}
1002
{
1000
NOSEL
1070
     0
1002
}
1002
{
1000
BEHIND
1070
     0
1002
}
1002
{
1000
OTHER
1070
     0
1002
}
1002
{
1000
REACTOR
1002
}
1001
GENIUS_GENOBJ-N-FIL_13
1002
{
1000
OWNER
1000
GEN
1002
}
  0
ARC
  5
3424
  8
AM_0
 10
215.50915928113309
 20
203.42467064989029
 30
0.0
 40
1.0
 50
0.0
 51
90.0
1001
GENIUS_GENODEF_13
1002
{
1000
HIER
1070
     0
1002
}
1002
{
1000
MANEDIT
1070
     0
1002
}
1002
{
1000
NOSEL
1070
     0
1002
}
1002
{
1000
BEHIND
1070
     0
1002
}
1002
{
1000
OTHER
1070
     0
1002
}
1002
{
1000
REACTOR
1002
}
1001
GENIUS_GENOBJ-N-FIL_13
1002
{
1000
OWNER
1000
GEN
1002
}
  0
ARC
  5
3425
  8
AM_0
 10
215.50915928113309
 20
209.12467064989031
 30
0.0
 40
1.0
 50
270.0
 51
0.0
1001
GENIUS_GENODEF_13
1002
{
1000
HIER
1070
     0
1002
}
1002
{
1000
MANEDIT
1070
     0
1002
}
1002
{
1000
NOSEL
1070
     0
1002
}
1002
{
1000
BEHIND
1070
     0
1002
}
1002
{
1000
OTHER
1070
     0
1002
}
1002
{
1000
REACTOR
1002
}
1001
GENIUS_GENOBJ-N-FIL_13
1002
{
1000
OWNER
1000
GEN
1002
}
  0
LINE
  5
3426
  8
AM_0
 10
245.00915928113301
 20
184.62467064989011
 30
0.0
 11
238.00915928113301
 21
181.62467064989031
 31
0.0
  0
LINE
  5
3427
  8
AM_0
 10
192.5091592811329
 20
219.12467064989031
 30
0.0
 11
215.5091592811329
 21
219.12467064989031
 31
0.0
  0
LINE
  5
3428
  8
AM_0
 10
192.5091592811329
 20
213.62467064989031
 30
0.0
 11
215.5091592811329
 21
213.62467064989031
 31
0.0
  0
LINE
  5
3429
  8
AM_0
 10
192.5091592811329
 20
225.62467064989031
 30
0.0
 11
215.50915928113301
 21
225.62467064989031
 31
0.0
  0
LINE
  5
342A
  8
AM_0
 10
162.50915928113301
 20
272.62467064989028
 30
0.0
 11
162.50915928113301
 21
228.62467064989039
 31
0.0
  0
ARC
  5
342B
  8
AM_0
 10
161.50915928113309
 20
228.62467064989039
 30
0.0
 40
1.0
 50
270.0
 51
0.0
1001
GENIUS_GENOBJ-N-FIL_13
1002
{
1000
OWNER
1000
GEN
1002
}
1001
GENIUS_GENODEF_13
1002
{
1000
HIER
1070
     0
1002
}
1002
{
1000
MANEDIT
1070
     0
1002
}
1002
{
1000
NOSEL
1070
     0
1002
}
1002
{
1000
BEHIND
1070
     0
1002
}
1002
{
1000
OTHER
1070
     0
1002
}
1002
{
1000
REACTOR
1002
}
  0
LINE
  5
342C
  8
AM_0
 10
131.00915928113301
 20
219.62467064989031
 30
0.0
 11
131.00915928113301
 21
227.62467064989031
 31
0.0
  0
LINE
  5
342D
  8
AM_0
 10
135.00915928113301
 20
221.62467064989031
 30
0.0
 11
135.00915928113301
 21
227.62467064989031
 31
0.0
  0
ARC
  5
342E
  8
AM_0
 10
133.00915928113301
 20
221.62467064989031
 30
0.0
 40
2.0
 50
270.0
 51
0.0
1001
GENIUS_GENOBJ-N-FIL_13
1002
{
1000
OWNER
1000
GEN
1002
}
1001
GENIUS_GENODEF_13
1002
{
1000
HIER
1070
     0
1002
}
1002
{
1000
MANEDIT
1070
     0
1002
}
1002
{
1000
NOSEL
1070
     0
1002
}
1002
{
1000
BEHIND
1070
     0
1002
}
1002
{
1000
OTHER
1070
     0
1002
}
1002
{
1000
REACTOR
1002
}
  0
LINE
  5
3445
  8
AM_0
 10
191.5091592811329
 20
224.62467064989039
 30
0.0
 11
191.5091592811329
 21
220.12467064989031
 31
0.0
  0
ARC
  5
3446
  8
AM_0
 10
192.5091592811329
 20
212.62467064989031
 30
0.0
 40
1.0
 50
90.0
 51
180.0
1001
GENIUS_GENODEF_13
1002
{
1000
HIER
1070
     0
1002
}
1002
{
1000
MANEDIT
1070
     0
1002
}
1002
{
1000
NOSEL
1070
     0
1002
}
1002
{
1000
BEHIND
1070
     0
1002
}
1002
{
1000
OTHER
1070
     0
1002
}
1002
{
1000
REACTOR
1002
}
1001
GENIUS_GENOBJ-N-FIL_13
1002
{
1000
OWNER
1000
GEN
1002
}
  0
ARC
  5
3447
  8
AM_0
 10
192.5091592811329
 20
220.12467064989031
 30
0.0
 40
1.0
 50
180.0
 51
270.0
1001
GENIUS_GENODEF_13
1002
{
1000
HIER
1070
     0
1002
}
1002
{
1000
MANEDIT
1070
     0
1002
}
1002
{
1000
NOSEL
1070
     0
1002
}
1002
{
1000
BEHIND
1070
     0
1002
}
1002
{
1000
OTHER
1070
     0
1002
}
1002
{
1000
REACTOR
1002
}
1001
GENIUS_GENOBJ-N-FIL_13
1002
{
1000
OWNER
1000
GEN
1002
}
  0
ARC
  5
3448
  8
AM_0
 10
192.5091592811329
 20
224.62467064989039
 30
0.0
 40
1.0
 50
90.0
 51
180.0
1001
GENIUS_GENOBJ-N-FIL_13
1002
{
1000
OWNER
1000
GEN
1002
}
1001
GENIUS_GENODEF_13
1002
{
1000
HIER
1070
     0
1002
}
1002
{
1000
MANEDIT
1070
     0
1002
}
1002
{
1000
NOSEL
1070
     0
1002
}
1002
{
1000
BEHIND
1070
     0
1002
}
1002
{
1000
OTHER
1070
     0
1002
}
1002
{
1000
REACTOR
1002
}
  0
ARC
  5
3449
  8
AM_0
 10
161.50915928113309
 20
272.62467064989028
 30
0.0
 40
1.0
 50
0.0
 51
90.0
1001
GENIUS_GENODEF_13
1002
{
1000
HIER
1070
     0
1002
}
1002
{
1000
MANEDIT
1070
     0
1002
}
1002
{
1000
NOSEL
1070
     0
1002
}
1002
{
1000
BEHIND
1070
     0
1002
}
1002
{
1000
OTHER
1070
     0
1002
}
1002
{
1000
REACTOR
1002
}
1001
GENIUS_GENOBJ-N-FIL_13
1002
{
1000
OWNER
1000
GEN
1002
}
  0
LINE
  5
344A
  8
AM_0
 10
131.00915928113301
 20
281.62467064989028
 30
0.0
 11
131.00915928113301
 21
273.62467064989028
 31
0.0
  0
LINE
  5
344B
  8
AM_0
 10
135.00915928113301
 20
279.62467064989028
 30
0.0
 11
135.00915928113301
 21
273.62467064989028
 31
0.0
  0
ARC
  5
344C
  8
AM_0
 10
133.00915928113301
 20
279.62467064989028
 30
0.0
 40
2.0
 50
0.0
 51
90.0
1001
GENIUS_GENOBJ-N-FIL_13
1002
{
1000
OWNER
1000
GEN
1002
}
1001
GENIUS_GENODEF_13
1002
{
1000
HIER
1070
     0
1002
}
1002
{
1000
MANEDIT
1070
     0
1002
}
1002
{
1000
NOSEL
1070
     0
1002
}
1002
{
1000
BEHIND
1070
     0
1002
}
1002
{
1000
OTHER
1070
     0
1002
}
1002
{
1000
REACTOR
1002
}
  0
LINE
  5
344D
  8
AM_0
 10
216.50915928113301
 20
224.62467064989039
 30
0.0
 11
216.50915928113301
 21
220.12467064989031
 31
0.0
  0
ARC
  5
344E
  8
AM_0
 10
215.5091592811329
 20
212.62467064989031
 30
0.0
 40
1.0
 50
0.0
 51
90.0
1001
GENIUS_GENOBJ-N-FIL_13
1002
{
1000
OWNER
1000
GEN
1002
}
1001
GENIUS_GENODEF_13
1002
{
1000
HIER
1070
     0
1002
}
1002
{
1000
MANEDIT
1070
     0
1002
}
1002
{
1000
NOSEL
1070
     0
1002
}
1002
{
1000
BEHIND
1070
     0
1002
}
1002
{
1000
OTHER
1070
     0
1002
}
1002
{
1000
REACTOR
1002
}
  0
ARC
  5
344F
  8
AM_0
 10
215.5091592811329
 20
220.12467064989031
 30
0.0
 40
1.0
 50
270.0
 51
0.0
1001
GENIUS_GENODEF_13
1002
{
1000
HIER
1070
     0
1002
}
1002
{
1000
MANEDIT
1070
     0
1002
}
1002
{
1000
NOSEL
1070
     0
1002
}
1002
{
1000
BEHIND
1070
     0
1002
}
1002
{
1000
OTHER
1070
     0
1002
}
1002
{
1000
REACTOR
1002
}
1001
GENIUS_GENOBJ-N-FIL_13
1002
{
1000
OWNER
1000
GEN
1002
}
  0
ARC
  5
3450
  8
AM_0
 10
215.50915928113301
 20
224.62467064989039
 30
0.0
 40
1.0
 50
0.0
 51
90.0
1001
GENIUS_GENOBJ-N-FIL_13
1002
{
1000
OWNER
1000
GEN
1002
}
1001
GENIUS_GENODEF_13
1002
{
1000
HIER
1070
     0
1002
}
1002
{
1000
MANEDIT
1070
     0
1002
}
1002
{
1000
NOSEL
1070
     0
1002
}
1002
{
1000
BEHIND
1070
     0
1002
}
1002
{
1000
OTHER
1070
     0
1002
}
1002
{
1000
REACTOR
1002
}
  0
LINE
  5
3451
  8
AM_0
 10
347.0091292811328
 20
267.62465064989021
 30
0.0
 11
347.0091292811328
 21
197.62466364989021
 31
0.0
  0
LINE
  5
3452
  8
AM_0
 10
333.00914928113281
 20
187.40522664989021
 30
0.0
 11
333.00914928113281
 21
220.4703206498904
 31
0.0
  0
LINE
  5
3453
  8
AM_0
 10
276.00917928113307
 20
289.11897564989027
 30
0.0
 11
276.00917928113307
 21
178.6246616498903
 31
0.0
  0
LINE
  5
3454
  8
AM_0
 10
319.98296928113308
 20
189.03478764989021
 30
0.0
 11
333.00914928113281
 21
189.37588464989011
 31
0.0
  0
LINE
  5
3455
  8
AM_0
 10
283.00910928113308
 20
184.75457664989011
 30
0.0
 11
319.00910928113308
 21
184.75457664989011
 31
0.0
  0
LINE
  5
3456
  8
AM_0
 10
283.00910928113308
 20
174.1246616498903
 30
0.0
 11
319.00910928113308
 21
172.6246616498903
 31
0.0
  0
ARC
  5
3457
  8
AM_0
 10
268.00910928113302
 20
188.02136064989011
 30
0.0
 40
3.0
 50
0.0
 51
88.499997000000747
  0
LINE
  5
3458
  8
AM_0
 10
271.00910928113302
 20
196.40891964989029
 30
0.0
 11
271.00910928113302
 21
184.62466464989029
 31
0.0
  0
LINE
  5
3459
  8
AM_0
 10
278.00915928113301
 20
176.6246486498901
 30
0.0
 11
283.00910928113308
 21
176.6246486498901
 31
0.0
  0
ARC
  5
345A
  8
AM_0
 10
278.00915928113301
 20
178.6246616498903
 30
0.0
 40
2.00000007
 50
179.99999000000059
 51
270.0
  0
ARC
  5
345B
  8
AM_0
 10
273.00917928113307
 20
182.7545906498903
 30
0.0
 40
2.00000007
 50
90.00000299999769
 51
110.7662300000009
  0
LINE
  5
345C
  8
AM_0
 10
271.00910928113302
 20
184.75457664989011
 30
0.0
 11
276.00917928113307
 21
184.75457664989011
 31
0.0
  0
ARC
  5
345D
  8
AM_0
 10
269.00915928113301
 20
196.40891964989029
 30
0.0
 40
2.00000007
 50
0.0
 51
90.00000299999769
  0
LINE
  5
345E
  8
AM_0
 10
271.00910928113302
 20
198.40890564989019
 30
0.0
 11
276.00917928113307
 21
198.40890564989019
 31
0.0
  0
LINE
  5
345F
  8
AM_0
 10
319.00910928113308
 20
188.03512464989029
 30
0.0
 11
319.00910928113308
 21
172.6246616498903
 31
0.0
  0
ARC
  5
3460
  8
AM_0
 10
320.0091292811328
 20
188.03512464989029
 30
0.0
 40
1.0000000199999981
 50
91.500001000001546
 51
180.00000999999941
  0
LINE
  5
3461
  8
AM_0
 10
334.93934928113299
 20
185.40644664989011
 30
0.0
 11
343.009139281133
 21
185.12464764989011
 31
0.0
  0
ARC
  5
3462
  8
AM_0
 10
335.0091292811328
 20
187.40522664989021
 30
0.0
 40
2.00000007
 50
179.99999000000059
 51
268.00000999999872
  0
LINE
  5
3463
  8
AM_0
 10
343.00910928113308
 20
197.62466364989021
 30
0.0
 11
347.0091292811328
 21
197.62466364989021
 31
0.0
  0
ARC
  5
3464
  8
AM_0
 10
334.00910928113308
 20
203.34332364989029
 30
0.0
 40
3.0
 50
270.0
 51
0.0
  0
LINE
  5
3465
  8
AM_0
 10
320.0091292811328
 20
281.46951564989041
 30
0.0
 11
334.23989928113292
 21
281.46951564989041
 31
0.0
  0
LINE
  5
3466
  8
AM_0
 10
283.00910928113308
 20
296.42167764989023
 30
0.0
 11
313.32740928113287
 21
296.42167764989023
 31
0.0
  0
ARC
  5
3467
  8
AM_0
 10
269.00915928113301
 20
277.65269664989029
 30
0.0
 40
2.00000007
 50
270.0
 51
0.0
  0
LINE
  5
3468
  8
AM_0
 10
271.00910928113302
 20
275.6527106498902
 30
0.0
 11
276.00917928113307
 21
275.6527106498902
 31
0.0
  0
LINE
  5
3469
  8
AM_0
 10
271.00910928113302
 20
297.29179464989028
 30
0.0
 11
271.00910928113302
 21
277.65269664989029
 31
0.0
  0
ARC
  5
346A
  8
AM_0
 10
273.00917928113307
 20
293.11900464989031
 30
0.0
 40
2.00000007
 50
179.99999000000059
 51
270.0
  0
ARC
  5
346B
  8
AM_0
 10
274.00910928113302
 20
289.11897564989027
 30
0.0
 40
2.00000007
 50
0.0
 51
90.00000299999769
  0
LINE
  5
346C
  8
AM_0
 10
273.00917928113307
 20
291.11900664989031
 30
0.0
 11
274.00910928113302
 21
291.11900664989031
 31
0.0
  0
ARC
  5
346D
  8
AM_0
 10
320.0091292811328
 20
286.46949864989023
 30
0.0
 40
5.0000001000000003
 50
179.99999000000059
 51
270.0
  0
LINE
  5
346E
  8
AM_0
 10
348.00914928113281
 20
241.67534064989019
 30
0.0
 11
348.00914928113281
 21
293.65339764989022
 31
0.0
  0
LINE
  5
346F
  8
AM_0
 10
350.00909928113282
 20
280.12465164989032
 30
0.0
 11
350.00909928113282
 21
255.12466464989029
 31
0.0
  0
ARC
  5
3470
  8
AM_0
 10
336.00914928113281
 20
220.4703206498904
 30
0.0
 40
3.0
 50
90.00000299999769
 51
180.00000999999941
  0
ARC
  5
3471
  8
AM_0
 10
345.00914928113281
 20
241.67534064989019
 30
0.0
 40
3.0
 50
311.81031000000007
 51
0.0
  0
LINE
  5
3472
  8
AM_0
 10
348.00914928113281
 20
255.12466464989029
 30
0.0
 11
350.00909928113282
 21
255.12466464989029
 31
0.0
  0
LINE
  5
3473
  8
AM_0
 10
358.00910928113302
 20
282.62465064989021
 30
0.0
 11
390.00914928113281
 21
282.62465064989021
 31
0.0
  0
LINE
  5
3474
  8
AM_0
 10
350.00909928113282
 20
255.62465064989021
 30
0.0
 11
390.00914928113281
 21
255.62465064989021
 31
0.0
  0
LINE
  5
3475
  8
AM_0
 10
350.00909928113282
 20
279.6246506498901
 30
0.0
 11
390.00914928113281
 21
279.6246506498901
 31
0.0
  0
LINE
  5
3476
  8
AM_0
 10
347.0091292811328
 20
267.62465064989021
 30
0.0
 11
347.0091292811328
 21
279.42761364989019
 31
0.0
  0
LINE
  5
3477
  8
AM_0
 10
343.00910928113308
 20
279.42761364989019
 30
0.0
 11
347.0091292811328
 21
279.42761364989019
 31
0.0
  0
LINE
  5
3478
  8
AM_0
 10
348.00914928113281
 20
280.12465164989032
 30
0.0
 11
350.00909928113282
 21
280.12465164989032
 31
0.0
  0
LINE
  5
3479
  8
AM_0
 10
358.00910928113302
 20
282.62465064989021
 30
0.0
 11
358.00910928113302
 21
279.6246506498901
 31
0.0
  0
ARC
  5
347A
  8
AM_0
 10
345.00914928113281
 20
293.65339764989022
 30
0.0
 40
3.0
 50
0.0
 51
39.99999900000239
  0
LINE
  5
347B
  8
AM_0
 10
347.00909928113282
 20
295.93706064989038
 30
0.0
 11
347.30723928113281
 21
295.58177364989018
 31
0.0
  0
LINE
  5
347C
  8
AM_0
 10
390.00914928113281
 20
282.62465064989021
 30
0.0
 11
390.00914928113281
 21
255.62465064989021
 31
0.0
  0
LINE
  5
347D
  8
AM_0
 10
101.00915928113299
 20
313.22467064989041
 30
0.0
 11
226.50915928113309
 21
313.2246706498903
 31
0.0
  0
LINE
  5
347E
  8
AM_0
 10
98.337886958792922
 20
305.02798414114341
 30
0.0
 11
95.180431603473266
 21
302.22135715863692
 31
0.0
  0
ARC
  5
347F
  8
AM_0
 10
96.509159281133066
 20
300.72653852126979
 30
0.0
 40
2.0
 50
131.6335393365685
 51
180.0
1001
GENIUS_GENODEF_13
1002
{
1000
HIER
1070
     0
1002
}
1002
{
1000
MANEDIT
1070
     0
1002
}
1002
{
1000
NOSEL
1070
     0
1002
}
1002
{
1000
BEHIND
1070
     0
1002
}
1002
{
1000
OTHER
1070
     0
1002
}
1002
{
1000
REACTOR
1002
}
1001
GENIUS_GENOBJ-N-FIL_13
1002
{
1000
OWNER
1000
GEN
1002
}
  0
ARC
  5
3480
  8
AM_0
 10
97.009159281133066
 20
306.52280277851082
 30
0.0
 40
2.0
 50
311.63353933656862
 51
0.0
1001
GENIUS_GENOBJ-N-FIL_13
1002
{
1000
OWNER
1000
GEN
1002
}
1001
GENIUS_GENODEF_13
1002
{
1000
HIER
1070
     0
1002
}
1002
{
1000
MANEDIT
1070
     0
1002
}
1002
{
1000
NOSEL
1070
     0
1002
}
1002
{
1000
BEHIND
1070
     0
1002
}
1002
{
1000
OTHER
1070
     0
1002
}
1002
{
1000
REACTOR
1002
}
  0
ARC
  5
3481
  8
AM_0
 10
101.00915928113299
 20
311.22467064989041
 30
0.0
 40
2.0
 50
90.0
 51
180.0
1001
GENIUS_GENOBJ-N-FIL_13
1002
{
1000
OWNER
1000
GEN
1002
}
1001
GENIUS_GENODEF_13
1002
{
1000
HIER
1070
     0
1002
}
1002
{
1000
MANEDIT
1070
     0
1002
}
1002
{
1000
NOSEL
1070
     0
1002
}
1002
{
1000
BEHIND
1070
     0
1002
}
1002
{
1000
OTHER
1070
     0
1002
}
1002
{
1000
REACTOR
1002
}
  0
LINE
  5
3483
  8
AM_0
 10
245.00915928113301
 20
303.62465064989021
 30
0.0
 11
271.14002928113302
 21
304.3089176498903
 31
0.0
  0
LINE
  5
3484
  8
AM_0
 10
226.50915928113301
 20
313.62467064989028
 30
0.0
 11
238.00915928113301
 21
313.62467064989028
 31
0.0
  0
LINE
  5
3485
  8
AM_0
 10
238.00915928113301
 20
313.62467064989028
 30
0.0
 11
245.00915928113301
 21
310.62467064989028
 31
0.0
  0
LINE
  5
3487
  8
AM_0
 10
317.00912928113269
 20
310.28181864989023
 30
0.0
 11
330.46520928113318
 21
310.28181864989023
 31
0.0
  0
LINE
  5
3488
  8
AM_0
 10
315.00914928113281
 20
313.85832564989028
 30
0.0
 11
331.3382692811328
 21
321.9281486498902
 31
0.0
  0
LINE
  5
3489
  8
AM_0
 10
316.45730928113312
 20
307.35332064989018
 30
0.0
 11
333.49457928113293
 21
307.35332064989018
 31
0.0
  0
LINE
  5
348A
  8
AM_0
 10
320.33462928113289
 20
336.69556764989028
 30
0.0
 11
330.11384928113279
 21
337.0370576498903
 31
0.0
  0
LINE
  5
348B
  8
AM_0
 10
283.00916928113293
 20
318.62465064989021
 30
0.0
 11
312.0876592811328
 21
319.38609564989008
 31
0.0
  0
LINE
  5
348C
  8
AM_0
 10
278.00915928113301
 20
318.62465064989021
 30
0.0
 11
283.00910928113308
 21
318.62465064989021
 31
0.0
  0
LINE
  5
348D
  8
AM_0
 10
276.00917928113307
 20
316.62465264989032
 30
0.0
 11
276.00917928113307
 21
301.2918266498902
 31
0.0
  0
ARC
  5
348E
  8
AM_0
 10
274.00910928113302
 20
301.2918266498902
 30
0.0
 40
2.00000007
 50
270.0
 51
0.0
  0
ARC
  5
348F
  8
AM_0
 10
271.00910928113302
 20
309.3072086498903
 30
0.0
 40
5.0000001000000003
 50
271.50000000000267
 51
0.0
  0
LINE
  5
3490
  8
AM_0
 10
273.00917928113307
 20
299.29179564989028
 30
0.0
 11
274.00910928113302
 21
299.29179564989028
 31
0.0
  0
ARC
  5
3491
  8
AM_0
 10
278.00915928113301
 20
316.62465264989032
 30
0.0
 40
2.00000007
 50
90.00000299999769
 51
180.00000999999941
  0
ARC
  5
3492
  8
AM_0
 10
312.00917928113307
 20
322.38508764989018
 30
0.0
 40
3.0
 50
271.50000000000267
 51
0.0
  0
ARC
  5
3493
  8
AM_0
 10
317.00912928113269
 20
312.2818166498904
 30
0.0
 40
2.00000007
 50
179.99999000000059
 51
270.0
  0
ARC
  5
3494
  8
AM_0
 10
320.0091292811328
 20
331.69861764989031
 30
0.0
 40
5.0000001000000003
 50
91.999998000000545
 51
180.00000999999941
  0
LINE
  5
3496
  8
AM_0
 10
333.00914928113281
 20
309.57631164989027
 30
0.0
 11
333.00914928113281
 21
350.34403764989042
 31
0.0
  0
LINE
  5
3497
  8
AM_0
 10
347.0091292811328
 20
306.24928464989023
 30
0.0
 11
347.0091292811328
 21
337.62463764989019
 31
0.0
  0
LINE
  5
3498
  8
AM_0
 10
343.00910928113308
 20
306.24928464989023
 30
0.0
 11
347.0091292811328
 21
306.24928464989023
 31
0.0
  0
ARC
  5
3499
  8
AM_0
 10
330.46520928113318
 20
307.28181864989023
 30
0.0
 40
3.0
 50
22.483536000002641
 51
90.00000299999769
  0
ARC
  5
349A
  8
AM_0
 10
336.00914928113281
 20
309.57631164989027
 30
0.0
 40
3.0
 50
179.99999000000059
 51
270.0
  0
ARC
  5
349B
  8
AM_0
 10
341.42324928113288
 20
297.92692764989027
 30
0.0
 40
3.0
 50
39.99999900000239
 51
58.086796999996537
  0
LINE
  5
349C
  8
AM_0
 10
343.00910928113308
 20
337.62463764989019
 30
0.0
 11
347.0091292811328
 21
337.62463764989019
 31
0.0
  0
ARC
  5
349D
  8
AM_0
 10
330.00914928113281
 20
324.61763364989042
 30
0.0
 40
3.0
 50
296.29843000000238
 51
0.0
  0
ARC
  5
349E
  8
AM_0
 10
334.00910928113308
 20
334.40599764989042
 30
0.0
 40
3.0
 50
0.0
 51
90.00000299999769
  0
ARC
  5
349F
  8
AM_0
 10
330.00914928113281
 20
340.03525764989018
 30
0.0
 40
3.0
 50
271.9999999999971
 51
0.0
  0
LINE
  5
34A0
  8
AM_0
 10
334.93931928113301
 20
352.34284764989019
 30
0.0
 11
343.00910928113308
 21
352.62466764989023
 31
0.0
  0
ARC
  5
34A1
  8
AM_0
 10
335.0091292811328
 20
350.34403764989042
 30
0.0
 40
2.00000007
 50
91.999998000000545
 51
180.00000999999941
  0
ARC
  5
34A6
  8
AM_0
 10
569.82763065741824
 20
267.62465064989021
 30
0.0
 40
33.0
 50
0.0
 51
180.00000999999941
  0
ARC
  5
34A7
  8
AM_0
 10
569.82763065741824
 20
267.62465064989021
 30
0.0
 40
70.000001999999995
 50
164.54750999999871
 51
0.000010017912262
  0
ARC
  5
34A8
  8
AM_0
 10
569.82763065741824
 20
267.62465064989021
 30
0.0
 40
66.000003000000007
 50
168.12283999999951
 51
0.000010017912262
  0
ARC
  5
34A9
  8
AM_0
 10
569.82763065741824
 20
267.62465064989021
 30
0.0
 40
52.000007999999987
 50
5.2159077000001091
 51
42.244334000002823
  0
ARC
  5
34AA
  8
AM_0
 10
569.82763065741824
 20
267.62465064989021
 30
0.0
 40
52.000007999999987
 50
137.75567000000299
 51
174.78408999999999
  0
ARC
  5
34AB
  8
AM_0
 10
511.51619565741828
 20
292.36863864989027
 30
0.0
 40
11.000000399999999
 50
85.156818000000143
 51
228.8560599999972
  0
ARC
  5
34AC
  8
AM_0
 10
628.13909265741813
 20
292.36863864989027
 30
0.0
 40
11.000000399999999
 50
311.14394000000277
 51
94.843180000001595
  0
LINE
  5
34AD
  8
AM_0
 10
654.82763265741801
 20
297.62465064989021
 30
0.0
 11
652.55997765741824
 21
340.89406764989019
 31
0.0
  0
LINE
  5
34AE
  8
AM_0
 10
523.68224265741821
 20
310.23451464989017
 30
0.0
 11
542.90287065741825
 21
291.01390164989027
 31
0.0
  0
LINE
  5
34AF
  8
AM_0
 10
527.217763657418
 20
313.77006864989028
 30
0.0
 11
546.43840665741811
 21
294.54942564989022
 31
0.0
  0
LINE
  5
34B0
  8
AM_0
 10
615.97304565741786
 20
310.23454464989032
 30
0.0
 11
596.75242065741816
 21
291.01390164989027
 31
0.0
  0
LINE
  5
34B1
  8
AM_0
 10
612.43752465741818
 20
313.77006864989028
 30
0.0
 11
593.21688165741818
 21
294.54942564989022
 31
0.0
  0
LINE
  5
34B2
  8
AM_0
 10
484.82765865741783
 20
297.62465064989021
 30
0.0
 11
487.0952986574182
 21
340.89406764989019
 31
0.0
  0
LINE
  5
34B3
  8
ﾁｭｳｼﾝｾﾝ
 10
569.82763065741824
 20
357.12296092510172
 30
0.0
 11
569.82763065741824
 21
165.76136664989019
 31
0.0
  0
CIRCLE
  5
34B5
  8
AM_0
 10
628.13913765741825
 20
292.3685786498902
 30
0.0
 40
4.9796462999999971
  0
ARC
  5
34B6
  8
AM_0
 10
628.86153465741813
 20
245.62466364989029
 30
0.0
 40
3.0
 50
270.0
 51
339.56121999999863
  0
ARC
  5
34B7
  8
ﾁｭｳｼﾝｾﾝ1
 10
569.82763065741824
 20
267.62465064989021
 30
0.0
 40
100.000011
 50
304.41150999999923
 51
322.63991999999888
  0
LINE
  5
34B8
  8
AM_0
 10
633.88912365741805
 20
292.36860864989018
 30
0.0
 11
631.01413965741813
 21
297.34825464989018
 31
0.0
  0
LINE
  5
34B9
  8
AM_0
 10
633.88912365741805
 20
292.3685786498902
 30
0.0
 11
631.01413965741813
 21
287.38893264989031
 31
0.0
  0
LINE
  5
34BA
  8
AM_0
 10
632.62891665741824
 20
265.62466464989029
 30
0.0
 11
624.82764465741832
 21
265.62466464989029
 31
0.0
  0
LINE
  5
34BB
  8
AM_0
 10
632.62891665741824
 20
269.62466664989017
 30
0.0
 11
624.59989365741808
 21
269.62466664989017
 31
0.0
  0
LINE
  5
34BC
  8
AM_0
 10
613.37691765741806
 20
185.12464764989011
 30
0.0
 11
642.58658865741813
 21
185.12464764989011
 31
0.0
  0
LINE
  5
34BD
  8
ﾁｭｳｼﾝｾﾝ
 10
478.489558657418
 20
267.62465064989021
 30
0.0
 11
658.44121965741829
 21
267.62465064989021
 31
0.0
  0
CIRCLE
  5
34BE
  8
AM_0
 10
499.11696465741812
 20
196.91398464989021
 30
0.0
 40
6.0000002999999991
  0
ARC
  5
34BF
  8
ﾁｭｳｼﾝｾﾝ1
 10
569.82763065741824
 20
267.62465064989021
 30
0.0
 40
100.000011
 50
217.75738000000089
 51
232.6399200000026
  0
LINE
  5
34C0
  8
AM_0
 10
497.0686846574182
 20
185.12464764989011
 30
0.0
 11
526.2783406574182
 21
185.12464764989011
 31
0.0
  0
LINE
  5
34C1
  8
ﾁｭｳｼﾝｾﾝ1
 10
490.12826865741789
 20
187.92529164989031
 30
0.0
 11
508.82353665741817
 21
206.62054464989021
 31
0.0
  0
LINE
  5
34C2
  8
AM_0
 10
484.8276286574179
 20
237.62465064989021
 30
0.0
 11
487.08239865741791
 21
194.60130264989019
 31
0.0
  0
ARC
  5
34C3
  8
AM_0
 10
497.0686846574182
 20
195.12466464989029
 30
0.0
 40
10.000000200000001
 50
183.00000999999969
 51
270.0
  0
LINE
  5
34C7
  8
AM_0
 10
484.82765865741783
 20
237.62465064989021
 30
0.0
 11
484.82765865741783
 21
267.62465064989021
 31
0.0
  0
LINE
  5
34C8
  8
AM_0
 10
484.82765865741783
 20
297.62465064989021
 30
0.0
 11
484.82765865741783
 21
267.62465064989021
 31
0.0
  0
LINE
  5
34C9
  8
AM_0
 10
528.87642465741806
 20
189.62467764989029
 30
0.0
 11
610.77884865741817
 21
189.62467764989029
 31
0.0
  0
LINE
  5
34CA
  8
AM_0
 10
541.70035365741785
 20
172.71954264989029
 30
0.0
 11
597.95491965741837
 21
172.71954264989029
 31
0.0
  0
ARC
  5
34CB
  8
AM_0
 10
569.82763065741824
 20
247.62466464989029
 30
0.0
 40
71.000000999999983
 50
234.7757900000008
 51
238.4932699999986
  0
LINE
  5
34CC
  8
AM_0
 10
526.2783406574182
 20
185.12466264989021
 30
0.0
 11
528.87642465741806
 21
189.62466264989021
 31
0.0
  0
CIRCLE
  5
34CD
  8
AM_0
 10
541.70035365741785
 20
179.71954164989029
 30
0.0
 40
4.9796462999999971
  0
ARC
  5
34CE
  8
AM_0
 10
541.70035365741785
 20
179.71954164989029
 30
0.0
 40
7.0000007999999987
 50
164.9194399999995
 51
270.0
  0
LINE
  5
34CF
  8
AM_0
 10
547.450339657418
 20
179.71954164989029
 30
0.0
 11
544.57534065741834
 21
174.73989864989031
 31
0.0
  0
LINE
  5
34D0
  8
AM_0
 10
538.82533965741811
 20
174.73989864989031
 30
0.0
 11
535.95034065741834
 21
179.7195266498901
 31
0.0
  0
LINE
  5
34D1
  8
AM_0
 10
544.57534065741834
 20
174.73989864989031
 30
0.0
 11
538.82536965741804
 21
174.73989864989031
 31
0.0
  0
LINE
  5
34D2
  8
AM_0
 10
544.57534065741834
 20
184.69918764989009
 30
0.0
 11
538.82536965741804
 21
184.69918764989009
 31
0.0
  0
ARC
  5
34D3
  8
AM_0
 10
530.11012965741804
 20
182.82867264989019
 30
0.0
 40
5.0000001000000003
 50
344.9836399999993
 51
56.872543000003567
  0
LINE
  5
34D4
  8
AM_0
 10
535.95034065741834
 20
179.71954164989029
 30
0.0
 11
538.82533965741811
 21
184.69918764989009
 31
0.0
  0
LINE
  5
34D5
  8
AM_0
 10
547.45035465741796
 20
179.71954164989029
 30
0.0
 11
544.5753556574183
 21
184.69918764989009
 31
0.0
  0
CIRCLE
  5
34D6
  8
AM_0
 10
597.95491965741837
 20
179.71954164989029
 30
0.0
 40
4.9796462999999971
  0
ARC
  5
34D7
  8
AM_0
 10
597.95491965741837
 20
179.71954164989029
 30
0.0
 40
7.0000007999999987
 50
270.000020000002
 51
15.080558999999271
  0
LINE
  5
34D8
  8
AM_0
 10
600.82991865741803
 20
184.69918764989009
 30
0.0
 11
595.079932657418
 21
184.69918764989009
 31
0.0
  0
LINE
  5
34D9
  8
AM_0
 10
600.82991865741803
 20
174.73989864989031
 30
0.0
 11
595.079932657418
 21
174.73989864989031
 31
0.0
  0
LINE
  5
34DA
  8
AM_0
 10
595.07991765741815
 20
174.73989864989031
 30
0.0
 11
592.20491865741803
 21
179.7195266498901
 31
0.0
  0
LINE
  5
34DB
  8
AM_0
 10
592.20491865741803
 20
179.71954164989029
 30
0.0
 11
595.07991765741815
 21
184.69918764989009
 31
0.0
  0
LINE
  5
34DC
  8
AM_0
 10
603.70491765741815
 20
179.71954164989029
 30
0.0
 11
600.82991865741803
 21
174.73989864989031
 31
0.0
  0
ARC
  5
34DD
  8
AM_0
 10
609.54514365741795
 20
182.82867264989019
 30
0.0
 40
5.0000001000000003
 50
121.5067300000014
 51
195.0163500000007
  0
LINE
  5
34DE
  8
AM_0
 10
603.70491765741815
 20
179.71954164989029
 30
0.0
 11
600.829933657418
 21
184.69918764989009
 31
0.0
  0
ARC
  5
34DF
  8
AM_0
 10
569.82763065741824
 20
247.62466464989029
 30
0.0
 40
71.000000999999983
 50
301.50671999999992
 51
305.22421000000008
  0
LINE
  5
34E0
  8
AM_0
 10
613.37693265741825
 20
185.12464764989011
 30
0.0
 11
610.77884865741817
 21
189.62466264989021
 31
0.0
  0
ARC
  5
34E1
  8
AM_0
 10
569.82763065741824
 20
267.62468064989031
 30
0.0
 40
26.500002599999998
 50
90.00000299999769
 51
270.0
  0
ARC
  5
34E2
  8
AM_0
 10
569.82763065741824
 20
267.62468064989031
 30
0.0
 40
26.500002599999998
 50
270.0
 51
90.00000299999769
  0
ARC
  5
34E3
  8
AM_0
 10
569.82763065741824
 20
267.62465064989021
 30
0.0
 40
12.0000003
 50
109.4712200000001
 51
70.528788999999293
  0
LINE
  5
34E4
  8
ﾁｭｳｼﾝｾﾝ
 10
609.85822880417106
 20
247.62466464989029
 30
0.0
 11
529.79703251066519
 21
247.62466464989029
 31
0.0
  0
LINE
  5
34E5
  8
AM_0
 10
536.82762765741825
 20
267.62465064989021
 30
0.0
 11
536.82762765741825
 21
247.62466464989029
 31
0.0
  0
LINE
  5
34E6
  8
AM_0
 10
517.82762865741802
 20
262.62466464989029
 30
0.0
 11
517.82762865741802
 21
245.62466364989029
 31
0.0
  0
LINE
  5
34E7
  8
AM_0
 10
531.82762665741802
 20
242.62466364989021
 30
0.0
 11
510.79375365741828
 21
242.62466364989021
 31
0.0
  0
ARC
  5
34E8
  8
AM_0
 10
514.82762865741802
 20
245.62466364989029
 30
0.0
 40
3.0
 50
270.0
 51
0.0
  0
ARC
  5
34E9
  8
AM_0
 10
510.79375365741828
 20
245.62466364989029
 30
0.0
 40
3.0
 50
200.4387800000014
 51
270.0
  0
ARC
  5
34EA
  8
AM_0
 10
531.82762665741802
 20
247.62466464989029
 30
0.0
 40
5.0000001000000003
 50
270.0
 51
0.0
  0
ARC
  5
34EB
  8
AM_0
 10
514.82762865741802
 20
262.62466464989029
 30
0.0
 40
3.0
 50
0.0
 51
90.00000299999769
  0
LINE
  5
34EC
  8
AM_0
 10
507.02635665741798
 20
269.62466664989017
 30
0.0
 11
515.05537965741803
 21
269.62466664989017
 31
0.0
  0
ARC
  5
34ED
  8
AM_0
 10
507.02635665741798
 20
262.62466464989029
 30
0.0
 40
3.0
 50
90.00000299999769
 51
184.55207000000041
  0
LINE
  5
34EE
  8
AM_0
 10
507.02635665741798
 20
265.62466464989029
 30
0.0
 11
514.82762865741802
 21
265.62466464989029
 31
0.0
  0
ARC
  5
34EF
  8
AM_0
 10
507.02635665741798
 20
272.62466664989017
 30
0.0
 40
3.0
 50
175.4479299999995
 51
270.0
  0
ARC
  5
34F0
  8
AM_0
 10
515.05537965741803
 20
272.62466664989017
 30
0.0
 40
3.0
 50
270.0
 51
354.78408999999999
  0
CIRCLE
  5
34F1
  8
AM_0
 10
511.51619565741828
 20
292.36863864989027
 30
0.0
 40
4.9796462999999971
  0
LINE
  5
34F2
  8
AM_0
 10
517.26616665741824
 20
292.36866864989031
 30
0.0
 11
514.39119465741805
 21
297.34828464989027
 31
0.0
  0
LINE
  5
34F3
  8
AM_0
 10
517.26619665741805
 20
292.36866864989031
 30
0.0
 11
514.39119465741805
 21
287.38899564989032
 31
0.0
  0
LINE
  5
34F4
  8
AM_0
 10
508.64119665741788
 20
287.38902564989041
 30
0.0
 11
505.766194657418
 21
292.36863864989027
 31
0.0
  0
ARC
  5
34F5
  8
AM_0
 10
502.54237965741783
 20
277.45800864989042
 30
0.0
 40
2.00000007
 50
79.999998000000815
 51
171.68540999999939
  0
ARC
  5
34F6
  8
AM_0
 10
502.30486065741792
 20
281.8258376498901
 30
0.0
 40
3.0
 50
348.1228399999996
 51
48.856062999999523
  0
ARC
  5
34F7
  8
AM_0
 10
502.54237965741783
 20
277.45800864989042
 30
0.0
 40
2.00000007
 50
351.68540999999948
 51
79.999998000000815
  0
LINE
  5
34F8
  8
AM_0
 10
502.88969865741808
 20
279.42761364989019
 30
0.0
 11
502.88969865741808
 21
279.42761364989019
 31
0.0
  0
LINE
  5
34F9
  8
AM_0
 10
514.39119465741805
 20
287.38899564989032
 30
0.0
 11
508.64119665741788
 21
287.38899564989032
 31
0.0
  0
LINE
  5
34FA
  8
AM_0
 10
505.766194657418
 20
292.36863864989027
 30
0.0
 11
508.64119665741788
 21
297.34831464989031
 31
0.0
  0
LINE
  5
34FB
  8
AM_0
 10
514.39119465741805
 20
297.34828464989027
 30
0.0
 11
508.64119665741788
 21
297.34828464989027
 31
0.0
  0
ARC
  5
34FC
  8
AM_0
 10
548.55971565741834
 20
296.67076464989009
 30
0.0
 40
3.0
 50
225.0
 51
306.212060000002
  0
ARC
  5
34FD
  8
AM_0
 10
540.7815316574181
 20
288.89256564989017
 30
0.0
 40
3.0
 50
323.78793999999692
 51
45.000001000002641
  0
LINE
  5
34FE
  8
AM_0
 10
602.82763065741824
 20
267.62465064989021
 30
0.0
 11
602.82763065741824
 21
247.62466464989029
 31
0.0
  0
LINE
  5
34FF
  8
AM_0
 10
621.82764465741832
 20
262.62466464989029
 30
0.0
 11
621.82764465741832
 21
245.62466364989029
 31
0.0
  0
LINE
  5
3500
  8
AM_0
 10
607.82764665741786
 20
242.62466364989021
 30
0.0
 11
628.86153465741813
 21
242.62466364989021
 31
0.0
  0
ARC
  5
3501
  8
AM_0
 10
607.82764665741786
 20
247.62466464989029
 30
0.0
 40
5.0000001000000003
 50
179.99999000000059
 51
270.0
  0
ARC
  5
3502
  8
AM_0
 10
624.82764465741832
 20
245.62466364989029
 30
0.0
 40
3.0
 50
179.99999000000059
 51
270.0
  0
LINE
  5
3503
  8
AM_0
 10
565.82761365741817
 20
282.62465064989021
 30
0.0
 11
565.82761365741817
 21
275.62465164989032
 31
0.0
  0
LINE
  5
3504
  8
AM_0
 10
573.82761465741817
 20
282.62465064989021
 30
0.0
 11
573.82761465741817
 21
275.62465164989032
 31
0.0
  0
CIRCLE
  5
3505
  8
AM_0
 10
569.82763065741824
 20
267.62465064989021
 30
0.0
 40
3.0
  0
CIRCLE
  5
3506
  8
AM_0
 62
     2
 10
569.82763065741824
 20
267.62465064989021
 30
0.0
 40
4.000000199999997
  0
LINE
  5
3507
  8
AM_0
 10
565.82761365741817
 20
275.62465164989032
 30
0.0
 11
573.82761465741817
 21
275.62465164989032
 31
0.0
  0
LINE
  5
3508
  8
AM_0
 10
565.82761365741817
 20
282.62465064989021
 30
0.0
 11
573.82761465741817
 21
282.62465064989021
 31
0.0
  0
ARC
  5
3509
  8
AM_0
 10
598.87374165741835
 20
288.89256564989017
 30
0.0
 40
3.0
 50
135.0
 51
216.21206000000311
  0
ARC
  5
350A
  8
AM_0
 10
591.09555765741788
 20
296.67076464989009
 30
0.0
 40
3.0
 50
233.7879399999978
 51
315.0
  0
ARC
  5
350B
  8
AM_0
 10
624.82764465741832
 20
262.62466464989029
 30
0.0
 40
3.0
 50
90.00000299999769
 51
180.00000999999941
  0
ARC
  5
350C
  8
AM_0
 10
624.59989365741808
 20
272.62466664989017
 30
0.0
 40
3.0
 50
185.21590999999989
 51
270.0
  0
LINE
  5
350D
  8
AM_0
 10
625.26412365741828
 20
287.38896264989017
 30
0.0
 11
622.38912465741805
 21
292.3685786498902
 31
0.0
  0
LINE
  5
350E
  8
AM_0
 10
631.01413965741813
 20
287.38893264989031
 30
0.0
 11
625.26413865741824
 21
287.38893264989031
 31
0.0
  0
LINE
  5
350F
  8
AM_0
 10
622.38913965741813
 20
292.3685786498902
 30
0.0
 11
625.26413865741824
 21
297.34822164989021
 31
0.0
  0
LINE
  5
3510
  8
AM_0
 10
631.01413965741813
 20
297.34825464989018
 30
0.0
 11
625.26413865741824
 21
297.34825464989018
 31
0.0
  0
LINE
  5
3511
  8
AM_0
 10
654.82764765741831
 20
237.62465064989021
 30
0.0
 11
652.57288665741817
 21
194.60130264989019
 31
0.0
  0
ARC
  5
3514
  8
AM_0
 10
642.58658865741813
 20
195.12466464989029
 30
0.0
 40
10.000000200000001
 50
270.0
 51
356.99999999999949
  0
LINE
  5
3515
  8
ﾁｭｳｼﾝｾﾝ1
 10
632.46952365741822
 20
204.98277264989011
 30
0.0
 11
649.52700165741805
 21
187.92529164989031
 31
0.0
  0
CIRCLE
  5
3516
  8
AM_0
 10
640.53830865741816
 20
196.91398464989021
 30
0.0
 40
6.0000002999999991
  0
LINE
  5
3517
  8
AM_0
 10
654.82763265741801
 20
237.62465064989021
 30
0.0
 11
654.82763265741801
 21
267.62465064989021
 31
0.0
  0
ARC
  5
3518
  8
AM_0
 10
569.82763065741824
 20
267.62465064989021
 30
0.0
 40
70.000001999999995
 50
0.0
 51
15.45248699999985
  0
ARC
  5
3519
  8
AM_0
 10
569.82763065741824
 20
267.62465064989021
 30
0.0
 40
66.000003000000007
 50
0.0
 51
11.877162000000441
  0
LINE
  5
351A
  8
AM_0
 10
654.82763265741801
 20
297.62465064989021
 30
0.0
 11
654.82763265741801
 21
267.62465064989021
 31
0.0
  0
ARC
  5
351B
  8
AM_0
 10
632.62891665741824
 20
262.62466464989029
 30
0.0
 40
3.0
 50
355.44792999999947
 51
90.00000299999769
  0
ARC
  5
351C
  8
AM_0
 10
632.62891665741824
 20
272.62466664989017
 30
0.0
 40
3.0
 50
270.0
 51
4.5520713999997291
  0
ARC
  5
351D
  8
AM_0
 10
637.35042765741832
 20
281.8258376498901
 30
0.0
 40
3.0
 50
131.1439400000028
 51
191.8771600000004
  0
ARC
  5
351E
  8
AM_0
 10
637.11289365741811
 20
277.45800864989042
 30
0.0
 40
2.00000007
 50
8.3145874000007272
 51
99.999999999998593
  0
ARC
  5
351F
  8
AM_0
 10
637.11289365741811
 20
277.45800864989042
 30
0.0
 40
2.00000007
 50
99.999999999998593
 51
188.31459000000061
  0
LINE
  5
3520
  8
AM_0
 10
636.76560465741818
 20
279.42761364989019
 30
0.0
 11
636.76560465741818
 21
279.42761364989019
 31
0.0
  0
ARC
  5
3521
  8
ﾁｭｳｼﾝｾﾝ1
 10
569.82763065741824
 20
267.62465064989021
 30
0.0
 40
100.000011
 50
37.757374999997211
 51
52.639915999998472
  0
LINE
  5
3522
  8
AM_0
 10
599.82764565741786
 20
352.62466764989023
 30
0.0
 11
643.09705665741808
 21
350.35702764989031
 31
0.0
  0
LINE
  5
3523
  8
ﾁｭｳｼﾝｾﾝ1
 10
649.64475465741805
 20
347.44177764989018
 30
0.0
 11
630.79137465741815
 21
328.58839764989023
 31
0.0
  0
CIRCLE
  5
3525
  8
AM_0
 10
499.11696465741812
 20
338.33533764989028
 30
0.0
 40
6.0000002999999991
  0
ARC
  5
3526
  8
ﾁｭｳｼﾝｾﾝ1
 10
569.82763065741824
 20
267.62465064989021
 30
0.0
 40
100.000011
 50
123.1702499999994
 51
142.63991999999899
  0
LINE
  5
3527
  8
AM_0
 10
539.82764265741821
 20
352.62466764989023
 30
0.0
 11
496.5582166574182
 21
350.35699764989022
 31
0.0
  0
LINE
  5
3528
  8
ﾁｭｳｼﾝｾﾝ1
 10
490.010518657418
 20
347.44174764989032
 30
0.0
 11
508.8332116574183
 21
328.61908764989028
 31
0.0
  0
ARC
  5
3529
  8
AM_0
 10
497.0815936574179
 20
340.3707176498902
 30
0.0
 40
10.000000200000001
 50
92.999999000001623
 51
176.9999900000002
  0
ARC
  5
352B
  8
AM_0
 10
564.82762965741802
 20
330.42592764989018
 30
0.0
 40
3.0
 50
0.0
 51
94.552071000002115
  0
ARC
  5
352C
  8
AM_0
 10
569.82763065741824
 20
267.62465064989021
 30
0.0
 40
70.000001999999995
 50
30.534626999999471
 51
149.4653700000006
  0
ARC
  5
352D
  8
AM_0
 10
569.82763065741824
 20
267.62465064989021
 30
0.0
 40
66.000003000000007
 50
34.109953999997551
 51
145.89004000000139
  0
LINE
  5
352E
  8
AM_0
 10
539.82762765741825
 20
352.62466764989023
 30
0.0
 11
569.82763065741824
 21
352.62466764989023
 31
0.0
  0
ARC
  5
352F
  8
AM_0
 10
515.29656165741835
 20
308.24928564989023
 30
0.0
 40
2.00000007
 50
235.00000000000259
 51
323.31459000000092
  0
ARC
  5
3530
  8
AM_0
 10
512.69820165741805
 20
306.3186836498902
 30
0.0
 40
3.0
 50
265.15681999999839
 51
325.89004999999969
  0
ARC
  5
3531
  8
AM_0
 10
515.29656165741835
 20
308.24928564989023
 30
0.0
 40
2.00000007
 50
143.31457999999751
 51
235.00000999999719
  0
LINE
  5
3532
  8
AM_0
 10
514.14940365741825
 20
306.61097964989023
 30
0.0
 11
514.14940365741825
 21
306.61097964989023
 31
0.0
  0
ARC
  5
3533
  8
AM_0
 10
521.56090365741795
 20
308.11320864989023
 30
0.0
 40
3.0
 50
45.000001000002641
 51
140.00838999999721
  0
ARC
  5
3534
  8
AM_0
 10
529.33907265741789
 20
315.89137464989022
 30
0.0
 40
3.0
 50
129.99160999999941
 51
225.0
  0
ARC
  5
3536
  8
AM_0
 10
569.82761555715285
 20
267.62468064989031
 30
0.0
 40
52.000007999999987
 50
95.215910999999622
 51
132.24432999999581
  0
ARC
  5
3538
  8
AM_0
 10
569.82763065741824
 20
267.62465064989021
 30
0.0
 40
52.000007999999987
 50
47.755664999999908
 51
84.784093999997509
  0
ARC
  5
3539
  8
AM_0
 10
564.82762965741802
 20
322.39692864989041
 30
0.0
 40
3.0
 50
275.21591000000001
 51
0.0
  0
ARC
  5
353A
  8
AM_0
 10
574.82764365741798
 20
322.39692864989041
 30
0.0
 40
3.0
 50
179.99999000000059
 51
264.78408999999988
  0
ARC
  5
353B
  8
AM_0
 10
574.82764365741798
 20
330.42592764989018
 30
0.0
 40
3.0
 50
85.44792699999806
 51
180.00000999999941
  0
LINE
  5
353C
  8
AM_0
 10
567.82762965741802
 20
330.42592764989018
 30
0.0
 11
567.82762965741802
 21
322.39692864989041
 31
0.0
  0
LINE
  5
353D
  8
AM_0
 10
571.82764365741775
 20
330.42592764989018
 30
0.0
 11
571.82764365741775
 21
322.39692864989041
 31
0.0
  0
ARC
  5
353E
  8
AM_0
 10
610.31620065741811
 20
315.89137464989022
 30
0.0
 40
3.0
 50
315.0
 51
50.008388000002853
  0
ARC
  5
353F
  8
AM_0
 10
624.35872965741805
 20
308.24928564989023
 30
0.0
 40
2.00000007
 50
304.99999999999739
 51
36.685413999998168
  0
ARC
  5
3540
  8
AM_0
 10
624.35872965741805
 20
308.24928564989023
 30
0.0
 40
2.00000007
 50
216.68542000000249
 51
304.99999999999739
  0
ARC
  5
3541
  8
AM_0
 10
626.95708665741813
 20
306.3186836498902
 30
0.0
 40
3.0
 50
214.10995999999861
 51
274.84318000000161
  0
LINE
  5
3542
  8
AM_0
 10
625.50588465741805
 20
306.61097964989023
 30
0.0
 11
625.50588465741805
 21
306.61097964989023
 31
0.0
  0
ARC
  5
3543
  8
AM_0
 10
618.09436965741816
 20
308.11320864989023
 30
0.0
 40
3.0
 50
39.991611000002862
 51
135.0
  0
LINE
  5
3544
  8
AM_0
 10
599.82763065741824
 20
352.62466764989023
 30
0.0
 11
569.82763065741824
 21
352.62466764989023
 31
0.0
  0
ARC
  5
3545
  8
AM_0
 10
642.5736946574184
 20
340.3707176498902
 30
0.0
 40
10.000000200000001
 50
3.0000001000004741
 51
86.999998999996933
  0
CIRCLE
  5
3546
  8
AM_0
 10
640.53830865741816
 20
338.33533764989028
 30
0.0
 40
6.0000002999999991
  0
POINT
  5
3547
  8
0
 10
52.763378528695732
 20
557.42531076133082
 30
0.0
1001
GENIUS_GENOLIS_13
1002
{
1000
ENT
1005
0
1005
337E
1005
3379
1002
}
1001
GENIUS_GENOENT_13
1002
{
1000
MYREF
1005
3547
1002
}
1002
{
1000
GRP
1005
0
1002
}
1001
GENIUS_GENOBJ-NBEHI-BHB_13
1002
{
1000
OWNER
1000
genbehi
1002
}
1001
GENIUS_GENBH_13
1002
{
1000
FGO
1005
0
1002
}
1001
GENIUS_GENODEF_13
1002
{
1000
HIER
1070
     1
1002
}
1002
{
1000
MANEDIT
1070
     1
1002
}
1002
{
1000
NOSEL
1070
     1
1002
}
1002
{
1000
BEHIND
1070
     0
1002
}
1002
{
1000
OTHER
1070
     1
1002
}
1002
{
1000
REACTOR
1002
}
  0
LINE
  5
36DA
  8
AM_0
 10
156.5001712811335
 20
182.02467064989011
 30
0.0
 11
226.50915928113301
 21
182.02467064989011
 31
0.0
  0
TEXT
  5
3A61
  8
AM_0
 10
471.06500557637492
 20
501.09847906712639
 30
0.0
 40
10.0
  1
VX01-060SF~VX01-200SF
  0
ENDSEC
  0
EOF
