  0
SECTION
  2
HEADER
  9
$ACADVER
  1
AC1009
  9
$INSBASE
 10
0.0
 20
0.0
 30
0.0
  9
$EXTMIN
 10
45.131505939147239
 20
113.3080623349813
 30
-0.0015258207003583
  9
$EXTMAX
 10
725.96885649998114
 20
591.99079314111054
 30
0.0000000349246037
  9
$LIMMIN
 10
0.0
 20
0.0
  9
$LIMMAX
 10
853.5
 20
555.00000000000011
  9
$ORTHOMODE
 70
     0
  9
$REGENMODE
 70
     1
  9
$FILLMODE
 70
     1
  9
$QTEXTMODE
 70
     0
  9
$MIRRTEXT
 70
     1
  9
$DRAGMODE
 70
     2
  9
$LTSCALE
 40
3.0
  9
$OSMODE
 70
   551
  9
$ATTMODE
 70
     1
  9
$TEXTSIZE
 40
2.5
  9
$TRACEWID
 40
1.0
  9
$TEXTSTYLE
  7
STANDARD
  9
$CLAYER
  8
AM_0
  9
$CELTYPE
  6
BYLAYER
  9
$CECOLOR
 62
   256
  9
$DIMSCALE
 40
1.0
  9
$DIMASZ
 40
2.5
  9
$DIMEXO
 40
1.0
  9
$DIMDLI
 40
8.0
  9
$DIMRND
 40
0.0
  9
$DIMDLE
 40
0.0
  9
$DIMEXE
 40
0.6
  9
$DIMTP
 40
0.1
  9
$DIMTM
 40
0.1
  9
$DIMTXT
 40
2.5
  9
$DIMCEN
 40
0.0
  9
$DIMTSZ
 40
0.0
  9
$DIMTOL
 70
     0
  9
$DIMLIM
 70
     0
  9
$DIMTIH
 70
     0
  9
$DIMTOH
 70
     0
  9
$DIMSE1
 70
     0
  9
$DIMSE2
 70
     0
  9
$DIMTAD
 70
     1
  9
$DIMZIN
 70
     8
  9
$DIMBLK
  1

  9
$DIMASO
 70
     1
  9
$DIMSHO
 70
     1
  9
$DIMPOST
  1

  9
$DIMAPOST
  1
"
  9
$DIMALT
 70
     0
  9
$DIMALTD
 70
     2
  9
$DIMALTF
 40
0.0393701
  9
$DIMLFAC
 40
1.0
  9
$DIMTOFL
 70
     1
  9
$DIMTVP
 40
0.0
  9
$DIMTIX
 70
     0
  9
$DIMSOXD
 70
     0
  9
$DIMSAH
 70
     0
  9
$DIMBLK1
  1

  9
$DIMBLK2
  1

  9
$DIMSTYLE
  2
AM_ISO
  9
$DIMCLRD
 70
   256
  9
$DIMCLRE
 70
   256
  9
$DIMCLRT
 70
     4
  9
$DIMTFAC
 40
0.71
  9
$DIMGAP
 40
0.8
  9
$LUNITS
 70
     2
  9
$LUPREC
 70
     2
  9
$SKETCHINC
 40
1.0
  9
$FILLETRAD
 40
15.0
  9
$AUNITS
 70
     0
  9
$AUPREC
 70
     0
  9
$MENU
  1
.
  9
$ELEVATION
 40
0.0
  9
$PELEVATION
 40
0.0
  9
$THICKNESS
 40
0.0
  9
$LIMCHECK
 70
     0
  9
$BLIPMODE
 70
     0
  9
$CHAMFERA
 40
6.0
  9
$CHAMFERB
 40
3.0
  9
$SKPOLY
 70
     0
  9
$TDCREATE
 40
2452065.6277114009
  9
$TDUPDATE
 40
2458541.586984931
  9
$TDINDWG
 40
0.2094388542
  9
$TDUSRTIMER
 40
0.2094386574
  9
$USRTIMER
 70
     1
  9
$ANGBASE
 50
0.0
  9
$ANGDIR
 70
     0
  9
$PDMODE
 70
     0
  9
$PDSIZE
 40
0.0
  9
$PLINEWID
 40
0.0
  9
$COORDS
 70
     1
  9
$SPLFRAME
 70
     0
  9
$SPLINETYPE
 70
     6
  9
$SPLINESEGS
 70
     8
  9
$ATTDIA
 70
     1
  9
$ATTREQ
 70
     1
  9
$HANDLING
 70
     1
  9
$HANDSEED
  5
39F3
  9
$SURFTAB1
 70
     6
  9
$SURFTAB2
 70
     6
  9
$SURFTYPE
 70
     6
  9
$SURFU
 70
     6
  9
$SURFV
 70
     6
  9
$UCSNAME
  2

  9
$UCSORG
 10
0.0
 20
0.0
 30
0.0
  9
$UCSXDIR
 10
1.0
 20
0.0
 30
0.0
  9
$UCSYDIR
 10
0.0
 20
1.0
 30
0.0
  9
$PUCSNAME
  2

  9
$PUCSORG
 10
0.0
 20
0.0
 30
0.0
  9
$PUCSXDIR
 10
1.0
 20
0.0
 30
0.0
  9
$PUCSYDIR
 10
0.0
 20
1.0
 30
0.0
  9
$USERI1
 70
     0
  9
$USERI2
 70
     0
  9
$USERI3
 70
     0
  9
$USERI4
 70
     0
  9
$USERI5
 70
     0
  9
$USERR1
 40
0.0
  9
$USERR2
 40
0.0
  9
$USERR3
 40
0.0
  9
$USERR4
 40
0.0
  9
$USERR5
 40
0.0
  9
$WORLDVIEW
 70
     1
  9
$SHADEDGE
 70
     3
  9
$SHADEDIF
 70
    70
  9
$TILEMODE
 70
     1
  9
$MAXACTVP
 70
    64
  9
$PLIMCHECK
 70
     0
  9
$PEXTMIN
 10
1.0000000000000000E+020
 20
1.0000000000000000E+020
 30
1.0000000000000000E+020
  9
$PEXTMAX
 10
-1.0000000000000000E+020
 20
-1.0000000000000000E+020
 30
-1.0000000000000000E+020
  9
$PLIMMIN
 10
0.0
 20
0.0
  9
$PLIMMAX
 10
420.0
 20
297.0
  9
$UNITMODE
 70
     0
  9
$VISRETAIN
 70
     1
  9
$PLINEGEN
 70
     0
  9
$PSLTSCALE
 70
     1
  0
ENDSEC
  0
SECTION
  2
TABLES
  0
TABLE
  2
VPORT
 70
     1
  0
VPORT
  2
*ACTIVE
 70
     0
 10
0.0
 20
0.0
 11
1.0
 21
1.0
 12
385.55018121956419
 22
352.64942773804592
 13
0.0
 23
0.0
 14
7.5
 24
7.5
 15
30.0
 25
30.0
 16
0.0
 26
0.0
 36
1.0
 17
0.0
 27
0.0
 37
0.0
 40
481.96888227619411
 41
1.7571592210767459
 42
50.0
 43
0.0
 44
0.0
 50
0.0
 51
0.0
 71
     0
 72
   100
 73
     1
 74
     3
 75
     0
 76
     0
 77
     0
 78
     0
  0
ENDTAB
  0
TABLE
  2
LTYPE
 70
    19
  0
LTYPE
  2
CONTINUOUS
 70
     0
  3
Solid line
 72
    65
 73
     0
 40
0.0
  0
LTYPE
  2
AM_ISO02W050
 70
     0
  3
__ __ __ __ __ __ __ __ __ __ __ __ __ __ __
 72
    65
 73
     2
 40
7.5
 49
6.0
 49
-1.5
  0
LTYPE
  2
AM_ISO02W050X2
 70
     0
  3
 _ _ _ _ _ _ _ _ _ _ _ _
 72
    65
 73
     2
 40
3.75
 49
3.0
 49
-0.75
  0
LTYPE
  2
GEN7
 70
     0
  3
____ . ____ . ____ . ____ . ____ . ____ . ____
 72
    65
 73
     4
 40
14.25
 49
9.75
 49
-1.5
 49
1.5
 49
-1.5
  0
LTYPE
  2
GEN7A
 70
     0
  3
__ . __ . __
 72
    65
 73
     4
 40
7.375
 49
4.75
 49
-0.875
 49
0.875
 49
-0.875
  0
LTYPE
  2
HIDDEN
 70
     0
  3
Hidden __ __ __ __ __ __ __ __ __ __ __ __ __ _
 72
    65
 73
     2
 40
0.375
 49
0.25
 49
-0.125
  0
LTYPE
  2
PHANTOM2
 70
     0
  3
Phantom (.5x) ___ _ _ ___ _ _ ___ _ _ ___ _ _
 72
    65
 73
     6
 40
1.25
 49
0.625
 49
-0.125
 49
0.125
 49
-0.125
 49
0.125
 49
-0.125
  0
LTYPE
  2
CENTER
 70
     0
  3
Center ____ _ ____ _ ____ _ ____ _ ____ _ ____
 72
    65
 73
     4
 40
2.0
 49
1.25
 49
-0.25
 49
0.25
 49
-0.25
  0
LTYPE
  2
AM_ISO08W050
 70
     0
  3
____ . ____ . ____ . ____ . ____ . ____ . ____
 72
    65
 73
     4
 40
18.0
 49
12.0
 49
-1.5
 49
3.0
 49
-1.5
  0
LTYPE
  2
AM_ISO09W050
 70
     0
  3
_____ . . _____ . . _____ . . ____ .. ____
 72
    65
 73
     6
 40
22.5
 49
12.0
 49
-1.5
 49
3.0
 49
-1.5
 49
3.0
 49
-1.5
  0
LTYPE
  2
AMCONSTR
 70
     0
  3
_______________________
 72
    65
 73
     2
 40
9999.0
 49
9999.0
 49
0.0
  0
LTYPE
  2
AM_ISO08W050X2
 70
     0
  3
__ . __ . __ . __ . __ . __
 72
    65
 73
     4
 40
9.0
 49
6.0
 49
-0.75
 49
1.5
 49
-0.75
  0
LTYPE
  2
AMZIGZAG
 70
     0
  3
/\/-/\/-/\/-/\/-/\/-/\/
 72
    65
 73
     2
 40
11.0001
 49
0.0001
 49
-11.0
  0
LTYPE
  2
CENTER2
 70
     0
  3
Center (.5x) ___ _ ___ _ ___ _ ___ _ ___ _ ___
 72
    65
 73
     4
 40
1.125
 49
0.75
 49
-0.125
 49
0.125
 49
-0.125
  0
LTYPE
  2
HIDDEN2
 70
     0
  3
Hidden (.5x) _ _ _ _ _ _ _ _ _ _ _ _ _ _ _ _ _
 72
    65
 73
     2
 40
0.1875
 49
0.125
 49
-0.0625
  0
LTYPE
  2
AMZIGZAG2
 70
     0
  3
/\/-/\/-/\/-/\/-/\/-/\/
 72
    65
 73
     2
 40
0.4401
 49
0.0001
 49
-0.4400000000000001
  0
LTYPE
  2
ACANSTGB
 70
     0
  3
__ . . __ . .
 72
    65
 73
     6
 40
0.35433070866
 49
0.15748031496
 49
-0.03937007874
 49
0.03937007874
 49
-0.03937007874
 49
0.03937007874
 49
-0.03937007874
  0
LTYPE
  2
ACANSTGL
 70
     0
  3
_ _ _ _ _
 72
    65
 73
     2
 40
0.11811023622
 49
0.07874015748
 49
-0.03937007874
  0
ENDTAB
  0
TABLE
  2
LAYER
 70
     8
  0
LAYER
  2
0
 70
     0
 62
     7
  6
CONTINUOUS
  0
LAYER
  2
AM_0
 70
     0
 62
     7
  6
CONTINUOUS
  0
LAYER
  2
DEFPOINTS
 70
     0
 62
     7
  6
CONTINUOUS
  0
LAYER
  2
ﾁｭｳｼﾝｾﾝ
 70
     0
 62
     1
  6
GEN7
  0
LAYER
  2
ﾁｭｳｼﾝｾﾝ1
 70
     0
 62
     1
  6
GEN7A
  0
LAYER
  2
AM_0N
 70
     0
 62
     7
  6
CONTINUOUS
  0
LAYER
  2
AM_3N
 70
     0
 62
     3
  6
AM_ISO02W050
  0
LAYER
  2
ｽﾝﾎ_ｳｾﾝ
 70
     0
 62
     2
  6
CONTINUOUS
  0
ENDTAB
  0
TABLE
  2
STYLE
 70
     5
  0
STYLE
  2
STANDARD
 70
     0
 40
0.0
 41
0.8299999999999999
 50
0.0
 71
     0
 42
2.5
  3
txt.shx
  4
bigfont.shx
  0
STYLE
  2
ANNOTATIVE
 70
     0
 40
0.0
 41
1.0
 50
0.0
 71
     0
 42
0.2
  3
txt
  4

  0
STYLE
  2

 70
     1
 40
0.0
 41
1.0
 50
0.0
 71
     0
 42
2.5
  3
genltshp.shx
  4

  0
STYLE
  2
ACANSTS
 70
     0
 40
0.0
 41
1.0
 50
0.0
 71
     0
 42
2.5
  3
romans.shx
  4
extfont.shx
  0
STYLE
  2
ACANSGDT
 70
     0
 40
0.0
 41
1.0
 50
0.0
 71
     0
 42
2.5
  3
amgdt.shx
  4

  0
ENDTAB
  0
TABLE
  2
VIEW
 70
     6
  0
VIEW
  2
AM_VIEW1
 70
     0
 40
277.50000000000011
 10
249.64779005524869
 20
416.24999999999989
 41
499.2955801104971
 11
0.0
 21
0.0
 31
1.0
 12
0.0
 22
0.0
 32
0.0
 42
50.0
 43
0.0
 44
0.0
 50
0.0
 71
     0
  0
VIEW
  2
AM_VIEW2
 70
     0
 40
277.50000000000011
 10
603.85220994475117
 20
416.24999999999989
 41
499.2955801104971
 11
0.0
 21
0.0
 31
1.0
 12
0.0
 22
0.0
 32
0.0
 42
50.0
 43
0.0
 44
0.0
 50
0.0
 71
     0
  0
VIEW
  2
AM_VIEW3
 70
     0
 40
277.50000000000011
 10
249.64779005524869
 20
138.75
 41
499.2955801104971
 11
0.0
 21
0.0
 31
1.0
 12
0.0
 22
0.0
 32
0.0
 42
50.0
 43
0.0
 44
0.0
 50
0.0
 71
     0
  0
VIEW
  2
AM_VIEW4
 70
     0
 40
277.50000000000011
 10
603.85220994475117
 20
138.75
 41
499.2955801104971
 11
0.0
 21
0.0
 31
1.0
 12
0.0
 22
0.0
 32
0.0
 42
50.0
 43
0.0
 44
0.0
 50
0.0
 71
     0
  0
VIEW
  2
AM_VIEW5
 70
     0
 40
277.50000000000011
 10
426.75
 20
277.50000000000011
 41
499.2955801104971
 11
0.0
 21
0.0
 31
1.0
 12
0.0
 22
0.0
 32
0.0
 42
50.0
 43
0.0
 44
0.0
 50
0.0
 71
     0
  0
VIEW
  2
AM_VIEW6
 70
     0
 40
554.99445000000014
 10
426.75
 20
277.5
 41
998.5811743093924
 11
0.0
 21
0.0
 31
1.0
 12
0.0
 22
0.0
 32
0.0
 42
50.0
 43
0.0
 44
0.0
 50
0.0
 71
     0
  0
ENDTAB
  0
TABLE
  2
UCS
 70
     0
  0
ENDTAB
  0
TABLE
  2
APPID
 70
    97
  0
APPID
  2
ACAD
 70
     0
  0
APPID
  2
ACADANNOTATIVE
 70
     0
  0
APPID
  2
MCAD_NO_VIS
 70
     0
  0
APPID
  2
ACAD_TEMP_GRAPHIC
 70
     0
  0
APPID
  2
ACATTRIBSERVICES
 70
     0
  0
APPID
  2
GENIUS_GENREC_14
 70
     0
  0
APPID
  2
GENIUS_GENOBJ-N-REC_13
 70
     0
  0
APPID
  2
GENIUS_GENODEF_13
 70
     0
  0
APPID
  2
GENIUS_GENOLIS_13
 70
     0
  0
APPID
  2
GENIUS_GENOBJ-N-TIT_13
 70
     0
  0
APPID
  2
GENIUS_GENOENT_13
 70
     0
  0
APPID
  2
GENIUS_GENTITLE_13
 70
     0
  0
APPID
  2
GENIUS_GENOREF_13
 70
     0
  0
APPID
  2
GENIUS_GENSCREG_15
 70
     0
  0
APPID
  2
GENIUS_GENOBJ-N-SDF_13
 70
     0
  0
APPID
  2
GENIUS_GENFIL_13
 70
     0
  0
APPID
  2
GENIUS_GENOBJ-N-CHA_13
 70
     0
  0
APPID
  2
GENIUS_GENDTOL_13
 70
     0
  0
APPID
  2
GENIUS_GENOBJ-N-FIL_13
 70
     0
  0
APPID
  2
AD_DRAW
 70
     0
  0
APPID
  2
DESIGNERASSEMBLIES
 70
     0
  0
APPID
  2
ASURF_PCURVE_APPNAME
 70
     0
  0
APPID
  2
GENIUS_GE3SECT_13
 70
     0
  0
APPID
  2
GENIUS_GENCFG_13
 70
     0
  0
APPID
  2
GENIUS_GE3CFG0_13
 70
     0
  0
APPID
  2
GENIUS_GENCFG0_13
 70
     0
  0
APPID
  2
GENIUS_GENCFG1_13
 70
     0
  0
APPID
  2
GENIUS_GENCFG2_13
 70
     0
  0
APPID
  2
GENIUS_GENCFG3_13
 70
     0
  0
APPID
  2
GENIUS_GENCFG4_13
 70
     0
  0
APPID
  2
GENIUS_GEVCFG0_13
 70
     0
  0
APPID
  2
GENIUS_GENHINW_13
 70
     0
  0
APPID
  2
GENIUS_FIRSTVISTXT_14
 70
     0
  0
APPID
  2
GENIUS_GENOBJ-N-LEADER_13
 70
     0
  0
APPID
  2
GEV_VCCNULL_SWITCH_OFF
 70
     0
  0
APPID
  2
GENIUS_GEFCFG0_13
 70
     0
  0
APPID
  2
GENIUS_GENZVEED_13
 70
     0
  0
APPID
  2
GENIUS_GENSCREG_13
 70
     0
  0
APPID
  2
GENIUS_DUMCFG0_13
 70
     0
  0
APPID
  2
GEVID936201362
 70
     0
  0
APPID
  2
GEVDC
 70
     0
  0
APPID
  2
GEVCON
 70
     0
  0
APPID
  2
VCC
 70
     0
  0
APPID
  2
GEVPT
 70
     0
  0
APPID
  2
GEVIT
 70
     0
  0
APPID
  2
GENBH
 70
     0
  0
APPID
  2
GEVMK
 70
     0
  0
APPID
  2
GENIUS_GENBH_13
 70
     0
  0
APPID
  2
GENIUS_GENOBJ-NBEHI-BHF_13
 70
     0
  0
APPID
  2
GENIUS_GENOBJ-NBEHI-BHB_13
 70
     0
  0
APPID
  2
GENIUS_GENOBJ-F-DESC_13
 70
     0
  0
APPID
  2
GENIUS_GEFDESC_14
 70
     0
  0
APPID
  2
GENIUS_GENOBJ-F-PART_13
 70
     0
  0
APPID
  2
GENIUS_GEFSTDP_13
 70
     0
  0
APPID
  2
GENIUS_GEFPARTINS_13
 70
     0
  0
APPID
  2
GENIUS_GENTRA_14
 70
     0
  0
APPID
  2
GENIUS_GENINF13_13
 70
     0
  0
APPID
  2
GENIUS_GENOBJ-N-INFOPT_13
 70
     0
  0
APPID
  2
GENIUS_GENOBJ-N-RSSYM_13
 70
     0
  0
APPID
  2
GENIUS_GENSYMENT_13
 70
     0
  0
APPID
  2
GENIUS_GENSCSYM_13
 70
     0
  0
APPID
  2
GENIUS_GEFINFNAM_13
 70
     0
  0
APPID
  2
GENIUS_GENOBJ-N-CEN_13
 70
     0
  0
APPID
  2
GENIUS_GENOBJ-N-CRS_13
 70
     0
  0
APPID
  2
GENIUS_GENOBJ-N-CRC_13
 70
     0
  0
APPID
  2
GENIUS_GENCRC_14
 70
     0
  0
APPID
  2
GEVID942827039
 70
     0
  0
APPID
  2
GEVID942827040
 70
     0
  0
APPID
  2
GEVID942827041
 70
     0
  0
APPID
  2
GENIUS_GENOBJ-F-SCPASSM_13
 70
     0
  0
APPID
  2
GENIUS_GENDIMSH_14
 70
     0
  0
APPID
  2
GEVID942827042
 70
     0
  0
APPID
  2
GEVID946020473
 70
     0
  0
APPID
  2
GEVID946020474
 70
     0
  0
APPID
  2
GEVID946020475
 70
     0
  0
APPID
  2
GENIUS_GENOBJ-N-HTC_13
 70
     0
  0
APPID
  2
GENIUS_GENHATCH_13
 70
     0
  0
APPID
  2
GEVID948854295
 70
     0
  0
APPID
  2
GEVID939402019
 70
     0
  0
APPID
  2
GEVID952919491
 70
     0
  0
APPID
  2
GEVID952919492
 70
     0
  0
APPID
  2
GENIUS_GEFWELD_13
 70
     0
  0
APPID
  2
GENIUS_GENOBJ-F-WELS_13
 70
     0
  0
APPID
  2
GEVID952919493
 70
     0
  0
APPID
  2
GENIUS_GENOBJ-N-RSBK_13
 70
     0
  0
APPID
  2
GENIUS_GENOBJ-N-LIB_13
 70
     0
  0
APPID
  2
GENIUS_GENSCALE_13
 70
     0
  0
APPID
  2
GEVID986376691
 70
     0
  0
APPID
  2
DCO15
 70
     0
  0
APPID
  2
ACADM_DIM_EDIT
 70
     0
  0
APPID
  2
AMDT_DM_ADJ
 70
     0
  0
APPID
  2
ACAD_DSTYLE_DIMJAG
 70
     0
  0
APPID
  2
ACAD_DSTYLE_DIMBREAK
 70
     0
  0
APPID
  2
ACAD_NAV_VCDISPLAY
 70
     0
  0
APPID
  2
ACADANNOPO
 70
     0
  0
APPID
  2
ACAD_EXEMPT_FROM_CAD_STANDARDS
 70
     0
  0
APPID
  2
ACAD_MLEADERVER
 70
     0
  0
ENDTAB
  0
TABLE
  2
DIMSTYLE
 70
     9
  0
DIMSTYLE
  2
STANDARD
 70
     0
  3

  4

  5

  6

  7

 40
1.0
 41
0.18
 42
0.0625
 43
0.38
 44
0.18
 45
0.0
 46
0.0
 47
0.0
 48
0.0
140
0.18
141
0.09
142
0.0
143
25.399999999999999
144
1.0
145
0.0
146
1.0
147
0.09
 71
     0
 72
     0
 73
     1
 74
     1
 75
     0
 76
     0
 77
     0
 78
     0
170
     0
171
     2
172
     0
173
     0
174
     0
175
     0
176
     0
177
     0
178
     0
  0
DIMSTYLE
  2
ANNOTATIVE
 70
     0
  3

  4

  5

  6

  7

 40
1.0
 41
0.18
 42
0.0625
 43
0.38
 44
0.18
 45
0.0
 46
0.0
 47
0.0
 48
0.0
140
0.18
141
0.09
142
0.0
143
25.399999999999999
144
1.0
145
0.0
146
1.0
147
0.09
 71
     0
 72
     0
 73
     1
 74
     1
 75
     0
 76
     0
 77
     0
 78
     0
170
     0
171
     2
172
     0
173
     0
174
     0
175
     0
176
     0
177
     0
178
     0
  0
DIMSTYLE
  2
AM_ISO
 70
     0
  3

  4
"
  5

  6

  7

 40
1.0
 41
2.5
 42
1.0
 43
8.0
 44
0.6
 45
0.0
 46
0.0
 47
0.1
 48
0.1
140
2.5
141
0.0
142
0.0
143
0.0393701
144
1.0
145
0.0
146
0.71
147
0.8
 71
     0
 72
     0
 73
     0
 74
     0
 75
     0
 76
     0
 77
     1
 78
     8
170
     0
171
     2
172
     1
173
     0
174
     0
175
     0
176
   256
177
   256
178
     4
  0
DIMSTYLE
  2
AM_ANSI
 70
     0
  3

  4
mm
  5

  6

  7

 40
1.0
 41
0.12
 42
0.05
 43
0.5
 44
0.1
 45
0.0
 46
0.0
 47
0.1
 48
0.1
140
0.12
141
0.0
142
0.0
143
25.399999999999999
144
1.0
145
0.0
146
0.71
147
0.06
 71
     0
 72
     0
 73
     1
 74
     1
 75
     0
 76
     0
 77
     0
 78
     7
170
     0
171
     2
172
     0
173
     0
174
     0
175
     0
176
   256
177
   256
178
     2
  0
DIMSTYLE
  2
AM_ANSI$3
 70
     0
  3

  4
mm
  5

  6

  7

 40
1.0
 41
0.12
 42
0.05
 43
0.5
 44
0.1
 45
0.0
 46
0.0
 47
0.1
 48
0.1
140
0.12
141
0.0
142
0.0
143
25.399999999999999
144
1.0
145
0.0
146
0.71
147
0.06
 71
     0
 72
     0
 73
     1
 74
     1
 75
     0
 76
     0
 77
     0
 78
     7
170
     0
171
     2
172
     0
173
     0
174
     0
175
     0
176
   256
177
   256
178
     2
  0
DIMSTYLE
  2
AM_ANSI$4
 70
     0
  3

  4
mm
  5

  6

  7

 40
1.0
 41
0.12
 42
0.05
 43
0.5
 44
0.1
 45
0.0
 46
0.0
 47
0.1
 48
0.1
140
0.12
141
0.0
142
0.0
143
25.399999999999999
144
1.0
145
0.0
146
0.71
147
0.06
 71
     0
 72
     0
 73
     1
 74
     1
 75
     0
 76
     0
 77
     0
 78
     7
170
     0
171
     2
172
     0
173
     0
174
     0
175
     0
176
   256
177
   256
178
     2
  0
DIMSTYLE
  2
AM_ANSI$7
 70
     0
  3

  4
mm
  5

  6

  7

 40
1.0
 41
0.12
 42
0.05
 43
0.5
 44
0.1
 45
0.0
 46
0.0
 47
0.1
 48
0.1
140
0.12
141
0.0
142
0.0
143
25.399999999999999
144
1.0
145
0.0
146
0.71
147
0.06
 71
     0
 72
     0
 73
     1
 74
     1
 75
     0
 76
     0
 77
     0
 78
     7
170
     0
171
     2
172
     0
173
     0
174
     0
175
     0
176
   256
177
   256
178
     2
  0
DIMSTYLE
  2
AM_ANSI$SF
 70
     0
  3

  4
mm
  5

  6

  7

 40
1.0
 41
0.12
 42
0.05
 43
0.5
 44
0.1
 45
0.0
 46
0.0
 47
0.1
 48
0.1
140
0.12
141
0.0
142
0.0
143
25.399999999999999
144
1.0
145
0.0
146
0.71
147
0.06
 71
     0
 72
     0
 73
     1
 74
     1
 75
     1
 76
     1
 77
     0
 78
     7
170
     0
171
     2
172
     0
173
     0
174
     0
175
     0
176
   256
177
   256
178
     2
  0
DIMSTYLE
  2
AM_ANSI$SH
 70
     0
  3

  4
mm
  5

  6
GENAXEH
  7

 40
1.0
 41
0.12
 42
0.05
 43
0.5
 44
0.1
 45
0.0
 46
0.0
 47
0.1
 48
0.1
140
0.12
141
0.0
142
0.0
143
25.399999999999999
144
1.0
145
0.0
146
0.71
147
0.06
 71
     0
 72
     0
 73
     1
 74
     1
 75
     1
 76
     1
 77
     0
 78
     7
170
     0
171
     2
172
     0
173
     1
174
     0
175
     0
176
   256
177
   256
178
     2
  0
ENDTAB
  0
ENDSEC
  0
SECTION
  2
BLOCKS
  0
BLOCK
  8
0
  2
$MODEL_SPACE
 70
     0
 10
0.0
 20
0.0
 30
0.0
  3
$MODEL_SPACE
  1

  0
ENDBLK
  5
388D
  8
0
  0
BLOCK
 67
     1
  8
0
  2
$PAPER_SPACE
 70
     0
 10
0.0
 20
0.0
 30
0.0
  3
$PAPER_SPACE
  1

  0
ENDBLK
  5
3889
 67
     1
  8
0
  0
BLOCK
  8
0
  2
*U2
 70
     1
 10
0.0
 20
0.0
 30
0.0
  3
*U2
  1

  0
TEXT
  5
36D5
  8
AM_0
 10
588.84940631922359
 20
93.687610684520209
 30
0.0
 40
12.0
  1
VX01-600SF
 41
0.8299999999999999
  0
ENDBLK
  5
36D7
  8
0
  0
BLOCK
  8
0
  2
GENAXEH
 70
     0
 10
0.0
 20
0.0
 30
0.0
  3
GENAXEH
  1

  0
LINE
  5
395A
  8
0
 10
-1.0
 20
0.0
 30
0.0
 11
1.0
 21
0.0
 31
0.0
  0
ENDBLK
  5
395C
  8
0
  0
BLOCK
  8
0
  2
_ACMFILLEDHALF
 70
     0
 10
0.0
 20
0.0
 30
0.0
  3
_ACMFILLEDHALF
  1

  0
TRACE
  5
396A
  8
AM_0
 62
     0
 10
-0.8
 20
0.0
 30
0.0
 11
-1.0
 21
0.166666666
 31
0.0
 12
0.0
 22
0.0
 32
0.0
 13
0.0
 23
0.0
 33
0.0
  0
LINE
  5
396B
  8
AM_0
 62
     0
 10
-1.0
 20
0.0
 30
0.0
 11
-0.8
 21
0.0
 31
0.0
  0
ENDBLK
  5
3969
  8
0
  0
ENDSEC
  0
SECTION
  2
ENTITIES
  0
LINE
  5
2847
  8
AM_0
 10
410.99792897171392
 20
503.46143280250311
 30
0.0
 11
442.99792897171392
 21
503.46143280250311
 31
0.0
  0
LINE
  5
2848
  8
AM_0
 10
410.99792897171392
 20
495.46143280250311
 30
0.0
 11
442.99792897171392
 21
495.46143280250311
 31
0.0
  0
LINE
  5
2849
  8
AM_0
 10
400.99795897171367
 20
485.461432802503
 30
0.0
 11
442.99792897171392
 21
485.461432802503
 31
0.0
  0
LINE
  5
284A
  8
AM_0
 10
400.99795897171367
 20
513.46143280250317
 30
0.0
 11
442.99792897171392
 21
513.46143280250317
 31
0.0
  0
LINE
  5
284B
  8
ﾁｭｳｼﾝｾﾝ
 10
45.198488241168349
 20
499.46143280250328
 30
0.0
 11
447.70495897171372
 21
499.46143280250311
 31
0.0
  0
POLYLINE
  5
2A12
  8
AM_0
 66
     1
 10
0.0
 20
0.0
 30
0.0
  0
VERTEX
  5
2A13
  8
AM_0
 10
383.9110189717137
 20
583.87442280250309
 30
0.0
 42
0.081985852
  0
VERTEX
  5
2A14
  8
AM_0
 10
361.79512897171372
 20
528.96274280250304
 30
0.0
 42
0.10914194
  0
VERTEX
  5
2A15
  8
AM_0
 10
361.79521897171372
 20
469.95973280250308
 30
0.0
 42
0.081985219
  0
VERTEX
  5
2A16
  8
AM_0
 10
383.9110189717137
 20
415.04843280250287
 30
0.0
  0
SEQEND
  5
2A17
  8
AM_0
  0
ARC
  5
2A18
  8
AM_0
 10
410.99792897171392
 20
499.46143280250311
 30
0.0
 40
3.9999962
 50
90.000003000000945
 51
270.0
  0
LINE
  5
2A19
  8
AM_0
 10
386.99795897171367
 20
409.24204280250319
 30
0.0
 11
386.99795897171367
 21
589.68082280250314
 31
0.0
  0
LINE
  5
2A1A
  8
AM_0
 10
396.9979589717139
 20
406.96143280250288
 30
0.0
 11
396.9979589717139
 21
591.96143280250328
 31
0.0
  0
LINE
  5
2A1B
  8
AM_0
 10
390.99795897171367
 20
428.96143280250311
 30
0.0
 11
390.99795897171367
 21
569.633732802503
 31
0.0
  0
LINE
  5
2A1C
  8
AM_0
 10
400.9979889717136
 20
584.46143280250317
 30
0.0
 11
400.9979889717136
 21
414.461432802503
 31
0.0
  0
LINE
  5
2A1D
  8
AM_0
 10
229.99792897171389
 20
446.90515280250321
 30
0.0
 11
229.99792897171389
 21
552.01773280250313
 31
0.0
  0
LINE
  5
2A1F
  8
AM_0
 10
269.49789897171388
 20
438.96143280250311
 30
0.0
 11
269.49789897171388
 21
559.96143280250305
 31
0.0
  0
LINE
  5
2A20
  8
AM_0
 10
278.4979589717139
 20
435.96143280250288
 30
0.0
 11
278.4979589717139
 21
562.96143280250328
 31
0.0
  0
LINE
  5
2A21
  8
AM_0
 10
314.99792897171392
 20
428.37128280250317
 30
0.0
 11
314.99792897171392
 21
570.55158280250305
 31
0.0
  0
LINE
  5
2A22
  8
AM_0
 10
304.9979589717139
 20
422.63257280250309
 30
0.0
 11
304.9979589717139
 21
576.29029280250313
 31
0.0
  0
LINE
  5
2A23
  8
AM_0
 10
321.9979589717139
 20
417.21048280250312
 30
0.0
 11
321.9979589717139
 21
581.71237280250307
 31
0.0
  0
LINE
  5
2A24
  8
AM_0
 10
410.99792897171392
 20
503.46143280250311
 30
0.0
 11
410.99792897171392
 21
495.46143280250311
 31
0.0
  0
LINE
  5
2A25
  8
AM_0
 10
321.9979589717139
 20
417.21048280250312
 30
0.0
 11
309.82345897171388
 21
417.63562280250312
 31
0.0
  0
LINE
  5
2A26
  8
AM_0
 10
304.9979589717139
 20
440.15293280250319
 30
0.0
 11
314.99792897171392
 21
440.15293280250319
 31
0.0
  0
ARC
  5
2A27
  8
AM_0
 10
309.99795897171367
 20
422.63257280250309
 30
0.0
 40
5.0
 50
180.00001000000091
 51
267.99999999999972
  0
LINE
  5
2A28
  8
AM_0
 10
232.9979289717138
 20
496.46143280250323
 30
0.0
 11
266.49789897171388
 21
496.46143280250323
 31
0.0
  0
LINE
  5
2A29
  8
AM_0
 10
209.9979289717138
 20
443.461432802503
 30
0.0
 11
266.62146897171402
 21
441.48407280250308
 31
0.0
  0
LINE
  5
2A2A
  8
AM_0
 10
209.9979289717138
 20
453.4611228025031
 30
0.0
 11
229.99792897171389
 21
453.4611228025031
 31
0.0
  0
ARC
  5
2A2B
  8
AM_0
 10
225.99792897171389
 20
446.90515280250321
 30
0.0
 40
4.0
 50
267.99999999999972
 51
0.0000006832462478
  0
ARC
  5
2A2C
  8
AM_0
 10
232.9979289717138
 20
493.461432802503
 30
0.0
 40
3.0
 50
90.000003000000945
 51
180.00001000000091
  0
LINE
  5
2A2D
  8
AM_0
 10
209.9979289717138
 20
467.52149280250319
 30
0.0
 11
229.99792897171389
 21
467.52149280250319
 31
0.0
  0
LINE
  5
2A2E
  8
AM_0
 10
278.4979589717139
 20
447.4214528025031
 30
0.0
 11
304.99792897171392
 21
447.4214528025031
 31
0.0
  0
LINE
  5
2A2F
  8
AM_0
 10
278.49798897171388
 20
435.96140280250307
 30
0.0
 11
302.10263897171387
 21
435.13712280250309
 31
0.0
  0
ARC
  5
2A30
  8
AM_0
 10
272.49789897171388
 20
438.96143280250311
 30
0.0
 40
3.0
 50
180.00001000000091
 51
270.0
  0
LINE
  5
2A31
  8
AM_0
 10
278.49798897171388
 20
435.96143280250288
 30
0.0
 11
272.49789897171388
 21
435.96143280250288
 31
0.0
  0
LINE
  5
2A32
  8
AM_0
 10
278.4979589717139
 20
447.4214528025031
 30
0.0
 11
269.49789897171388
 21
447.4214528025031
 31
0.0
  0
ARC
  5
2A33
  8
AM_0
 10
266.51678897171388
 20
438.48590280250312
 30
0.0
 40
3.0
 50
4.545488300001014
 51
87.999999999999659
  0
ARC
  5
2A34
  8
AM_0
 10
301.99795897171367
 20
432.13895280250313
 30
0.0
 40
3.0
 50
0.0
 51
87.999999999999659
  0
LINE
  5
2A35
  8
AM_0
 10
278.4979589717139
 20
462.31348280250307
 30
0.0
 11
304.99792897171392
 21
462.31348280250307
 31
0.0
  0
LINE
  5
2A36
  8
AM_0
 10
278.4979589717139
 20
462.31348280250307
 30
0.0
 11
269.49789897171388
 21
462.31348280250307
 31
0.0
  0
ARC
  5
2A37
  8
AM_0
 10
266.49789897171388
 20
493.461432802503
 30
0.0
 40
3.0
 50
0.0
 51
90.000003000000945
  0
LINE
  5
2A38
  8
AM_0
 10
381.94268897171372
 20
415.11716280250289
 30
0.0
 11
321.9979589717139
 21
417.21048280250312
 31
0.0
  0
LINE
  5
2A39
  8
AM_0
 10
388.92816897171372
 20
407.24323280250309
 30
0.0
 11
396.99792897171392
 21
406.96143280250288
 31
0.0
  0
ARC
  5
2A3A
  8
AM_0
 10
388.99798897171371
 20
409.24204280250319
 30
0.0
 40
2.0
 50
179.999989999999
 51
268.00000999999861
  0
ARC
  5
2A3B
  8
AM_0
 10
381.76815897171372
 20
410.12021280250309
 30
0.0
 40
5.0
 50
45.000000999999187
 51
87.999999999999659
  0
LINE
  5
2A3C
  8
AM_0
 10
385.30368897171371
 20
413.655732802503
 30
0.0
 11
386.99798897171371
 21
411.96146280250309
 31
0.0
  0
LINE
  5
2A3D
  8
AM_0
 10
396.9979589717139
 20
414.461432802503
 30
0.0
 11
400.9979889717136
 21
414.461432802503
 31
0.0
  0
ARC
  5
2A3F
  8
AM_0
 10
387.99795897171367
 20
429.28913280250322
 30
0.0
 40
3.0
 50
267.99999999999972
 51
0.0
  0
ARC
  5
2A40
  8
AM_0
 10
389.99795897171367
 20
448.33618280250317
 30
0.0
 40
3.0
 50
90.000003000000945
 51
180.00001000000091
  0
LINE
  5
2A41
  8
AM_0
 10
321.9979589717139
 20
581.71237280250307
 30
0.0
 11
309.82342897171389
 21
581.28723280250324
 31
0.0
  0
LINE
  5
2A42
  8
AM_0
 10
304.9979589717139
 20
558.76993280250315
 30
0.0
 11
314.99792897171392
 21
558.76993280250315
 31
0.0
  0
LINE
  5
2A43
  8
AM_0
 10
232.9979289717138
 20
502.46143280250288
 30
0.0
 11
266.49789897171388
 21
502.46143280250288
 31
0.0
  0
LINE
  5
2A44
  8
AM_0
 10
266.62146897171402
 20
557.43875280250313
 30
0.0
 11
209.9979289717138
 21
555.46143280250305
 31
0.0
  0
ARC
  5
2A45
  8
AM_0
 10
232.9979289717138
 20
505.46143280250311
 30
0.0
 40
3.0
 50
180.00001000000091
 51
270.0
  0
LINE
  5
2A46
  8
AM_0
 10
209.9979289717138
 20
531.40137280250315
 30
0.0
 11
229.99792897171389
 21
531.40137280250315
 31
0.0
  0
ARC
  5
2A47
  8
AM_0
 10
225.99792897171389
 20
552.01773280250313
 30
0.0
 40
4.0
 50
0.0
 51
91.999998000000545
  0
LINE
  5
2A48
  8
AM_0
 10
209.9979289717138
 20
545.46173280250298
 30
0.0
 11
229.99792897171389
 21
545.46173280250298
 31
0.0
  0
LINE
  5
2A49
  8
AM_0
 10
278.4979589717139
 20
536.60938280250298
 30
0.0
 11
304.99792897171392
 21
536.60938280250298
 31
0.0
  0
ARC
  5
2A4A
  8
AM_0
 10
266.49789897171388
 20
505.46143280250311
 30
0.0
 40
3.0
 50
270.0
 51
0.0
  0
LINE
  5
2A4B
  8
AM_0
 10
278.4979589717139
 20
536.60938280250298
 30
0.0
 11
269.49789897171388
 21
536.60938280250298
 31
0.0
  0
LINE
  5
2A4C
  8
AM_0
 10
278.4979589717139
 20
562.96143280250328
 30
0.0
 11
302.10266897171402
 21
563.78574280250325
 31
0.0
  0
LINE
  5
2A4D
  8
AM_0
 10
278.4979589717139
 20
551.50141280250318
 30
0.0
 11
304.99792897171392
 21
551.50141280250318
 31
0.0
  0
LINE
  5
2A4E
  8
AM_0
 10
278.4979589717139
 20
551.50141280250318
 30
0.0
 11
269.49789897171388
 21
551.50141280250318
 31
0.0
  0
ARC
  5
2A4F
  8
AM_0
 10
272.49789897171388
 20
559.96143280250305
 30
0.0
 40
3.0
 50
90.000003000000945
 51
180.00001000000091
  0
ARC
  5
2A50
  8
AM_0
 10
266.51678897171388
 20
560.43695280250301
 30
0.0
 40
3.0
 50
272.0000000000004
 51
355.45443000000142
  0
LINE
  5
2A51
  8
AM_0
 10
278.4979589717139
 20
562.96143280250328
 30
0.0
 11
272.49789897171388
 21
562.96143280250328
 31
0.0
  0
ARC
  5
2A52
  8
AM_0
 10
301.99795897171367
 20
566.78388280250329
 30
0.0
 40
3.0
 50
272.0000000000004
 51
0.0
  0
ARC
  5
2A53
  8
AM_0
 10
309.99795897171367
 20
576.29029280250313
 30
0.0
 40
5.0
 50
91.999998000000545
 51
180.00001000000091
  0
ARC
  5
2A55
  8
AM_0
 10
389.99795897171367
 20
550.58667280250324
 30
0.0
 40
3.0
 50
179.999989999999
 51
270.0
  0
ARC
  5
2A56
  8
AM_0
 10
387.99795897171367
 20
569.633732802503
 30
0.0
 40
3.0
 50
0.0
 51
91.999998000000545
  0
LINE
  5
2A57
  8
AM_0
 10
381.94265897171391
 20
583.80570280250333
 30
0.0
 11
321.9979589717139
 21
581.71237280250307
 31
0.0
  0
LINE
  5
2A58
  8
AM_0
 10
388.92819897171393
 20
591.67963280250285
 30
0.0
 11
396.9979589717139
 21
591.96143280250328
 31
0.0
  0
LINE
  5
2A59
  8
AM_0
 10
385.30371897171392
 20
585.26709280250293
 30
0.0
 11
386.99798897171371
 21
586.96140280250324
 31
0.0
  0
ARC
  5
2A5A
  8
AM_0
 10
381.76815897171372
 20
588.80265280250285
 30
0.0
 40
5.0
 50
272.0000000000004
 51
315.0
  0
ARC
  5
2A5B
  8
AM_0
 10
388.99798897171371
 20
589.68082280250314
 30
0.0
 40
2.0
 50
91.999998000000545
 51
180.00001000000091
  0
LINE
  5
2A5C
  8
AM_0
 10
396.9979589717139
 20
584.46143280250317
 30
0.0
 11
400.9979889717136
 21
584.46143280250317
 31
0.0
  0
LINE
  5
2A5D
  8
AM_0
 10
442.99792897171392
 20
513.46143280250317
 30
0.0
 11
442.99792897171392
 21
485.461432802503
 31
0.0
  0
LINE
  5
2FEA
  8
AM_0
 10
65.997928971713932
 20
565.06146730250305
 30
0.0
 11
191.4979289717138
 21
565.06146730250305
 31
0.0
  0
LINE
  5
2FEB
  8
AM_0
 10
125.4979289717138
 20
421.8090690722716
 30
0.0
 11
71.497928971713833
 21
421.80906907227131
 31
0.0
  0
LINE
  5
2FEC
  8
AM_0
 10
125.4979289717137
 20
418.40146807356479
 30
0.0
 11
71.497928971713833
 21
418.40146807356479
 31
0.0
  0
LINE
  5
2FED
  8
AM_0
 10
125.4979289717138
 20
439.20249432932411
 30
0.0
 11
99.997928971713847
 21
439.20249432932411
 31
0.0
  0
LINE
  5
2FEE
  8
AM_0
 10
63.997928971713932
 20
563.06146730250305
 30
0.0
 11
63.997928971713932
 21
435.86146730250277
 31
0.0
  0
LINE
  5
2FEF
  8
AM_0
 10
66.497928971713932
 20
565.06146730250305
 30
0.0
 11
66.497928971713833
 21
433.86146730250312
 31
0.0
  0
ARC
  5
2FF0
  8
AM_0
 10
998.68405278153296
 20
499.4614673025028
 30
0.0
 40
940.68612380981915
 50
176.76392470776139
 51
183.2360752922385
  0
LINE
  5
2FF1
  8
AM_0
 10
59.497928971713932
 20
552.56333517388225
 30
0.0
 11
59.497928971713819
 21
446.35959943112363
 31
0.0
  0
LINE
  5
2FF2
  8
AM_0
 10
99.997928971713847
 20
443.17067432303418
 30
0.0
 11
83.997928971713804
 21
443.17067432303418
 31
0.0
1001
GENIUS_GENOREF_13
1005
3024
  0
LINE
  5
2FF3
  8
AM_0N
 10
83.997928971713804
 20
439.61889003131512
 30
0.0
 11
99.997928971713847
 21
439.61889003131512
 31
0.0
1001
GENIUS_GENOREF_13
1005
0
  0
LINE
  5
2FF4
  8
AM_0
 10
95.997928971713947
 20
435.58793416831742
 30
0.0
 11
87.997928971713847
 21
435.58793416831742
 31
0.0
  0
LINE
  5
2FF5
  8
AM_3N
  6
AM_ISO02W050X2
 10
90.497928971713847
 20
437.44919402423028
 30
0.0
 11
91.99792897171379
 21
439.33660405278903
 31
0.0
1001
GENIUS_GENOREF_13
1005
0
  0
ARC
  5
2FF6
  8
AM_0N
 10
91.99792897171379
 20
442.21889003131508
 30
0.0
 40
5.0
 50
246.4528627629231
 51
293.54713723707698
1001
GENIUS_GENOREF_13
1005
0
  0
LINE
  5
2FF7
  8
AM_0
 10
69.497928971713833
 20
437.20249432932388
 30
0.0
 11
69.497928971713833
 21
420.4014680735649
 31
0.0
  0
ARC
  5
2FF8
  8
AM_0
 10
65.997928971713932
 20
435.86146730250277
 30
0.0
 40
2.0
 50
180.0
 51
270.0
1001
GENIUS_GENOBJ-N-FIL_13
1002
{
1000
OWNER
1000
GEN
1002
}
1001
GENIUS_GENODEF_13
1002
{
1000
HIER
1070
     0
1002
}
1002
{
1000
MANEDIT
1070
     0
1002
}
1002
{
1000
NOSEL
1070
     0
1002
}
1002
{
1000
BEHIND
1070
     0
1002
}
1002
{
1000
OTHER
1070
     0
1002
}
1002
{
1000
REACTOR
1002
}
  0
LINE
  5
2FF9
  8
AM_0
 10
87.997928971713847
 20
439.61889003131512
 30
0.0
 11
87.997928971713847
 21
430.31187136980822
 31
0.0
  0
LINE
  5
2FFA
  8
AM_0
 10
83.997928971713804
 20
443.17067432303418
 30
0.0
 11
83.997928971713804
 21
430.31187136980822
 31
0.0
  0
ARC
  5
2FFB
  8
AM_0
 10
71.497928971713833
 20
423.80906907227131
 30
0.0
 40
2.0
 50
180.0
 51
270.0
1001
GENIUS_GENODEF_13
1002
{
1000
HIER
1070
     0
1002
}
1002
{
1000
MANEDIT
1070
     0
1002
}
1002
{
1000
NOSEL
1070
     0
1002
}
1002
{
1000
BEHIND
1070
     0
1002
}
1002
{
1000
OTHER
1070
     0
1002
}
1002
{
1000
REACTOR
1002
}
1001
GENIUS_GENOBJ-N-FIL_13
1002
{
1000
OWNER
1000
GEN
1002
}
  0
ARC
  5
2FFC
  8
AM_0
 10
71.497928971713833
 20
420.4014680735649
 30
0.0
 40
2.0
 50
180.0
 51
270.0
1001
GENIUS_GENOBJ-N-FIL_13
1002
{
1000
OWNER
1000
GEN
1002
}
1001
GENIUS_GENODEF_13
1002
{
1000
HIER
1070
     0
1002
}
1002
{
1000
MANEDIT
1070
     0
1002
}
1002
{
1000
NOSEL
1070
     0
1002
}
1002
{
1000
BEHIND
1070
     0
1002
}
1002
{
1000
OTHER
1070
     0
1002
}
1002
{
1000
REACTOR
1002
}
  0
LINE
  5
2FFD
  8
AM_0
 10
65.997928971713932
 20
433.86146730250312
 30
0.0
 11
69.497928971713833
 21
433.861467302503
 31
0.0
  0
LINE
  5
2FFE
  8
AM_0
 10
87.997928971713847
 20
430.31187136980822
 30
0.0
 11
83.997928971713804
 21
430.31187136980822
 31
0.0
  0
LINE
  5
2FFF
  8
AM_0
 10
83.997928971713804
 20
439.20249432932411
 30
0.0
 11
71.497928971713833
 21
439.20249432932411
 31
0.0
  0
LINE
  5
3000
  8
AM_0
 10
63.326656649373739
 20
442.05815381124972
 30
0.0
 11
60.16920129405402
 21
444.86478079375598
 31
0.0
  0
ARC
  5
3001
  8
AM_0
 10
61.497928971713833
 20
446.35959943112363
 30
0.0
 40
2.0
 50
180.0
 51
228.3664606634303
1001
GENIUS_GENODEF_13
1002
{
1000
HIER
1070
     0
1002
}
1002
{
1000
MANEDIT
1070
     0
1002
}
1002
{
1000
NOSEL
1070
     0
1002
}
1002
{
1000
BEHIND
1070
     0
1002
}
1002
{
1000
OTHER
1070
     0
1002
}
1002
{
1000
REACTOR
1002
}
1001
GENIUS_GENOBJ-N-FIL_13
1002
{
1000
OWNER
1000
GEN
1002
}
  0
ARC
  5
3002
  8
AM_0
 10
61.997928971713932
 20
440.56333517388248
 30
0.0
 40
2.0
 50
0.0
 51
48.366460663430352
1001
GENIUS_GENOBJ-N-FIL_13
1002
{
1000
OWNER
1000
GEN
1002
}
1001
GENIUS_GENODEF_13
1002
{
1000
HIER
1070
     0
1002
}
1002
{
1000
MANEDIT
1070
     0
1002
}
1002
{
1000
NOSEL
1070
     0
1002
}
1002
{
1000
BEHIND
1070
     0
1002
}
1002
{
1000
OTHER
1070
     0
1002
}
1002
{
1000
REACTOR
1002
}
  0
ARC
  5
3003
  8
AM_0
 10
71.497928971713833
 20
437.20249432932388
 30
0.0
 40
2.0
 50
90.0
 51
180.0
1001
GENIUS_GENOBJ-N-FIL_13
1002
{
1000
OWNER
1000
GEN
1002
}
1001
GENIUS_GENODEF_13
1002
{
1000
HIER
1070
     0
1002
}
1002
{
1000
MANEDIT
1070
     0
1002
}
1002
{
1000
NOSEL
1070
     0
1002
}
1002
{
1000
BEHIND
1070
     0
1002
}
1002
{
1000
OTHER
1070
     0
1002
}
1002
{
1000
REACTOR
1002
}
  0
LINE
  5
3004
  8
AM_0N
 10
89.284382417013475
 20
438.63072262978591
 30
0.0
 11
89.197928971713793
 21
439.61889003131512
 31
0.0
1001
GENIUS_GENOREF_13
1005
0
  0
ARC
  5
3005
  8
AM_0N
 10
90.479816054723557
 20
438.7353095210832
 30
0.0
 40
1.1999999999999991
 50
184.99999999999969
 51
246.4528627629231
1001
GENIUS_GENOREF_13
1005
0
  0
LINE
  5
3006
  8
AM_0
 10
95.997928971713947
 20
439.61889003131512
 30
0.0
 11
95.997928971713947
 21
430.31187136980822
 31
0.0
  0
LINE
  5
3007
  8
AM_0
 10
99.997928971713847
 20
443.17067432303401
 30
0.0
 11
99.997928971713847
 21
430.31187136980822
 31
0.0
  0
LINE
  5
3008
  8
AM_0
 10
99.997928971713847
 20
430.31187136980822
 30
0.0
 11
95.997928971713947
 21
430.31187136980822
 31
0.0
  0
LINE
  5
3009
  8
AM_0N
 10
94.711475526414148
 20
438.63072262978591
 30
0.0
 11
94.797928971713844
 21
439.61889003131512
 31
0.0
1001
GENIUS_GENOREF_13
1005
0
  0
ARC
  5
300A
  8
AM_0N
 10
93.516041888704066
 20
438.7353095210832
 30
0.0
 40
1.1999999999999991
 50
293.54713723707698
 51
355.00000000000023
1001
GENIUS_GENOREF_13
1005
0
  0
LINE
  5
300B
  8
AM_3N
  6
AM_ISO02W050X2
 10
92.250428971713788
 20
439.0188900313151
 30
0.0
 11
91.745428971713835
 21
439.0188900313151
 31
0.0
1001
GENIUS_GENOREF_13
1005
0
  0
LINE
  5
300C
  8
AM_3N
  6
AM_ISO02W050X2
 10
92.250428971713788
 20
437.22526972636592
 30
0.0
 11
92.250428971713788
 21
439.0188900313151
 31
0.0
1001
GENIUS_GENOREF_13
1005
0
  0
LINE
  5
300D
  8
AM_3N
  6
AM_ISO02W050X2
 10
91.745428971713835
 20
437.22526972636592
 30
0.0
 11
91.745428971713835
 21
439.0188900313151
 31
0.0
1001
GENIUS_GENOREF_13
1005
0
  0
LINE
  5
300E
  8
AM_3N
  6
AM_ISO02W050X2
 10
93.497928971713847
 20
437.44919402423028
 30
0.0
 11
91.99792897171379
 21
439.33660405278903
 31
0.0
1001
GENIUS_GENOREF_13
1005
0
  0
LINE
  5
300F
  8
AM_0
 10
48.497928971713932
 20
516.46146730250302
 30
0.0
 11
48.497928971713833
 21
482.46146730250302
 31
0.0
  0
ARC
  5
3010
  8
AM_0
 10
51.497928971713833
 20
482.46146730250302
 30
0.0
 40
3.0
 50
180.0
 51
270.0
1001
GENIUS_GENODEF_13
1002
{
1000
HIER
1070
     0
1002
}
1002
{
1000
MANEDIT
1070
     0
1002
}
1002
{
1000
NOSEL
1070
     0
1002
}
1002
{
1000
BEHIND
1070
     0
1002
}
1002
{
1000
OTHER
1070
     0
1002
}
1002
{
1000
REACTOR
1002
}
1001
GENIUS_GENOBJ-N-FIL_13
1002
{
1000
OWNER
1000
GEN
1002
}
  0
LINE
  5
3011
  8
AM_0
 10
51.497928971713833
 20
479.46146730250302
 30
0.0
 11
58.210563772756039
 21
479.46146730250302
 31
0.0
  0
ARC
  5
3012
  8
AM_0
 10
51.497928971713932
 20
516.46146730250302
 30
0.0
 40
3.0
 50
90.0
 51
180.0
1001
GENIUS_GENOBJ-N-FIL_13
1002
{
1000
OWNER
1000
GEN
1002
}
1001
GENIUS_GENODEF_13
1002
{
1000
HIER
1070
     0
1002
}
1002
{
1000
MANEDIT
1070
     0
1002
}
1002
{
1000
NOSEL
1070
     0
1002
}
1002
{
1000
BEHIND
1070
     0
1002
}
1002
{
1000
OTHER
1070
     0
1002
}
1002
{
1000
REACTOR
1002
}
  0
LINE
  5
3013
  8
AM_0
 10
51.497928971713932
 20
519.46146730250291
 30
0.0
 11
58.210563772756039
 21
519.46146730250291
 31
0.0
  0
LINE
  5
3014
  8
AM_0
 10
63.326656649373739
 20
556.86478079375615
 30
0.0
 11
60.16920129405402
 21
554.05815381124978
 31
0.0
  0
ARC
  5
3015
  8
AM_0
 10
61.497928971713932
 20
552.56333517388225
 30
0.0
 40
2.0
 50
131.63353933656961
 51
180.0
1001
GENIUS_GENODEF_13
1002
{
1000
HIER
1070
     0
1002
}
1002
{
1000
MANEDIT
1070
     0
1002
}
1002
{
1000
NOSEL
1070
     0
1002
}
1002
{
1000
BEHIND
1070
     0
1002
}
1002
{
1000
OTHER
1070
     0
1002
}
1002
{
1000
REACTOR
1002
}
1001
GENIUS_GENOBJ-N-FIL_13
1002
{
1000
OWNER
1000
GEN
1002
}
  0
ARC
  5
3016
  8
AM_0
 10
65.997928971713932
 20
563.06146730250305
 30
0.0
 40
2.0
 50
90.0
 51
180.0
1001
GENIUS_GENOBJ-N-FIL_13
1002
{
1000
OWNER
1000
GEN
1002
}
1001
GENIUS_GENODEF_13
1002
{
1000
HIER
1070
     0
1002
}
1002
{
1000
MANEDIT
1070
     0
1002
}
1002
{
1000
NOSEL
1070
     0
1002
}
1002
{
1000
BEHIND
1070
     0
1002
}
1002
{
1000
OTHER
1070
     0
1002
}
1002
{
1000
REACTOR
1002
}
  0
ARC
  5
3017
  8
AM_0
 10
61.997928971713932
 20
558.35959943112346
 30
0.0
 40
2.0
 50
311.63353933656958
 51
0.0
1001
GENIUS_GENOBJ-N-FIL_13
1002
{
1000
OWNER
1000
GEN
1002
}
1001
GENIUS_GENODEF_13
1002
{
1000
HIER
1070
     0
1002
}
1002
{
1000
MANEDIT
1070
     0
1002
}
1002
{
1000
NOSEL
1070
     0
1002
}
1002
{
1000
BEHIND
1070
     0
1002
}
1002
{
1000
OTHER
1070
     0
1002
}
1002
{
1000
REACTOR
1002
}
  0
LINE
  5
3018
  8
AM_0
 10
202.9979289717138
 20
565.46146730250291
 30
0.0
 11
202.9979289717138
 21
433.46146730250302
 31
0.0
  0
LINE
  5
3019
  8
AM_0
 10
191.4979289717138
 20
565.46146730250291
 30
0.0
 11
191.4979289717138
 21
433.46146730250302
 31
0.0
  0
LINE
  5
301A
  8
AM_0
 10
191.4979289717138
 20
433.46146730250302
 30
0.0
 11
202.9979289717138
 21
433.46146730250302
 31
0.0
  0
LINE
  5
301B
  8
AM_0
 10
127.4979289717138
 20
433.86146730250312
 30
0.0
 11
191.4979289717138
 21
433.86146730250312
 31
0.0
  0
LINE
  5
301C
  8
AM_0
 10
127.4979289717138
 20
437.20249432932388
 30
0.0
 11
127.4979289717137
 21
420.40146807356479
 31
0.0
  0
ARC
  5
301D
  8
AM_0
 10
125.4979289717138
 20
423.8090690722716
 30
0.0
 40
2.0
 50
270.0
 51
0.0
1001
GENIUS_GENOBJ-N-FIL_13
1002
{
1000
OWNER
1000
GEN
1002
}
1001
GENIUS_GENODEF_13
1002
{
1000
HIER
1070
     0
1002
}
1002
{
1000
MANEDIT
1070
     0
1002
}
1002
{
1000
NOSEL
1070
     0
1002
}
1002
{
1000
BEHIND
1070
     0
1002
}
1002
{
1000
OTHER
1070
     0
1002
}
1002
{
1000
REACTOR
1002
}
  0
ARC
  5
301E
  8
AM_0
 10
125.4979289717137
 20
420.40146807356479
 30
0.0
 40
2.0
 50
270.0
 51
0.0
1001
GENIUS_GENOBJ-N-FIL_13
1002
{
1000
OWNER
1000
GEN
1002
}
1001
GENIUS_GENODEF_13
1002
{
1000
HIER
1070
     0
1002
}
1002
{
1000
MANEDIT
1070
     0
1002
}
1002
{
1000
NOSEL
1070
     0
1002
}
1002
{
1000
BEHIND
1070
     0
1002
}
1002
{
1000
OTHER
1070
     0
1002
}
1002
{
1000
REACTOR
1002
}
  0
ARC
  5
301F
  8
AM_0
 10
125.4979289717138
 20
437.20249432932388
 30
0.0
 40
2.0
 50
0.0
 51
90.0
1001
GENIUS_GENODEF_13
1002
{
1000
HIER
1070
     0
1002
}
1002
{
1000
MANEDIT
1070
     0
1002
}
1002
{
1000
NOSEL
1070
     0
1002
}
1002
{
1000
BEHIND
1070
     0
1002
}
1002
{
1000
OTHER
1070
     0
1002
}
1002
{
1000
REACTOR
1002
}
1001
GENIUS_GENOBJ-N-FIL_13
1002
{
1000
OWNER
1000
GEN
1002
}
  0
LINE
  5
3020
  8
AM_0
 10
209.9979289717138
 20
436.46146730250291
 30
0.0
 11
202.9979289717138
 21
433.46146730250302
 31
0.0
  0
LINE
  5
3021
  8
AM_0
 10
191.4979289717138
 20
565.46146730250291
 30
0.0
 11
202.9979289717138
 21
565.46146730250291
 31
0.0
  0
LINE
  5
3022
  8
AM_0
 10
202.9979289717138
 20
565.46146730250291
 30
0.0
 11
209.9979289717138
 21
562.46146730250302
 31
0.0
  0
LINE
  5
3023
  8
AM_0
 10
209.9979289717138
 20
562.46146730250302
 30
0.0
 11
209.9979289717138
 21
436.46146730250291
 31
0.0
  0
POINT
  5
3024
  8
0
 10
-75.876309629594573
 20
-52.958771369846112
 30
0.0
1001
GENIUS_GENOLIS_13
1002
{
1000
ENT
1005
0
1005
0
1005
0
1005
2FF2
1002
}
1001
GENIUS_GENOENT_13
1002
{
1000
MYREF
1005
3024
1002
}
1002
{
1000
GRP
1005
0
1002
}
1001
GENIUS_GENOBJ-NBEHI-BHB_13
1002
{
1000
OWNER
1000
genbehi
1002
}
1001
GENIUS_GENBH_13
1002
{
1000
FGO
1005
0
1002
}
1001
GENIUS_GENODEF_13
1002
{
1000
HIER
1070
     1
1002
}
1002
{
1000
MANEDIT
1070
     1
1002
}
1002
{
1000
NOSEL
1070
     1
1002
}
1002
{
1000
BEHIND
1070
     0
1002
}
1002
{
1000
OTHER
1070
     1
1002
}
1002
{
1000
REACTOR
1002
}
  0
LINE
  5
32C8
  8
AM_0
 10
388.92811897171413
 20
326.77646707939988
 30
0.0
 11
396.9978489717144
 21
327.05825707939988
 31
0.0
  0
LINE
  5
32C9
  8
AM_0
 10
386.997918971714
 20
141.70903507939991
 30
0.0
 11
396.99787897171427
 21
142.05824707939991
 31
0.0
  0
LINE
  5
32CA
  8
ﾁｭｳｼﾝｾﾝ
 10
256.09492897171413
 20
234.5582490793999
 30
0.0
 11
447.94567897171402
 21
234.5582490793999
 31
0.0
  0
ARC
  5
32CB
  8
AM_0
 10
998.68401278153362
 20
236.35824307939961
 30
0.0
 40
940.68612380981915
 50
176.76392470776159
 51
183.2360752922383
  0
LINE
  5
32CC
  8
AM_0
 10
59.497888971714083
 20
289.46011095077938
 30
0.0
 11
59.497888971714083
 21
183.2563752080205
 31
0.0
  0
LINE
  5
32CD
  8
AM_0
 10
63.997888971714183
 20
299.95824307940012
 30
0.0
 11
63.997888971714083
 21
172.7582430793999
 31
0.0
  0
LINE
  5
32CE
  8
AM_0
 10
66.497888971714076
 20
301.95824307939989
 30
0.0
 11
66.497888971714076
 21
170.7582430793999
 31
0.0
  0
LINE
  5
32CF
  8
AM_0
 10
202.9978889717141
 20
302.35824307939993
 30
0.0
 11
202.9978889717141
 21
170.3582430793999
 31
0.0
  0
LINE
  5
32D0
  8
AM_0
 10
191.49788897171399
 20
302.35824307939993
 30
0.0
 11
191.49788897171399
 21
170.3582430793999
 31
0.0
  0
ARC
  5
32D3
  8
AM_0
 10
361.16569897171411
 20
257.60826907939992
 30
0.0
 40
24.832211399999998
 50
349.38167999999899
 51
47.544066000002253
  0
ARC
  5
32D4
  8
AM_0
 10
271.49788897171408
 20
272.72777707939991
 30
0.0
 40
2.00000007
 50
271.9999999999971
 51
0.0
  0
LINE
  5
32D5
  8
AM_0
 10
386.99788897171408
 20
210.64791007939991
 30
0.0
 11
386.99788897171408
 21
285.6834960793999
 31
0.0
  0
LINE
  5
32D6
  8
AM_0
 10
390.99787897171427
 20
164.0582310793998
 30
0.0
 11
390.99787897171427
 21
304.73054707940008
 31
0.0
  0
LINE
  5
32D7
  8
AM_0
 10
273.49795897171413
 20
265.85823907939999
 30
0.0
 11
273.49795897171413
 21
272.96178607939987
 31
0.0
  0
LINE
  5
32D8
  8
AM_0
 10
217.9979589717141
 20
280.35826807939992
 30
0.0
 11
217.9979589717141
 21
270.29525107939992
 31
0.0
  0
LINE
  5
32D9
  8
AM_0
 10
232.9979589717141
 20
289.62368107939989
 30
0.0
 11
232.9979589717141
 21
253.50658507939991
 31
0.0
  0
LINE
  5
32DA
  8
AM_0
 10
209.9978889717141
 20
173.3582430793999
 30
0.0
 11
209.9978889717141
 21
299.35824307939998
 31
0.0
  0
LINE
  5
32DB
  8
AM_0
 10
314.99788897171408
 20
290.18242807939993
 30
0.0
 11
314.99788897171408
 21
267.6923460793999
 31
0.0
  0
LINE
  5
32DC
  8
AM_0
 10
304.99795897171413
 20
282.18062707939993
 30
0.0
 11
304.99795897171413
 21
132.8832900793999
 31
0.0
  0
LINE
  5
32DD
  8
AM_0
 10
278.49787897171421
 20
147.8582490793998
 30
0.0
 11
278.49787897171421
 21
274.85826907939992
 31
0.0
  0
LINE
  5
32DE
  8
AM_0
 10
321.99787897171421
 20
292.3582710793998
 30
0.0
 11
321.99787897171421
 21
130.35825007939991
 31
0.0
  0
LINE
  5
32E0
  8
AM_0
 10
65.997888971714076
 20
170.7582430793999
 30
0.0
 11
113.4978889717141
 21
170.7582430793999
 31
0.0
  0
LINE
  5
32E1
  8
ﾁｭｳｼﾝｾﾝ
 10
268.61836897171412
 20
236.3582520793999
 30
0.0
 11
45.198488241168349
 21
236.3582520793999
 31
0.0
  0
LINE
  5
32E2
  8
ﾁｭｳｼﾝｾﾝ
 10
117.497888971714
 20
217.67861428776689
 30
0.0
 11
117.497888971714
 21
113.32044618206091
 31
0.0
  0
LINE
  5
32E3
  8
AM_0
 10
63.326616649373989
 20
178.9549295881468
 30
0.0
 11
60.169161294054263
 21
181.76155657065311
 31
0.0
  0
ARC
  5
32E4
  8
AM_0
 10
61.497888971714083
 20
183.2563752080205
 30
0.0
 40
2.0
 50
180.0
 51
228.36646066343141
1001
GENIUS_GENODEF_13
1002
{
1000
HIER
1070
     0
1002
}
1002
{
1000
MANEDIT
1070
     0
1002
}
1002
{
1000
NOSEL
1070
     0
1002
}
1002
{
1000
BEHIND
1070
     0
1002
}
1002
{
1000
OTHER
1070
     0
1002
}
1002
{
1000
REACTOR
1002
}
1001
GENIUS_GENOBJ-N-FIL_13
1002
{
1000
OWNER
1000
GEN
1002
}
  0
LINE
  5
32E5
  8
AM_0
 10
92.497888971714076
 20
180.15824307939991
 30
0.0
 11
113.4978889717141
 21
180.15824307939991
 31
0.0
  0
LINE
  5
32E6
  8
AM_0
 10
92.497888971714076
 20
184.45824307940001
 30
0.0
 11
113.4978889717141
 21
184.45824307940001
 31
0.0
  0
LINE
  5
32E7
  8
AM_0
 10
92.497888971714076
 20
176.65824307939991
 30
0.0
 11
113.4978889717141
 21
176.65824307939991
 31
0.0
  0
LINE
  5
32E8
  8
AM_0
 10
92.497888971714076
 20
174.0582430793998
 30
0.0
 11
113.4978889717141
 21
174.0582430793998
 31
0.0
  0
ARC
  5
32E9
  8
AM_0
 10
65.997888971714076
 20
172.7582430793999
 30
0.0
 40
2.0
 50
180.0
 51
270.0
1001
GENIUS_GENOBJ-N-FIL_13
1002
{
1000
OWNER
1000
GEN
1002
}
1001
GENIUS_GENODEF_13
1002
{
1000
HIER
1070
     0
1002
}
1002
{
1000
MANEDIT
1070
     0
1002
}
1002
{
1000
NOSEL
1070
     0
1002
}
1002
{
1000
BEHIND
1070
     0
1002
}
1002
{
1000
OTHER
1070
     0
1002
}
1002
{
1000
REACTOR
1002
}
  0
ARC
  5
32EA
  8
AM_0
 10
61.997888971714083
 20
177.46011095077941
 30
0.0
 40
2.0
 50
0.0
 51
48.366460663431418
1001
GENIUS_GENOBJ-N-FIL_13
1002
{
1000
OWNER
1000
GEN
1002
}
1001
GENIUS_GENODEF_13
1002
{
1000
HIER
1070
     0
1002
}
1002
{
1000
MANEDIT
1070
     0
1002
}
1002
{
1000
NOSEL
1070
     0
1002
}
1002
{
1000
BEHIND
1070
     0
1002
}
1002
{
1000
OTHER
1070
     0
1002
}
1002
{
1000
REACTOR
1002
}
  0
LINE
  5
32EB
  8
AM_0
 10
91.497888971714076
 20
175.65824307939991
 30
0.0
 11
91.497888971714076
 21
175.0582430793998
 31
0.0
  0
ARC
  5
32EC
  8
AM_0
 10
92.497888971714076
 20
175.0582430793998
 30
0.0
 40
1.0
 50
180.0
 51
270.0
1001
GENIUS_GENODEF_13
1002
{
1000
HIER
1070
     0
1002
}
1002
{
1000
MANEDIT
1070
     0
1002
}
1002
{
1000
NOSEL
1070
     0
1002
}
1002
{
1000
BEHIND
1070
     0
1002
}
1002
{
1000
OTHER
1070
     0
1002
}
1002
{
1000
REACTOR
1002
}
1001
GENIUS_GENOBJ-N-FIL_13
1002
{
1000
OWNER
1000
GEN
1002
}
  0
ARC
  5
32ED
  8
AM_0
 10
92.497888971714076
 20
183.45824307939981
 30
0.0
 40
1.0
 50
90.0
 51
180.0
1001
GENIUS_GENODEF_13
1002
{
1000
HIER
1070
     0
1002
}
1002
{
1000
MANEDIT
1070
     0
1002
}
1002
{
1000
NOSEL
1070
     0
1002
}
1002
{
1000
BEHIND
1070
     0
1002
}
1002
{
1000
OTHER
1070
     0
1002
}
1002
{
1000
REACTOR
1002
}
1001
GENIUS_GENOBJ-N-FIL_13
1002
{
1000
OWNER
1000
GEN
1002
}
  0
ARC
  5
32EE
  8
AM_0
 10
92.497888971714076
 20
181.15824307939991
 30
0.0
 40
1.0
 50
180.0
 51
270.0
1001
GENIUS_GENOBJ-N-FIL_13
1002
{
1000
OWNER
1000
GEN
1002
}
1001
GENIUS_GENODEF_13
1002
{
1000
HIER
1070
     0
1002
}
1002
{
1000
MANEDIT
1070
     0
1002
}
1002
{
1000
NOSEL
1070
     0
1002
}
1002
{
1000
BEHIND
1070
     0
1002
}
1002
{
1000
OTHER
1070
     0
1002
}
1002
{
1000
REACTOR
1002
}
  0
LINE
  5
32EF
  8
AM_0
 10
91.497888971714076
 20
183.45824307939981
 30
0.0
 11
91.497888971714076
 21
181.15824307939991
 31
0.0
  0
ARC
  5
32F0
  8
AM_0
 10
92.497888971714076
 20
175.65824307939991
 30
0.0
 40
1.0
 50
90.0
 51
180.0
1001
GENIUS_GENOBJ-N-FIL_13
1002
{
1000
OWNER
1000
GEN
1002
}
1001
GENIUS_GENODEF_13
1002
{
1000
HIER
1070
     0
1002
}
1002
{
1000
MANEDIT
1070
     0
1002
}
1002
{
1000
NOSEL
1070
     0
1002
}
1002
{
1000
BEHIND
1070
     0
1002
}
1002
{
1000
OTHER
1070
     0
1002
}
1002
{
1000
REACTOR
1002
}
  0
LINE
  5
32F1
  8
AM_0
 10
113.3482439717141
 20
122.1405814652463
 30
0.0
 11
112.3133849717141
 21
118.3355368652462
 31
0.0
  0
ARC
  5
32F2
  8
AM_0
 10
114.5428289717143
 20
117.7341682652462
 30
0.0
 40
2.3091486599999991
 50
164.90527199999909
 51
290.87219614689587
  0
LINE
  5
32F3
  8
AM_0
 10
115.783343971714
 20
120.7658742793998
 30
0.0
 11
115.777316971714
 21
127.0625961793999
 31
0.0
  0
LINE
  5
32F4
  8
AM_0
 10
122.1989519717141
 20
122.14173436524629
 30
0.0
 11
122.2049789717142
 21
128.4384562652464
 31
0.0
  0
LINE
  5
32F5
  8
AM_0
 10
119.2093889717142
 20
127.0651581793998
 30
0.0
 11
119.2153739717141
 21
120.7684068793999
 31
0.0
  0
LINE
  5
32F6
  8
AM_0
 10
112.787837971714
 20
122.14173436524629
 30
0.0
 11
112.78181097171399
 21
128.4384562652464
 31
0.0
  0
LINE
  5
32F7
  8
AM_0
 10
121.63854597171409
 20
122.1405604652463
 30
0.0
 11
120.4827899717141
 21
122.1394915652463
 31
0.0
  0
ARC
  5
32F8
  8
ｽﾝﾎ_ｳｾﾝ
 10
120.48440697171399
 20
117.7341031652463
 30
0.0
 40
1.5050001119999981
 50
241.09129513947391
 51
145.9182257596149
  0
ARC
  5
32F9
  8
AM_0
 10
120.44396097171401
 20
117.7341682652462
 30
0.0
 40
2.3091486599999991
 50
249.1278038531041
 51
15.094728000000879
  0
LINE
  5
32FA
  8
AM_0
 10
119.21541597171399
 20
120.7684383793998
 30
0.0
 11
118.6552829717141
 21
120.76259617939991
 31
0.0
  0
LINE
  5
32FB
  8
AM_0
 10
117.4995059717139
 20
120.7636314793999
 30
0.0
 11
118.6552829717141
 21
120.7625625793997
 31
0.0
  0
LINE
  5
32FC
  8
AM_0
 10
116.0616474564721
 20
120.76528078069219
 30
0.0
 11
116.2079541238616
 21
120.26541736061721
 31
0.0
  0
LINE
  5
32FD
  8
AM_0
 10
115.659734971714
 20
122.1384331652463
 30
0.0
 11
115.7824314484356
 21
121.7192350413365
 31
0.0
  0
LINE
  5
32FE
  8
AM_0
 10
116.3437499717141
 20
120.7647003793999
 30
0.0
 11
117.4995059717139
 21
120.7636314793999
 31
0.0
  0
LINE
  5
32FF
  8
AM_0
 10
116.3437499717141
 20
120.7647003793999
 30
0.0
 11
115.7833859717141
 21
120.76585327939981
 31
0.0
  0
LINE
  5
3300
  8
AM_0
 10
118.92514248695601
 20
120.76528078069219
 30
0.0
 11
118.7788358195665
 21
120.26541736061721
 31
0.0
  0
LINE
  5
3301
  8
AM_0
 10
120.4827899717141
 20
122.1394915652463
 30
0.0
 11
119.204759618373
 21
122.1383096013858
 31
0.0
  0
LINE
  5
3302
  8
AM_0
 10
119.3270549717142
 20
122.1384331652463
 30
0.0
 11
119.2043584949927
 21
121.7192350413365
 31
0.0
  0
LINE
  5
3303
  8
AM_0
 10
113.3482439717141
 20
122.1405604652463
 30
0.0
 11
114.50399997171399
 21
122.1394915652463
 31
0.0
  0
LINE
  5
3304
  8
AM_0
 10
113.3482439717141
 20
122.1405604652463
 30
0.0
 11
112.7878799717141
 21
122.1417133652463
 31
0.0
  0
LINE
  5
3305
  8
AM_0
 10
114.50399997171399
 20
122.1394915652463
 30
0.0
 11
115.7820303250552
 21
122.1383096013858
 31
0.0
  0
CIRCLE
  5
3306
  8
ｽﾝﾎ_ｳｾﾝ
 10
117.497888971714
 20
116.3582430793999
 30
0.0
 40
1.5050001119999981
  0
ARC
  5
3307
  8
AM_0
 10
117.53833497171409
 20
116.3583081793998
 30
0.0
 40
2.3091486599999991
 50
164.90527199999909
 51
16.267320000003402
  0
ARC
  5
3308
  8
ｽﾝﾎ_ｳｾﾝ
 10
114.5023829717141
 20
117.7341031652463
 30
0.0
 40
1.5050001119999981
 50
34.081774240385151
 51
298.90870486052597
  0
LINE
  5
3309
  8
AM_0
 10
118.65524097171399
 20
120.7625730793998
 30
0.0
 11
119.7550109717142
 21
117.0051585793998
 31
0.0
  0
LINE
  5
330A
  8
AM_0
 10
116.3437499717141
 20
120.7647213793998
 30
0.0
 11
115.30889097171411
 21
116.9596767793997
 31
0.0
  0
LINE
  5
330B
  8
AM_0
 10
121.63854597171409
 20
122.1405604652463
 30
0.0
 11
122.198909971714
 21
122.1417133652463
 31
0.0
  0
LINE
  5
330C
  8
AM_0
 10
121.63854597171409
 20
122.1405814652463
 30
0.0
 11
122.67340497171411
 21
118.3355368652462
 31
0.0
  0
LINE
  5
331C
  8
AM_0
 10
122.2049789717142
 20
128.4384562652464
 30
0.0
 11
118.7729057591262
 21
128.43974251524631
 31
0.0
  0
LINE
  5
331D
  8
AM_0
 10
115.77735897171399
 20
127.06260667939981
 30
0.0
 11
119.2094309717141
 21
127.0651581793998
 31
0.0
  0
LINE
  5
331E
  8
AM_0
 10
116.2138829717142
 20
128.4410182652463
 30
0.0
 11
116.21519282894729
 21
127.0629321775498
 31
0.0
  0
LINE
  5
331F
  8
AM_0
 10
118.77290697171379
 20
128.4410182652463
 30
0.0
 11
118.7715971144809
 21
127.0629321775498
 31
0.0
  0
LINE
  5
3320
  8
AM_0
 10
112.78181097171399
 20
128.4384562652464
 30
0.0
 11
116.2138841843021
 21
128.43974251524631
 31
0.0
  0
LINE
  5
3321
  8
AM_0
 10
116.497888971714
 20
216.3582430793999
 30
0.0
 11
116.497888971714
 21
127.06314234190771
 31
0.0
  0
LINE
  5
3322
  8
AM_0
 10
118.497888971714
 20
216.3582430793999
 30
0.0
 11
118.497888971714
 21
127.06462919882679
 31
0.0
  0
LINE
  5
3323
  8
AM_0
 10
113.4978889717141
 20
216.3582430793999
 30
0.0
 11
113.4978889717141
 21
128.43872463228581
 31
0.0
  0
LINE
  5
3324
  8
AM_0
 10
115.497888971714
 20
216.3582430793999
 30
0.0
 11
115.497888971714
 21
128.4394741792332
 31
0.0
  0
LINE
  5
3325
  8
AM_0
 10
119.70575571157489
 20
216.35824307940001
 30
0.0
 11
119.4889009717141
 21
128.4394741792332
 31
0.0
  0
LINE
  5
3326
  8
AM_0
 10
121.4889009717153
 20
216.35824307940001
 30
0.0
 11
121.4889009717141
 21
128.43872463228581
 31
0.0
  0
LINE
  5
332D
  8
AM_0
 10
48.497888971714069
 20
253.3582430793999
 30
0.0
 11
48.497888971714069
 21
219.35824307940001
 31
0.0
  0
ARC
  5
332E
  8
AM_0
 10
51.497888971714083
 20
219.35824307940001
 30
0.0
 40
3.0
 50
180.0
 51
270.0
1001
GENIUS_GENODEF_13
1002
{
1000
HIER
1070
     0
1002
}
1002
{
1000
MANEDIT
1070
     0
1002
}
1002
{
1000
NOSEL
1070
     0
1002
}
1002
{
1000
BEHIND
1070
     0
1002
}
1002
{
1000
OTHER
1070
     0
1002
}
1002
{
1000
REACTOR
1002
}
1001
GENIUS_GENOBJ-N-FIL_13
1002
{
1000
OWNER
1000
GEN
1002
}
  0
LINE
  5
332F
  8
AM_0
 10
51.497888971714083
 20
216.3582430793999
 30
0.0
 11
58.210523772756289
 21
216.3582430793999
 31
0.0
  0
LINE
  5
3330
  8
AM_0
 10
51.497888971714083
 20
256.35824307939998
 30
0.0
 11
58.210523772756289
 21
256.35824307939998
 31
0.0
  0
ARC
  5
3331
  8
AM_0
 10
51.497888971714083
 20
253.3582430793999
 30
0.0
 40
3.0
 50
90.0
 51
180.0
1001
GENIUS_GENOBJ-N-FIL_13
1002
{
1000
OWNER
1000
GEN
1002
}
1001
GENIUS_GENODEF_13
1002
{
1000
HIER
1070
     0
1002
}
1002
{
1000
MANEDIT
1070
     0
1002
}
1002
{
1000
NOSEL
1070
     0
1002
}
1002
{
1000
BEHIND
1070
     0
1002
}
1002
{
1000
OTHER
1070
     0
1002
}
1002
{
1000
REACTOR
1002
}
  0
LINE
  5
3332
  8
AM_0
 10
127.4978889717141
 20
261.35824307939998
 30
0.0
 11
127.4978889717141
 21
217.35824307940001
 31
0.0
  0
LINE
  5
3333
  8
AM_0
 10
69.497888971714076
 20
261.35824307939998
 30
0.0
 11
69.497888971714076
 21
217.35824307940001
 31
0.0
  0
LINE
  5
3334
  8
AM_0
 10
92.497888971714076
 20
202.35824307940001
 30
0.0
 11
113.4978889717141
 21
202.35824307940001
 31
0.0
  0
LINE
  5
3335
  8
AM_0
 10
85.997888971714033
 20
208.3582430793999
 30
0.0
 11
97.997888971714076
 21
208.3582430793999
 31
0.0
  0
LINE
  5
3336
  8
AM_0
 10
70.497888971714076
 20
216.3582430793999
 30
0.0
 11
126.4978889717141
 21
216.3582430793999
 31
0.0
  0
LINE
  5
3337
  8
AM_0
 10
92.497888971714076
 20
187.95824307940001
 30
0.0
 11
113.4978889717141
 21
187.95824307940001
 31
0.0
  0
LINE
  5
3338
  8
AM_0
 10
92.497888971714076
 20
193.15824307939991
 30
0.0
 11
113.4978889717141
 21
193.15824307939991
 31
0.0
  0
LINE
  5
3339
  8
AM_0
 10
92.497888971714076
 20
196.8582430793999
 30
0.0
 11
113.4978889717141
 21
196.8582430793999
 31
0.0
  0
ARC
  5
333A
  8
AM_0
 10
92.497888971714076
 20
197.8582430793999
 30
0.0
 40
1.0
 50
180.0
 51
270.0
1001
GENIUS_GENODEF_13
1002
{
1000
HIER
1070
     0
1002
}
1002
{
1000
MANEDIT
1070
     0
1002
}
1002
{
1000
NOSEL
1070
     0
1002
}
1002
{
1000
BEHIND
1070
     0
1002
}
1002
{
1000
OTHER
1070
     0
1002
}
1002
{
1000
REACTOR
1002
}
1001
GENIUS_GENOBJ-N-FIL_13
1002
{
1000
OWNER
1000
GEN
1002
}
  0
ARC
  5
333B
  8
AM_0
 10
92.497888971714076
 20
192.15824307939991
 30
0.0
 40
1.0
 50
90.0
 51
180.0
1001
GENIUS_GENODEF_13
1002
{
1000
HIER
1070
     0
1002
}
1002
{
1000
MANEDIT
1070
     0
1002
}
1002
{
1000
NOSEL
1070
     0
1002
}
1002
{
1000
BEHIND
1070
     0
1002
}
1002
{
1000
OTHER
1070
     0
1002
}
1002
{
1000
REACTOR
1002
}
1001
GENIUS_GENOBJ-N-FIL_13
1002
{
1000
OWNER
1000
GEN
1002
}
  0
ARC
  5
333C
  8
AM_0
 10
92.497888971714076
 20
188.95824307940001
 30
0.0
 40
1.0
 50
180.0
 51
270.0
1001
GENIUS_GENOBJ-N-FIL_13
1002
{
1000
OWNER
1000
GEN
1002
}
1001
GENIUS_GENODEF_13
1002
{
1000
HIER
1070
     0
1002
}
1002
{
1000
MANEDIT
1070
     0
1002
}
1002
{
1000
NOSEL
1070
     0
1002
}
1002
{
1000
BEHIND
1070
     0
1002
}
1002
{
1000
OTHER
1070
     0
1002
}
1002
{
1000
REACTOR
1002
}
  0
LINE
  5
333D
  8
AM_0
 10
91.497888971714076
 20
192.15824307939991
 30
0.0
 11
91.497888971714076
 21
188.95824307940001
 31
0.0
  0
ARC
  5
333E
  8
AM_0
 10
92.497888971714076
 20
201.35824307940001
 30
0.0
 40
1.0
 50
90.0
 51
180.0
1001
GENIUS_GENODEF_13
1002
{
1000
HIER
1070
     0
1002
}
1002
{
1000
MANEDIT
1070
     0
1002
}
1002
{
1000
NOSEL
1070
     0
1002
}
1002
{
1000
BEHIND
1070
     0
1002
}
1002
{
1000
OTHER
1070
     0
1002
}
1002
{
1000
REACTOR
1002
}
1001
GENIUS_GENOBJ-N-FIL_13
1002
{
1000
OWNER
1000
GEN
1002
}
  0
LINE
  5
333F
  8
AM_0
 10
91.497888971714076
 20
201.35824307940001
 30
0.0
 11
91.497888971714076
 21
197.8582430793999
 31
0.0
  0
ARC
  5
3340
  8
AM_0
 10
70.497888971714076
 20
217.35824307940001
 30
0.0
 40
1.0
 50
180.0
 51
270.0
1001
GENIUS_GENOBJ-N-FIL_13
1002
{
1000
OWNER
1000
GEN
1002
}
1001
GENIUS_GENODEF_13
1002
{
1000
HIER
1070
     0
1002
}
1002
{
1000
MANEDIT
1070
     0
1002
}
1002
{
1000
NOSEL
1070
     0
1002
}
1002
{
1000
BEHIND
1070
     0
1002
}
1002
{
1000
OTHER
1070
     0
1002
}
1002
{
1000
REACTOR
1002
}
  0
ARC
  5
3341
  8
AM_0
 10
85.997888971714033
 20
210.3582430793999
 30
0.0
 40
2.0
 50
180.0
 51
270.0
1001
GENIUS_GENOBJ-N-FIL_13
1002
{
1000
OWNER
1000
GEN
1002
}
1001
GENIUS_GENODEF_13
1002
{
1000
HIER
1070
     0
1002
}
1002
{
1000
MANEDIT
1070
     0
1002
}
1002
{
1000
NOSEL
1070
     0
1002
}
1002
{
1000
BEHIND
1070
     0
1002
}
1002
{
1000
OTHER
1070
     0
1002
}
1002
{
1000
REACTOR
1002
}
  0
LINE
  5
3342
  8
AM_0
 10
83.997888971714062
 20
210.3582430793999
 30
0.0
 11
83.997888971714062
 21
216.3582430793999
 31
0.0
  0
LINE
  5
3343
  8
AM_0N
 10
93.476484166485122
 20
212.61074307940001
 30
0.0
 11
92.250388971714145
 21
212.61074307940001
 31
0.0
  0
LINE
  5
3344
  8
AM_0N
 10
93.476484166485122
 20
212.1057430793999
 30
0.0
 11
92.250388971714145
 21
212.1057430793999
 31
0.0
  0
LINE
  5
3345
  8
AM_0N
 10
92.250388971714145
 20
212.61074307940001
 30
0.0
 11
92.250388971714145
 21
213.83683827417099
 31
0.0
  0
LINE
  5
3346
  8
AM_0N
 10
91.745388971714135
 20
212.61074307940001
 30
0.0
 11
91.745388971714135
 21
213.83683827417099
 31
0.0
  0
LINE
  5
3347
  8
AM_0N
 10
91.745388971714135
 20
213.83683827417099
 30
0.0
 11
92.250388971714145
 21
213.83683827417099
 31
0.0
  0
LINE
  5
3348
  8
AM_0N
 10
93.476484166485122
 20
212.61074307940001
 30
0.0
 11
93.476484166485122
 21
212.1057430793999
 31
0.0
  0
LINE
  5
3349
  8
AM_0N
 10
90.519293776943002
 20
212.61074307940001
 30
0.0
 11
90.519293776943002
 21
212.1057430793999
 31
0.0
  0
LINE
  5
334A
  8
AM_0N
 10
91.745388971714135
 20
212.61074307940001
 30
0.0
 11
90.519293776943002
 21
212.61074307940001
 31
0.0
  0
LINE
  5
334B
  8
AM_0N
 10
91.745388971714135
 20
212.1057430793999
 30
0.0
 11
90.519293776943002
 21
212.1057430793999
 31
0.0
  0
LINE
  5
334C
  8
AM_0N
 10
91.745388971714135
 20
210.87964788462889
 30
0.0
 11
92.250388971714145
 21
210.87964788462889
 31
0.0
  0
LINE
  5
334D
  8
AM_0N
 10
91.745388971714135
 20
210.87964788462889
 30
0.0
 11
91.745388971714135
 21
212.1057430793999
 31
0.0
  0
LINE
  5
334E
  8
AM_0N
 10
92.250388971714145
 20
210.87964788462889
 30
0.0
 11
92.250388971714145
 21
212.1057430793999
 31
0.0
  0
LINE
  5
334F
  8
AM_0
 10
87.997888971714062
 20
208.3582430793999
 30
0.0
 11
87.997888971714062
 21
216.3582430793999
 31
0.0
  0
CIRCLE
  5
3350
  8
AM_0N
 10
91.997888971714076
 20
212.3582430793999
 30
0.0
 40
2.799999999999998
  0
ARC
  5
336B
  8
AM_0
 10
97.997888971714076
 20
210.3582430793999
 30
0.0
 40
2.0
 50
270.0
 51
0.0
1001
GENIUS_GENOBJ-N-FIL_13
1002
{
1000
OWNER
1000
GEN
1002
}
1001
GENIUS_GENODEF_13
1002
{
1000
HIER
1070
     0
1002
}
1002
{
1000
MANEDIT
1070
     0
1002
}
1002
{
1000
NOSEL
1070
     0
1002
}
1002
{
1000
BEHIND
1070
     0
1002
}
1002
{
1000
OTHER
1070
     0
1002
}
1002
{
1000
REACTOR
1002
}
  0
LINE
  5
336C
  8
AM_0
 10
95.997888971714076
 20
208.3582430793999
 30
0.0
 11
95.997888971714076
 21
216.3582430793999
 31
0.0
  0
LINE
  5
336D
  8
AM_0
 10
99.997888971714076
 20
210.3582430793999
 30
0.0
 11
99.997888971714076
 21
216.3582430793999
 31
0.0
  0
ARC
  5
336F
  8
AM_0
 10
126.4978889717141
 20
217.35824307940001
 30
0.0
 40
1.0
 50
270.0
 51
0.0
1001
GENIUS_GENOBJ-N-FIL_13
1002
{
1000
OWNER
1000
GEN
1002
}
1001
GENIUS_GENODEF_13
1002
{
1000
HIER
1070
     0
1002
}
1002
{
1000
MANEDIT
1070
     0
1002
}
1002
{
1000
NOSEL
1070
     0
1002
}
1002
{
1000
BEHIND
1070
     0
1002
}
1002
{
1000
OTHER
1070
     0
1002
}
1002
{
1000
REACTOR
1002
}
  0
LINE
  5
3370
  8
AM_0
 10
85.997888971714033
 20
270.35824307939998
 30
0.0
 11
97.997888971714076
 21
270.35824307939998
 31
0.0
1001
GENIUS_GENOREF_13
1005
3490
  0
LINE
  5
3371
  8
AM_0
 10
70.497888971714076
 20
262.35824307939998
 30
0.0
 11
126.4978889717141
 21
262.35824307939998
 31
0.0
1001
GENIUS_GENOREF_13
1005
3490
  0
ARC
  5
3372
  8
AM_0
 10
70.497888971714076
 20
261.35824307939998
 30
0.0
 40
1.0
 50
90.0
 51
180.0
1001
GENIUS_GENODEF_13
1002
{
1000
HIER
1070
     0
1002
}
1002
{
1000
MANEDIT
1070
     0
1002
}
1002
{
1000
NOSEL
1070
     0
1002
}
1002
{
1000
BEHIND
1070
     0
1002
}
1002
{
1000
OTHER
1070
     0
1002
}
1002
{
1000
REACTOR
1002
}
1001
GENIUS_GENOBJ-N-FIL_13
1002
{
1000
OWNER
1000
GEN
1002
}
  0
ARC
  5
3373
  8
AM_0
 10
85.997888971714033
 20
268.35824307939998
 30
0.0
 40
2.0
 50
90.0
 51
180.0
1001
GENIUS_GENOBJ-N-FIL_13
1002
{
1000
OWNER
1000
GEN
1002
}
1001
GENIUS_GENODEF_13
1002
{
1000
HIER
1070
     0
1002
}
1002
{
1000
MANEDIT
1070
     0
1002
}
1002
{
1000
NOSEL
1070
     0
1002
}
1002
{
1000
BEHIND
1070
     0
1002
}
1002
{
1000
OTHER
1070
     0
1002
}
1002
{
1000
REACTOR
1002
}
  0
LINE
  5
3374
  8
AM_0
 10
83.997888971714062
 20
268.35824307939998
 30
0.0
 11
83.997888971714062
 21
262.35824307939998
 31
0.0
  0
LINE
  5
3375
  8
AM_0N
 10
93.476484166485122
 20
266.61074307939998
 30
0.0
 11
92.250388971714145
 21
266.61074307939998
 31
0.0
1001
GENIUS_GENOREF_13
1005
0
  0
LINE
  5
3376
  8
AM_0N
 10
92.250388971714145
 20
267.83683827417087
 30
0.0
 11
92.250388971714145
 21
266.61074307939998
 31
0.0
1001
GENIUS_GENOREF_13
1005
0
  0
LINE
  5
3377
  8
AM_0N
 10
91.745388971714135
 20
267.83683827417087
 30
0.0
 11
91.745388971714135
 21
266.61074307939998
 31
0.0
1001
GENIUS_GENOREF_13
1005
0
  0
LINE
  5
3378
  8
AM_0N
 10
91.745388971714135
 20
267.83683827417087
 30
0.0
 11
92.250388971714145
 21
267.83683827417087
 31
0.0
1001
GENIUS_GENOREF_13
1005
0
  0
LINE
  5
3379
  8
AM_0N
 10
91.745388971714135
 20
266.61074307939998
 30
0.0
 11
90.519293776943002
 21
266.61074307939998
 31
0.0
1001
GENIUS_GENOREF_13
1005
0
  0
LINE
  5
337A
  8
AM_0N
 10
93.476484166485122
 20
266.10574307939987
 30
0.0
 11
92.250388971714145
 21
266.10574307939987
 31
0.0
1001
GENIUS_GENOREF_13
1005
0
  0
LINE
  5
337B
  8
AM_0N
 10
91.745388971714135
 20
266.10574307939987
 30
0.0
 11
91.745388971714135
 21
264.87964788462892
 31
0.0
1001
GENIUS_GENOREF_13
1005
0
  0
LINE
  5
337C
  8
AM_0N
 10
92.250388971714145
 20
266.10574307939987
 30
0.0
 11
92.250388971714145
 21
264.87964788462892
 31
0.0
1001
GENIUS_GENOREF_13
1005
0
  0
LINE
  5
337D
  8
AM_0N
 10
91.745388971714135
 20
264.87964788462892
 30
0.0
 11
92.250388971714145
 21
264.87964788462892
 31
0.0
1001
GENIUS_GENOREF_13
1005
0
  0
LINE
  5
337E
  8
AM_0N
 10
91.745388971714135
 20
266.10574307939987
 30
0.0
 11
90.519293776943002
 21
266.10574307939987
 31
0.0
1001
GENIUS_GENOREF_13
1005
0
  0
LINE
  5
337F
  8
AM_0N
 10
93.476484166485122
 20
266.10574307939987
 30
0.0
 11
93.476484166485122
 21
266.61074307939998
 31
0.0
1001
GENIUS_GENOREF_13
1005
0
  0
LINE
  5
3380
  8
AM_0N
 10
90.519293776943002
 20
266.10574307939987
 30
0.0
 11
90.519293776943002
 21
266.61074307939998
 31
0.0
1001
GENIUS_GENOREF_13
1005
0
  0
LINE
  5
3381
  8
AM_0
 10
87.997888971714062
 20
270.35824307939998
 30
0.0
 11
87.997888971714062
 21
262.35824307939998
 31
0.0
  0
CIRCLE
  5
3382
  8
AM_0N
 10
91.997888971714076
 20
266.35824307939998
 30
0.0
 40
2.799999999999998
1001
GENIUS_GENOREF_13
1005
0
  0
ARC
  5
3383
  8
AM_0
 10
97.997888971714076
 20
268.35824307939998
 30
0.0
 40
2.0
 50
0.0
 51
90.0
1001
GENIUS_GENOBJ-N-FIL_13
1002
{
1000
OWNER
1000
GEN
1002
}
1001
GENIUS_GENODEF_13
1002
{
1000
HIER
1070
     0
1002
}
1002
{
1000
MANEDIT
1070
     0
1002
}
1002
{
1000
NOSEL
1070
     0
1002
}
1002
{
1000
BEHIND
1070
     0
1002
}
1002
{
1000
OTHER
1070
     0
1002
}
1002
{
1000
REACTOR
1002
}
  0
LINE
  5
3384
  8
AM_0
 10
95.997888971714076
 20
270.35824307939998
 30
0.0
 11
95.997888971714076
 21
262.35824307939998
 31
0.0
  0
LINE
  5
3385
  8
AM_0
 10
99.997888971714076
 20
268.35824307939998
 30
0.0
 11
99.997888971714076
 21
262.35824307939998
 31
0.0
  0
ARC
  5
3386
  8
AM_0
 10
126.4978889717141
 20
261.35824307939998
 30
0.0
 40
1.0
 50
0.0
 51
90.0
1001
GENIUS_GENODEF_13
1002
{
1000
HIER
1070
     0
1002
}
1002
{
1000
MANEDIT
1070
     0
1002
}
1002
{
1000
NOSEL
1070
     0
1002
}
1002
{
1000
BEHIND
1070
     0
1002
}
1002
{
1000
OTHER
1070
     0
1002
}
1002
{
1000
REACTOR
1002
}
1001
GENIUS_GENOBJ-N-FIL_13
1002
{
1000
OWNER
1000
GEN
1002
}
  0
LINE
  5
3389
  8
AM_0
 10
232.9979589717141
 20
262.85823907939999
 30
0.0
 11
278.49787897171421
 21
262.85823907939999
 31
0.0
  0
LINE
  5
338A
  8
AM_0
 10
237.99787897171399
 20
248.5066140793999
 30
0.0
 11
278.49787897171421
 21
248.5066140793999
 31
0.0
  0
LINE
  5
338B
  8
AM_0
 10
247.1640789717141
 20
178.25395807939981
 30
0.0
 11
272.61922897171411
 21
152.7987870793998
 31
0.0
  0
LINE
  5
338C
  8
AM_0
 10
236.10262897171421
 20
269.49053107939989
 30
0.0
 11
271.56769897171421
 21
270.72899707939968
 31
0.0
  0
LINE
  5
338D
  8
AM_0
 10
242.8931589717142
 20
152.9888190793998
 30
0.0
 11
271.56769897171421
 21
151.9874910793998
 31
0.0
  0
LINE
  5
338E
  8
AM_0
 10
246.32845897171401
 20
181.2319080793998
 30
0.0
 11
246.32845897171401
 21
245.87401507939981
 31
0.0
  0
LINE
  5
338F
  8
AM_0
 10
191.49788897171399
 20
170.3582430793999
 30
0.0
 11
202.9978889717141
 21
170.3582430793999
 31
0.0
  0
LINE
  5
3390
  8
AM_0
 10
157.49788897171399
 20
174.0582430793998
 30
0.0
 11
180.4978889717141
 21
174.0582430793998
 31
0.0
  0
LINE
  5
3391
  8
AM_0
 10
157.49788897171399
 20
176.65824307939991
 30
0.0
 11
180.4978889717141
 21
176.65824307939991
 31
0.0
  0
LINE
  5
3392
  8
AM_0
 10
157.49788897171399
 20
180.15824307939991
 30
0.0
 11
180.4978889717141
 21
180.15824307939991
 31
0.0
  0
LINE
  5
3393
  8
AM_0
 10
157.49788897171399
 20
184.45824307940001
 30
0.0
 11
180.4978889717141
 21
184.45824307940001
 31
0.0
  0
LINE
  5
3394
  8
AM_0
 10
156.4978889717141
 20
175.65824307939991
 30
0.0
 11
156.49788897171399
 21
175.0582430793998
 31
0.0
  0
ARC
  5
3395
  8
AM_0
 10
157.49788897171399
 20
175.0582430793998
 30
0.0
 40
1.0
 50
180.0
 51
270.0
1001
GENIUS_GENODEF_13
1002
{
1000
HIER
1070
     0
1002
}
1002
{
1000
MANEDIT
1070
     0
1002
}
1002
{
1000
NOSEL
1070
     0
1002
}
1002
{
1000
BEHIND
1070
     0
1002
}
1002
{
1000
OTHER
1070
     0
1002
}
1002
{
1000
REACTOR
1002
}
1001
GENIUS_GENOBJ-N-FIL_13
1002
{
1000
OWNER
1000
GEN
1002
}
  0
ARC
  5
3396
  8
AM_0
 10
157.49788897171399
 20
183.45824307939981
 30
0.0
 40
1.0
 50
90.0
 51
180.0
1001
GENIUS_GENODEF_13
1002
{
1000
HIER
1070
     0
1002
}
1002
{
1000
MANEDIT
1070
     0
1002
}
1002
{
1000
NOSEL
1070
     0
1002
}
1002
{
1000
BEHIND
1070
     0
1002
}
1002
{
1000
OTHER
1070
     0
1002
}
1002
{
1000
REACTOR
1002
}
1001
GENIUS_GENOBJ-N-FIL_13
1002
{
1000
OWNER
1000
GEN
1002
}
  0
ARC
  5
3397
  8
AM_0
 10
157.49788897171399
 20
181.15824307939991
 30
0.0
 40
1.0
 50
180.0
 51
270.0
1001
GENIUS_GENOBJ-N-FIL_13
1002
{
1000
OWNER
1000
GEN
1002
}
1001
GENIUS_GENODEF_13
1002
{
1000
HIER
1070
     0
1002
}
1002
{
1000
MANEDIT
1070
     0
1002
}
1002
{
1000
NOSEL
1070
     0
1002
}
1002
{
1000
BEHIND
1070
     0
1002
}
1002
{
1000
OTHER
1070
     0
1002
}
1002
{
1000
REACTOR
1002
}
  0
LINE
  5
3398
  8
AM_0
 10
156.49788897171399
 20
183.45824307939981
 30
0.0
 11
156.49788897171399
 21
181.15824307939991
 31
0.0
  0
ARC
  5
3399
  8
AM_0
 10
157.49788897171399
 20
175.65824307939991
 30
0.0
 40
1.0
 50
90.0
 51
180.0
1001
GENIUS_GENOBJ-N-FIL_13
1002
{
1000
OWNER
1000
GEN
1002
}
1001
GENIUS_GENODEF_13
1002
{
1000
HIER
1070
     0
1002
}
1002
{
1000
MANEDIT
1070
     0
1002
}
1002
{
1000
NOSEL
1070
     0
1002
}
1002
{
1000
BEHIND
1070
     0
1002
}
1002
{
1000
OTHER
1070
     0
1002
}
1002
{
1000
REACTOR
1002
}
  0
LINE
  5
339A
  8
AM_0
 10
181.4978889717141
 20
175.65824307939991
 30
0.0
 11
181.4978889717141
 21
175.0582430793998
 31
0.0
  0
ARC
  5
339B
  8
AM_0
 10
180.4978889717141
 20
175.0582430793998
 30
0.0
 40
1.0
 50
270.0
 51
0.0
1001
GENIUS_GENOBJ-N-FIL_13
1002
{
1000
OWNER
1000
GEN
1002
}
1001
GENIUS_GENODEF_13
1002
{
1000
HIER
1070
     0
1002
}
1002
{
1000
MANEDIT
1070
     0
1002
}
1002
{
1000
NOSEL
1070
     0
1002
}
1002
{
1000
BEHIND
1070
     0
1002
}
1002
{
1000
OTHER
1070
     0
1002
}
1002
{
1000
REACTOR
1002
}
  0
LINE
  5
339C
  8
AM_0
 10
181.4978889717141
 20
183.45824307939981
 30
0.0
 11
181.4978889717141
 21
181.15824307939991
 31
0.0
  0
ARC
  5
339D
  8
AM_0
 10
180.4978889717141
 20
183.45824307939981
 30
0.0
 40
1.0
 50
0.0
 51
90.0
1001
GENIUS_GENODEF_13
1002
{
1000
HIER
1070
     0
1002
}
1002
{
1000
MANEDIT
1070
     0
1002
}
1002
{
1000
NOSEL
1070
     0
1002
}
1002
{
1000
BEHIND
1070
     0
1002
}
1002
{
1000
OTHER
1070
     0
1002
}
1002
{
1000
REACTOR
1002
}
1001
GENIUS_GENOBJ-N-FIL_13
1002
{
1000
OWNER
1000
GEN
1002
}
  0
ARC
  5
339E
  8
AM_0
 10
180.4978889717141
 20
181.15824307939991
 30
0.0
 40
1.0
 50
270.0
 51
0.0
1001
GENIUS_GENODEF_13
1002
{
1000
HIER
1070
     0
1002
}
1002
{
1000
MANEDIT
1070
     0
1002
}
1002
{
1000
NOSEL
1070
     0
1002
}
1002
{
1000
BEHIND
1070
     0
1002
}
1002
{
1000
OTHER
1070
     0
1002
}
1002
{
1000
REACTOR
1002
}
1001
GENIUS_GENOBJ-N-FIL_13
1002
{
1000
OWNER
1000
GEN
1002
}
  0
ARC
  5
339F
  8
AM_0
 10
180.4978889717141
 20
175.65824307939991
 30
0.0
 40
1.0
 50
0.0
 51
90.0
1001
GENIUS_GENODEF_13
1002
{
1000
HIER
1070
     0
1002
}
1002
{
1000
MANEDIT
1070
     0
1002
}
1002
{
1000
NOSEL
1070
     0
1002
}
1002
{
1000
BEHIND
1070
     0
1002
}
1002
{
1000
OTHER
1070
     0
1002
}
1002
{
1000
REACTOR
1002
}
1001
GENIUS_GENOBJ-N-FIL_13
1002
{
1000
OWNER
1000
GEN
1002
}
  0
LINE
  5
33A0
  8
AM_0
 10
209.9978889717141
 20
180.35825107939991
 30
0.0
 11
237.1025589717141
 21
179.41173307939991
 31
0.0
  0
LINE
  5
33A1
  8
AM_0
 10
209.9978889717141
 20
173.3582430793999
 30
0.0
 11
202.9978889717141
 21
170.3582430793999
 31
0.0
  0
LINE
  5
33A2
  8
AM_0
 10
239.9978889717141
 20
155.9869890793999
 30
0.0
 11
239.9978889717141
 21
176.4135480793999
 31
0.0
  0
ARC
  5
33A3
  8
AM_0
 10
242.9978889717141
 20
155.9869890793999
 30
0.0
 40
3.0
 50
179.99999000000059
 51
268.00000999999872
  0
ARC
  5
33A4
  8
AM_0
 10
245.0427489717141
 20
176.1326190793998
 30
0.0
 40
3.0
 50
45.000001000002641
 51
88.000000000002842
  0
ARC
  5
33A5
  8
AM_0
 10
236.9978889717141
 20
176.4135480793999
 30
0.0
 40
3.0
 50
0.0
 51
88.000000000002842
  0
LINE
  5
33A6
  8
AM_0
 10
237.1025589717141
 20
179.41173307939991
 30
0.0
 11
245.14741897171399
 21
179.13080407939989
 31
0.0
  0
LINE
  5
33A7
  8
AM_0
 10
157.49788897171399
 20
187.95824307940001
 30
0.0
 11
180.4978889717141
 21
187.95824307940001
 31
0.0
  0
LINE
  5
33A8
  8
AM_0
 10
157.49788897171399
 20
207.8582430793999
 30
0.0
 11
180.49788897171399
 21
207.8582430793999
 31
0.0
  0
LINE
  5
33A9
  8
AM_0
 10
157.49788897171399
 20
193.15824307939991
 30
0.0
 11
180.4978889717141
 21
193.15824307939999
 31
0.0
  0
LINE
  5
33AA
  8
AM_0
 10
157.49788897171399
 20
196.8582430793999
 30
0.0
 11
180.4978889717141
 21
196.8582430793999
 31
0.0
  0
LINE
  5
33AB
  8
AM_0
 10
157.49788897171399
 20
202.35824307940001
 30
0.0
 11
180.49788897171399
 21
202.35824307940001
 31
0.0
  0
LINE
  5
33AC
  8
AM_0
 10
157.49788897171399
 20
214.3582430793999
 30
0.0
 11
180.4978889717141
 21
214.3582430793999
 31
0.0
  0
ARC
  5
33AD
  8
AM_0
 10
157.49788897171399
 20
208.85824307940001
 30
0.0
 40
1.0
 50
180.0
 51
270.0
1001
GENIUS_GENODEF_13
1002
{
1000
HIER
1070
     0
1002
}
1002
{
1000
MANEDIT
1070
     0
1002
}
1002
{
1000
NOSEL
1070
     0
1002
}
1002
{
1000
BEHIND
1070
     0
1002
}
1002
{
1000
OTHER
1070
     0
1002
}
1002
{
1000
REACTOR
1002
}
1001
GENIUS_GENOBJ-N-FIL_13
1002
{
1000
OWNER
1000
GEN
1002
}
  0
ARC
  5
33AE
  8
AM_0
 10
157.49788897171399
 20
197.8582430793999
 30
0.0
 40
1.0
 50
180.0
 51
270.0
1001
GENIUS_GENODEF_13
1002
{
1000
HIER
1070
     0
1002
}
1002
{
1000
MANEDIT
1070
     0
1002
}
1002
{
1000
NOSEL
1070
     0
1002
}
1002
{
1000
BEHIND
1070
     0
1002
}
1002
{
1000
OTHER
1070
     0
1002
}
1002
{
1000
REACTOR
1002
}
1001
GENIUS_GENOBJ-N-FIL_13
1002
{
1000
OWNER
1000
GEN
1002
}
  0
ARC
  5
33AF
  8
AM_0
 10
157.49788897171399
 20
192.15824307939991
 30
0.0
 40
1.0
 50
90.0
 51
180.0
1001
GENIUS_GENODEF_13
1002
{
1000
HIER
1070
     0
1002
}
1002
{
1000
MANEDIT
1070
     0
1002
}
1002
{
1000
NOSEL
1070
     0
1002
}
1002
{
1000
BEHIND
1070
     0
1002
}
1002
{
1000
OTHER
1070
     0
1002
}
1002
{
1000
REACTOR
1002
}
1001
GENIUS_GENOBJ-N-FIL_13
1002
{
1000
OWNER
1000
GEN
1002
}
  0
ARC
  5
33B0
  8
AM_0
 10
157.49788897171399
 20
188.95824307940001
 30
0.0
 40
1.0
 50
180.0
 51
270.0
1001
GENIUS_GENOBJ-N-FIL_13
1002
{
1000
OWNER
1000
GEN
1002
}
1001
GENIUS_GENODEF_13
1002
{
1000
HIER
1070
     0
1002
}
1002
{
1000
MANEDIT
1070
     0
1002
}
1002
{
1000
NOSEL
1070
     0
1002
}
1002
{
1000
BEHIND
1070
     0
1002
}
1002
{
1000
OTHER
1070
     0
1002
}
1002
{
1000
REACTOR
1002
}
  0
LINE
  5
33B1
  8
AM_0
 10
156.49788897171399
 20
192.15824307939991
 30
0.0
 11
156.49788897171399
 21
188.95824307940001
 31
0.0
  0
ARC
  5
33B2
  8
AM_0
 10
157.49788897171399
 20
201.35824307940001
 30
0.0
 40
1.0
 50
90.0
 51
180.0
1001
GENIUS_GENODEF_13
1002
{
1000
HIER
1070
     0
1002
}
1002
{
1000
MANEDIT
1070
     0
1002
}
1002
{
1000
NOSEL
1070
     0
1002
}
1002
{
1000
BEHIND
1070
     0
1002
}
1002
{
1000
OTHER
1070
     0
1002
}
1002
{
1000
REACTOR
1002
}
1001
GENIUS_GENOBJ-N-FIL_13
1002
{
1000
OWNER
1000
GEN
1002
}
  0
LINE
  5
33B3
  8
AM_0
 10
156.49788897171399
 20
201.35824307940001
 30
0.0
 11
156.49788897171399
 21
197.8582430793999
 31
0.0
  0
ARC
  5
33B4
  8
AM_0
 10
157.49788897171399
 20
213.35824307940001
 30
0.0
 40
1.0
 50
90.0
 51
180.0
1001
GENIUS_GENOBJ-N-FIL_13
1002
{
1000
OWNER
1000
GEN
1002
}
1001
GENIUS_GENODEF_13
1002
{
1000
HIER
1070
     0
1002
}
1002
{
1000
MANEDIT
1070
     0
1002
}
1002
{
1000
NOSEL
1070
     0
1002
}
1002
{
1000
BEHIND
1070
     0
1002
}
1002
{
1000
OTHER
1070
     0
1002
}
1002
{
1000
REACTOR
1002
}
  0
LINE
  5
33B5
  8
AM_0
 10
156.49788897171399
 20
213.35824307940001
 30
0.0
 11
156.49788897171399
 21
208.85824307940001
 31
0.0
  0
ARC
  5
33B6
  8
AM_0
 10
180.49788897171399
 20
208.85824307940001
 30
0.0
 40
1.0
 50
270.0
 51
0.0
1001
GENIUS_GENODEF_13
1002
{
1000
HIER
1070
     0
1002
}
1002
{
1000
MANEDIT
1070
     0
1002
}
1002
{
1000
NOSEL
1070
     0
1002
}
1002
{
1000
BEHIND
1070
     0
1002
}
1002
{
1000
OTHER
1070
     0
1002
}
1002
{
1000
REACTOR
1002
}
1001
GENIUS_GENOBJ-N-FIL_13
1002
{
1000
OWNER
1000
GEN
1002
}
  0
ARC
  5
33B7
  8
AM_0
 10
180.4978889717141
 20
197.8582430793999
 30
0.0
 40
1.0
 50
270.0
 51
0.0
1001
GENIUS_GENODEF_13
1002
{
1000
HIER
1070
     0
1002
}
1002
{
1000
MANEDIT
1070
     0
1002
}
1002
{
1000
NOSEL
1070
     0
1002
}
1002
{
1000
BEHIND
1070
     0
1002
}
1002
{
1000
OTHER
1070
     0
1002
}
1002
{
1000
REACTOR
1002
}
1001
GENIUS_GENOBJ-N-FIL_13
1002
{
1000
OWNER
1000
GEN
1002
}
  0
ARC
  5
33B8
  8
AM_0
 10
180.4978889717141
 20
192.15824307939999
 30
0.0
 40
1.0
 50
0.0
 51
90.0
1001
GENIUS_GENODEF_13
1002
{
1000
HIER
1070
     0
1002
}
1002
{
1000
MANEDIT
1070
     0
1002
}
1002
{
1000
NOSEL
1070
     0
1002
}
1002
{
1000
BEHIND
1070
     0
1002
}
1002
{
1000
OTHER
1070
     0
1002
}
1002
{
1000
REACTOR
1002
}
1001
GENIUS_GENOBJ-N-FIL_13
1002
{
1000
OWNER
1000
GEN
1002
}
  0
ARC
  5
33B9
  8
AM_0
 10
180.4978889717141
 20
188.95824307940001
 30
0.0
 40
1.0
 50
270.0
 51
0.0
1001
GENIUS_GENODEF_13
1002
{
1000
HIER
1070
     0
1002
}
1002
{
1000
MANEDIT
1070
     0
1002
}
1002
{
1000
NOSEL
1070
     0
1002
}
1002
{
1000
BEHIND
1070
     0
1002
}
1002
{
1000
OTHER
1070
     0
1002
}
1002
{
1000
REACTOR
1002
}
1001
GENIUS_GENOBJ-N-FIL_13
1002
{
1000
OWNER
1000
GEN
1002
}
  0
LINE
  5
33BA
  8
AM_0
 10
181.4978889717141
 20
192.15824307939999
 30
0.0
 11
181.4978889717141
 21
188.95824307940001
 31
0.0
  0
ARC
  5
33BB
  8
AM_0
 10
180.49788897171399
 20
201.35824307940001
 30
0.0
 40
1.0
 50
0.0
 51
90.0
1001
GENIUS_GENOBJ-N-FIL_13
1002
{
1000
OWNER
1000
GEN
1002
}
1001
GENIUS_GENODEF_13
1002
{
1000
HIER
1070
     0
1002
}
1002
{
1000
MANEDIT
1070
     0
1002
}
1002
{
1000
NOSEL
1070
     0
1002
}
1002
{
1000
BEHIND
1070
     0
1002
}
1002
{
1000
OTHER
1070
     0
1002
}
1002
{
1000
REACTOR
1002
}
  0
LINE
  5
33BC
  8
AM_0
 10
181.49788897171399
 20
201.35824307940001
 30
0.0
 11
181.49788897171399
 21
197.8582430793999
 31
0.0
  0
ARC
  5
33BD
  8
AM_0
 10
180.4978889717141
 20
213.35824307940001
 30
0.0
 40
1.0
 50
0.0
 51
90.0
1001
GENIUS_GENOBJ-N-FIL_13
1002
{
1000
OWNER
1000
GEN
1002
}
1001
GENIUS_GENODEF_13
1002
{
1000
HIER
1070
     0
1002
}
1002
{
1000
MANEDIT
1070
     0
1002
}
1002
{
1000
NOSEL
1070
     0
1002
}
1002
{
1000
BEHIND
1070
     0
1002
}
1002
{
1000
OTHER
1070
     0
1002
}
1002
{
1000
REACTOR
1002
}
  0
LINE
  5
33BE
  8
AM_0
 10
181.4978889717141
 20
213.35824307940001
 30
0.0
 11
181.49788897171399
 21
208.85824307940001
 31
0.0
  0
LINE
  5
33BF
  8
AM_0
 10
209.9978889717141
 20
190.35826807939981
 30
0.0
 11
215.9978889717141
 21
190.35826807939981
 31
0.0
  0
LINE
  5
33C0
  8
AM_0
 10
209.9978889717141
 20
204.4212390793999
 30
0.0
 11
215.9978889717141
 21
204.4212390793999
 31
0.0
  0
LINE
  5
33C1
  8
AM_0
 10
217.9979589717141
 20
202.4212560794
 30
0.0
 11
217.9979589717141
 21
192.35825107939991
 31
0.0
  0
ARC
  5
33C2
  8
AM_0
 10
215.9978889717141
 20
192.35825107939991
 30
0.0
 40
2.00000007
 50
270.0
 51
0.0
  0
ARC
  5
33C3
  8
AM_0
 10
215.9978889717141
 20
202.4212560794
 30
0.0
 40
2.00000007
 50
0.0
 51
90.00000299999769
  0
LINE
  5
33C6
  8
AM_0
 10
209.9978889717141
 20
268.29525007939981
 30
0.0
 11
215.9978889717141
 21
268.29525007939981
 31
0.0
  0
ARC
  5
33C7
  8
AM_0
 10
215.9978889717141
 20
270.29525107939992
 30
0.0
 40
2.00000007
 50
270.0
 51
0.0
  0
ARC
  5
33C9
  8
AM_0
 10
237.99787897171399
 20
253.50658507939991
 30
0.0
 40
5.0000001000000003
 50
179.99999000000059
 51
270.0
  0
ARC
  5
33CB
  8
AM_0
 10
235.9979589717141
 20
272.48870107940002
 30
0.0
 40
3.0
 50
179.99999000000059
 51
271.99999000000128
  0
LINE
  5
33CC
  8
AM_0
 10
273.49795897171413
 20
149.9642220793998
 30
0.0
 11
273.49795897171413
 21
245.5066140793999
 31
0.0
  0
LINE
  5
33CD
  8
AM_0
 10
314.99788897171408
 20
242.5074840794
 30
0.0
 11
314.99788897171408
 21
151.81427407939981
 31
0.0
  0
LINE
  5
33CE
  8
AM_0
 10
321.9979089717142
 20
130.35825007939991
 30
0.0
 11
364.75183897171411
 21
128.8652520793998
 31
0.0
  0
LINE
  5
33CF
  8
AM_0
 10
321.99787897171421
 20
145.24803607939981
 30
0.0
 11
386.99788897171408
 21
145.24803607939981
 31
0.0
  0
LINE
  5
33D0
  8
AM_0
 10
321.9979089717142
 20
130.35825007939991
 30
0.0
 11
306.9280689717142
 21
130.88449507939981
 31
0.0
  0
ARC
  5
33D1
  8
AM_0
 10
306.99787897171421
 20
132.8832900793999
 30
0.0
 40
2.00000007
 50
179.99999000000059
 51
268.00000999999872
  0
LINE
  5
33D2
  8
AM_0
 10
278.49787897171421
 20
159.85824907939991
 30
0.0
 11
304.99795897171413
 21
159.85824907939991
 31
0.0
  0
LINE
  5
33D3
  8
AM_0
 10
278.49787897171421
 20
174.2103180794
 30
0.0
 11
304.99795897171413
 21
174.2103180794
 31
0.0
  0
LINE
  5
33D4
  8
AM_0
 10
278.49787897171421
 20
147.8582640793999
 30
0.0
 11
300.7246989717143
 21
147.0820800793999
 31
0.0
  0
ARC
  5
33D5
  8
AM_0
 10
270.49795897171413
 20
150.6774330793998
 30
0.0
 40
3.0
 50
0.0
 51
45.000001000002641
  0
ARC
  5
33D6
  8
AM_0
 10
271.49788897171408
 20
149.98871407939981
 30
0.0
 40
2.00000007
 50
0.0
 51
88.000000000002842
  0
ARC
  5
33D7
  8
AM_0
 10
275.49787897171421
 20
149.9642220793998
 30
0.0
 40
2.00000007
 50
179.99999000000059
 51
268.00000999999872
  0
LINE
  5
33D8
  8
AM_0
 10
275.42812897171399
 20
147.9654270793998
 30
0.0
 11
278.49787897171421
 21
147.85823407939981
 31
0.0
  0
LINE
  5
33D9
  8
AM_0
 10
273.49795897171413
 20
159.85823407939981
 30
0.0
 11
278.49787897171421
 21
159.85823407939981
 31
0.0
  0
LINE
  5
33DA
  8
AM_0
 10
273.49795897171413
 20
174.2098740793999
 30
0.0
 11
278.49787897171421
 21
174.2098740793999
 31
0.0
  0
LINE
  5
33DB
  8
AM_0
 10
306.99787897171421
 20
149.8142730793999
 30
0.0
 11
312.99787897171421
 21
149.8142730793999
 31
0.0
  0
ARC
  5
33DC
  8
AM_0
 10
301.99795897171413
 20
143.8409610793999
 30
0.0
 40
3.0
 50
0.0
 51
79.999998000000815
  0
ARC
  5
33DD
  8
AM_0
 10
300.6200889717141
 20
144.0838980793998
 30
0.0
 40
3.0
 50
79.999998000000815
 51
88.000000000002842
  0
LINE
  5
33DE
  8
AM_0
 10
301.14094897171418
 20
147.0383340793999
 30
0.0
 11
302.51887897171412
 21
146.79538507939981
 31
0.0
  0
ARC
  5
33DF
  8
AM_0
 10
306.99787897171421
 20
147.81427507939981
 30
0.0
 40
2.00000007
 50
90.00000299999769
 51
180.00000999999941
  0
ARC
  5
33E0
  8
AM_0
 10
312.99787897171421
 20
151.81427407939981
 30
0.0
 40
2.00000007
 50
270.0
 51
0.0
  0
ARC
  5
33E1
  8
AM_0
 10
389.99788897171408
 20
144.8156160793998
 30
0.0
 40
3.0
 50
179.99999000000059
 51
271.99999000000128
  0
LINE
  5
33E2
  8
AM_0
 10
364.75183897171411
 20
128.8652370793998
 30
0.0
 11
386.99788897171408
 21
141.70902007939981
 31
0.0
  0
LINE
  5
33E3
  8
AM_0
 10
346.99792897171392
 20
172.75377307939991
 30
0.0
 11
386.99788897171408
 21
172.75377307939991
 31
0.0
  0
LINE
  5
33E4
  8
AM_0
 10
346.99792897171392
 20
158.09047507939991
 30
0.0
 11
386.99788897171408
 21
158.09047507939991
 31
0.0
  0
ARC
  5
33E5
  8
AM_0
 10
346.99957897171407
 20
165.4221390793999
 30
0.0
 40
7.331659199999998
 50
90.00000299999769
 51
270.0
  0
LINE
  5
33E6
  8
AM_0
 10
346.99792897171392
 20
159.27345607939981
 30
0.0
 11
346.99792897171392
 21
171.5934660793998
 31
0.0
  0
LINE
  5
33E7
  8
AM_0
 10
386.99788897171408
 20
144.8156160793998
 30
0.0
 11
386.99788897171408
 21
180.1876110793998
 31
0.0
  0
ARC
  5
33E8
  8
AM_0
 10
387.99787897171427
 20
164.0582310793998
 30
0.0
 40
3.0
 50
270.0
 51
0.0
  0
ARC
  5
33E9
  8
AM_0
 10
389.99788897171408
 20
180.1876110793998
 30
0.0
 40
3.0
 50
90.00000299999769
 51
180.00000999999941
  0
LINE
  5
33EA
  8
AM_0
 10
321.99787897171421
 20
257.60826907939992
 30
0.0
 11
383.94319897171408
 21
257.60826907939992
 31
0.0
  0
LINE
  5
33EB
  8
AM_0
 10
278.49787897171421
 20
248.5062180793999
 30
0.0
 11
304.99795897171413
 21
248.5062180793999
 31
0.0
  0
LINE
  5
33EC
  8
AM_0
 10
278.49787897171421
 20
262.85826907939992
 30
0.0
 11
304.99795897171413
 21
262.85826907939992
 31
0.0
  0
ARC
  5
33ED
  8
AM_0
 10
270.49795897171413
 20
245.5066140793999
 30
0.0
 40
3.0
 50
0.0
 51
90.00000299999769
  0
ARC
  5
33EE
  8
AM_0
 10
270.49795897171413
 20
265.85823907939999
 30
0.0
 40
3.0
 50
270.0
 51
0.0
  0
LINE
  5
33EF
  8
AM_0
 10
305.91334897171402
 20
238.0303410793999
 30
0.0
 11
312.99787897171421
 21
238.0303410793999
 31
0.0
  0
LINE
  5
33F0
  8
AM_0
 10
306.99787897171421
 20
244.50747007939989
 30
0.0
 11
312.99787897171421
 21
244.50747007939989
 31
0.0
  0
ARC
  5
33F1
  8
AM_0
 10
306.99787897171421
 20
246.5074830793998
 30
0.0
 40
2.00000007
 50
179.99999000000059
 51
270.0
  0
ARC
  5
33F2
  8
AM_0
 10
312.99787897171421
 20
236.0303580794
 30
0.0
 40
2.00000007
 50
0.0
 51
90.00000299999769
  0
ARC
  5
33F3
  8
AM_0
 10
312.99787897171421
 20
242.5074840794
 30
0.0
 40
2.00000007
 50
0.0
 51
90.00000299999769
  0
LINE
  5
33F4
  8
AM_0
 10
306.99787897171421
 20
265.69234507939967
 30
0.0
 11
312.99787897171421
 21
265.69234507939967
 31
0.0
  0
ARC
  5
33F5
  8
AM_0
 10
306.99787897171421
 20
263.69234407939967
 30
0.0
 40
2.00000007
 50
90.00000299999769
 51
180.00000999999941
  0
ARC
  5
33F6
  8
AM_0
 10
312.99787897171421
 20
267.6923460793999
 30
0.0
 40
2.00000007
 50
270.0
 51
0.0
  0
ARC
  5
33F7
  8
AM_0
 10
405.64321897171402
 20
225.32602507939981
 30
0.0
 40
24.832211399999998
 50
169.38167999999899
 51
218.7932100000001
  0
ARC
  5
33F8
  8
AM_0
 10
388.626948971714
 20
211.64790907939999
 30
0.0
 40
3.0
 50
218.7932199999976
 51
270.0
  0
LINE
  5
33F9
  8
AM_0
 10
388.626948971714
 20
208.64790907939999
 30
0.0
 11
390.99787897171427
 21
208.64790907939999
 31
0.0
  0
LINE
  5
33FA
  8
AM_0
 10
385.5726789717138
 20
253.0325250793997
 30
0.0
 11
381.23620897171401
 21
229.90175407939989
 31
0.0
  0
LINE
  5
33FB
  8
AM_0
 10
65.99788897171419
 20
301.95824307940012
 30
0.0
 11
191.49788897171399
 21
301.95824307939989
 31
0.0
  0
LINE
  5
33FC
  8
AM_0
 10
63.326616649373989
 20
293.76155657065311
 30
0.0
 11
60.169161294054263
 21
290.9549295881468
 31
0.0
  0
ARC
  5
33FD
  8
AM_0
 10
61.497888971714083
 20
289.46011095077938
 30
0.0
 40
2.0
 50
131.6335393365685
 51
180.0
1001
GENIUS_GENODEF_13
1002
{
1000
HIER
1070
     0
1002
}
1002
{
1000
MANEDIT
1070
     0
1002
}
1002
{
1000
NOSEL
1070
     0
1002
}
1002
{
1000
BEHIND
1070
     0
1002
}
1002
{
1000
OTHER
1070
     0
1002
}
1002
{
1000
REACTOR
1002
}
1001
GENIUS_GENOBJ-N-FIL_13
1002
{
1000
OWNER
1000
GEN
1002
}
  0
ARC
  5
33FE
  8
AM_0
 10
61.997888971714083
 20
295.25637520802047
 30
0.0
 40
2.0
 50
311.63353933656862
 51
0.0
1001
GENIUS_GENOBJ-N-FIL_13
1002
{
1000
OWNER
1000
GEN
1002
}
1001
GENIUS_GENODEF_13
1002
{
1000
HIER
1070
     0
1002
}
1002
{
1000
MANEDIT
1070
     0
1002
}
1002
{
1000
NOSEL
1070
     0
1002
}
1002
{
1000
BEHIND
1070
     0
1002
}
1002
{
1000
OTHER
1070
     0
1002
}
1002
{
1000
REACTOR
1002
}
  0
ARC
  5
33FF
  8
AM_0
 10
65.99788897171419
 20
299.95824307940012
 30
0.0
 40
2.0
 50
90.0
 51
180.0
1001
GENIUS_GENOBJ-N-FIL_13
1002
{
1000
OWNER
1000
GEN
1002
}
1001
GENIUS_GENODEF_13
1002
{
1000
HIER
1070
     0
1002
}
1002
{
1000
MANEDIT
1070
     0
1002
}
1002
{
1000
NOSEL
1070
     0
1002
}
1002
{
1000
BEHIND
1070
     0
1002
}
1002
{
1000
OTHER
1070
     0
1002
}
1002
{
1000
REACTOR
1002
}
  0
LINE
  5
3400
  8
AM_0
 10
191.49788897171399
 20
302.35824307939993
 30
0.0
 11
202.9978889717141
 21
302.35824307939993
 31
0.0
  0
LINE
  5
3401
  8
AM_0
 10
209.9978889717141
 20
292.3582710793998
 30
0.0
 11
231.06769897171409
 21
291.62249107939988
 31
0.0
  0
LINE
  5
3402
  8
AM_0
 10
209.9978889717141
 20
282.35823907939999
 30
0.0
 11
215.9978889717141
 21
282.35823907939999
 31
0.0
  0
ARC
  5
3403
  8
AM_0
 10
215.9978889717141
 20
280.35826807939992
 30
0.0
 40
2.00000007
 50
0.0
 51
90.00000299999769
  0
LINE
  5
3404
  8
AM_0
 10
202.9978889717141
 20
302.35824307939993
 30
0.0
 11
209.9978889717141
 21
299.35824307939993
 31
0.0
  0
ARC
  5
3405
  8
AM_0
 10
230.9978889717141
 20
289.62368107939989
 30
0.0
 40
2.00000007
 50
0.0
 51
88.000000000002842
  0
LINE
  5
3406
  8
AM_0
 10
321.9979089717142
 20
292.3582710793998
 30
0.0
 11
357.39418897171419
 21
293.59432207939977
 31
0.0
  0
LINE
  5
3407
  8
AM_0
 10
278.49787897171421
 20
274.85826907939992
 30
0.0
 11
300.58498897171398
 21
275.62956907939991
 31
0.0
  0
ARC
  5
3408
  8
AM_0
 10
275.49787897171421
 20
272.96178607939987
 30
0.0
 40
2.00000007
 50
88.000000000002842
 51
180.00000999999941
  0
LINE
  5
3409
  8
AM_0
 10
275.56771897171387
 20
274.96056307939978
 30
0.0
 11
278.49787897171421
 21
274.85823907939999
 31
0.0
  0
ARC
  5
340A
  8
AM_0
 10
310.29409897171399
 20
292.19704507940008
 30
0.0
 40
5.0000001000000003
 50
271.9999999999971
 51
343.27366000000012
  0
ARC
  5
340B
  8
AM_0
 10
309.99787897171421
 20
282.18062707939993
 30
0.0
 40
5.0000001000000003
 50
91.999998000000545
 51
180.00000999999941
  0
ARC
  5
340C
  8
AM_0
 10
301.99795897171413
 20
278.87557207939977
 30
0.0
 40
3.0
 50
279.99999999999852
 51
0.0
  0
ARC
  5
340D
  8
AM_0
 10
300.41053897171417
 20
280.62651907939988
 30
0.0
 40
5.0000001000000003
 50
271.9999999999971
 51
279.99999999999852
  0
LINE
  5
340E
  8
AM_0
 10
301.2787689717141
 20
275.70247807940001
 30
0.0
 11
302.51881897171393
 21
275.9211360793999
 31
0.0
  0
LINE
  5
340F
  8
AM_0
 10
309.82339897171408
 20
287.17757407939979
 30
0.0
 11
310.46851897171427
 21
287.20009807939988
 31
0.0
  0
LINE
  5
3410
  8
AM_0
 10
321.9979089717142
 20
292.3582710793998
 30
0.0
 11
316.92811897171413
 21
292.18123807939998
 31
0.0
  0
ARC
  5
3411
  8
AM_0
 10
316.99795897171413
 20
290.18242807939993
 30
0.0
 40
2.00000007
 50
91.999998000000545
 51
163.27364999999961
  0
LINE
  5
3412
  8
AM_0
 10
359.4108489717143
 20
294.47114707939988
 30
0.0
 11
386.997918971714
 21
322.05821707939992
 31
0.0
  0
LINE
  5
3413
  8
AM_0
 10
386.99788897171408
 20
285.6834960793999
 30
0.0
 11
386.99788897171408
 21
324.77765707939989
 31
0.0
  0
LINE
  5
3414
  8
AM_0
 10
358.57522897171418
 20
293.63555107939987
 30
0.0
 11
377.9280189717141
 21
275.92937407939991
 31
0.0
  0
ARC
  5
3415
  8
AM_0
 10
357.28948897171409
 20
296.59250707939981
 30
0.0
 40
3.0
 50
271.9999999999971
 51
315.0
  0
LINE
  5
3416
  8
AM_0
 10
377.9280189717141
 20
275.92937407939991
 30
0.0
 11
377.9280189717141
 21
275.92937407939991
 31
0.0
  0
ARC
  5
3417
  8
AM_0
 10
389.99788897171408
 20
285.6834960793999
 30
0.0
 40
3.0
 50
179.99999000000059
 51
270.0
  0
ARC
  5
3418
  8
AM_0
 10
387.99787897171427
 20
304.73054707940008
 30
0.0
 40
3.0
 50
0.0
 51
91.999998000000545
  0
ARC
  5
3419
  8
AM_0
 10
388.99792897171392
 20
324.77765707939989
 30
0.0
 40
2.00000007
 50
91.999998000000545
 51
180.00000999999941
  0
ARC
  5
3422
  8
AM_0
 10
626.08738722619955
 20
211.35826807939989
 30
0.0
 40
81.000003000000007
 50
125.47417000000191
 51
155.4112299999997
  0
ARC
  5
3423
  8
AM_0
 10
626.08738722619955
 20
234.5582490793999
 30
0.0
 40
39.000011999999998
 50
53.213208000001032
 51
126.7867899999999
  0
CIRCLE
  5
3424
  8
AM_0
 10
626.08738722619955
 20
234.5582490793999
 30
0.0
 40
80.000000999999983
  0
ARC
  5
3425
  8
AM_0
 10
626.08738722619955
 20
211.35826807939989
 30
0.0
 40
81.000003000000007
 50
24.588774999999941
 51
54.525829999998038
  0
CIRCLE
  5
3426
  8
AM_0
 10
626.08738722619955
 20
234.5582490793999
 30
0.0
 40
85.000001999999981
  0
LINE
  5
3427
  8
AM_0
 10
533.58740622619962
 20
264.55824907940001
 30
0.0
 11
535.99291722619955
 21
310.45829707939993
 31
0.0
  0
LINE
  5
3428
  8
AM_0
 10
718.58738022619934
 20
264.55824907940001
 30
0.0
 11
716.18186322619965
 21
310.45829707939993
 31
0.0
  0
LINE
  5
3429
  8
AM_0
 10
598.81481922619969
 20
266.0734470793999
 30
0.0
 11
573.92706222619961
 21
290.96120407939981
 31
0.0
  0
LINE
  5
342A
  8
AM_0
 10
594.57217122619954
 20
261.83083207939978
 30
0.0
 11
569.68441422619935
 21
286.71858907939998
 31
0.0
  0
LINE
  5
342B
  8
ﾁｭｳｼﾝｾﾝ
 10
626.08738722619955
 20
125.02351807939991
 30
0.0
 11
626.08738722619955
 21
332.92366646587311
 31
0.0
  0
LINE
  5
342C
  8
AM_0
 10
657.60260022619946
 20
261.83080207939992
 30
0.0
 11
682.49038722619946
 21
286.71858907939998
 31
0.0
  0
LINE
  5
342D
  8
AM_0
 10
653.35995522619953
 20
266.0734470793999
 30
0.0
 11
678.24774222619953
 21
290.96123707940001
 31
0.0
  0
LINE
  5
342E
  8
AM_0
 10
396.99787897171427
 20
234.5582490793999
 30
0.0
 11
396.99787897171427
 21
327.05825707939988
 31
0.0
  0
LINE
  5
342F
  8
AM_0
 10
400.99792897171358
 20
319.55825707939988
 30
0.0
 11
400.99792897171358
 21
149.55824707939991
 31
0.0
  0
CIRCLE
  5
3431
  8
AM_0
 10
626.08738722619955
 20
234.55827907939991
 30
0.0
 40
29.000001000000001
  0
ARC
  5
3432
  8
AM_0
 10
651.23863122619957
 20
268.19478607939988
 30
0.0
 40
3.0
 50
233.21321000000009
 51
315.0
  0
ARC
  5
3433
  8
AM_0
 10
626.08738722619955
 20
211.35826807939989
 30
0.0
 40
81.000003000000007
 50
270.0
 51
291.36620000000198
  0
LINE
  5
3434
  8
AM_0
 10
626.08738722619955
 20
142.05824707939991
 30
0.0
 11
656.08738722619955
 21
142.05824707939991
 31
0.0
  0
LINE
  5
3435
  8
ﾁｭｳｼﾝｾﾝ
 10
524.8236862261997
 20
234.5582490793999
 30
0.0
 11
725.91231739744148
 21
234.5582490793999
 31
0.0
  0
LINE
  5
3436
  8
AM_0
 10
396.99787897171427
 20
142.0582320793998
 30
0.0
 11
396.99787897171427
 21
234.5582490793999
 31
0.0
  0
LINE
  5
3437
  8
AM_0
 10
396.99787897171427
 20
149.55824707939991
 30
0.0
 11
400.99792897171358
 21
149.55824707939991
 31
0.0
  0
LINE
  5
343A
  8
AM_0
 10
442.99792897171358
 20
251.55825007939981
 30
0.0
 11
442.99792897171358
 21
220.55826307939981
 31
0.0
  0
LINE
  5
343B
  8
AM_0
 10
400.99792897171358
 20
220.55826307939981
 30
0.0
 11
442.99792897171358
 21
220.55826307939981
 31
0.0
  0
LINE
  5
343C
  8
AM_0
 10
410.99788897171391
 20
251.55825007939981
 30
0.0
 11
442.99792897171358
 21
251.55825007939981
 31
0.0
  0
LINE
  5
343D
  8
AM_0
 10
400.99792897171358
 20
248.5582650794
 30
0.0
 11
442.99792897171358
 21
248.5582650794
 31
0.0
  0
LINE
  5
343E
  8
AM_0
 10
410.99788897171391
 20
251.55825007939981
 30
0.0
 11
410.99788897171391
 21
248.5582650794
 31
0.0
  0
LINE
  5
3441
  8
AM_0
 10
533.58737622619958
 20
204.5582340793998
 30
0.0
 11
535.99288722619951
 21
158.6581620793998
 31
0.0
  0
ARC
  5
3442
  8
AM_0
 10
584.33738622619956
 20
139.0451250793999
 30
0.0
 40
8.0000000999999976
 50
156.738740000001
 51
323.26127000000218
  0
LINE
  5
3443
  8
AM_0
 10
596.08738422619945
 20
142.05824707939991
 30
0.0
 11
550.18731522619964
 21
144.46376407939991
 31
0.0
  0
ARC
  5
3444
  8
AM_0
 10
550.97234922619975
 20
159.44319607939991
 30
0.0
 40
15.000000299999989
 50
183.00000999999969
 51
267.0000000000008
  0
ARC
  5
3445
  8
AM_0
 10
550.97234922619975
 20
159.44319607939991
 30
0.0
 40
15.000000299999989
 50
183.00000999999969
 51
267.0000000000008
  0
ARC
  5
3446
  8
ﾁｭｳｼﾝｾﾝ1
 10
626.08738722619955
 20
234.5582490793999
 30
0.0
 40
107.500011
 50
218.02723999999881
 51
233.24631999999701
  0
CIRCLE
  5
3447
  8
AM_0
 10
550.07342322619957
 20
158.54427007939981
 30
0.0
 40
6.0000002999999991
  0
LINE
  5
3448
  8
ﾁｭｳｼﾝｾﾝ1
 10
561.32702322619934
 20
169.79788807939991
 30
0.0
 11
540.36575022619968
 21
148.8366120793998
 31
0.0
  0
ARC
  5
3449
  8
AM_0
 10
626.08738722619955
 20
211.35826807939989
 30
0.0
 40
81.000003000000007
 50
248.6337999999979
 51
270.0
  0
LINE
  5
344A
  8
AM_0
 10
626.08738722619955
 20
142.05824707939991
 30
0.0
 11
596.08738422619945
 21
142.05824707939991
 31
0.0
  0
ARC
  5
344B
  8
AM_0
 10
594.75521622619965
 20
131.2689390793999
 30
0.0
 40
5.0000001000000003
 50
68.633797999997029
 51
143.26126000000099
  0
ARC
  5
344C
  8
AM_0
 10
626.08738722619955
 20
234.5582490793999
 30
0.0
 40
39.000011999999998
 50
143.21321000000231
 51
180.00000999999941
  0
ARC
  5
344D
  8
AM_0
 10
582.08737122619937
 20
211.35826807939989
 30
0.0
 40
5.0000001000000003
 50
270.0
 51
0.0
  0
ARC
  5
344E
  8
AM_0
 10
626.08738722619955
 20
234.5582490793999
 30
0.0
 40
74.400002999999998
 50
171.88345000000001
 51
184.9454200000003
  0
LINE
  5
344F
  8
AM_0
 10
533.58740622619962
 20
234.5582490793999
 30
0.0
 11
533.58740622619962
 21
204.55824907940001
 31
0.0
  0
LINE
  5
3450
  8
AM_0
 10
551.22244122619929
 20
206.35826707939981
 30
0.0
 11
582.08737122619937
 21
206.35826707939981
 31
0.0
  0
ARC
  5
3451
  8
AM_0
 10
626.08738722619955
 20
211.35826807939989
 30
0.0
 40
76.000001999999981
 50
167.23980000000071
 51
181.39354000000071
  0
LINE
  5
3452
  8
AM_0
 10
533.58740622619962
 20
234.5582490793999
 30
0.0
 11
533.58740622619962
 21
264.55824907940001
 31
0.0
  0
ARC
  5
3453
  8
AM_0
 10
626.08738722619955
 20
234.5582490793999
 30
0.0
 40
14.000001299999999
 50
106.60154000000171
 51
73.39845199999823
  0
LINE
  5
3454
  8
AM_0
 10
587.08738422619945
 20
234.5582490793999
 30
0.0
 11
587.08738422619945
 21
211.35826807939989
 31
0.0
  0
ARC
  5
3455
  8
AM_0
 10
592.45086522619965
 20
259.70949607939991
 30
0.0
 40
3.0
 50
323.21321000000228
 51
45.000001000002641
  0
ARC
  5
3456
  8
AM_0
 10
600.9361552261995
 20
268.19478607939988
 30
0.0
 40
3.0
 50
225.0
 51
306.78678999999988
  0
LINE
  5
3457
  8
AM_0
 10
622.0873702261996
 20
244.5582660793998
 30
0.0
 11
622.0873702261996
 21
251.55825007939981
 31
0.0
  0
LINE
  5
3458
  8
AM_0
 10
630.08737122619959
 20
244.5582660793998
 30
0.0
 11
630.08737122619959
 21
251.55825007939981
 31
0.0
  0
CIRCLE
  5
3459
  8
AM_0
 10
626.08738722619955
 20
234.5582490793999
 30
0.0
 40
3.0
  0
CIRCLE
  5
345A
  8
AM_0
 62
     2
 10
626.08738722619955
 20
234.5582490793999
 30
0.0
 40
4.000000199999997
  0
LINE
  5
345B
  8
AM_0
 10
622.0873702261996
 20
244.5582660793998
 30
0.0
 11
630.08737122619959
 21
244.5582660793998
 31
0.0
  0
LINE
  5
345C
  8
AM_0
 10
622.0873702261996
 20
251.55825007939981
 30
0.0
 11
630.08737122619959
 21
251.55825007939981
 31
0.0
  0
LINE
  5
345D
  8
AM_0
 10
718.58739822619953
 20
204.55824907940001
 30
0.0
 11
716.18187222619963
 21
158.6581620793998
 31
0.0
  0
ARC
  5
345F
  8
AM_0
 10
701.20242522619935
 20
159.44319607939991
 30
0.0
 40
15.000000299999989
 50
272.99999999999909
 51
356.99999999999949
  0
ARC
  5
3460
  8
AM_0
 10
701.20242522619935
 20
159.44319607939991
 30
0.0
 40
15.000000299999989
 50
272.99999999999909
 51
356.99999999999949
  0
ARC
  5
3461
  8
ﾁｭｳｼﾝｾﾝ1
 10
626.08738722619955
 20
234.5582490793999
 30
0.0
 40
107.500011
 50
302.0859700000002
 51
323.24632000000048
  0
LINE
  5
3462
  8
AM_0
 10
656.08738722619955
 20
142.05824707939991
 30
0.0
 11
701.98745922619935
 21
144.46376407939991
 31
0.0
  0
ARC
  5
3463
  8
AM_0
 10
667.8373732261997
 20
139.0451250793999
 30
0.0
 40
8.0000000999999976
 50
216.7387399999989
 51
23.2612579999997
  0
ARC
  5
3464
  8
AM_0
 10
657.41955522619935
 20
131.2689390793999
 30
0.0
 40
5.0000001000000003
 50
36.738736999999908
 51
111.3662099999999
  0
CIRCLE
  5
3465
  8
AM_0
 10
702.10136622619962
 20
158.54427007939981
 30
0.0
 40
6.0000002999999991
  0
LINE
  5
3466
  8
ﾁｭｳｼﾝｾﾝ1
 10
692.79255822619962
 20
167.85306307939979
 30
0.0
 11
711.80903022619952
 21
148.83659707939981
 31
0.0
  0
ARC
  5
3467
  8
AM_0
 10
626.08738722619955
 20
234.5582490793999
 30
0.0
 40
74.400002999999998
 50
355.0545799999997
 51
8.116549400000137
  0
LINE
  5
3468
  8
AM_0
 10
718.58738022619934
 20
234.5582490793999
 30
0.0
 11
718.58738022619934
 21
204.55824907940001
 31
0.0
  0
LINE
  5
3469
  8
AM_0
 10
665.08740222619963
 20
234.5582490793999
 30
0.0
 11
665.08740222619963
 21
211.35826807939989
 31
0.0
  0
LINE
  5
346A
  8
AM_0
 10
700.95233322619981
 20
206.35826707939981
 30
0.0
 11
670.08738822619955
 21
206.35826707939981
 31
0.0
  0
ARC
  5
346B
  8
AM_0
 10
670.08738822619955
 20
211.35826807939989
 30
0.0
 40
5.0000001000000003
 50
179.99999000000059
 51
270.0
  0
ARC
  5
346C
  8
AM_0
 10
626.08738722619955
 20
211.35826807939989
 30
0.0
 40
76.000001999999981
 50
358.60644999999948
 51
12.760202000001
  0
ARC
  5
346D
  8
AM_0
 10
626.08738722619955
 20
234.5582490793999
 30
0.0
 40
39.000011999999998
 50
0.0
 51
36.786791000002722
  0
ARC
  5
346E
  8
AM_0
 10
659.72390922619968
 20
259.70949607939991
 30
0.0
 40
3.0
 50
135.0
 51
216.78678999999761
  0
LINE
  5
346F
  8
AM_0
 10
718.58738022619934
 20
234.5582490793999
 30
0.0
 11
718.58738022619934
 21
264.55824907940001
 31
0.0
  0
ARC
  5
3470
  8
AM_0
 10
626.08738722619955
 20
211.35826807939989
 30
0.0
 40
81.000003000000007
 50
58.860945000003653
 51
86.245802999997153
  0
LINE
  5
3471
  8
AM_0
 10
626.08738722619955
 20
327.05825707939988
 30
0.0
 11
656.08738722619955
 21
327.05825707939988
 31
0.0
  0
LINE
  5
3473
  8
AM_0
 10
396.99787897171427
 20
319.55825707939988
 30
0.0
 11
400.99792897171358
 21
319.55825707939988
 31
0.0
  0
ARC
  5
3474
  8
AM_0
 10
626.08738722619955
 20
211.35829807940121
 30
0.0
 40
81.000003000000007
 50
93.754195000000877
 51
121.1390599999999
  0
LINE
  5
3475
  8
AM_0
 10
596.08736922619983
 20
327.05825707939988
 30
0.0
 11
550.18731522619964
 21
324.65273707940008
 31
0.0
  0
ARC
  5
3476
  8
AM_0
 10
550.97234922619975
 20
309.67328707939993
 30
0.0
 40
15.000000299999989
 50
92.999999000001623
 51
176.9999900000002
  0
CIRCLE
  5
3477
  8
AM_0
 10
550.07342322619957
 20
310.57223707939988
 30
0.0
 40
6.0000002999999991
  0
ARC
  5
3478
  8
ﾁｭｳｼﾝｾﾝ1
 10
626.08738722619955
 20
234.5582490793999
 30
0.0
 40
107.500011
 50
122.0859700000002
 51
143.24632000000051
  0
ARC
  5
3479
  8
AM_0
 10
550.97234922619975
 20
309.67328707939993
 30
0.0
 40
15.000000299999989
 50
92.999999000001623
 51
176.9999900000002
  0
LINE
  5
347A
  8
ﾁｭｳｼﾝｾﾝ1
 10
559.87093722619954
 20
300.77468707939988
 30
0.0
 11
540.36575022619968
 21
320.27987707940002
 31
0.0
  0
ARC
  5
347B
  8
AM_0
 10
576.0483682261995
 20
293.08257307939988
 30
0.0
 40
3.0
 50
130.5308599999974
 51
225.0
  0
ARC
  5
347C
  8
AM_0
 10
567.56307822619965
 20
284.59728307939997
 30
0.0
 40
3.0
 50
45.000001000002641
 51
139.46914000000129
  0
ARC
  5
3481
  8
AM_0
 10
631.58738622619956
 20
295.17800707939989
 30
0.0
 40
3.0
 50
180.00000999999941
 51
266.24579999999759
  0
ARC
  5
3482
  8
AM_0
 10
620.58740022619963
 20
295.17800707939989
 30
0.0
 40
3.0
 50
273.75420000000253
 51
0.0
  0
LINE
  5
3483
  8
AM_0
 10
628.58738622619956
 20
295.17800707939989
 30
0.0
 11
628.58738622619956
 21
305.74610707939991
 31
0.0
  0
LINE
  5
3484
  8
AM_0
 10
623.58740022619963
 20
295.17800707939989
 30
0.0
 11
623.58740022619963
 21
305.74610707939991
 31
0.0
  0
ARC
  5
3485
  8
AM_0
 10
631.58738622619956
 20
305.74610707939991
 30
0.0
 40
3.0
 50
85.582086000002178
 51
180.00000999999941
  0
ARC
  5
3486
  8
AM_0
 10
620.58740022619963
 20
305.74610707939991
 30
0.0
 40
3.0
 50
0.0
 51
94.417918999996871
  0
LINE
  5
3487
  8
AM_0
 10
626.08738722619955
 20
327.05825707939988
 30
0.0
 11
596.08738422619945
 21
327.05825707939988
 31
0.0
  0
ARC
  5
3488
  8
AM_0
 10
701.20242522619935
 20
309.67328707939993
 30
0.0
 40
15.000000299999989
 50
3.0000001000004741
 51
86.999998999996933
  0
ARC
  5
3489
  8
AM_0
 10
701.20242522619935
 20
309.67328707939993
 30
0.0
 40
15.000000299999989
 50
3.0000001000004741
 51
86.999998999996933
  0
ARC
  5
348A
  8
ﾁｭｳｼﾝｾﾝ1
 10
626.08738722619955
 20
234.5582490793999
 30
0.0
 40
107.500011
 50
38.027232000003607
 51
53.246321000002332
  0
CIRCLE
  5
348B
  8
AM_0
 10
702.10136622619962
 20
310.57223707939988
 30
0.0
 40
6.0000002999999991
  0
LINE
  5
348C
  8
ﾁｭｳｼﾝｾﾝ1
 10
692.64995022619962
 20
301.12082707939987
 30
0.0
 11
711.80903022619952
 21
320.27990707939978
 31
0.0
  0
ARC
  5
348D
  8
AM_0
 10
684.61169622619946
 20
284.59728307939997
 30
0.0
 40
3.0
 50
40.530864999996624
 51
135.0
  0
ARC
  5
348E
  8
AM_0
 10
676.12642122619968
 20
293.08257307939988
 30
0.0
 40
3.0
 50
315.0
 51
49.469136999997183
  0
LINE
  5
348F
  8
AM_0
 10
656.08740222619963
 20
327.05825707939988
 30
0.0
 11
701.98747422619965
 21
324.65270707939987
 31
0.0
  0
POINT
  5
3490
  8
0
 10
28.429236905547331
 20
543.5691126139468
 30
0.0
1001
GENIUS_GENOLIS_13
1002
{
1000
ENT
1005
0
1005
3371
1005
3370
1002
}
1001
GENIUS_GENOENT_13
1002
{
1000
MYREF
1005
3490
1002
}
1002
{
1000
GRP
1005
0
1002
}
1001
GENIUS_GENOBJ-NBEHI-BHB_13
1002
{
1000
OWNER
1000
genbehi
1002
}
1001
GENIUS_GENBH_13
1002
{
1000
FGO
1005
0
1002
}
1001
GENIUS_GENODEF_13
1002
{
1000
HIER
1070
     1
1002
}
1002
{
1000
MANEDIT
1070
     1
1002
}
1002
{
1000
NOSEL
1070
     1
1002
}
1002
{
1000
BEHIND
1070
     0
1002
}
1002
{
1000
OTHER
1070
     1
1002
}
1002
{
1000
REACTOR
1002
}
  0
LINE
  5
360A
  8
AM_0
 10
121.4889009717146
 20
170.7582430793999
 30
0.0
 11
191.49788897171399
 21
170.7582430793999
 31
0.0
  0
TEXT
  5
3992
  8
AM_0
 10
516.39437204790283
 20
508.80346802827228
 30
0.0
 40
10.0
  1
VX01-240SF~VX01-600SF
  0
ENDSEC
  0
EOF
