  0
SECTION
  2
HEADER
  9
$ACADVER
  1
AC1009
  9
$INSBASE
 10
0.0
 20
0.0
 30
0.0
  9
$EXTMIN
 10
33.647283626698027
 20
67.613853408837258
 30
-0.0015258207003583
  9
$EXTMAX
 10
902.25435389037466
 20
682.31363282811776
 30
0.0000000349246037
  9
$LIMMIN
 10
0.0
 20
0.0
  9
$LIMMAX
 10
853.5
 20
555.00000000000011
  9
$ORTHOMODE
 70
     0
  9
$REGENMODE
 70
     1
  9
$FILLMODE
 70
     1
  9
$QTEXTMODE
 70
     0
  9
$MIRRTEXT
 70
     1
  9
$DRAGMODE
 70
     2
  9
$LTSCALE
 40
3.0
  9
$OSMODE
 70
   551
  9
$ATTMODE
 70
     1
  9
$TEXTSIZE
 40
2.5
  9
$TRACEWID
 40
1.0
  9
$TEXTSTYLE
  7
STANDARD
  9
$CLAYER
  8
AM_0
  9
$CELTYPE
  6
BYLAYER
  9
$CECOLOR
 62
   256
  9
$DIMSCALE
 40
1.0
  9
$DIMASZ
 40
2.5
  9
$DIMEXO
 40
1.0
  9
$DIMDLI
 40
8.0
  9
$DIMRND
 40
0.0
  9
$DIMDLE
 40
0.0
  9
$DIMEXE
 40
0.6
  9
$DIMTP
 40
0.1
  9
$DIMTM
 40
0.1
  9
$DIMTXT
 40
2.5
  9
$DIMCEN
 40
0.0
  9
$DIMTSZ
 40
0.0
  9
$DIMTOL
 70
     0
  9
$DIMLIM
 70
     0
  9
$DIMTIH
 70
     0
  9
$DIMTOH
 70
     0
  9
$DIMSE1
 70
     0
  9
$DIMSE2
 70
     0
  9
$DIMTAD
 70
     1
  9
$DIMZIN
 70
     8
  9
$DIMBLK
  1

  9
$DIMASO
 70
     1
  9
$DIMSHO
 70
     1
  9
$DIMPOST
  1

  9
$DIMAPOST
  1
"
  9
$DIMALT
 70
     0
  9
$DIMALTD
 70
     2
  9
$DIMALTF
 40
0.0393701
  9
$DIMLFAC
 40
1.0
  9
$DIMTOFL
 70
     1
  9
$DIMTVP
 40
0.0
  9
$DIMTIX
 70
     0
  9
$DIMSOXD
 70
     0
  9
$DIMSAH
 70
     0
  9
$DIMBLK1
  1

  9
$DIMBLK2
  1

  9
$DIMSTYLE
  2
AM_ISO
  9
$DIMCLRD
 70
   256
  9
$DIMCLRE
 70
   256
  9
$DIMCLRT
 70
     4
  9
$DIMTFAC
 40
0.71
  9
$DIMGAP
 40
0.8
  9
$LUNITS
 70
     2
  9
$LUPREC
 70
     2
  9
$SKETCHINC
 40
1.0
  9
$FILLETRAD
 40
15.0
  9
$AUNITS
 70
     0
  9
$AUPREC
 70
     0
  9
$MENU
  1
.
  9
$ELEVATION
 40
0.0
  9
$PELEVATION
 40
0.0
  9
$THICKNESS
 40
0.0
  9
$LIMCHECK
 70
     0
  9
$BLIPMODE
 70
     0
  9
$CHAMFERA
 40
6.0
  9
$CHAMFERB
 40
3.0
  9
$SKPOLY
 70
     0
  9
$TDCREATE
 40
2452065.6720352201
  9
$TDUPDATE
 40
2458541.5873307991
  9
$TDINDWG
 40
0.233482581
  9
$TDUSRTIMER
 40
0.2334823958
  9
$USRTIMER
 70
     1
  9
$ANGBASE
 50
0.0
  9
$ANGDIR
 70
     0
  9
$PDMODE
 70
     0
  9
$PDSIZE
 40
0.0
  9
$PLINEWID
 40
0.0
  9
$COORDS
 70
     1
  9
$SPLFRAME
 70
     0
  9
$SPLINETYPE
 70
     6
  9
$SPLINESEGS
 70
     8
  9
$ATTDIA
 70
     1
  9
$ATTREQ
 70
     1
  9
$HANDLING
 70
     1
  9
$HANDSEED
  5
3A42
  9
$SURFTAB1
 70
     6
  9
$SURFTAB2
 70
     6
  9
$SURFTYPE
 70
     6
  9
$SURFU
 70
     6
  9
$SURFV
 70
     6
  9
$UCSNAME
  2

  9
$UCSORG
 10
0.0
 20
0.0
 30
0.0
  9
$UCSXDIR
 10
1.0
 20
0.0
 30
0.0
  9
$UCSYDIR
 10
0.0
 20
1.0
 30
0.0
  9
$PUCSNAME
  2

  9
$PUCSORG
 10
0.0
 20
0.0
 30
0.0
  9
$PUCSXDIR
 10
1.0
 20
0.0
 30
0.0
  9
$PUCSYDIR
 10
0.0
 20
1.0
 30
0.0
  9
$USERI1
 70
     0
  9
$USERI2
 70
     0
  9
$USERI3
 70
     0
  9
$USERI4
 70
     0
  9
$USERI5
 70
     0
  9
$USERR1
 40
0.0
  9
$USERR2
 40
0.0
  9
$USERR3
 40
0.0
  9
$USERR4
 40
0.0
  9
$USERR5
 40
0.0
  9
$WORLDVIEW
 70
     1
  9
$SHADEDGE
 70
     3
  9
$SHADEDIF
 70
    70
  9
$TILEMODE
 70
     1
  9
$MAXACTVP
 70
    64
  9
$PLIMCHECK
 70
     0
  9
$PEXTMIN
 10
1.0000000000000000E+020
 20
1.0000000000000000E+020
 30
1.0000000000000000E+020
  9
$PEXTMAX
 10
-1.0000000000000000E+020
 20
-1.0000000000000000E+020
 30
-1.0000000000000000E+020
  9
$PLIMMIN
 10
0.0
 20
0.0
  9
$PLIMMAX
 10
420.0
 20
297.0
  9
$UNITMODE
 70
     0
  9
$VISRETAIN
 70
     1
  9
$PLINEGEN
 70
     0
  9
$PSLTSCALE
 70
     1
  0
ENDSEC
  0
SECTION
  2
TABLES
  0
TABLE
  2
VPORT
 70
     1
  0
VPORT
  2
*ACTIVE
 70
     0
 10
0.0
 20
0.0
 11
1.0
 21
1.0
 12
467.9508187585364
 22
374.96374311847762
 13
0.0
 23
0.0
 14
7.5
 24
7.5
 15
30.0
 25
30.0
 16
0.0
 26
0.0
 36
1.0
 17
0.0
 27
0.0
 37
0.0
 40
618.91968637181571
 41
1.757159221076747
 42
50.0
 43
0.0
 44
0.0
 50
0.0
 51
0.0
 71
     0
 72
   100
 73
     1
 74
     3
 75
     0
 76
     0
 77
     0
 78
     0
  0
ENDTAB
  0
TABLE
  2
LTYPE
 70
    19
  0
LTYPE
  2
CONTINUOUS
 70
     0
  3
Solid line
 72
    65
 73
     0
 40
0.0
  0
LTYPE
  2
AM_ISO02W050
 70
     0
  3
__ __ __ __ __ __ __ __ __ __ __ __ __ __ __
 72
    65
 73
     2
 40
7.5
 49
6.0
 49
-1.5
  0
LTYPE
  2
AM_ISO08W050
 70
     0
  3
____ . ____ . ____ . ____ . ____ . ____ . ____
 72
    65
 73
     4
 40
18.0
 49
12.0
 49
-1.5
 49
3.0
 49
-1.5
  0
LTYPE
  2
AM_ISO09W050
 70
     0
  3
_____ . . _____ . . _____ . . ____ .. ____
 72
    65
 73
     6
 40
22.5
 49
12.0
 49
-1.5
 49
3.0
 49
-1.5
 49
3.0
 49
-1.5
  0
LTYPE
  2
AMCONSTR
 70
     0
  3
_______________________
 72
    65
 73
     2
 40
9999.0
 49
9999.0
 49
0.0
  0
LTYPE
  2
AM_ISO08W050X2
 70
     0
  3
__ . __ . __ . __ . __ . __
 72
    65
 73
     4
 40
9.0
 49
6.0
 49
-0.75
 49
1.5
 49
-0.75
  0
LTYPE
  2
AM_ISO02W050X2
 70
     0
  3
 _ _ _ _ _ _ _ _ _ _ _ _
 72
    65
 73
     2
 40
3.75
 49
3.0
 49
-0.75
  0
LTYPE
  2
AMZIGZAG
 70
     0
  3
/\/-/\/-/\/-/\/-/\/-/\/
 72
    65
 73
     2
 40
11.0001
 49
0.0001
 49
-11.0
  0
LTYPE
  2
CENTER
 70
     0
  3
__ . __
 72
    65
 73
     4
 40
7.0
 49
4.0
 49
-1.0
 49
1.0
 49
-1.0
  0
LTYPE
  2
PHANTOM2
 70
     0
  3
Phantom (.5x) ___ _ _ ___ _ _ ___ _ _ ___ _ _
 72
    65
 73
     6
 40
31.75
 49
15.875
 49
-3.174999999999998
 49
3.174999999999998
 49
-3.174999999999998
 49
3.174999999999998
 49
-3.174999999999998
  0
LTYPE
  2
GEN7
 70
     0
  3
____ . ____ . ____ . ____ . ____ . ____ . ____
 72
    65
 73
     4
 40
14.25
 49
9.75
 49
-1.5
 49
1.5
 49
-1.5
  0
LTYPE
  2
GEN7A
 70
     0
  3
__ . __ . __
 72
    65
 73
     4
 40
7.375
 49
4.75
 49
-0.875
 49
0.875
 49
-0.875
  0
LTYPE
  2
HIDDEN
 70
     0
  3
Hidden __ __ __ __ __ __ __ __ __ __ __ __ __ _
 72
    65
 73
     2
 40
9.5249999999999986
 49
6.349999999999997
 49
-3.174999999999998
  0
LTYPE
  2
CENTER2
 70
     0
  3
Center (.5x) ___ _ ___ _ ___ _ ___ _ ___ _ ___
 72
    65
 73
     4
 40
1.125
 49
0.75
 49
-0.125
 49
0.125
 49
-0.125
  0
LTYPE
  2
HIDDEN2
 70
     0
  3
Hidden (.5x) _ _ _ _ _ _ _ _ _ _ _ _ _ _ _ _ _
 72
    65
 73
     2
 40
0.1875
 49
0.125
 49
-0.0625
  0
LTYPE
  2
AMZIGZAG2
 70
     0
  3
/\/-/\/-/\/-/\/-/\/-/\/
 72
    65
 73
     2
 40
0.4401
 49
0.0001
 49
-0.4400000000000001
  0
LTYPE
  2
ACANSTGB
 70
     0
  3
__ . . __ . .
 72
    65
 73
     6
 40
0.35433070866
 49
0.15748031496
 49
-0.03937007874
 49
0.03937007874
 49
-0.03937007874
 49
0.03937007874
 49
-0.03937007874
  0
LTYPE
  2
ACANSTGL
 70
     0
  3
_ _ _ _ _
 72
    65
 73
     2
 40
0.11811023622
 49
0.07874015748
 49
-0.03937007874
  0
ENDTAB
  0
TABLE
  2
LAYER
 70
     8
  0
LAYER
  2
0
 70
     0
 62
     7
  6
CONTINUOUS
  0
LAYER
  2
AM_0
 70
     0
 62
     7
  6
CONTINUOUS
  0
LAYER
  2
DEFPOINTS
 70
     0
 62
     7
  6
CONTINUOUS
  0
LAYER
  2
ﾁｭｳｼﾝｾﾝ
 70
     0
 62
     1
  6
GEN7
  0
LAYER
  2
ﾁｭｳｼﾝｾﾝ1
 70
     0
 62
     1
  6
GEN7A
  0
LAYER
  2
AM_0N
 70
     0
 62
     7
  6
CONTINUOUS
  0
LAYER
  2
AM_3N
 70
     0
 62
     3
  6
AM_ISO02W050
  0
LAYER
  2
ｽﾝﾎ_ｳｾﾝ
 70
     0
 62
     2
  6
CONTINUOUS
  0
ENDTAB
  0
TABLE
  2
STYLE
 70
     5
  0
STYLE
  2
STANDARD
 70
     0
 40
0.0
 41
0.8299999999999999
 50
0.0
 71
     0
 42
2.5
  3
txt.shx
  4
bigfont.shx
  0
STYLE
  2
ANNOTATIVE
 70
     0
 40
0.0
 41
1.0
 50
0.0
 71
     0
 42
0.2
  3
txt
  4

  0
STYLE
  2

 70
     1
 40
0.0
 41
1.0
 50
0.0
 71
     0
 42
2.5
  3
genltshp.shx
  4

  0
STYLE
  2
ACANSTS
 70
     0
 40
0.0
 41
1.0
 50
0.0
 71
     0
 42
2.5
  3
romans.shx
  4
extfont.shx
  0
STYLE
  2
ACANSGDT
 70
     0
 40
0.0
 41
1.0
 50
0.0
 71
     0
 42
2.5
  3
amgdt.shx
  4

  0
ENDTAB
  0
TABLE
  2
VIEW
 70
     6
  0
VIEW
  2
AM_VIEW1
 70
     0
 40
277.50000000000011
 10
249.64779005524869
 20
416.24999999999989
 41
499.2955801104971
 11
0.0
 21
0.0
 31
1.0
 12
0.0
 22
0.0
 32
0.0
 42
50.0
 43
0.0
 44
0.0
 50
0.0
 71
     0
  0
VIEW
  2
AM_VIEW2
 70
     0
 40
277.50000000000011
 10
603.85220994475117
 20
416.24999999999989
 41
499.2955801104971
 11
0.0
 21
0.0
 31
1.0
 12
0.0
 22
0.0
 32
0.0
 42
50.0
 43
0.0
 44
0.0
 50
0.0
 71
     0
  0
VIEW
  2
AM_VIEW3
 70
     0
 40
277.50000000000011
 10
249.64779005524869
 20
138.75
 41
499.2955801104971
 11
0.0
 21
0.0
 31
1.0
 12
0.0
 22
0.0
 32
0.0
 42
50.0
 43
0.0
 44
0.0
 50
0.0
 71
     0
  0
VIEW
  2
AM_VIEW4
 70
     0
 40
277.50000000000011
 10
603.85220994475117
 20
138.75
 41
499.2955801104971
 11
0.0
 21
0.0
 31
1.0
 12
0.0
 22
0.0
 32
0.0
 42
50.0
 43
0.0
 44
0.0
 50
0.0
 71
     0
  0
VIEW
  2
AM_VIEW5
 70
     0
 40
277.50000000000011
 10
426.75
 20
277.50000000000011
 41
499.2955801104971
 11
0.0
 21
0.0
 31
1.0
 12
0.0
 22
0.0
 32
0.0
 42
50.0
 43
0.0
 44
0.0
 50
0.0
 71
     0
  0
VIEW
  2
AM_VIEW6
 70
     0
 40
554.99445000000014
 10
426.75
 20
277.5
 41
998.5811743093924
 11
0.0
 21
0.0
 31
1.0
 12
0.0
 22
0.0
 32
0.0
 42
50.0
 43
0.0
 44
0.0
 50
0.0
 71
     0
  0
ENDTAB
  0
TABLE
  2
UCS
 70
     0
  0
ENDTAB
  0
TABLE
  2
APPID
 70
    97
  0
APPID
  2
ACAD
 70
     0
  0
APPID
  2
ACADANNOTATIVE
 70
     0
  0
APPID
  2
MCAD_NO_VIS
 70
     0
  0
APPID
  2
ACAD_TEMP_GRAPHIC
 70
     0
  0
APPID
  2
ACATTRIBSERVICES
 70
     0
  0
APPID
  2
GENIUS_GENREC_14
 70
     0
  0
APPID
  2
GENIUS_GENOBJ-N-REC_13
 70
     0
  0
APPID
  2
GENIUS_GENODEF_13
 70
     0
  0
APPID
  2
GENIUS_GENOLIS_13
 70
     0
  0
APPID
  2
GENIUS_GENOBJ-N-TIT_13
 70
     0
  0
APPID
  2
GENIUS_GENOENT_13
 70
     0
  0
APPID
  2
GENIUS_GENTITLE_13
 70
     0
  0
APPID
  2
GENIUS_GENOREF_13
 70
     0
  0
APPID
  2
GENIUS_GENSCREG_15
 70
     0
  0
APPID
  2
GENIUS_GENOBJ-N-SDF_13
 70
     0
  0
APPID
  2
GENIUS_GENFIL_13
 70
     0
  0
APPID
  2
GENIUS_GENOBJ-N-CHA_13
 70
     0
  0
APPID
  2
GENIUS_GENDTOL_13
 70
     0
  0
APPID
  2
GENIUS_GENOBJ-N-FIL_13
 70
     0
  0
APPID
  2
AD_DRAW
 70
     0
  0
APPID
  2
DESIGNERASSEMBLIES
 70
     0
  0
APPID
  2
ASURF_PCURVE_APPNAME
 70
     0
  0
APPID
  2
GENIUS_GE3SECT_13
 70
     0
  0
APPID
  2
GENIUS_GENCFG_13
 70
     0
  0
APPID
  2
GENIUS_GE3CFG0_13
 70
     0
  0
APPID
  2
GENIUS_GENCFG0_13
 70
     0
  0
APPID
  2
GENIUS_GENCFG1_13
 70
     0
  0
APPID
  2
GENIUS_GENCFG2_13
 70
     0
  0
APPID
  2
GENIUS_GENCFG3_13
 70
     0
  0
APPID
  2
GENIUS_GENCFG4_13
 70
     0
  0
APPID
  2
GENIUS_GEVCFG0_13
 70
     0
  0
APPID
  2
GENIUS_GENHINW_13
 70
     0
  0
APPID
  2
GENIUS_FIRSTVISTXT_14
 70
     0
  0
APPID
  2
GENIUS_GENOBJ-N-LEADER_13
 70
     0
  0
APPID
  2
GEV_VCCNULL_SWITCH_OFF
 70
     0
  0
APPID
  2
GENIUS_GEFCFG0_13
 70
     0
  0
APPID
  2
GENIUS_GENZVEED_13
 70
     0
  0
APPID
  2
GENIUS_GENSCREG_13
 70
     0
  0
APPID
  2
GENIUS_DUMCFG0_13
 70
     0
  0
APPID
  2
GEVID936201362
 70
     0
  0
APPID
  2
GEVDC
 70
     0
  0
APPID
  2
GEVCON
 70
     0
  0
APPID
  2
VCC
 70
     0
  0
APPID
  2
GEVPT
 70
     0
  0
APPID
  2
GEVIT
 70
     0
  0
APPID
  2
GENBH
 70
     0
  0
APPID
  2
GEVMK
 70
     0
  0
APPID
  2
GENIUS_GENBH_13
 70
     0
  0
APPID
  2
GENIUS_GENOBJ-NBEHI-BHF_13
 70
     0
  0
APPID
  2
GENIUS_GENOBJ-NBEHI-BHB_13
 70
     0
  0
APPID
  2
GENIUS_GENOBJ-F-DESC_13
 70
     0
  0
APPID
  2
GENIUS_GEFDESC_14
 70
     0
  0
APPID
  2
GENIUS_GENOBJ-F-PART_13
 70
     0
  0
APPID
  2
GENIUS_GEFSTDP_13
 70
     0
  0
APPID
  2
GENIUS_GEFPARTINS_13
 70
     0
  0
APPID
  2
GENIUS_GENTRA_14
 70
     0
  0
APPID
  2
GENIUS_GENINF13_13
 70
     0
  0
APPID
  2
GENIUS_GENOBJ-N-INFOPT_13
 70
     0
  0
APPID
  2
GENIUS_GENOBJ-N-RSSYM_13
 70
     0
  0
APPID
  2
GENIUS_GENSYMENT_13
 70
     0
  0
APPID
  2
GENIUS_GENSCSYM_13
 70
     0
  0
APPID
  2
GENIUS_GEFINFNAM_13
 70
     0
  0
APPID
  2
GENIUS_GENOBJ-N-CEN_13
 70
     0
  0
APPID
  2
GENIUS_GENOBJ-N-CRS_13
 70
     0
  0
APPID
  2
GENIUS_GENOBJ-N-CRC_13
 70
     0
  0
APPID
  2
GENIUS_GENCRC_14
 70
     0
  0
APPID
  2
GEVID942827039
 70
     0
  0
APPID
  2
GEVID942827040
 70
     0
  0
APPID
  2
GEVID942827041
 70
     0
  0
APPID
  2
GENIUS_GENOBJ-F-SCPASSM_13
 70
     0
  0
APPID
  2
GENIUS_GENDIMSH_14
 70
     0
  0
APPID
  2
GEVID942827042
 70
     0
  0
APPID
  2
GEVID946020473
 70
     0
  0
APPID
  2
GEVID946020474
 70
     0
  0
APPID
  2
GEVID946020475
 70
     0
  0
APPID
  2
GENIUS_GENOBJ-N-HTC_13
 70
     0
  0
APPID
  2
GENIUS_GENHATCH_13
 70
     0
  0
APPID
  2
GEVID948854295
 70
     0
  0
APPID
  2
GEVID939402019
 70
     0
  0
APPID
  2
GEVID952919491
 70
     0
  0
APPID
  2
GEVID952919492
 70
     0
  0
APPID
  2
GENIUS_GEFWELD_13
 70
     0
  0
APPID
  2
GENIUS_GENOBJ-F-WELS_13
 70
     0
  0
APPID
  2
GEVID952919493
 70
     0
  0
APPID
  2
GENIUS_GENOBJ-N-RSBK_13
 70
     0
  0
APPID
  2
GENIUS_GENOBJ-N-LIB_13
 70
     0
  0
APPID
  2
GENIUS_GENSCALE_13
 70
     0
  0
APPID
  2
GEVID986376691
 70
     0
  0
APPID
  2
DCO15
 70
     0
  0
APPID
  2
ACADM_DIM_EDIT
 70
     0
  0
APPID
  2
AMDT_DM_ADJ
 70
     0
  0
APPID
  2
ACAD_DSTYLE_DIMJAG
 70
     0
  0
APPID
  2
ACAD_DSTYLE_DIMBREAK
 70
     0
  0
APPID
  2
ACAD_NAV_VCDISPLAY
 70
     0
  0
APPID
  2
ACADANNOPO
 70
     0
  0
APPID
  2
ACAD_EXEMPT_FROM_CAD_STANDARDS
 70
     0
  0
APPID
  2
ACAD_MLEADERVER
 70
     0
  0
ENDTAB
  0
TABLE
  2
DIMSTYLE
 70
     9
  0
DIMSTYLE
  2
STANDARD
 70
     0
  3

  4

  5

  6

  7

 40
1.0
 41
0.18
 42
0.0625
 43
0.38
 44
0.18
 45
0.0
 46
0.0
 47
0.0
 48
0.0
140
0.18
141
0.09
142
0.0
143
25.399999999999999
144
1.0
145
0.0
146
1.0
147
0.09
 71
     0
 72
     0
 73
     1
 74
     1
 75
     0
 76
     0
 77
     0
 78
     0
170
     0
171
     2
172
     0
173
     0
174
     0
175
     0
176
     0
177
     0
178
     0
  0
DIMSTYLE
  2
ANNOTATIVE
 70
     0
  3

  4

  5

  6

  7

 40
1.0
 41
0.18
 42
0.0625
 43
0.38
 44
0.18
 45
0.0
 46
0.0
 47
0.0
 48
0.0
140
0.18
141
0.09
142
0.0
143
25.399999999999999
144
1.0
145
0.0
146
1.0
147
0.09
 71
     0
 72
     0
 73
     1
 74
     1
 75
     0
 76
     0
 77
     0
 78
     0
170
     0
171
     2
172
     0
173
     0
174
     0
175
     0
176
     0
177
     0
178
     0
  0
DIMSTYLE
  2
AM_ISO
 70
     0
  3

  4
"
  5

  6

  7

 40
1.0
 41
2.5
 42
1.0
 43
8.0
 44
0.6
 45
0.0
 46
0.0
 47
0.1
 48
0.1
140
2.5
141
0.0
142
0.0
143
0.0393701
144
1.0
145
0.0
146
0.71
147
0.8
 71
     0
 72
     0
 73
     0
 74
     0
 75
     0
 76
     0
 77
     1
 78
     8
170
     0
171
     2
172
     1
173
     0
174
     0
175
     0
176
   256
177
   256
178
     4
  0
DIMSTYLE
  2
AM_ANSI
 70
     0
  3

  4
mm
  5

  6

  7

 40
1.0
 41
0.12
 42
0.05
 43
0.5
 44
0.1
 45
0.0
 46
0.0
 47
0.1
 48
0.1
140
0.12
141
0.0
142
0.0
143
25.399999999999999
144
1.0
145
0.0
146
0.71
147
0.06
 71
     0
 72
     0
 73
     1
 74
     1
 75
     0
 76
     0
 77
     0
 78
     7
170
     0
171
     2
172
     0
173
     0
174
     0
175
     0
176
   256
177
   256
178
     2
  0
DIMSTYLE
  2
AM_ANSI$3
 70
     0
  3

  4
mm
  5

  6

  7

 40
1.0
 41
0.12
 42
0.05
 43
0.5
 44
0.1
 45
0.0
 46
0.0
 47
0.1
 48
0.1
140
0.12
141
0.0
142
0.0
143
25.399999999999999
144
1.0
145
0.0
146
0.71
147
0.06
 71
     0
 72
     0
 73
     1
 74
     1
 75
     0
 76
     0
 77
     0
 78
     7
170
     0
171
     2
172
     0
173
     0
174
     0
175
     0
176
   256
177
   256
178
     2
  0
DIMSTYLE
  2
AM_ANSI$4
 70
     0
  3

  4
mm
  5

  6

  7

 40
1.0
 41
0.12
 42
0.05
 43
0.5
 44
0.1
 45
0.0
 46
0.0
 47
0.1
 48
0.1
140
0.12
141
0.0
142
0.0
143
25.399999999999999
144
1.0
145
0.0
146
0.71
147
0.06
 71
     0
 72
     0
 73
     1
 74
     1
 75
     0
 76
     0
 77
     0
 78
     7
170
     0
171
     2
172
     0
173
     0
174
     0
175
     0
176
   256
177
   256
178
     2
  0
DIMSTYLE
  2
AM_ANSI$7
 70
     0
  3

  4
mm
  5

  6

  7

 40
1.0
 41
0.12
 42
0.05
 43
0.5
 44
0.1
 45
0.0
 46
0.0
 47
0.1
 48
0.1
140
0.12
141
0.0
142
0.0
143
25.399999999999999
144
1.0
145
0.0
146
0.71
147
0.06
 71
     0
 72
     0
 73
     1
 74
     1
 75
     0
 76
     0
 77
     0
 78
     7
170
     0
171
     2
172
     0
173
     0
174
     0
175
     0
176
   256
177
   256
178
     2
  0
DIMSTYLE
  2
AM_ANSI$SF
 70
     0
  3

  4
mm
  5

  6

  7

 40
1.0
 41
0.12
 42
0.05
 43
0.5
 44
0.1
 45
0.0
 46
0.0
 47
0.1
 48
0.1
140
0.12
141
0.0
142
0.0
143
25.399999999999999
144
1.0
145
0.0
146
0.71
147
0.06
 71
     0
 72
     0
 73
     1
 74
     1
 75
     1
 76
     1
 77
     0
 78
     7
170
     0
171
     2
172
     0
173
     0
174
     0
175
     0
176
   256
177
   256
178
     2
  0
DIMSTYLE
  2
AM_ANSI$SH
 70
     0
  3

  4
mm
  5

  6
GENAXEH
  7

 40
1.0
 41
0.12
 42
0.05
 43
0.5
 44
0.1
 45
0.0
 46
0.0
 47
0.1
 48
0.1
140
0.12
141
0.0
142
0.0
143
25.399999999999999
144
1.0
145
0.0
146
0.71
147
0.06
 71
     0
 72
     0
 73
     1
 74
     1
 75
     1
 76
     1
 77
     0
 78
     7
170
     0
171
     2
172
     0
173
     1
174
     0
175
     0
176
   256
177
   256
178
     2
  0
ENDTAB
  0
ENDSEC
  0
SECTION
  2
BLOCKS
  0
BLOCK
  8
0
  2
$MODEL_SPACE
 70
     0
 10
0.0
 20
0.0
 30
0.0
  3
$MODEL_SPACE
  1

  0
ENDBLK
  5
38DC
  8
0
  0
BLOCK
 67
     1
  8
0
  2
$PAPER_SPACE
 70
     0
 10
0.0
 20
0.0
 30
0.0
  3
$PAPER_SPACE
  1

  0
ENDBLK
  5
38D8
 67
     1
  8
0
  0
BLOCK
  8
0
  2
*U2
 70
     1
 10
0.0
 20
0.0
 30
0.0
  3
*U2
  1

  0
TEXT
  5
372E
  8
AM_0
 10
655.81026193045761
 20
70.432167274213484
 30
0.0
 40
15.0
  1
VX01-K20SF
 41
0.8299999999999999
  0
ENDBLK
  5
3730
  8
0
  0
BLOCK
  8
0
  2
GENAXEH
 70
     0
 10
0.0
 20
0.0
 30
0.0
  3
GENAXEH
  1

  0
LINE
  5
39A9
  8
0
 10
-1.0
 20
0.0
 30
0.0
 11
1.0
 21
0.0
 31
0.0
  0
ENDBLK
  5
39AB
  8
0
  0
BLOCK
  8
0
  2
_ACMFILLEDHALF
 70
     0
 10
0.0
 20
0.0
 30
0.0
  3
_ACMFILLEDHALF
  1

  0
TRACE
  5
39B9
  8
AM_0
 62
     0
 10
-0.8
 20
0.0
 30
0.0
 11
-1.0
 21
0.166666666
 31
0.0
 12
0.0
 22
0.0
 32
0.0
 13
0.0
 23
0.0
 33
0.0
  0
LINE
  5
39BA
  8
AM_0
 62
     0
 10
-1.0
 20
0.0
 30
0.0
 11
-0.8
 21
0.0
 31
0.0
  0
ENDBLK
  5
39B8
  8
0
  0
ENDSEC
  0
SECTION
  2
ENTITIES
  0
LINE
  5
2899
  8
AM_0
 10
436.17227285495829
 20
559.78681326476919
 30
0.0
 11
481.17230285495828
 21
559.78681326476919
 31
0.0
  0
LINE
  5
289A
  8
AM_0
 10
436.17227285495829
 20
569.78681326476885
 30
0.0
 11
481.17230285495828
 21
569.78681326476885
 31
0.0
  0
LINE
  5
289B
  8
AM_0
 10
481.17230285495828
 20
580.78684326476923
 30
0.0
 11
423.17227285495829
 21
580.78684326476923
 31
0.0
  0
LINE
  5
289C
  8
AM_0
 10
481.17230285495828
 20
548.78684326476923
 30
0.0
 11
423.17227285495829
 21
548.78684326476923
 31
0.0
  0
LINE
  5
289D
  8
ﾁｭｳｼﾝｾﾝ
 10
33.672270422293451
 20
564.78681326476897
 30
0.0
 11
489.08511285495831
 21
564.78681326476897
 31
0.0
  0
LINE
  5
289E
  8
AM_0
 10
200.17224285495851
 20
596.74845326476918
 30
0.0
 11
245.99121285495841
 21
596.74845326476918
 31
0.0
  0
LINE
  5
289F
  8
AM_0
 10
200.17224285495851
 20
610.78714326476927
 30
0.0
 11
250.4613028549584
 21
610.78714326476927
 31
0.0
  0
LINE
  5
28A0
  8
AM_0
 10
256.79584285495838
 20
622.76419326476935
 30
0.0
 11
200.17224285495851
 21
620.78684326476923
 31
0.0
  0
LINE
  5
28A1
  8
AM_0
 10
200.17224285495851
 20
508.78681326476919
 30
0.0
 11
256.79578285495842
 21
506.80945326476922
 31
0.0
  0
LINE
  5
28A2
  8
AM_0
 10
200.17224285495851
 20
518.78650326476918
 30
0.0
 11
250.4613028549584
 21
518.78650326476918
 31
0.0
  0
LINE
  5
28A3
  8
AM_0
 10
200.17224285495851
 20
532.82514326476905
 30
0.0
 11
245.99121285495841
 21
532.82514326476905
 31
0.0
  0
POLYLINE
  5
2A6B
  8
AM_0
 66
     1
 10
0.0
 20
0.0
 30
0.0
  0
VERTEX
  5
2A6C
  8
AM_0
 10
396.83838285495841
 20
667.45291326476934
 30
0.0
 42
0.079826744
  0
VERTEX
  5
2A6D
  8
AM_0
 10
370.9965528549584
 20
600.54647326476925
 30
0.0
 42
0.10414854
  0
VERTEX
  5
2A6E
  8
AM_0
 10
370.99662285495828
 20
529.02677326476908
 30
0.0
 42
0.079826277
  0
VERTEX
  5
2A6F
  8
AM_0
 10
396.83838285495841
 20
462.1206732647691
 30
0.0
  0
SEQEND
  5
2A70
  8
AM_0
  0
ARC
  5
2A71
  8
AM_0
 10
436.17227285495829
 20
564.78681326476897
 30
0.0
 40
5.0
 50
90.000003000000945
 51
270.0
  0
LINE
  5
2A72
  8
AM_0
 10
436.17227285495829
 20
569.78681326476885
 30
0.0
 11
436.17227285495829
 21
559.78681326476919
 31
0.0
  0
LINE
  5
2A73
  8
AM_0
 10
423.17227285495829
 20
459.78678326476921
 30
0.0
 11
423.17227285495829
 21
669.78684326476923
 31
0.0
  0
LINE
  5
2A74
  8
AM_0
 10
419.17227285495829
 20
447.28681326476919
 30
0.0
 11
419.17227285495829
 21
682.28684326476923
 31
0.0
  0
LINE
  5
2A75
  8
AM_0
 10
411.17227285495829
 20
474.18708326476889
 30
0.0
 11
411.17227285495829
 21
655.38657326476914
 31
0.0
  0
LINE
  5
2A76
  8
AM_0
 10
404.17227285495829
 20
450.70768326476889
 30
0.0
 11
404.17227285495829
 21
678.86594326476893
 31
0.0
  0
LINE
  5
2A77
  8
AM_0
 10
230.1722428549584
 20
554.78681326476919
 30
0.0
 11
230.1722428549584
 21
574.78681326476931
 31
0.0
  0
LINE
  5
2A78
  8
AM_0
 10
259.67224285495848
 20
504.28681326476919
 30
0.0
 11
259.67224285495848
 21
625.28678326476927
 31
0.0
  0
LINE
  5
2A79
  8
AM_0
 10
268.67224285495848
 20
501.28681326476919
 30
0.0
 11
268.67224285495848
 21
628.28678326476916
 31
0.0
  0
LINE
  5
2A7A
  8
AM_0
 10
268.67224285495848
 20
628.28678326476916
 30
0.0
 11
268.67224285495848
 21
501.28675326476917
 31
0.0
  0
LINE
  5
2A7B
  8
AM_0
 10
296.17224285495848
 20
467.56742326476922
 30
0.0
 11
296.17224285495848
 21
662.00620326476928
 31
0.0
  0
LINE
  5
2A7C
  8
AM_0
 10
281.17224285495848
 20
492.85788326476921
 30
0.0
 11
281.17224285495848
 21
636.71573326476914
 31
0.0
  0
LINE
  5
2A7D
  8
AM_0
 10
306.17224285495848
 20
465.28681326476902
 30
0.0
 11
306.17224285495848
 21
664.28678326476916
 31
0.0
  0
LINE
  5
2A7E
  8
AM_0
 10
306.1723028549585
 20
465.28681326476902
 30
0.0
 11
394.87003285495842
 21
462.18943326476892
 31
0.0
  0
LINE
  5
2A7F
  8
AM_0
 10
298.10242285495838
 20
465.56861326476923
 30
0.0
 11
306.17224285495848
 21
465.28681326476902
 31
0.0
  0
ARC
  5
2A80
  8
AM_0
 10
298.17224285495848
 20
467.56742326476922
 30
0.0
 40
2.0
 50
179.999989999999
 51
268.00000999999861
  0
LINE
  5
2A81
  8
AM_0
 10
268.6723028549585
 20
501.28675326476917
 30
0.0
 11
276.34674285495851
 21
501.01880326476908
 31
0.0
  0
LINE
  5
2A82
  8
AM_0
 10
268.67224285495848
 20
512.74680326476914
 30
0.0
 11
281.17224285495848
 21
512.74680326476914
 31
0.0
  0
LINE
  5
2A83
  8
AM_0
 10
268.67224285495848
 20
527.63681326476922
 30
0.0
 11
281.17224285495848
 21
527.63681326476922
 31
0.0
  0
POLYLINE
  5
2A84
  8
AM_0
 66
     1
 10
0.0
 20
0.0
 30
0.0
  0
VERTEX
  5
2A85
  8
AM_0
 10
257.60357285495837
 20
511.4061832647688
 30
0.0
  0
VERTEX
  5
2A86
  8
AM_0
 10
252.0601428549584
 20
519.24839326476922
 30
0.0
 42
-1.0
  0
SEQEND
  5
2A87
  8
AM_0
  0
ARC
  5
2A88
  8
AM_0
 10
250.4613028549584
 20
521.78650326476918
 30
0.0
 40
3.0
 50
270.0
 51
31.46020299999925
  0
ARC
  5
2A89
  8
AM_0
 10
249.67224285495851
 20
505.3157132647691
 30
0.0
 40
10.0
 50
0.0
 51
37.523535999997527
  0
ARC
  5
2A8A
  8
AM_0
 10
256.69104285495843
 20
503.81131326476918
 30
0.0
 40
3.0
 50
4.545488300001014
 51
87.999999999999503
  0
LINE
  5
2A8B
  8
AM_0
 10
268.67224285495848
 20
501.28681326476919
 30
0.0
 11
262.67224285495848
 21
501.28681326476919
 31
0.0
  0
ARC
  5
2A8C
  8
AM_0
 10
262.67224285495848
 20
504.28681326476919
 30
0.0
 40
3.0
 50
180.00001000000091
 51
270.0
  0
LINE
  5
2A8D
  8
AM_0
 10
268.67224285495848
 20
512.74680326476914
 30
0.0
 11
259.67224285495848
 21
512.74680326476914
 31
0.0
  0
POLYLINE
  5
2A8E
  8
AM_0
 66
     1
 10
0.0
 20
0.0
 30
0.0
  0
VERTEX
  5
2A8F
  8
AM_0
 10
244.54915285495849
 20
532.82434326476925
 30
0.0
  0
VERTEX
  5
2A90
  8
AM_0
 10
238.2616028549584
 20
551.78628326476917
 30
0.0
 42
-1.0
  0
SEQEND
  5
2A91
  8
AM_0
  0
LINE
  5
2A92
  8
AM_0
 10
233.17224285495851
 20
551.78681326476908
 30
0.0
 11
256.67224285495848
 21
551.78681326476908
 31
0.0
  0
ARC
  5
2A93
  8
AM_0
 10
233.17224285495851
 20
554.78681326476919
 30
0.0
 40
3.0
 50
180.00001000000091
 51
270.0
  0
POLYLINE
  5
2A94
  8
AM_0
 66
     1
 10
0.0
 20
0.0
 30
0.0
  0
VERTEX
  5
2A95
  8
AM_0
 10
253.02035285495839
 20
523.35222326476924
 30
0.0
 42
-0.0050917014
  0
VERTEX
  5
2A96
  8
AM_0
 10
251.87243285495839
 20
525.27187326476906
 30
0.0
 42
-0.0052112711
  0
VERTEX
  5
2A97
  8
AM_0
 10
250.7642928549584
 20
527.21476326476909
 30
0.0
 42
-0.0053447966
  0
VERTEX
  5
2A98
  8
AM_0
 10
249.69741285495849
 20
529.18061326476914
 30
0.0
 42
-0.0054924736
  0
VERTEX
  5
2A99
  8
AM_0
 10
248.67337285495839
 20
531.16913326476924
 30
0.0
  0
SEQEND
  5
2A9A
  8
AM_0
  0
ARC
  5
2A9B
  8
AM_0
 10
245.99121285495841
 20
529.82514326476905
 30
0.0
 40
3.0
 50
26.61499800000183
 51
90.000003000000945
  0
LINE
  5
2A9C
  8
AM_0
 10
268.67224285495848
 20
527.63889326476919
 30
0.0
 11
259.67224285495848
 21
527.63889326476919
 31
0.0
  0
ARC
  5
2A9D
  8
AM_0
 10
256.67224285495848
 20
548.78681326476885
 30
0.0
 40
3.0
 50
0.0
 51
90.000003000000945
  0
LINE
  5
2A9E
  8
AM_0
 10
282.63672285495852
 20
489.32236326476919
 30
0.0
 11
295.2935828549584
 21
476.66550326476892
 31
0.0
  0
ARC
  5
2A9F
  8
AM_0
 10
286.17224285495848
 20
492.85788326476921
 30
0.0
 40
5.0
 50
179.999989999999
 51
225.0
  0
ARC
  5
2AA0
  8
AM_0
 10
293.17224285495848
 20
474.54416326476922
 30
0.0
 40
3.0
 50
0.0
 51
44.999998000001611
  0
ARC
  5
2AA1
  8
AM_0
 10
276.17224285495848
 20
496.02185326476922
 30
0.0
 40
5.0
 50
0.0
 51
87.999999999999503
  0
ARC
  5
2AA2
  8
AM_0
 10
408.17227285495829
 20
474.18708326476889
 30
0.0
 40
3.0
 50
267.99999999999949
 51
0.0
  0
LINE
  5
2AA4
  8
AM_0
 10
407.06757285495831
 20
447.70951326476921
 30
0.0
 11
419.17227285495829
 21
447.28681326476919
 31
0.0
  0
LINE
  5
2AA5
  8
AM_0
 10
398.23105285495842
 20
460.72800326476909
 30
0.0
 11
404.17227285495829
 21
454.78678326476921
 31
0.0
  0
ARC
  5
2AA6
  8
AM_0
 10
407.17227285495829
 20
450.70768326476889
 30
0.0
 40
3.0
 50
179.999989999999
 51
268.00000999999861
  0
ARC
  5
2AA7
  8
AM_0
 10
394.69553285495829
 20
457.1924532647692
 30
0.0
 40
5.0
 50
45.000000999996892
 51
87.999999999999503
  0
LINE
  5
2AA8
  8
AM_0
 10
419.17227285495829
 20
459.78678326476921
 30
0.0
 11
423.17227285495829
 21
459.78678326476921
 31
0.0
  0
LINE
  5
2AA9
  8
AM_0
 10
407.8877328549583
 20
471.19519326476922
 30
0.0
 11
408.06757285495831
 21
471.18891326476921
 31
0.0
  0
LINE
  5
2AAA
  8
AM_0
 10
407.17227285495829
 20
508.87607326476922
 30
0.0
 11
411.17227285495829
 21
508.87607326476922
 31
0.0
  0
ARC
  5
2AAB
  8
AM_0
 10
407.17227285495829
 20
505.87607326476922
 30
0.0
 40
3.0
 50
90.000003000000945
 51
180.00001000000091
  0
LINE
  5
2AAC
  8
AM_0
 10
306.1723028549585
 20
664.28678326476916
 30
0.0
 11
394.87003285495842
 21
667.38419326476924
 31
0.0
  0
ARC
  5
2AAD
  8
AM_0
 10
298.17224285495848
 20
662.00620326476928
 30
0.0
 40
2.0
 50
91.999998000000545
 51
180.00001000000091
  0
LINE
  5
2AAE
  8
AM_0
 10
268.67224285495848
 20
628.28684326476923
 30
0.0
 11
276.34674285495851
 21
628.5547832647693
 31
0.0
  0
LINE
  5
2AAF
  8
AM_0
 10
268.67224285495848
 20
601.93680326476886
 30
0.0
 11
281.17224285495848
 21
601.93680326476886
 31
0.0
  0
LINE
  5
2AB0
  8
AM_0
 10
268.67224285495848
 20
616.82682326476925
 30
0.0
 11
281.17224285495848
 21
616.82682326476925
 31
0.0
  0
POLYLINE
  5
2AB1
  8
AM_0
 66
     1
 10
0.0
 20
0.0
 30
0.0
  0
VERTEX
  5
2AB2
  8
AM_0
 10
257.60357285495837
 20
618.16741326476915
 30
0.0
  0
VERTEX
  5
2AB3
  8
AM_0
 10
252.0601428549584
 20
610.32519326476915
 30
0.0
 42
-1.0
  0
SEQEND
  5
2AB4
  8
AM_0
  0
POLYLINE
  5
2AB5
  8
AM_0
 66
     1
 10
0.0
 20
0.0
 30
0.0
  0
VERTEX
  5
2AB6
  8
AM_0
 10
244.54915285495849
 20
596.74925326476932
 30
0.0
  0
VERTEX
  5
2AB7
  8
AM_0
 10
238.2616028549584
 20
577.78733326476913
 30
0.0
 42
-1.0
  0
SEQEND
  5
2AB8
  8
AM_0
  0
LINE
  5
2AB9
  8
AM_0
 10
233.17224285495851
 20
577.78681326476885
 30
0.0
 11
256.67224285495848
 21
577.78681326476885
 31
0.0
  0
ARC
  5
2ABA
  8
AM_0
 10
233.17224285495851
 20
574.78681326476931
 30
0.0
 40
3.0
 50
90.000003000000945
 51
180.00001000000091
  0
ARC
  5
2ABB
  8
AM_0
 10
256.67224285495848
 20
580.78678326476916
 30
0.0
 40
3.0
 50
270.0
 51
0.0
  0
POLYLINE
  5
2ABC
  8
AM_0
 66
     1
 10
0.0
 20
0.0
 30
0.0
  0
VERTEX
  5
2ABD
  8
AM_0
 10
253.02035285495839
 20
606.22137326476934
 30
0.0
 42
0.0050916976
  0
VERTEX
  5
2ABE
  8
AM_0
 10
251.87243285495839
 20
604.30172326476918
 30
0.0
 42
0.005211269
  0
VERTEX
  5
2ABF
  8
AM_0
 10
250.7642928549584
 20
602.35883326476915
 30
0.0
 42
0.005344796
  0
VERTEX
  5
2AC0
  8
AM_0
 10
249.69741285495849
 20
600.3929832647691
 30
0.0
 42
0.0054924746
  0
VERTEX
  5
2AC1
  8
AM_0
 10
248.67337285495839
 20
598.40447326476885
 30
0.0
  0
SEQEND
  5
2AC2
  8
AM_0
  0
ARC
  5
2AC3
  8
AM_0
 10
245.99121285495841
 20
599.7484532647693
 30
0.0
 40
3.0
 50
270.0
 51
333.3850000000013
  0
ARC
  5
2AC4
  8
AM_0
 10
250.4613028549584
 20
607.78714326476916
 30
0.0
 40
3.0
 50
328.53980000000109
 51
90.000003000000945
  0
LINE
  5
2AC5
  8
AM_0
 10
268.67224285495848
 20
601.93473326476931
 30
0.0
 11
259.67224285495848
 21
601.93473326476931
 31
0.0
  0
ARC
  5
2AC6
  8
AM_0
 10
262.67224285495848
 20
625.28678326476927
 30
0.0
 40
3.0
 50
90.000003000000945
 51
180.00001000000091
  0
LINE
  5
2AC7
  8
AM_0
 10
268.67224285495848
 20
616.82682326476925
 30
0.0
 11
259.67224285495848
 21
616.82682326476925
 31
0.0
  0
ARC
  5
2AC8
  8
AM_0
 10
249.67224285495851
 20
624.25791326476917
 30
0.0
 40
10.0
 50
322.47645999999781
 51
0.0
  0
ARC
  5
2AC9
  8
AM_0
 10
256.69104285495843
 20
625.76230326476912
 30
0.0
 40
3.0
 50
272.00000000000051
 51
355.45443000000142
  0
LINE
  5
2ACA
  8
AM_0
 10
268.67224285495848
 20
628.28678326476916
 30
0.0
 11
262.67224285495848
 21
628.28678326476916
 31
0.0
  0
ARC
  5
2ACB
  8
AM_0
 10
286.17224285495848
 20
636.71573326476914
 30
0.0
 40
5.0
 50
135.0
 51
180.00001000000091
  0
ARC
  5
2ACC
  8
AM_0
 10
276.17224285495848
 20
633.55179326476923
 30
0.0
 40
5.0
 50
272.00000000000051
 51
0.0
  0
LINE
  5
2ACD
  8
AM_0
 10
282.63672285495852
 20
640.25125326476916
 30
0.0
 11
295.2935828549584
 21
652.90812326476919
 31
0.0
  0
ARC
  5
2ACE
  8
AM_0
 10
293.17224285495848
 20
655.02945326476924
 30
0.0
 40
3.0
 50
315.0
 51
0.0
  0
LINE
  5
2ACF
  8
AM_0
 10
298.1024828549584
 20
664.00498326476895
 30
0.0
 11
306.17224285495848
 21
664.28678326476916
 31
0.0
  0
LINE
  5
2AD1
  8
AM_0
 10
407.17227285495829
 20
620.69754326476914
 30
0.0
 11
411.17227285495829
 21
620.69754326476914
 31
0.0
  0
ARC
  5
2AD2
  8
AM_0
 10
407.17227285495829
 20
623.69754326476914
 30
0.0
 40
3.0
 50
179.999989999999
 51
270.0
  0
ARC
  5
2AD3
  8
AM_0
 10
408.17227285495829
 20
655.38657326476914
 30
0.0
 40
3.0
 50
0.0
 51
91.999998000000545
  0
LINE
  5
2AD4
  8
AM_0
 10
407.8877328549583
 20
658.37839326476933
 30
0.0
 11
408.06757285495831
 21
658.38468326476914
 31
0.0
  0
LINE
  5
2AD5
  8
AM_0
 10
407.0676028549583
 20
681.86411326476934
 30
0.0
 11
419.17227285495829
 21
682.28678326476916
 31
0.0
  0
LINE
  5
2AD6
  8
AM_0
 10
398.2310828549584
 20
668.8456232647693
 30
0.0
 11
404.17227285495829
 21
674.78684326476923
 31
0.0
  0
ARC
  5
2AD7
  8
AM_0
 10
394.69553285495829
 20
672.38114326476932
 30
0.0
 40
5.0
 50
272.00000000000051
 51
315.0
  0
ARC
  5
2AD8
  8
AM_0
 10
407.17227285495829
 20
678.86594326476893
 30
0.0
 40
3.0
 50
91.999998000000545
 51
180.00001000000091
  0
LINE
  5
2AD9
  8
AM_0
 10
419.17227285495829
 20
669.78684326476923
 30
0.0
 11
423.17227285495829
 21
669.78684326476923
 31
0.0
  0
LINE
  5
2ADA
  8
AM_0
 10
481.17230285495828
 20
548.78684326476923
 30
0.0
 11
481.17230285495828
 21
580.78684326476923
 31
0.0
  0
LINE
  5
305D
  8
AM_0
 10
117.6722428549585
 20
499.18681326476928
 30
0.0
 11
181.6722428549584
 21
499.18681326476923
 31
0.0
  0
LINE
  5
305E
  8
AM_0
 10
56.172242854958611
 20
630.38681326476933
 30
0.0
 11
181.6722428549584
 21
630.38681326476933
 31
0.0
  0
ARC
  5
305F
  8
AM_0
 10
41.67224285495849
 20
547.78681326476908
 30
0.0
 40
3.0
 50
180.0
 51
270.0
1001
GENIUS_GENODEF_13
1002
{
1000
HIER
1070
     0
1002
}
1002
{
1000
MANEDIT
1070
     0
1002
}
1002
{
1000
NOSEL
1070
     0
1002
}
1002
{
1000
BEHIND
1070
     0
1002
}
1002
{
1000
OTHER
1070
     0
1002
}
1002
{
1000
REACTOR
1002
}
1001
GENIUS_GENOBJ-N-FIL_13
1002
{
1000
OWNER
1000
GEN
1002
}
  0
LINE
  5
3060
  8
AM_0
 10
49.672242854958633
 20
617.88868113614865
 30
0.0
 11
49.67224285495849
 21
511.68494539338963
 31
0.0
  0
ARC
  5
3061
  8
AM_0
 10
988.85836666477769
 20
564.78681326476897
 30
0.0
 40
940.68612380981915
 50
176.76392470776139
 51
183.2360752922385
  0
LINE
  5
3062
  8
AM_0
 10
56.672242854958618
 20
630.38681326476933
 30
0.0
 11
56.672242854958498
 21
499.18681326476923
 31
0.0
  0
LINE
  5
3063
  8
AM_0
 10
54.172242854958618
 20
628.38681326476933
 30
0.0
 11
54.172242854958618
 21
501.18681326476923
 31
0.0
  0
LINE
  5
3064
  8
AM_3N
  6
AM_ISO02W050X2
 10
83.672242854958512
 20
502.77453998649668
 30
0.0
 11
82.172242854958498
 21
504.6619500150552
 31
0.0
1001
GENIUS_GENOREF_13
1005
0
  0
ARC
  5
3065
  8
AM_0N
 10
82.172242854958498
 20
507.54423599358108
 30
0.0
 40
5.0
 50
246.4528627629243
 51
293.54713723707567
1001
GENIUS_GENOREF_13
1005
0
  0
LINE
  5
3066
  8
AM_0
 10
86.172242854958625
 20
500.9132801305833
 30
0.0
 11
78.172242854958512
 21
500.9132801305833
 31
0.0
  0
LINE
  5
3067
  8
AM_0N
 10
74.172242854958512
 20
504.94423599358112
 30
0.0
 11
90.172242854958512
 21
504.94423599358112
 31
0.0
1001
GENIUS_GENOREF_13
1005
0
  0
LINE
  5
3068
  8
AM_0
 10
90.172242854958512
 20
508.49602028530018
 30
0.0
 11
74.172242854958512
 21
508.49602028530018
 31
0.0
1001
GENIUS_GENOREF_13
1005
3097
  0
LINE
  5
3069
  8
AM_0
 10
115.6722428549584
 20
483.72681403583101
 30
0.0
 11
61.672242854958498
 21
483.72681403583101
 31
0.0
  0
LINE
  5
306A
  8
AM_0
 10
115.6722428549585
 20
487.1344150345376
 30
0.0
 11
61.672242854958498
 21
487.1344150345376
 31
0.0
  0
LINE
  5
306B
  8
AM_0
 10
74.172242854958512
 20
508.49602028530018
 30
0.0
 11
74.172242854958512
 21
495.63721733207421
 31
0.0
  0
LINE
  5
306C
  8
AM_0
 10
78.172242854958512
 20
504.94423599358112
 30
0.0
 11
78.172242854958512
 21
495.63721733207421
 31
0.0
  0
ARC
  5
306D
  8
AM_0
 10
56.172242854958611
 20
501.18681326476923
 30
0.0
 40
2.0
 50
180.0
 51
270.0
1001
GENIUS_GENOBJ-N-FIL_13
1002
{
1000
OWNER
1000
GEN
1002
}
1001
GENIUS_GENODEF_13
1002
{
1000
HIER
1070
     0
1002
}
1002
{
1000
MANEDIT
1070
     0
1002
}
1002
{
1000
NOSEL
1070
     0
1002
}
1002
{
1000
BEHIND
1070
     0
1002
}
1002
{
1000
OTHER
1070
     0
1002
}
1002
{
1000
REACTOR
1002
}
  0
LINE
  5
306E
  8
AM_0
 10
59.67224285495849
 20
502.52784029159
 30
0.0
 11
59.67224285495849
 21
485.72681403583113
 31
0.0
  0
ARC
  5
306F
  8
AM_0
 10
61.672242854958498
 20
489.1344150345376
 30
0.0
 40
2.0
 50
180.0
 51
270.0
1001
GENIUS_GENODEF_13
1002
{
1000
HIER
1070
     0
1002
}
1002
{
1000
MANEDIT
1070
     0
1002
}
1002
{
1000
NOSEL
1070
     0
1002
}
1002
{
1000
BEHIND
1070
     0
1002
}
1002
{
1000
OTHER
1070
     0
1002
}
1002
{
1000
REACTOR
1002
}
1001
GENIUS_GENOBJ-N-FIL_13
1002
{
1000
OWNER
1000
GEN
1002
}
  0
ARC
  5
3070
  8
AM_0
 10
61.672242854958498
 20
485.72681403583113
 30
0.0
 40
2.0
 50
180.0
 51
270.0
1001
GENIUS_GENOBJ-N-FIL_13
1002
{
1000
OWNER
1000
GEN
1002
}
1001
GENIUS_GENODEF_13
1002
{
1000
HIER
1070
     0
1002
}
1002
{
1000
MANEDIT
1070
     0
1002
}
1002
{
1000
NOSEL
1070
     0
1002
}
1002
{
1000
BEHIND
1070
     0
1002
}
1002
{
1000
OTHER
1070
     0
1002
}
1002
{
1000
REACTOR
1002
}
  0
LINE
  5
3071
  8
AM_0
 10
56.172242854958611
 20
499.18681326476923
 30
0.0
 11
59.67224285495849
 21
499.18681326476923
 31
0.0
  0
LINE
  5
3072
  8
AM_0
 10
78.172242854958512
 20
495.6372173320745
 30
0.0
 11
74.172242854958512
 21
495.63721733207421
 31
0.0
  0
ARC
  5
3073
  8
AM_0
 10
51.672242854958498
 20
511.68494539338963
 30
0.0
 40
2.0
 50
180.0
 51
228.36646066343241
1001
GENIUS_GENODEF_13
1002
{
1000
HIER
1070
     0
1002
}
1002
{
1000
MANEDIT
1070
     0
1002
}
1002
{
1000
NOSEL
1070
     0
1002
}
1002
{
1000
BEHIND
1070
     0
1002
}
1002
{
1000
OTHER
1070
     0
1002
}
1002
{
1000
REACTOR
1002
}
1001
GENIUS_GENOBJ-N-FIL_13
1002
{
1000
OWNER
1000
GEN
1002
}
  0
LINE
  5
3074
  8
AM_0
 10
41.67224285495849
 20
544.78681326476931
 30
0.0
 11
48.384877656000711
 21
544.78681326476931
 31
0.0
  0
LINE
  5
3075
  8
AM_0
 10
74.172242854958512
 20
504.52784029159028
 30
0.0
 11
61.672242854958498
 21
504.52784029159028
 31
0.0
  0
ARC
  5
3076
  8
AM_0
 10
52.172242854958633
 20
505.8886811361487
 30
0.0
 40
2.0
 50
0.0
 51
48.36646066343252
1001
GENIUS_GENOBJ-N-FIL_13
1002
{
1000
OWNER
1000
GEN
1002
}
1001
GENIUS_GENODEF_13
1002
{
1000
HIER
1070
     0
1002
}
1002
{
1000
MANEDIT
1070
     0
1002
}
1002
{
1000
NOSEL
1070
     0
1002
}
1002
{
1000
BEHIND
1070
     0
1002
}
1002
{
1000
OTHER
1070
     0
1002
}
1002
{
1000
REACTOR
1002
}
  0
LINE
  5
3077
  8
AM_0
 10
53.50097053261841
 20
507.38349977351601
 30
0.0
 11
50.343515177298698
 21
510.19012675602232
 31
0.0
  0
ARC
  5
3078
  8
AM_0
 10
61.672242854958498
 20
502.52784029159
 30
0.0
 40
2.0
 50
90.0
 51
180.0
1001
GENIUS_GENOBJ-N-FIL_13
1002
{
1000
OWNER
1000
GEN
1002
}
1001
GENIUS_GENODEF_13
1002
{
1000
HIER
1070
     0
1002
}
1002
{
1000
MANEDIT
1070
     0
1002
}
1002
{
1000
NOSEL
1070
     0
1002
}
1002
{
1000
BEHIND
1070
     0
1002
}
1002
{
1000
OTHER
1070
     0
1002
}
1002
{
1000
REACTOR
1002
}
  0
LINE
  5
3079
  8
AM_3N
  6
AM_ISO02W050X2
 10
81.919742854958514
 20
502.55061568863198
 30
0.0
 11
81.919742854958514
 21
504.34423599358109
 31
0.0
1001
GENIUS_GENOREF_13
1005
0
  0
LINE
  5
307A
  8
AM_3N
  6
AM_ISO02W050X2
 10
82.424742854958495
 20
502.55061568863198
 30
0.0
 11
82.424742854958495
 21
504.34423599358109
 31
0.0
1001
GENIUS_GENOREF_13
1005
0
  0
LINE
  5
307B
  8
AM_3N
  6
AM_ISO02W050X2
 10
82.424742854958495
 20
504.34423599358109
 30
0.0
 11
81.919742854958514
 21
504.34423599358109
 31
0.0
1001
GENIUS_GENOREF_13
1005
0
  0
ARC
  5
307C
  8
AM_0N
 10
80.654129937968221
 20
504.06065548334948
 30
0.0
 40
1.1999999999999991
 50
184.99999999999969
 51
246.4528627629243
1001
GENIUS_GENOREF_13
1005
0
  0
LINE
  5
307D
  8
AM_0N
 10
79.458696300258183
 20
503.95606859205208
 30
0.0
 11
79.3722428549585
 21
504.94423599358112
 31
0.0
1001
GENIUS_GENOREF_13
1005
0
  0
LINE
  5
307E
  8
AM_3N
  6
AM_ISO02W050X2
 10
80.67224285495854
 20
502.77453998649668
 30
0.0
 11
82.172242854958498
 21
504.6619500150552
 31
0.0
1001
GENIUS_GENOREF_13
1005
0
  0
LINE
  5
307F
  8
AM_0
 10
117.6722428549585
 20
502.52784029159
 30
0.0
 11
117.6722428549584
 21
485.72681403583113
 31
0.0
  0
LINE
  5
3080
  8
AM_0
 10
90.172242854958512
 20
508.49602028530018
 30
0.0
 11
90.172242854958512
 21
495.63721733207421
 31
0.0
  0
LINE
  5
3081
  8
AM_0
 10
86.172242854958625
 20
504.9442359935814
 30
0.0
 11
86.172242854958625
 21
495.6372173320745
 31
0.0
  0
ARC
  5
3082
  8
AM_0
 10
115.6722428549584
 20
485.72681403583113
 30
0.0
 40
2.0
 50
270.0
 51
0.0
1001
GENIUS_GENOBJ-N-FIL_13
1002
{
1000
OWNER
1000
GEN
1002
}
1001
GENIUS_GENODEF_13
1002
{
1000
HIER
1070
     0
1002
}
1002
{
1000
MANEDIT
1070
     0
1002
}
1002
{
1000
NOSEL
1070
     0
1002
}
1002
{
1000
BEHIND
1070
     0
1002
}
1002
{
1000
OTHER
1070
     0
1002
}
1002
{
1000
REACTOR
1002
}
  0
ARC
  5
3083
  8
AM_0
 10
115.6722428549585
 20
489.1344150345376
 30
0.0
 40
2.0
 50
270.0
 51
0.0
1001
GENIUS_GENOBJ-N-FIL_13
1002
{
1000
OWNER
1000
GEN
1002
}
1001
GENIUS_GENODEF_13
1002
{
1000
HIER
1070
     0
1002
}
1002
{
1000
MANEDIT
1070
     0
1002
}
1002
{
1000
NOSEL
1070
     0
1002
}
1002
{
1000
BEHIND
1070
     0
1002
}
1002
{
1000
OTHER
1070
     0
1002
}
1002
{
1000
REACTOR
1002
}
  0
LINE
  5
3084
  8
AM_0
 10
90.172242854958512
 20
495.63721733207421
 30
0.0
 11
86.172242854958625
 21
495.6372173320745
 31
0.0
  0
ARC
  5
3085
  8
AM_0
 10
115.6722428549585
 20
502.52784029159
 30
0.0
 40
2.0
 50
0.0
 51
90.0
1001
GENIUS_GENODEF_13
1002
{
1000
HIER
1070
     0
1002
}
1002
{
1000
MANEDIT
1070
     0
1002
}
1002
{
1000
NOSEL
1070
     0
1002
}
1002
{
1000
BEHIND
1070
     0
1002
}
1002
{
1000
OTHER
1070
     0
1002
}
1002
{
1000
REACTOR
1002
}
1001
GENIUS_GENOBJ-N-FIL_13
1002
{
1000
OWNER
1000
GEN
1002
}
  0
LINE
  5
3086
  8
AM_0
 10
115.6722428549585
 20
504.52784029159028
 30
0.0
 11
90.172242854958512
 21
504.52784029159028
 31
0.0
  0
ARC
  5
3087
  8
AM_0N
 10
83.690355771948774
 20
504.06065548334948
 30
0.0
 40
1.1999999999999991
 50
293.54713723707567
 51
355.00000000000023
1001
GENIUS_GENOREF_13
1005
0
  0
LINE
  5
3088
  8
AM_0N
 10
84.885789409658813
 20
503.95606859205208
 30
0.0
 11
84.972242854958509
 21
504.94423599358112
 31
0.0
1001
GENIUS_GENOREF_13
1005
0
  0
LINE
  5
3089
  8
AM_0
 10
38.672242854958633
 20
581.78681326476885
 30
0.0
 11
38.672242854958512
 21
547.78681326476908
 31
0.0
  0
LINE
  5
308A
  8
AM_0
 10
41.672242854958611
 20
584.78681326476919
 30
0.0
 11
48.384877656000711
 21
584.78681326476919
 31
0.0
  0
ARC
  5
308B
  8
AM_0
 10
41.672242854958611
 20
581.78681326476885
 30
0.0
 40
3.0
 50
90.0
 51
180.0
1001
GENIUS_GENOBJ-N-FIL_13
1002
{
1000
OWNER
1000
GEN
1002
}
1001
GENIUS_GENODEF_13
1002
{
1000
HIER
1070
     0
1002
}
1002
{
1000
MANEDIT
1070
     0
1002
}
1002
{
1000
NOSEL
1070
     0
1002
}
1002
{
1000
BEHIND
1070
     0
1002
}
1002
{
1000
OTHER
1070
     0
1002
}
1002
{
1000
REACTOR
1002
}
  0
ARC
  5
308C
  8
AM_0
 10
51.672242854958618
 20
617.88868113614865
 30
0.0
 40
2.0
 50
131.63353933656751
 51
180.0
1001
GENIUS_GENODEF_13
1002
{
1000
HIER
1070
     0
1002
}
1002
{
1000
MANEDIT
1070
     0
1002
}
1002
{
1000
NOSEL
1070
     0
1002
}
1002
{
1000
BEHIND
1070
     0
1002
}
1002
{
1000
OTHER
1070
     0
1002
}
1002
{
1000
REACTOR
1002
}
1001
GENIUS_GENOBJ-N-FIL_13
1002
{
1000
OWNER
1000
GEN
1002
}
  0
ARC
  5
308D
  8
AM_0
 10
52.172242854958633
 20
623.68494539338974
 30
0.0
 40
2.0
 50
311.63353933656748
 51
0.0
1001
GENIUS_GENOBJ-N-FIL_13
1002
{
1000
OWNER
1000
GEN
1002
}
1001
GENIUS_GENODEF_13
1002
{
1000
HIER
1070
     0
1002
}
1002
{
1000
MANEDIT
1070
     0
1002
}
1002
{
1000
NOSEL
1070
     0
1002
}
1002
{
1000
BEHIND
1070
     0
1002
}
1002
{
1000
OTHER
1070
     0
1002
}
1002
{
1000
REACTOR
1002
}
  0
LINE
  5
308E
  8
AM_0
 10
53.50097053261841
 20
622.19012675602232
 30
0.0
 11
50.343515177298698
 21
619.38349977351595
 31
0.0
  0
ARC
  5
308F
  8
AM_0
 10
56.172242854958611
 20
628.38681326476933
 30
0.0
 40
2.0
 50
90.0
 51
180.0
1001
GENIUS_GENOBJ-N-FIL_13
1002
{
1000
OWNER
1000
GEN
1002
}
1001
GENIUS_GENODEF_13
1002
{
1000
HIER
1070
     0
1002
}
1002
{
1000
MANEDIT
1070
     0
1002
}
1002
{
1000
NOSEL
1070
     0
1002
}
1002
{
1000
BEHIND
1070
     0
1002
}
1002
{
1000
OTHER
1070
     0
1002
}
1002
{
1000
REACTOR
1002
}
  0
LINE
  5
3090
  8
AM_0
 10
181.6722428549584
 20
630.78681326476897
 30
0.0
 11
181.6722428549584
 21
498.78681326476902
 31
0.0
  0
LINE
  5
3091
  8
AM_0
 10
200.17224285495851
 20
501.78681326476908
 30
0.0
 11
193.1722428549584
 21
498.78681326476902
 31
0.0
  0
LINE
  5
3092
  8
AM_0
 10
181.6722428549584
 20
498.78681326476902
 30
0.0
 11
193.1722428549584
 21
498.78681326476902
 31
0.0
  0
LINE
  5
3093
  8
AM_0
 10
181.6722428549584
 20
630.78681326476897
 30
0.0
 11
193.1722428549584
 21
630.78681326476897
 31
0.0
  0
LINE
  5
3094
  8
AM_0
 10
193.1722428549584
 20
630.78681326476897
 30
0.0
 11
200.17224285495851
 21
627.78681326476885
 31
0.0
  0
LINE
  5
3095
  8
AM_0
 10
200.17224285495851
 20
627.78681326476885
 30
0.0
 11
200.17224285495851
 21
501.78681326476908
 31
0.0
  0
LINE
  5
3096
  8
AM_0
 10
193.1722428549584
 20
630.78681326476897
 30
0.0
 11
193.1722428549584
 21
498.78681326476902
 31
0.0
  0
POINT
  5
3097
  8
0
 10
-85.701995746349922
 20
12.366574592420079
 30
0.0
1001
GENIUS_GENOLIS_13
1002
{
1000
ENT
1005
0
1005
0
1005
0
1005
3068
1002
}
1001
GENIUS_GENOENT_13
1002
{
1000
MYREF
1005
3097
1002
}
1002
{
1000
GRP
1005
0
1002
}
1001
GENIUS_GENOBJ-NBEHI-BHB_13
1002
{
1000
OWNER
1000
genbehi
1002
}
1001
GENIUS_GENBH_13
1002
{
1000
FGO
1005
0
1002
}
1001
GENIUS_GENODEF_13
1002
{
1000
HIER
1070
     1
1002
}
1002
{
1000
MANEDIT
1070
     1
1002
}
1002
{
1000
NOSEL
1070
     1
1002
}
1002
{
1000
BEHIND
1070
     0
1002
}
1002
{
1000
OTHER
1070
     1
1002
}
1002
{
1000
REACTOR
1002
}
  0
LINE
  5
332C
  8
AM_0
 10
407.27702285495792
 20
125.90953104920909
 30
0.0
 11
419.17229285495779
 21
126.3249200492091
 31
0.0
  0
LINE
  5
332D
  8
ﾁｭｳｼﾝｾﾝ
 10
484.29062285495792
 20
243.8249090492092
 30
0.0
 11
241.1705928549583
 21
243.8249090492092
 31
0.0
  0
LINE
  5
332E
  8
AM_0
 10
407.0676228549579
 20
360.90221604920919
 30
0.0
 11
419.17229285495779
 21
361.32491604920921
 31
0.0
  0
LINE
  5
3330
  8
AM_0
 10
230.1722928549581
 20
271.19615604920909
 30
0.0
 11
230.1722928549581
 21
251.2695800492092
 31
0.0
  0
LINE
  5
3331
  8
AM_0
 10
259.67231285495808
 20
155.59506204920919
 30
0.0
 11
259.67231285495808
 21
277.03451604920917
 31
0.0
  0
LINE
  5
3332
  8
AM_0
 10
268.67231285495831
 20
151.82490504920921
 30
0.0
 11
268.67231285495831
 21
279.82490604920912
 31
0.0
  0
LINE
  5
3333
  8
AM_0
 10
238.41362285495831
 20
250.00438404920919
 30
0.0
 11
258.79364285495819
 21
270.38435904920908
 31
0.0
  0
LINE
  5
3334
  8
AM_0
 10
411.17231285495819
 20
243.8249090492092
 30
0.0
 11
411.17231285495819
 21
334.4246360492092
 31
0.0
  0
LINE
  5
3335
  8
AM_0
 10
404.17229285495819
 20
215.06067204920919
 30
0.0
 11
404.17229285495819
 21
302.73566604920921
 31
0.0
  0
LINE
  5
3336
  8
AM_0
 10
392.06018285495833
 20
292.86194604920911
 30
0.0
 11
387.63944285495819
 21
250.25807604920911
 31
0.0
  0
LINE
  5
3337
  8
AM_0
 10
281.17229285495807
 20
143.8959800492091
 30
0.0
 11
281.17229285495807
 21
287.75387604920923
 31
0.0
  0
LINE
  5
3338
  8
AM_0
 10
296.17229285495819
 20
118.6055000492091
 30
0.0
 11
296.17229285495819
 21
313.0443260492093
 31
0.0
  0
LINE
  5
3339
  8
AM_0
 10
306.17231285495831
 20
116.32492104920919
 30
0.0
 11
306.17231285495831
 21
315.3248960492092
 31
0.0
  0
LINE
  5
333A
  8
AM_0
 10
56.172292854958279
 20
256.42492904920942
 30
0.0
 11
181.67229285495799
 21
256.42492904920931
 31
0.0
  0
LINE
  5
333B
  8
AM_0
 10
56.172292854958179
 20
125.22492904920919
 30
0.0
 11
103.6722928549582
 21
125.22492904920919
 31
0.0
  0
LINE
  5
333C
  8
AM_0
 10
147.6722928549581
 20
128.52492904920931
 30
0.0
 11
170.67229285495819
 21
128.52492904920931
 31
0.0
  0
LINE
  5
333D
  8
AM_0
 10
147.6722928549581
 20
131.12492904920919
 30
0.0
 11
170.67229285495819
 21
131.12492904920919
 31
0.0
  0
LINE
  5
333E
  8
AM_0
 10
147.6722928549581
 20
134.62492904920919
 30
0.0
 11
170.67229285495819
 21
134.62492904920919
 31
0.0
  0
LINE
  5
333F
  8
AM_0
 10
147.6722928549581
 20
138.92492904920931
 30
0.0
 11
170.67229285495819
 21
138.92492904920931
 31
0.0
  0
LINE
  5
3340
  8
AM_0
 10
147.6722928549581
 20
142.42492904920931
 30
0.0
 11
170.67229285495819
 21
142.42492904920931
 31
0.0
  0
LINE
  5
3341
  8
AM_0
 10
147.6722928549581
 20
162.32492904920929
 30
0.0
 11
170.6722928549581
 21
162.32492904920929
 31
0.0
  0
LINE
  5
3342
  8
AM_0
 10
147.6722928549581
 20
147.62492904920919
 30
0.0
 11
170.67229285495819
 21
147.6249290492093
 31
0.0
  0
LINE
  5
3343
  8
AM_0
 10
147.6722928549581
 20
151.32492904920929
 30
0.0
 11
170.67229285495819
 21
151.32492904920929
 31
0.0
  0
LINE
  5
3344
  8
AM_0
 10
147.6722928549581
 20
156.82492904920929
 30
0.0
 11
170.6722928549581
 21
156.82492904920929
 31
0.0
  0
LINE
  5
3345
  8
AM_0
 10
147.6722928549581
 20
168.82492904920929
 30
0.0
 11
170.67229285495819
 21
168.82492904920929
 31
0.0
  0
LINE
  5
3346
  8
ﾁｭｳｼﾝｾﾝ
 10
254.0204328549581
 20
190.8249230492091
 30
0.0
 11
33.672270422293423
 21
190.8249230492091
 31
0.0
  0
LINE
  5
3348
  8
AM_0
 10
117.6722928549582
 20
215.82492904920929
 30
0.0
 11
117.6722928549582
 21
171.82492904920929
 31
0.0
  0
LINE
  5
3349
  8
AM_0
 10
59.672292854958179
 20
215.82492904920929
 30
0.0
 11
59.672292854958179
 21
171.82492904920929
 31
0.0
  0
LINE
  5
334A
  8
AM_0
 10
38.672292854958187
 20
207.82492904920929
 30
0.0
 11
38.672292854958187
 21
173.82492904920929
 31
0.0
  0
ARC
  5
334B
  8
AM_0
 10
988.85841666477756
 20
190.824929049209
 30
0.0
 40
940.68612380981915
 50
176.76392470776159
 51
183.2360752922383
  0
LINE
  5
334C
  8
AM_0
 10
49.672292854958179
 20
243.9267969205888
 30
0.0
 11
49.672292854958179
 21
137.72306117782981
 31
0.0
  0
LINE
  5
334D
  8
AM_0
 10
54.172292854958279
 20
254.4249290492094
 30
0.0
 11
54.172292854958172
 21
127.22492904920929
 31
0.0
  0
LINE
  5
334E
  8
AM_0
 10
56.672292854958172
 20
256.42492904920931
 30
0.0
 11
56.672292854958172
 21
125.22492904920919
 31
0.0
  0
LINE
  5
334F
  8
AM_0N
 10
81.919792854958246
 20
167.07742904920929
 30
0.0
 11
80.693697660187127
 21
167.07742904920929
 31
0.0
  0
LINE
  5
3350
  8
AM_0N
 10
81.919792854958246
 20
166.57242904920921
 30
0.0
 11
80.693697660187127
 21
166.57242904920921
 31
0.0
  0
CIRCLE
  5
3351
  8
AM_0N
 10
82.172292854958187
 20
166.82492904920929
 30
0.0
 40
2.799999999999998
  0
LINE
  5
3352
  8
AM_0
 10
76.172292854958187
 20
162.82492904920929
 30
0.0
 11
88.172292854958187
 21
162.82492904920929
 31
0.0
  0
LINE
  5
3353
  8
AM_0
 10
60.672292854958179
 20
170.82492904920929
 30
0.0
 11
116.6722928549582
 21
170.82492904920929
 31
0.0
  0
ARC
  5
3354
  8
AM_0
 10
56.172292854958179
 20
127.22492904920929
 30
0.0
 40
2.0
 50
180.0
 51
270.0
1001
GENIUS_GENOBJ-N-FIL_13
1002
{
1000
OWNER
1000
GEN
1002
}
1001
GENIUS_GENODEF_13
1002
{
1000
HIER
1070
     0
1002
}
1002
{
1000
MANEDIT
1070
     0
1002
}
1002
{
1000
NOSEL
1070
     0
1002
}
1002
{
1000
BEHIND
1070
     0
1002
}
1002
{
1000
OTHER
1070
     0
1002
}
1002
{
1000
REACTOR
1002
}
  0
LINE
  5
3355
  8
AM_0
 10
41.672292854958172
 20
170.82492904920929
 30
0.0
 11
48.384927656000393
 21
170.82492904920929
 31
0.0
  0
ARC
  5
3356
  8
AM_0
 10
41.672292854958172
 20
173.82492904920929
 30
0.0
 40
3.0
 50
180.0
 51
270.0
1001
GENIUS_GENODEF_13
1002
{
1000
HIER
1070
     0
1002
}
1002
{
1000
MANEDIT
1070
     0
1002
}
1002
{
1000
NOSEL
1070
     0
1002
}
1002
{
1000
BEHIND
1070
     0
1002
}
1002
{
1000
OTHER
1070
     0
1002
}
1002
{
1000
REACTOR
1002
}
1001
GENIUS_GENOBJ-N-FIL_13
1002
{
1000
OWNER
1000
GEN
1002
}
  0
ARC
  5
3357
  8
AM_0
 10
51.672292854958172
 20
137.72306117782981
 30
0.0
 40
2.0
 50
180.0
 51
228.36646066343141
1001
GENIUS_GENODEF_13
1002
{
1000
HIER
1070
     0
1002
}
1002
{
1000
MANEDIT
1070
     0
1002
}
1002
{
1000
NOSEL
1070
     0
1002
}
1002
{
1000
BEHIND
1070
     0
1002
}
1002
{
1000
OTHER
1070
     0
1002
}
1002
{
1000
REACTOR
1002
}
1001
GENIUS_GENOBJ-N-FIL_13
1002
{
1000
OWNER
1000
GEN
1002
}
  0
ARC
  5
3358
  8
AM_0
 10
52.172292854958179
 20
131.92679692058871
 30
0.0
 40
2.0
 50
0.0
 51
48.366460663431418
1001
GENIUS_GENOBJ-N-FIL_13
1002
{
1000
OWNER
1000
GEN
1002
}
1001
GENIUS_GENODEF_13
1002
{
1000
HIER
1070
     0
1002
}
1002
{
1000
MANEDIT
1070
     0
1002
}
1002
{
1000
NOSEL
1070
     0
1002
}
1002
{
1000
BEHIND
1070
     0
1002
}
1002
{
1000
OTHER
1070
     0
1002
}
1002
{
1000
REACTOR
1002
}
  0
LINE
  5
3359
  8
AM_0
 10
53.501020532618099
 20
133.4216155579561
 30
0.0
 11
50.343565177298402
 21
136.22824254046239
 31
0.0
  0
ARC
  5
335A
  8
AM_0
 10
60.672292854958179
 20
171.82492904920929
 30
0.0
 40
1.0
 50
180.0
 51
270.0
1001
GENIUS_GENOBJ-N-FIL_13
1002
{
1000
OWNER
1000
GEN
1002
}
1001
GENIUS_GENODEF_13
1002
{
1000
HIER
1070
     0
1002
}
1002
{
1000
MANEDIT
1070
     0
1002
}
1002
{
1000
NOSEL
1070
     0
1002
}
1002
{
1000
BEHIND
1070
     0
1002
}
1002
{
1000
OTHER
1070
     0
1002
}
1002
{
1000
REACTOR
1002
}
  0
ARC
  5
335B
  8
AM_0
 10
76.172292854958187
 20
164.82492904920929
 30
0.0
 40
2.0
 50
180.0
 51
270.0
1001
GENIUS_GENOBJ-N-FIL_13
1002
{
1000
OWNER
1000
GEN
1002
}
1001
GENIUS_GENODEF_13
1002
{
1000
HIER
1070
     0
1002
}
1002
{
1000
MANEDIT
1070
     0
1002
}
1002
{
1000
NOSEL
1070
     0
1002
}
1002
{
1000
BEHIND
1070
     0
1002
}
1002
{
1000
OTHER
1070
     0
1002
}
1002
{
1000
REACTOR
1002
}
  0
LINE
  5
335C
  8
AM_0
 10
78.172292854958187
 20
162.82492904920929
 30
0.0
 11
78.172292854958187
 21
170.82492904920929
 31
0.0
  0
LINE
  5
335D
  8
AM_0N
 10
80.693697660187127
 20
167.07742904920929
 30
0.0
 11
80.693697660187127
 21
166.57242904920921
 31
0.0
  0
LINE
  5
335E
  8
AM_0
 10
74.172292854958187
 20
164.82492904920929
 30
0.0
 11
74.172292854958187
 21
170.82492904920929
 31
0.0
  0
ARC
  5
335F
  8
AM_0
 10
147.6722928549581
 20
130.12492904920919
 30
0.0
 40
1.0
 50
90.0
 51
180.0
1001
GENIUS_GENOBJ-N-FIL_13
1002
{
1000
OWNER
1000
GEN
1002
}
1001
GENIUS_GENODEF_13
1002
{
1000
HIER
1070
     0
1002
}
1002
{
1000
MANEDIT
1070
     0
1002
}
1002
{
1000
NOSEL
1070
     0
1002
}
1002
{
1000
BEHIND
1070
     0
1002
}
1002
{
1000
OTHER
1070
     0
1002
}
1002
{
1000
REACTOR
1002
}
  0
ARC
  5
3361
  8
AM_0
 10
82.672292854958187
 20
130.12492904920919
 30
0.0
 40
1.0
 50
90.0
 51
180.0
1001
GENIUS_GENOBJ-N-FIL_13
1002
{
1000
OWNER
1000
GEN
1002
}
1001
GENIUS_GENODEF_13
1002
{
1000
HIER
1070
     0
1002
}
1002
{
1000
MANEDIT
1070
     0
1002
}
1002
{
1000
NOSEL
1070
     0
1002
}
1002
{
1000
BEHIND
1070
     0
1002
}
1002
{
1000
OTHER
1070
     0
1002
}
1002
{
1000
REACTOR
1002
}
  0
LINE
  5
3363
  8
ﾁｭｳｼﾝｾﾝ
 10
107.6722928549582
 20
172.14530025757611
 30
0.0
 11
107.6722928549582
 21
67.642394265969855
 31
0.0
  0
LINE
  5
3364
  8
AM_0
 10
105.9577478549581
 20
75.232495149209228
 30
0.0
 11
105.9517208549581
 21
81.529217049209308
 31
0.0
  0
LINE
  5
3365
  8
AM_0
 10
112.37335585495831
 20
76.60835523505574
 30
0.0
 11
112.37938285495819
 21
82.905077135055805
 31
0.0
  0
LINE
  5
3366
  8
AM_0
 10
109.3837928549583
 20
81.531779049209206
 30
0.0
 11
109.3897778549582
 21
75.235027749209308
 31
0.0
  0
LINE
  5
3367
  8
AM_0
 10
102.96224185495809
 20
76.60835523505574
 30
0.0
 11
102.95621485495811
 21
82.905077135055805
 31
0.0
  0
ARC
  5
3368
  8
AM_0
 10
107.7127388549582
 20
70.824929049209302
 30
0.0
 40
2.3091486599999991
 50
164.90527199999909
 51
16.267320000003402
  0
ARC
  5
3369
  8
AM_0
 10
104.7172328549584
 20
72.200789135055686
 30
0.0
 40
2.3091486599999991
 50
164.90527199999909
 51
290.87219614689587
  0
ARC
  5
336A
  8
AM_0
 10
110.6183648549581
 20
72.200789135055686
 30
0.0
 40
2.3091486599999991
 50
249.1278038531041
 51
15.094728000000879
  0
LINE
  5
336B
  8
AM_0
 10
106.2360513397162
 20
75.231901650501698
 30
0.0
 11
106.38235800710569
 21
74.732038230426653
 31
0.0
  0
LINE
  5
336C
  8
AM_0
 10
106.5181538549582
 20
75.231321249209302
 30
0.0
 11
105.95778985495819
 21
75.232474149209281
 31
0.0
  0
CIRCLE
  5
336D
  8
ｽﾝﾎ_ｳｾﾝ
 10
107.6722928549582
 20
70.824863949209373
 30
0.0
 40
1.5050001119999981
  0
LINE
  5
336E
  8
AM_0
 10
106.5181538549582
 20
75.231342249209263
 30
0.0
 11
105.4832948549582
 21
71.426297649209175
 31
0.0
  0
LINE
  5
336F
  8
AM_0
 10
105.8341388549581
 20
76.60505403505573
 30
0.0
 11
105.9568353316797
 21
76.185855911145893
 31
0.0
  0
LINE
  5
3370
  8
AM_0
 10
103.52264785495819
 20
76.607181335055699
 30
0.0
 11
104.67840385495811
 21
76.606112435055763
 31
0.0
  0
LINE
  5
3371
  8
AM_0
 10
103.52264785495819
 20
76.607181335055699
 30
0.0
 11
102.9622838549583
 21
76.608334235055793
 31
0.0
  0
LINE
  5
3372
  8
AM_0
 10
103.52264785495819
 20
76.607202335055774
 30
0.0
 11
102.4877888549582
 21
72.802157735055687
 31
0.0
  0
LINE
  5
3373
  8
AM_0
 10
104.67840385495811
 20
76.606112435055763
 30
0.0
 11
105.9564342082993
 21
76.604930471195232
 31
0.0
  0
ARC
  5
3374
  8
ｽﾝﾎ_ｳｾﾝ
 10
104.67678685495819
 20
72.200724035055785
 30
0.0
 40
1.5050001119999981
 50
34.081774240385151
 51
298.90870486052597
  0
LINE
  5
3375
  8
AM_0
 10
109.38981985495811
 20
75.235059249209201
 30
0.0
 11
108.8296868549582
 21
75.229217049209353
 31
0.0
  0
LINE
  5
3376
  8
AM_0
 10
107.6739098549581
 20
75.230252349209351
 30
0.0
 11
108.8296868549582
 21
75.229183449209188
 31
0.0
  0
LINE
  5
3377
  8
AM_0
 10
106.5181538549582
 20
75.231321249209302
 30
0.0
 11
107.6739098549581
 21
75.230252349209351
 31
0.0
  0
LINE
  5
3378
  8
AM_0
 10
109.0995463702002
 20
75.231901650501698
 30
0.0
 11
108.95323970281061
 21
74.732038230426653
 31
0.0
  0
LINE
  5
3379
  8
AM_0
 10
111.81294985495821
 20
76.607181335055699
 30
0.0
 11
112.3733138549581
 21
76.608334235055793
 31
0.0
  0
LINE
  5
337A
  8
AM_0
 10
110.65719385495819
 20
76.606112435055763
 30
0.0
 11
109.3791635016171
 21
76.604930471195232
 31
0.0
  0
LINE
  5
337B
  8
AM_0
 10
109.5014588549583
 20
76.60505403505573
 30
0.0
 11
109.3787623782368
 21
76.185855911145893
 31
0.0
  0
LINE
  5
337C
  8
AM_0
 10
111.81294985495821
 20
76.607181335055699
 30
0.0
 11
110.65719385495819
 21
76.606112435055763
 31
0.0
  0
LINE
  5
337D
  8
AM_0
 10
111.81294985495821
 20
76.607202335055774
 30
0.0
 11
112.8478088549582
 21
72.802157735055687
 31
0.0
  0
ARC
  5
337E
  8
ｽﾝﾎ_ｳｾﾝ
 10
110.65881085495811
 20
72.200724035055785
 30
0.0
 40
1.5050001119999981
 50
241.09129513947391
 51
145.9182257596149
  0
LINE
  5
337F
  8
AM_0
 10
108.8296448549581
 20
75.229193949209218
 30
0.0
 11
109.9294148549584
 21
71.471779449209237
 31
0.0
  0
LINE
  5
3380
  8
AM_0
 10
82.672292854958187
 20
128.52492904920931
 30
0.0
 11
103.6722928549582
 21
128.52492904920931
 31
0.0
  0
ARC
  5
3381
  8
AM_0
 10
82.672292854958187
 20
129.52492904920931
 30
0.0
 40
1.0
 50
180.0
 51
270.0
1001
GENIUS_GENODEF_13
1002
{
1000
HIER
1070
     0
1002
}
1002
{
1000
MANEDIT
1070
     0
1002
}
1002
{
1000
NOSEL
1070
     0
1002
}
1002
{
1000
BEHIND
1070
     0
1002
}
1002
{
1000
OTHER
1070
     0
1002
}
1002
{
1000
REACTOR
1002
}
1001
GENIUS_GENOBJ-N-FIL_13
1002
{
1000
OWNER
1000
GEN
1002
}
  0
LINE
  5
3382
  8
AM_0
 10
81.672292854958187
 20
130.12492904920919
 30
0.0
 11
81.672292854958187
 21
129.52492904920931
 31
0.0
  0
LINE
  5
3392
  8
AM_0
 10
105.9517628549581
 20
81.529227549209224
 30
0.0
 11
109.3838348549582
 21
81.531779049209206
 31
0.0
  0
LINE
  5
3393
  8
AM_0
 10
102.95621485495811
 20
82.905077135055805
 30
0.0
 11
106.3882880675462
 21
82.906363385055684
 31
0.0
  0
LINE
  5
3394
  8
AM_0
 10
103.6722928549582
 20
170.82492904920929
 30
0.0
 11
103.6722928549582
 21
82.905345502095258
 31
0.0
  0
LINE
  5
3395
  8
AM_0
 10
105.6722928549582
 20
170.82492904920929
 30
0.0
 11
105.6722928549582
 21
82.906095049042676
 31
0.0
  0
LINE
  5
3396
  8
AM_0
 10
112.37938285495819
 20
82.905077135055805
 30
0.0
 11
108.9473096423703
 21
82.906363385055684
 31
0.0
  0
LINE
  5
3397
  8
AM_0
 10
106.3882868549583
 20
82.907639135055689
 30
0.0
 11
106.38959671219141
 21
81.529553047359244
 31
0.0
  0
LINE
  5
3398
  8
AM_0
 10
108.947310854958
 20
82.907639135055689
 30
0.0
 11
108.94600099772499
 21
81.529553047359244
 31
0.0
  0
LINE
  5
3399
  8
AM_0
 10
106.6722928549582
 20
170.82492904920929
 30
0.0
 11
106.6722928549582
 21
81.529763211717125
 31
0.0
  0
LINE
  5
339A
  8
AM_0
 10
108.6722928549582
 20
170.82492904920929
 30
0.0
 11
108.6722928549582
 21
81.531250068636211
 31
0.0
  0
LINE
  5
339B
  8
AM_0
 10
109.880159755392
 20
170.82492904920929
 30
0.0
 11
109.6633048549581
 21
82.906095049042676
 31
0.0
  0
LINE
  5
339C
  8
AM_0
 10
111.6633048549606
 20
170.82492904920929
 30
0.0
 11
111.6633048549581
 21
82.905345502095258
 31
0.0
  0
ARC
  5
339F
  8
AM_0
 10
147.6722928549581
 20
129.52492904920931
 30
0.0
 40
1.0
 50
180.0
 51
270.0
1001
GENIUS_GENODEF_13
1002
{
1000
HIER
1070
     0
1002
}
1002
{
1000
MANEDIT
1070
     0
1002
}
1002
{
1000
NOSEL
1070
     0
1002
}
1002
{
1000
BEHIND
1070
     0
1002
}
1002
{
1000
OTHER
1070
     0
1002
}
1002
{
1000
REACTOR
1002
}
1001
GENIUS_GENOBJ-N-FIL_13
1002
{
1000
OWNER
1000
GEN
1002
}
  0
LINE
  5
33A0
  8
AM_0
 10
146.67229285495819
 20
130.12492904920919
 30
0.0
 11
146.6722928549581
 21
129.52492904920931
 31
0.0
  0
LINE
  5
33A1
  8
AM_0
 10
81.672292854958187
 20
155.82492904920929
 30
0.0
 11
81.672292854958187
 21
152.32492904920929
 31
0.0
  0
LINE
  5
33A3
  8
AM_0
 10
82.672292854958187
 20
142.42492904920931
 30
0.0
 11
103.6722928549582
 21
142.42492904920931
 31
0.0
  0
LINE
  5
33A4
  8
AM_0
 10
82.672292854958187
 20
134.62492904920919
 30
0.0
 11
103.6722928549582
 21
134.62492904920919
 31
0.0
  0
LINE
  5
33A5
  8
AM_0
 10
82.672292854958187
 20
138.92492904920931
 30
0.0
 11
103.6722928549582
 21
138.92492904920931
 31
0.0
  0
LINE
  5
33A6
  8
AM_0
 10
82.672292854958187
 20
147.62492904920919
 30
0.0
 11
103.6722928549582
 21
147.6249290492093
 31
0.0
  0
LINE
  5
33A7
  8
AM_0
 10
82.672292854958187
 20
151.32492904920929
 30
0.0
 11
103.6722928549582
 21
151.32492904920929
 31
0.0
  0
LINE
  5
33A8
  8
AM_0
 10
82.672292854958187
 20
131.12492904920919
 30
0.0
 11
103.6722928549582
 21
131.12492904920919
 31
0.0
  0
ARC
  5
33A9
  8
AM_0
 10
82.672292854958187
 20
137.92492904920931
 30
0.0
 40
1.0
 50
90.0
 51
180.0
1001
GENIUS_GENODEF_13
1002
{
1000
HIER
1070
     0
1002
}
1002
{
1000
MANEDIT
1070
     0
1002
}
1002
{
1000
NOSEL
1070
     0
1002
}
1002
{
1000
BEHIND
1070
     0
1002
}
1002
{
1000
OTHER
1070
     0
1002
}
1002
{
1000
REACTOR
1002
}
1001
GENIUS_GENOBJ-N-FIL_13
1002
{
1000
OWNER
1000
GEN
1002
}
  0
ARC
  5
33AA
  8
AM_0
 10
82.672292854958187
 20
135.62492904920919
 30
0.0
 40
1.0
 50
180.0
 51
270.0
1001
GENIUS_GENOBJ-N-FIL_13
1002
{
1000
OWNER
1000
GEN
1002
}
1001
GENIUS_GENODEF_13
1002
{
1000
HIER
1070
     0
1002
}
1002
{
1000
MANEDIT
1070
     0
1002
}
1002
{
1000
NOSEL
1070
     0
1002
}
1002
{
1000
BEHIND
1070
     0
1002
}
1002
{
1000
OTHER
1070
     0
1002
}
1002
{
1000
REACTOR
1002
}
  0
LINE
  5
33AB
  8
AM_0
 10
81.672292854958187
 20
137.92492904920931
 30
0.0
 11
81.672292854958187
 21
135.62492904920919
 31
0.0
  0
ARC
  5
33AC
  8
AM_0
 10
82.672292854958187
 20
146.62492904920919
 30
0.0
 40
1.0
 50
90.0
 51
180.0
1001
GENIUS_GENODEF_13
1002
{
1000
HIER
1070
     0
1002
}
1002
{
1000
MANEDIT
1070
     0
1002
}
1002
{
1000
NOSEL
1070
     0
1002
}
1002
{
1000
BEHIND
1070
     0
1002
}
1002
{
1000
OTHER
1070
     0
1002
}
1002
{
1000
REACTOR
1002
}
1001
GENIUS_GENOBJ-N-FIL_13
1002
{
1000
OWNER
1000
GEN
1002
}
  0
ARC
  5
33AD
  8
AM_0
 10
82.672292854958187
 20
152.32492904920929
 30
0.0
 40
1.0
 50
180.0
 51
270.0
1001
GENIUS_GENODEF_13
1002
{
1000
HIER
1070
     0
1002
}
1002
{
1000
MANEDIT
1070
     0
1002
}
1002
{
1000
NOSEL
1070
     0
1002
}
1002
{
1000
BEHIND
1070
     0
1002
}
1002
{
1000
OTHER
1070
     0
1002
}
1002
{
1000
REACTOR
1002
}
1001
GENIUS_GENOBJ-N-FIL_13
1002
{
1000
OWNER
1000
GEN
1002
}
  0
ARC
  5
33AE
  8
AM_0
 10
82.672292854958187
 20
143.42492904920931
 30
0.0
 40
1.0
 50
180.0
 51
270.0
1001
GENIUS_GENOBJ-N-FIL_13
1002
{
1000
OWNER
1000
GEN
1002
}
1001
GENIUS_GENODEF_13
1002
{
1000
HIER
1070
     0
1002
}
1002
{
1000
MANEDIT
1070
     0
1002
}
1002
{
1000
NOSEL
1070
     0
1002
}
1002
{
1000
BEHIND
1070
     0
1002
}
1002
{
1000
OTHER
1070
     0
1002
}
1002
{
1000
REACTOR
1002
}
  0
LINE
  5
33AF
  8
AM_0
 10
81.672292854958187
 20
146.62492904920919
 30
0.0
 11
81.672292854958187
 21
143.42492904920931
 31
0.0
  0
LINE
  5
33B7
  8
AM_0
 10
82.672292854958187
 20
156.82492904920929
 30
0.0
 11
103.6722928549582
 21
156.82492904920929
 31
0.0
  0
ARC
  5
33B8
  8
AM_0
 10
88.172292854958187
 20
164.82492904920929
 30
0.0
 40
2.0
 50
270.0
 51
0.0
1001
GENIUS_GENOBJ-N-FIL_13
1002
{
1000
OWNER
1000
GEN
1002
}
1001
GENIUS_GENODEF_13
1002
{
1000
HIER
1070
     0
1002
}
1002
{
1000
MANEDIT
1070
     0
1002
}
1002
{
1000
NOSEL
1070
     0
1002
}
1002
{
1000
BEHIND
1070
     0
1002
}
1002
{
1000
OTHER
1070
     0
1002
}
1002
{
1000
REACTOR
1002
}
  0
LINE
  5
33B9
  8
AM_0
 10
86.172292854958187
 20
162.82492904920929
 30
0.0
 11
86.172292854958187
 21
170.82492904920929
 31
0.0
  0
ARC
  5
33BA
  8
AM_0
 10
82.672292854958187
 20
155.82492904920929
 30
0.0
 40
1.0
 50
90.0
 51
180.0
1001
GENIUS_GENODEF_13
1002
{
1000
HIER
1070
     0
1002
}
1002
{
1000
MANEDIT
1070
     0
1002
}
1002
{
1000
NOSEL
1070
     0
1002
}
1002
{
1000
BEHIND
1070
     0
1002
}
1002
{
1000
OTHER
1070
     0
1002
}
1002
{
1000
REACTOR
1002
}
1001
GENIUS_GENOBJ-N-FIL_13
1002
{
1000
OWNER
1000
GEN
1002
}
  0
LINE
  5
33BB
  8
AM_0N
 10
83.650888049729247
 20
167.07742904920929
 30
0.0
 11
82.424792854958199
 21
167.07742904920929
 31
0.0
  0
LINE
  5
33BC
  8
AM_0N
 10
83.650888049729247
 20
166.57242904920921
 30
0.0
 11
82.424792854958199
 21
166.57242904920921
 31
0.0
  0
LINE
  5
33BD
  8
AM_0N
 10
82.424792854958199
 20
167.07742904920929
 30
0.0
 11
82.424792854958199
 21
168.30352424398021
 31
0.0
  0
LINE
  5
33BE
  8
AM_0N
 10
81.919792854958246
 20
167.07742904920929
 30
0.0
 11
81.919792854958246
 21
168.30352424398021
 31
0.0
  0
LINE
  5
33BF
  8
AM_0N
 10
81.919792854958246
 20
168.30352424398021
 30
0.0
 11
82.424792854958199
 21
168.30352424398021
 31
0.0
  0
LINE
  5
33C0
  8
AM_0N
 10
83.650888049729247
 20
167.07742904920929
 30
0.0
 11
83.650888049729247
 21
166.57242904920921
 31
0.0
  0
LINE
  5
33C1
  8
AM_0N
 10
81.919792854958246
 20
165.3463338544382
 30
0.0
 11
82.424792854958199
 21
165.3463338544382
 31
0.0
  0
LINE
  5
33C2
  8
AM_0N
 10
81.919792854958246
 20
165.3463338544382
 30
0.0
 11
81.919792854958246
 21
166.57242904920921
 31
0.0
  0
LINE
  5
33C3
  8
AM_0N
 10
82.424792854958199
 20
165.3463338544382
 30
0.0
 11
82.424792854958199
 21
166.57242904920921
 31
0.0
  0
LINE
  5
33C4
  8
AM_0
 10
90.172292854958187
 20
164.82492904920929
 30
0.0
 11
90.172292854958187
 21
170.82492904920929
 31
0.0
  0
LINE
  5
33DB
  8
AM_0
 10
146.6722928549581
 20
155.82492904920929
 30
0.0
 11
146.6722928549581
 21
152.32492904920929
 31
0.0
  0
ARC
  5
33DC
  8
AM_0
 10
147.6722928549581
 20
137.92492904920931
 30
0.0
 40
1.0
 50
90.0
 51
180.0
1001
GENIUS_GENODEF_13
1002
{
1000
HIER
1070
     0
1002
}
1002
{
1000
MANEDIT
1070
     0
1002
}
1002
{
1000
NOSEL
1070
     0
1002
}
1002
{
1000
BEHIND
1070
     0
1002
}
1002
{
1000
OTHER
1070
     0
1002
}
1002
{
1000
REACTOR
1002
}
1001
GENIUS_GENOBJ-N-FIL_13
1002
{
1000
OWNER
1000
GEN
1002
}
  0
ARC
  5
33DD
  8
AM_0
 10
147.6722928549581
 20
135.62492904920919
 30
0.0
 40
1.0
 50
180.0
 51
270.0
1001
GENIUS_GENOBJ-N-FIL_13
1002
{
1000
OWNER
1000
GEN
1002
}
1001
GENIUS_GENODEF_13
1002
{
1000
HIER
1070
     0
1002
}
1002
{
1000
MANEDIT
1070
     0
1002
}
1002
{
1000
NOSEL
1070
     0
1002
}
1002
{
1000
BEHIND
1070
     0
1002
}
1002
{
1000
OTHER
1070
     0
1002
}
1002
{
1000
REACTOR
1002
}
  0
LINE
  5
33DE
  8
AM_0
 10
146.6722928549581
 20
137.92492904920931
 30
0.0
 11
146.6722928549581
 21
135.62492904920919
 31
0.0
  0
ARC
  5
33DF
  8
AM_0
 10
147.6722928549581
 20
146.62492904920919
 30
0.0
 40
1.0
 50
90.0
 51
180.0
1001
GENIUS_GENODEF_13
1002
{
1000
HIER
1070
     0
1002
}
1002
{
1000
MANEDIT
1070
     0
1002
}
1002
{
1000
NOSEL
1070
     0
1002
}
1002
{
1000
BEHIND
1070
     0
1002
}
1002
{
1000
OTHER
1070
     0
1002
}
1002
{
1000
REACTOR
1002
}
1001
GENIUS_GENOBJ-N-FIL_13
1002
{
1000
OWNER
1000
GEN
1002
}
  0
ARC
  5
33E0
  8
AM_0
 10
147.6722928549581
 20
152.32492904920929
 30
0.0
 40
1.0
 50
180.0
 51
270.0
1001
GENIUS_GENODEF_13
1002
{
1000
HIER
1070
     0
1002
}
1002
{
1000
MANEDIT
1070
     0
1002
}
1002
{
1000
NOSEL
1070
     0
1002
}
1002
{
1000
BEHIND
1070
     0
1002
}
1002
{
1000
OTHER
1070
     0
1002
}
1002
{
1000
REACTOR
1002
}
1001
GENIUS_GENOBJ-N-FIL_13
1002
{
1000
OWNER
1000
GEN
1002
}
  0
ARC
  5
33E1
  8
AM_0
 10
147.6722928549581
 20
143.42492904920931
 30
0.0
 40
1.0
 50
180.0
 51
270.0
1001
GENIUS_GENOBJ-N-FIL_13
1002
{
1000
OWNER
1000
GEN
1002
}
1001
GENIUS_GENODEF_13
1002
{
1000
HIER
1070
     0
1002
}
1002
{
1000
MANEDIT
1070
     0
1002
}
1002
{
1000
NOSEL
1070
     0
1002
}
1002
{
1000
BEHIND
1070
     0
1002
}
1002
{
1000
OTHER
1070
     0
1002
}
1002
{
1000
REACTOR
1002
}
  0
LINE
  5
33E2
  8
AM_0
 10
146.6722928549581
 20
146.62492904920919
 30
0.0
 11
146.6722928549581
 21
143.42492904920931
 31
0.0
  0
ARC
  5
33E3
  8
AM_0
 10
116.6722928549582
 20
171.82492904920929
 30
0.0
 40
1.0
 50
270.0
 51
0.0
1001
GENIUS_GENOBJ-N-FIL_13
1002
{
1000
OWNER
1000
GEN
1002
}
1001
GENIUS_GENODEF_13
1002
{
1000
HIER
1070
     0
1002
}
1002
{
1000
MANEDIT
1070
     0
1002
}
1002
{
1000
NOSEL
1070
     0
1002
}
1002
{
1000
BEHIND
1070
     0
1002
}
1002
{
1000
OTHER
1070
     0
1002
}
1002
{
1000
REACTOR
1002
}
  0
LINE
  5
33E4
  8
AM_0
 10
146.6722928549581
 20
167.82492904920929
 30
0.0
 11
146.6722928549581
 21
163.32492904920929
 31
0.0
  0
ARC
  5
33E5
  8
AM_0
 10
147.6722928549581
 20
155.82492904920929
 30
0.0
 40
1.0
 50
90.0
 51
180.0
1001
GENIUS_GENODEF_13
1002
{
1000
HIER
1070
     0
1002
}
1002
{
1000
MANEDIT
1070
     0
1002
}
1002
{
1000
NOSEL
1070
     0
1002
}
1002
{
1000
BEHIND
1070
     0
1002
}
1002
{
1000
OTHER
1070
     0
1002
}
1002
{
1000
REACTOR
1002
}
1001
GENIUS_GENOBJ-N-FIL_13
1002
{
1000
OWNER
1000
GEN
1002
}
  0
ARC
  5
33E6
  8
AM_0
 10
147.6722928549581
 20
163.32492904920929
 30
0.0
 40
1.0
 50
180.0
 51
270.0
1001
GENIUS_GENODEF_13
1002
{
1000
HIER
1070
     0
1002
}
1002
{
1000
MANEDIT
1070
     0
1002
}
1002
{
1000
NOSEL
1070
     0
1002
}
1002
{
1000
BEHIND
1070
     0
1002
}
1002
{
1000
OTHER
1070
     0
1002
}
1002
{
1000
REACTOR
1002
}
1001
GENIUS_GENOBJ-N-FIL_13
1002
{
1000
OWNER
1000
GEN
1002
}
  0
ARC
  5
33E7
  8
AM_0
 10
147.6722928549581
 20
167.82492904920929
 30
0.0
 40
1.0
 50
90.0
 51
180.0
1001
GENIUS_GENOBJ-N-FIL_13
1002
{
1000
OWNER
1000
GEN
1002
}
1001
GENIUS_GENODEF_13
1002
{
1000
HIER
1070
     0
1002
}
1002
{
1000
MANEDIT
1070
     0
1002
}
1002
{
1000
NOSEL
1070
     0
1002
}
1002
{
1000
BEHIND
1070
     0
1002
}
1002
{
1000
OTHER
1070
     0
1002
}
1002
{
1000
REACTOR
1002
}
  0
LINE
  5
33E8
  8
AM_0N
 10
81.919792854958246
 20
221.07742904920929
 30
0.0
 11
80.693697660187127
 21
221.07742904920929
 31
0.0
1001
GENIUS_GENOREF_13
1005
0
  0
LINE
  5
33E9
  8
AM_0N
 10
81.919792854958246
 20
220.57242904920921
 30
0.0
 11
80.693697660187127
 21
220.57242904920921
 31
0.0
1001
GENIUS_GENOREF_13
1005
0
  0
CIRCLE
  5
33EA
  8
AM_0N
 10
82.172292854958187
 20
220.82492904920929
 30
0.0
 40
2.799999999999998
1001
GENIUS_GENOREF_13
1005
0
  0
LINE
  5
33EB
  8
AM_0
 10
76.172292854958187
 20
224.82492904920929
 30
0.0
 11
88.172292854958187
 21
224.82492904920929
 31
0.0
1001
GENIUS_GENOREF_13
1005
34E3
  0
LINE
  5
33EC
  8
AM_0
 10
60.672292854958179
 20
216.82492904920929
 30
0.0
 11
116.6722928549582
 21
216.82492904920929
 31
0.0
1001
GENIUS_GENOREF_13
1005
34E3
  0
LINE
  5
33ED
  8
AM_0
 10
74.172292854958187
 20
222.82492904920929
 30
0.0
 11
74.172292854958187
 21
216.82492904920929
 31
0.0
  0
LINE
  5
33EE
  8
AM_0
 10
78.172292854958187
 20
224.82492904920929
 30
0.0
 11
78.172292854958187
 21
216.82492904920929
 31
0.0
  0
LINE
  5
33EF
  8
AM_0
 10
41.672292854958172
 20
210.82492904920929
 30
0.0
 11
48.384927656000393
 21
210.82492904920929
 31
0.0
  0
ARC
  5
33F0
  8
AM_0
 10
41.672292854958172
 20
207.82492904920929
 30
0.0
 40
3.0
 50
90.0
 51
180.0
1001
GENIUS_GENOBJ-N-FIL_13
1002
{
1000
OWNER
1000
GEN
1002
}
1001
GENIUS_GENODEF_13
1002
{
1000
HIER
1070
     0
1002
}
1002
{
1000
MANEDIT
1070
     0
1002
}
1002
{
1000
NOSEL
1070
     0
1002
}
1002
{
1000
BEHIND
1070
     0
1002
}
1002
{
1000
OTHER
1070
     0
1002
}
1002
{
1000
REACTOR
1002
}
  0
ARC
  5
33F1
  8
AM_0
 10
60.672292854958179
 20
215.82492904920929
 30
0.0
 40
1.0
 50
90.0
 51
180.0
1001
GENIUS_GENODEF_13
1002
{
1000
HIER
1070
     0
1002
}
1002
{
1000
MANEDIT
1070
     0
1002
}
1002
{
1000
NOSEL
1070
     0
1002
}
1002
{
1000
BEHIND
1070
     0
1002
}
1002
{
1000
OTHER
1070
     0
1002
}
1002
{
1000
REACTOR
1002
}
1001
GENIUS_GENOBJ-N-FIL_13
1002
{
1000
OWNER
1000
GEN
1002
}
  0
LINE
  5
33F2
  8
AM_0N
 10
80.693697660187127
 20
220.57242904920921
 30
0.0
 11
80.693697660187127
 21
221.07742904920929
 31
0.0
1001
GENIUS_GENOREF_13
1005
0
  0
ARC
  5
33F3
  8
AM_0
 10
76.172292854958187
 20
222.82492904920929
 30
0.0
 40
2.0
 50
90.0
 51
180.0
1001
GENIUS_GENOBJ-N-FIL_13
1002
{
1000
OWNER
1000
GEN
1002
}
1001
GENIUS_GENODEF_13
1002
{
1000
HIER
1070
     0
1002
}
1002
{
1000
MANEDIT
1070
     0
1002
}
1002
{
1000
NOSEL
1070
     0
1002
}
1002
{
1000
BEHIND
1070
     0
1002
}
1002
{
1000
OTHER
1070
     0
1002
}
1002
{
1000
REACTOR
1002
}
  0
LINE
  5
33F4
  8
AM_0
 10
53.501020532618099
 20
248.22824254046239
 30
0.0
 11
50.343565177298402
 21
245.42161555795619
 31
0.0
  0
ARC
  5
33F5
  8
AM_0
 10
51.672292854958172
 20
243.9267969205888
 30
0.0
 40
2.0
 50
131.6335393365685
 51
180.0
1001
GENIUS_GENODEF_13
1002
{
1000
HIER
1070
     0
1002
}
1002
{
1000
MANEDIT
1070
     0
1002
}
1002
{
1000
NOSEL
1070
     0
1002
}
1002
{
1000
BEHIND
1070
     0
1002
}
1002
{
1000
OTHER
1070
     0
1002
}
1002
{
1000
REACTOR
1002
}
1001
GENIUS_GENOBJ-N-FIL_13
1002
{
1000
OWNER
1000
GEN
1002
}
  0
ARC
  5
33F6
  8
AM_0
 10
52.172292854958179
 20
249.72306117782981
 30
0.0
 40
2.0
 50
311.63353933656862
 51
0.0
1001
GENIUS_GENOBJ-N-FIL_13
1002
{
1000
OWNER
1000
GEN
1002
}
1001
GENIUS_GENODEF_13
1002
{
1000
HIER
1070
     0
1002
}
1002
{
1000
MANEDIT
1070
     0
1002
}
1002
{
1000
NOSEL
1070
     0
1002
}
1002
{
1000
BEHIND
1070
     0
1002
}
1002
{
1000
OTHER
1070
     0
1002
}
1002
{
1000
REACTOR
1002
}
  0
ARC
  5
33F7
  8
AM_0
 10
56.172292854958279
 20
254.4249290492094
 30
0.0
 40
2.0
 50
90.0
 51
180.0
1001
GENIUS_GENOBJ-N-FIL_13
1002
{
1000
OWNER
1000
GEN
1002
}
1001
GENIUS_GENODEF_13
1002
{
1000
HIER
1070
     0
1002
}
1002
{
1000
MANEDIT
1070
     0
1002
}
1002
{
1000
NOSEL
1070
     0
1002
}
1002
{
1000
BEHIND
1070
     0
1002
}
1002
{
1000
OTHER
1070
     0
1002
}
1002
{
1000
REACTOR
1002
}
  0
LINE
  5
33F8
  8
AM_0
 10
86.172292854958187
 20
224.82492904920929
 30
0.0
 11
86.172292854958187
 21
216.82492904920929
 31
0.0
  0
LINE
  5
33F9
  8
AM_0
 10
90.172292854958187
 20
222.82492904920929
 30
0.0
 11
90.172292854958187
 21
216.82492904920929
 31
0.0
  0
ARC
  5
33FA
  8
AM_0
 10
116.6722928549582
 20
215.82492904920929
 30
0.0
 40
1.0
 50
0.0
 51
90.0
1001
GENIUS_GENODEF_13
1002
{
1000
HIER
1070
     0
1002
}
1002
{
1000
MANEDIT
1070
     0
1002
}
1002
{
1000
NOSEL
1070
     0
1002
}
1002
{
1000
BEHIND
1070
     0
1002
}
1002
{
1000
OTHER
1070
     0
1002
}
1002
{
1000
REACTOR
1002
}
1001
GENIUS_GENOBJ-N-FIL_13
1002
{
1000
OWNER
1000
GEN
1002
}
  0
ARC
  5
33FB
  8
AM_0
 10
88.172292854958187
 20
222.82492904920929
 30
0.0
 40
2.0
 50
0.0
 51
90.0
1001
GENIUS_GENOBJ-N-FIL_13
1002
{
1000
OWNER
1000
GEN
1002
}
1001
GENIUS_GENODEF_13
1002
{
1000
HIER
1070
     0
1002
}
1002
{
1000
MANEDIT
1070
     0
1002
}
1002
{
1000
NOSEL
1070
     0
1002
}
1002
{
1000
BEHIND
1070
     0
1002
}
1002
{
1000
OTHER
1070
     0
1002
}
1002
{
1000
REACTOR
1002
}
  0
LINE
  5
33FC
  8
AM_0N
 10
83.650888049729247
 20
221.07742904920929
 30
0.0
 11
82.424792854958199
 21
221.07742904920929
 31
0.0
1001
GENIUS_GENOREF_13
1005
0
  0
LINE
  5
33FD
  8
AM_0N
 10
82.424792854958199
 20
222.30352424398041
 30
0.0
 11
82.424792854958199
 21
221.07742904920929
 31
0.0
1001
GENIUS_GENOREF_13
1005
0
  0
LINE
  5
33FE
  8
AM_0N
 10
81.919792854958246
 20
222.30352424398041
 30
0.0
 11
81.919792854958246
 21
221.07742904920929
 31
0.0
1001
GENIUS_GENOREF_13
1005
0
  0
LINE
  5
33FF
  8
AM_0N
 10
81.919792854958246
 20
222.30352424398041
 30
0.0
 11
82.424792854958199
 21
222.30352424398041
 31
0.0
1001
GENIUS_GENOREF_13
1005
0
  0
LINE
  5
3400
  8
AM_0N
 10
83.650888049729247
 20
220.57242904920921
 30
0.0
 11
82.424792854958199
 21
220.57242904920921
 31
0.0
1001
GENIUS_GENOREF_13
1005
0
  0
LINE
  5
3401
  8
AM_0N
 10
81.919792854958246
 20
220.57242904920921
 30
0.0
 11
81.919792854958246
 21
219.3463338544382
 31
0.0
1001
GENIUS_GENOREF_13
1005
0
  0
LINE
  5
3402
  8
AM_0N
 10
82.424792854958199
 20
220.57242904920921
 30
0.0
 11
82.424792854958199
 21
219.3463338544382
 31
0.0
1001
GENIUS_GENOREF_13
1005
0
  0
LINE
  5
3403
  8
AM_0N
 10
81.919792854958246
 20
219.3463338544382
 30
0.0
 11
82.424792854958199
 21
219.3463338544382
 31
0.0
1001
GENIUS_GENOREF_13
1005
0
  0
LINE
  5
3404
  8
AM_0N
 10
83.650888049729247
 20
220.57242904920921
 30
0.0
 11
83.650888049729247
 21
221.07742904920929
 31
0.0
1001
GENIUS_GENOREF_13
1005
0
  0
ARC
  5
3405
  8
AM_0
 10
286.17230285495828
 20
143.8959800492091
 30
0.0
 40
5.0000001000000003
 50
179.99999000000059
 51
225.0
  0
ARC
  5
3406
  8
AM_0
 10
276.17231285495819
 20
147.05996904920909
 30
0.0
 40
5.0000001000000003
 50
0.0
 51
88.000000000002842
  0
LINE
  5
3407
  8
AM_0
 10
193.17229285495799
 20
256.82492904920929
 30
0.0
 11
193.17229285495799
 21
124.8249290492093
 31
0.0
  0
LINE
  5
3408
  8
AM_0
 10
181.67229285495799
 20
256.82492904920929
 30
0.0
 11
181.67229285495799
 21
124.8249290492093
 31
0.0
  0
LINE
  5
3409
  8
AM_0
 10
200.17229285495819
 20
127.8249290492093
 30
0.0
 11
200.17229285495819
 21
253.82492904920929
 31
0.0
  0
LINE
  5
340A
  8
AM_0
 10
220.17230285495819
 20
138.8860790492092
 30
0.0
 11
220.17230285495819
 21
193.76491104920919
 31
0.0
  0
LINE
  5
340B
  8
AM_0
 10
200.17229285495819
 20
144.82492104920919
 30
0.0
 11
220.17230285495819
 21
144.82492104920919
 31
0.0
  0
LINE
  5
340C
  8
AM_0
 10
200.17229285495819
 20
158.8879100492091
 30
0.0
 11
220.17230285495819
 21
158.8879100492091
 31
0.0
  0
LINE
  5
340D
  8
AM_0
 10
200.17229285495819
 20
134.32490604920909
 30
0.0
 11
216.31187285495821
 21
134.88851904920901
 31
0.0
  0
ARC
  5
340E
  8
AM_0
 10
170.67229285495819
 20
130.12492904920919
 30
0.0
 40
1.0
 50
0.0
 51
90.0
1001
GENIUS_GENODEF_13
1002
{
1000
HIER
1070
     0
1002
}
1002
{
1000
MANEDIT
1070
     0
1002
}
1002
{
1000
NOSEL
1070
     0
1002
}
1002
{
1000
BEHIND
1070
     0
1002
}
1002
{
1000
OTHER
1070
     0
1002
}
1002
{
1000
REACTOR
1002
}
1001
GENIUS_GENOBJ-N-FIL_13
1002
{
1000
OWNER
1000
GEN
1002
}
  0
LINE
  5
340F
  8
AM_0
 10
171.67229285495819
 20
130.12492904920919
 30
0.0
 11
171.67229285495819
 21
129.52492904920931
 31
0.0
  0
ARC
  5
3410
  8
AM_0
 10
170.67229285495819
 20
129.52492904920931
 30
0.0
 40
1.0
 50
270.0
 51
0.0
1001
GENIUS_GENOBJ-N-FIL_13
1002
{
1000
OWNER
1000
GEN
1002
}
1001
GENIUS_GENODEF_13
1002
{
1000
HIER
1070
     0
1002
}
1002
{
1000
MANEDIT
1070
     0
1002
}
1002
{
1000
NOSEL
1070
     0
1002
}
1002
{
1000
BEHIND
1070
     0
1002
}
1002
{
1000
OTHER
1070
     0
1002
}
1002
{
1000
REACTOR
1002
}
  0
LINE
  5
3411
  8
AM_0
 10
200.17229285495819
 20
127.8249290492093
 30
0.0
 11
193.17229285495799
 21
124.8249290492093
 31
0.0
  0
LINE
  5
3412
  8
AM_0
 10
181.67229285495799
 20
124.8249290492093
 30
0.0
 11
193.17229285495799
 21
124.8249290492093
 31
0.0
  0
LINE
  5
3413
  8
AM_0
 10
171.6722928549581
 20
155.82492904920929
 30
0.0
 11
171.6722928549581
 21
152.32492904920929
 31
0.0
  0
LINE
  5
3414
  8
AM_0
 10
171.67229285495819
 20
137.92492904920931
 30
0.0
 11
171.67229285495819
 21
135.62492904920919
 31
0.0
  0
ARC
  5
3415
  8
AM_0
 10
170.67229285495819
 20
137.92492904920931
 30
0.0
 40
1.0
 50
0.0
 51
90.0
1001
GENIUS_GENODEF_13
1002
{
1000
HIER
1070
     0
1002
}
1002
{
1000
MANEDIT
1070
     0
1002
}
1002
{
1000
NOSEL
1070
     0
1002
}
1002
{
1000
BEHIND
1070
     0
1002
}
1002
{
1000
OTHER
1070
     0
1002
}
1002
{
1000
REACTOR
1002
}
1001
GENIUS_GENOBJ-N-FIL_13
1002
{
1000
OWNER
1000
GEN
1002
}
  0
ARC
  5
3416
  8
AM_0
 10
170.67229285495819
 20
135.62492904920919
 30
0.0
 40
1.0
 50
270.0
 51
0.0
1001
GENIUS_GENODEF_13
1002
{
1000
HIER
1070
     0
1002
}
1002
{
1000
MANEDIT
1070
     0
1002
}
1002
{
1000
NOSEL
1070
     0
1002
}
1002
{
1000
BEHIND
1070
     0
1002
}
1002
{
1000
OTHER
1070
     0
1002
}
1002
{
1000
REACTOR
1002
}
1001
GENIUS_GENOBJ-N-FIL_13
1002
{
1000
OWNER
1000
GEN
1002
}
  0
ARC
  5
3417
  8
AM_0
 10
170.67229285495819
 20
146.6249290492093
 30
0.0
 40
1.0
 50
0.0
 51
90.0
1001
GENIUS_GENODEF_13
1002
{
1000
HIER
1070
     0
1002
}
1002
{
1000
MANEDIT
1070
     0
1002
}
1002
{
1000
NOSEL
1070
     0
1002
}
1002
{
1000
BEHIND
1070
     0
1002
}
1002
{
1000
OTHER
1070
     0
1002
}
1002
{
1000
REACTOR
1002
}
1001
GENIUS_GENOBJ-N-FIL_13
1002
{
1000
OWNER
1000
GEN
1002
}
  0
ARC
  5
3418
  8
AM_0
 10
170.67229285495819
 20
152.32492904920929
 30
0.0
 40
1.0
 50
270.0
 51
0.0
1001
GENIUS_GENODEF_13
1002
{
1000
HIER
1070
     0
1002
}
1002
{
1000
MANEDIT
1070
     0
1002
}
1002
{
1000
NOSEL
1070
     0
1002
}
1002
{
1000
BEHIND
1070
     0
1002
}
1002
{
1000
OTHER
1070
     0
1002
}
1002
{
1000
REACTOR
1002
}
1001
GENIUS_GENOBJ-N-FIL_13
1002
{
1000
OWNER
1000
GEN
1002
}
  0
ARC
  5
3419
  8
AM_0
 10
170.67229285495819
 20
143.42492904920931
 30
0.0
 40
1.0
 50
270.0
 51
0.0
1001
GENIUS_GENODEF_13
1002
{
1000
HIER
1070
     0
1002
}
1002
{
1000
MANEDIT
1070
     0
1002
}
1002
{
1000
NOSEL
1070
     0
1002
}
1002
{
1000
BEHIND
1070
     0
1002
}
1002
{
1000
OTHER
1070
     0
1002
}
1002
{
1000
REACTOR
1002
}
1001
GENIUS_GENOBJ-N-FIL_13
1002
{
1000
OWNER
1000
GEN
1002
}
  0
LINE
  5
341A
  8
AM_0
 10
171.67229285495819
 20
146.6249290492093
 30
0.0
 11
171.67229285495819
 21
143.42492904920931
 31
0.0
  0
LINE
  5
341B
  8
AM_0
 10
171.67229285495819
 20
167.82492904920929
 30
0.0
 11
171.6722928549581
 21
163.32492904920929
 31
0.0
  0
ARC
  5
341C
  8
AM_0
 10
170.6722928549581
 20
155.82492904920929
 30
0.0
 40
1.0
 50
0.0
 51
90.0
1001
GENIUS_GENOBJ-N-FIL_13
1002
{
1000
OWNER
1000
GEN
1002
}
1001
GENIUS_GENODEF_13
1002
{
1000
HIER
1070
     0
1002
}
1002
{
1000
MANEDIT
1070
     0
1002
}
1002
{
1000
NOSEL
1070
     0
1002
}
1002
{
1000
BEHIND
1070
     0
1002
}
1002
{
1000
OTHER
1070
     0
1002
}
1002
{
1000
REACTOR
1002
}
  0
ARC
  5
341D
  8
AM_0
 10
170.6722928549581
 20
163.32492904920929
 30
0.0
 40
1.0
 50
270.0
 51
0.0
1001
GENIUS_GENODEF_13
1002
{
1000
HIER
1070
     0
1002
}
1002
{
1000
MANEDIT
1070
     0
1002
}
1002
{
1000
NOSEL
1070
     0
1002
}
1002
{
1000
BEHIND
1070
     0
1002
}
1002
{
1000
OTHER
1070
     0
1002
}
1002
{
1000
REACTOR
1002
}
1001
GENIUS_GENOBJ-N-FIL_13
1002
{
1000
OWNER
1000
GEN
1002
}
  0
ARC
  5
341E
  8
AM_0
 10
170.67229285495819
 20
167.82492904920929
 30
0.0
 40
1.0
 50
0.0
 51
90.0
1001
GENIUS_GENOBJ-N-FIL_13
1002
{
1000
OWNER
1000
GEN
1002
}
1001
GENIUS_GENODEF_13
1002
{
1000
HIER
1070
     0
1002
}
1002
{
1000
MANEDIT
1070
     0
1002
}
1002
{
1000
NOSEL
1070
     0
1002
}
1002
{
1000
BEHIND
1070
     0
1002
}
1002
{
1000
OTHER
1070
     0
1002
}
1002
{
1000
REACTOR
1002
}
  0
LINE
  5
341F
  8
AM_0
 10
224.3118828549583
 20
158.7612470492092
 30
0.0
 11
257.74211285495801
 21
157.59384204920909
 31
0.0
  0
LINE
  5
3420
  8
AM_0
 10
222.3554028549581
 20
139.75050504920921
 30
0.0
 11
259.5272328549583
 21
152.09102004920919
 31
0.0
  0
ARC
  5
3421
  8
AM_0
 10
216.17231285495811
 20
138.8860790492092
 30
0.0
 40
4.000000199999997
 50
271.9999999999971
 51
0.0
  0
ARC
  5
3422
  8
AM_0
 10
223.6157328549582
 20
135.95425404920911
 30
0.0
 40
4.000000199999997
 50
108.365419999998
 51
158.501450000002
  0
ARC
  5
3423
  8
AM_0
 10
224.1722928549581
 20
154.7636870492091
 30
0.0
 40
4.000000199999997
 50
88.000000000002842
 51
180.00000999999941
  0
ARC
  5
3424
  8
AM_0
 10
262.67231285495831
 20
155.0362550492091
 30
0.0
 40
3.0
 50
179.99999000000059
 51
268.00000999999872
  0
LINE
  5
3425
  8
AM_0
 10
262.5676128549585
 20
152.03808804920911
 30
0.0
 11
268.67231285495831
 21
151.82490504920921
 31
0.0
  0
ARC
  5
3426
  8
AM_0
 10
260.78753285495827
 20
148.29476904920909
 30
0.0
 40
4.000000199999997
 50
74.380296000000413
 51
108.365419999998
  0
LINE
  5
3427
  8
AM_0
 10
268.67231285495831
 20
152.32492104920919
 30
0.0
 11
276.34679285495821
 21
152.05691604920921
 31
0.0
  0
LINE
  5
3428
  8
AM_0
 10
259.67231285495808
 20
164.32492104920919
 30
0.0
 11
268.67231285495831
 21
164.32492104920919
 31
0.0
  0
ARC
  5
3429
  8
AM_0
 10
257.67230285495828
 20
155.59506204920919
 30
0.0
 40
2.00000007
 50
0.0
 51
88.000000000002842
  0
LINE
  5
342A
  8
AM_0
 10
259.67231285495808
 20
155.0362550492091
 30
0.0
 11
259.67231285495808
 21
155.59506204920919
 31
0.0
  0
LINE
  5
342B
  8
AM_0
 10
268.67231285495831
 20
164.32492104920919
 30
0.0
 11
281.17229285495807
 21
164.32492104920919
 31
0.0
  0
LINE
  5
342C
  8
AM_0
 10
200.17229285495819
 20
222.76193604920911
 30
0.0
 11
249.9138228549582
 21
222.76193604920911
 31
0.0
  0
LINE
  5
342D
  8
AM_0
 10
200.17229285495819
 20
236.82491004920931
 30
0.0
 11
251.90576285495831
 21
236.82491004920931
 31
0.0
  0
LINE
  5
342E
  8
AM_0
 10
200.17229285495819
 20
247.32491004920931
 30
0.0
 11
227.27696285495821
 21
248.2714430492091
 31
0.0
  0
POINT
  5
342F
  8
AM_0
 10
200.17229285495819
 20
190.8249230492091
 30
0.0
  0
LINE
  5
3430
  8
AM_0
 10
193.17229285495799
 20
256.82492904920929
 30
0.0
 11
200.17229285495819
 21
253.82492904920929
 31
0.0
  0
LINE
  5
3431
  8
AM_0
 10
181.67229285495799
 20
256.82492904920929
 30
0.0
 11
193.17229285495799
 21
256.82492904920929
 31
0.0
  0
LINE
  5
3433
  8
AM_0
 10
249.9138228549582
 20
222.76192104920909
 30
0.0
 11
259.67231285495808
 21
203.32492404920919
 31
0.0
  0
LINE
  5
3434
  8
AM_0
 10
225.17231285495831
 20
198.76490904920911
 30
0.0
 11
259.67231285495808
 21
198.76490904920911
 31
0.0
  0
ARC
  5
3435
  8
AM_0
 10
225.17231285495831
 20
193.76491104920919
 30
0.0
 40
5.0000001000000003
 50
90.00000299999769
 51
180.00000999999941
  0
LINE
  5
3436
  8
AM_0
 10
259.67231285495808
 20
178.67656104920911
 30
0.0
 11
268.67231285495831
 21
178.67656104920911
 31
0.0
  0
LINE
  5
3437
  8
AM_0
 10
268.67231285495831
 20
178.67700204920911
 30
0.0
 11
281.17229285495807
 21
178.67700204920911
 31
0.0
  0
LINE
  5
3438
  8
AM_0
 10
237.02093285495829
 20
248.44206504920911
 30
0.0
 11
242.8533828549582
 21
236.82491004920931
 31
0.0
  0
LINE
  5
3439
  8
AM_0
 10
227.27696285495821
 20
248.2714430492091
 30
0.0
 11
235.05260285495831
 21
248.5429580492092
 31
0.0
  0
ARC
  5
343A
  8
AM_0
 10
227.17229285495819
 20
251.2695800492092
 30
0.0
 40
3.0
 50
271.9999999999971
 51
0.0
  0
ARC
  5
343B
  8
AM_0
 10
234.87812285495829
 20
253.5399050492091
 30
0.0
 40
5.0000001000000003
 50
271.9999999999971
 51
315.0
  0
ARC
  5
343C
  8
AM_0
 10
251.90576285495831
 20
231.82492404920919
 30
0.0
 40
5.0000001000000003
 50
315.0
 51
90.00000299999769
  0
LINE
  5
343D
  8
AM_0
 10
249.9138228549582
 20
222.76192104920909
 30
0.0
 11
255.44129285495819
 21
228.2893700492092
 31
0.0
  0
LINE
  5
343E
  8
AM_0
 10
259.67231285495808
 20
252.9732560492092
 30
0.0
 11
268.67231285495831
 21
252.9732560492092
 31
0.0
  0
LINE
  5
343F
  8
AM_0
 10
268.67231285495831
 20
252.97285704920921
 30
0.0
 11
281.17229285495807
 21
252.97285704920921
 31
0.0
  0
LINE
  5
3440
  8
AM_0
 10
411.17231285495819
 20
152.4569390492091
 30
0.0
 11
411.17231285495819
 21
243.8249090492092
 31
0.0
  0
LINE
  5
3441
  8
AM_0
 10
404.17229285495819
 20
128.90770104920909
 30
0.0
 11
404.17229285495819
 21
179.13565104920909
 31
0.0
  0
LINE
  5
3442
  8
AM_0
 10
306.17231285495831
 20
116.32492104920919
 30
0.0
 11
391.4092128549579
 21
114.0929090492091
 31
0.0
  0
LINE
  5
3443
  8
AM_0
 10
296.17229285495819
 20
135.4071350492091
 30
0.0
 11
402.4358028549583
 21
135.4071350492091
 31
0.0
  0
LINE
  5
3444
  8
AM_0
 10
296.17229285495819
 20
155.4446720492092
 30
0.0
 11
402.4358028549583
 21
155.4446720492092
 31
0.0
  0
LINE
  5
3445
  8
AM_0
 10
282.63677285495828
 20
140.3604590492092
 30
0.0
 11
295.29365285495828
 21
127.7036120492091
 31
0.0
  0
ARC
  5
3446
  8
AM_0
 10
298.17230285495828
 20
118.6055000492091
 30
0.0
 40
2.00000007
 50
179.99999000000059
 51
268.00000999999872
  0
ARC
  5
3447
  8
AM_0
 10
293.17229285495819
 20
125.5822760492091
 30
0.0
 40
3.0
 50
0.0
 51
45.000001000002641
  0
LINE
  5
3448
  8
AM_0
 10
298.10246285495828
 20
116.6067200492092
 30
0.0
 11
306.17231285495831
 21
116.32492104920919
 31
0.0
  0
LINE
  5
3449
  8
AM_0
 10
391.40924285495828
 20
114.0929090492091
 30
0.0
 11
412.17230285495828
 21
126.0804740492091
 31
0.0
  0
ARC
  5
344A
  8
AM_0
 10
407.1722928549579
 20
128.90770104920909
 30
0.0
 40
3.0
 50
179.99999000000059
 51
271.99999000000128
  0
ARC
  5
344B
  8
AM_0
 10
408.17231285495802
 20
152.4569390492091
 30
0.0
 40
3.0
 50
271.9999999999971
 51
0.0
  0
LINE
  5
344C
  8
AM_0
 10
406.45685285495819
 20
149.39522004920909
 30
0.0
 11
408.277012854958
 21
149.45877204920919
 31
0.0
  0
LINE
  5
344D
  8
AM_0
 10
306.17231285495831
 20
246.0102410492091
 30
0.0
 11
306.17390285495838
 21
246.0102410492091
 31
0.0
  0
ARC
  5
344E
  8
AM_0
 10
427.42577285495821
 20
246.12968904920911
 30
0.0
 40
40.000001999999981
 50
174.0759799999995
 51
234.45533999999759
  0
ARC
  5
344F
  8
AM_0
 10
407.1722928549579
 20
179.13565104920909
 30
0.0
 40
3.0
 50
90.00000299999769
 51
180.00000999999941
  0
LINE
  5
3450
  8
AM_0
 10
407.1722928549579
 20
182.13565104920909
 30
0.0
 11
411.17231285495819
 21
182.13565104920909
 31
0.0
  0
ARC
  5
3451
  8
AM_0
 10
407.1722928549579
 20
215.06067204920919
 30
0.0
 40
3.0
 50
179.99999000000059
 51
270.0
  0
LINE
  5
3452
  8
AM_0
 10
407.1722928549579
 20
212.0606720492093
 30
0.0
 11
411.17231285495819
 21
212.0606720492093
 31
0.0
  0
ARC
  5
3453
  8
AM_0
 10
276.17231285495819
 20
284.58986604920932
 30
0.0
 40
5.0000001000000003
 50
271.9999999999971
 51
0.0
  0
ARC
  5
3454
  8
AM_0
 10
286.17230285495828
 20
287.75387604920923
 30
0.0
 40
5.0000001000000003
 50
135.0
 51
180.00000999999941
  0
LINE
  5
3455
  8
AM_0
 10
233.0676228549581
 20
274.19432604920922
 30
0.0
 11
256.94573285495818
 21
275.02815804920908
 31
0.0
  0
ARC
  5
3456
  8
AM_0
 10
233.17229285495819
 20
271.19615604920909
 30
0.0
 40
3.0
 50
91.999998000000545
 51
180.00000999999941
  0
LINE
  5
3457
  8
AM_0
 10
262.5676128549585
 20
279.61175604920919
 30
0.0
 11
268.67231285495831
 21
279.82490604920912
 31
0.0
  0
LINE
  5
3458
  8
AM_0
 10
259.67231285495808
 20
267.32491104920922
 30
0.0
 11
268.67231285495831
 21
267.32491104920922
 31
0.0
  0
ARC
  5
3459
  8
AM_0
 10
256.67231285495831
 20
272.50569504920912
 30
0.0
 40
3.0
 50
315.0
 51
0.0
  0
ARC
  5
345A
  8
AM_0
 10
262.67231285495831
 20
276.61358604920918
 30
0.0
 40
3.0
 50
91.999998000000545
 51
166.38106999999911
  0
ARC
  5
345B
  8
AM_0
 10
256.84100285495828
 20
278.02631604920919
 30
0.0
 40
3.0
 50
271.9999999999971
 51
346.38106999999923
  0
LINE
  5
345C
  8
AM_0
 10
268.67231285495831
 20
267.32491104920922
 30
0.0
 11
281.17229285495807
 21
267.32491104920922
 31
0.0
  0
LINE
  5
345D
  8
AM_0
 10
268.67231285495831
 20
279.32492604920918
 30
0.0
 11
276.34679285495821
 21
279.5929460492091
 31
0.0
  0
LINE
  5
345E
  8
AM_0
 10
404.17229285495819
 20
302.73566604920921
 30
0.0
 11
404.17229285495819
 21
357.90404604920911
 31
0.0
  0
LINE
  5
345F
  8
AM_0
 10
368.6828028549582
 20
318.33539604920912
 30
0.0
 11
404.17229285495819
 21
353.82494604920919
 31
0.0
  0
LINE
  5
3460
  8
AM_0
 10
306.17231285495831
 20
315.32495604920922
 30
0.0
 11
365.27816285495828
 21
316.87268604920928
 31
0.0
  0
LINE
  5
3461
  8
AM_0
 10
296.17229285495819
 20
295.0293560492093
 30
0.0
 11
391.16576285495819
 21
295.0293560492093
 31
0.0
  0
ARC
  5
3462
  8
AM_0
 10
293.17229285495819
 20
306.0675560492092
 30
0.0
 40
3.0
 50
315.0
 51
0.0
  0
LINE
  5
3463
  8
AM_0
 10
282.63677285495828
 20
291.28937604920918
 30
0.0
 11
295.29365285495828
 21
303.94625604920918
 31
0.0
  0
ARC
  5
3464
  8
AM_0
 10
298.17230285495828
 20
313.0443260492093
 30
0.0
 40
2.00000007
 50
91.999998000000545
 51
180.00000999999941
  0
LINE
  5
3465
  8
AM_0
 10
298.10246285495828
 20
315.0431060492092
 30
0.0
 11
306.17231285495831
 21
315.3248960492092
 31
0.0
  0
ARC
  5
3466
  8
AM_0
 10
371.17229285495819
 20
295.0293560492093
 30
0.0
 40
21.000000600000011
 50
354.07597999999962
 51
80.875524999996657
  0
ARC
  5
3467
  8
AM_0
 10
407.1722928549579
 20
302.73566604920921
 30
0.0
 40
3.0
 50
179.99999000000059
 51
270.0
  0
LINE
  5
3468
  8
AM_0
 10
407.1722928549579
 20
299.73566604920921
 30
0.0
 11
411.17231285495819
 21
299.73566604920921
 31
0.0
  0
LINE
  5
3469
  8
AM_0
 10
367.27226285495829
 20
316.92488604920908
 30
0.0
 11
374.50247285495811
 21
315.76364604920929
 31
0.0
  0
ARC
  5
346A
  8
AM_0
 10
365.1472728549582
 20
321.87092604920917
 30
0.0
 40
5.0000001000000003
 50
271.50000000000267
 51
315.0
  0
ARC
  5
346B
  8
AM_0
 10
408.17231285495802
 20
334.4246360492092
 30
0.0
 40
3.0
 50
0.0
 51
91.999998000000545
  0
LINE
  5
346C
  8
AM_0
 10
407.88776285495783
 20
337.41656604920911
 30
0.0
 11
408.06761285495821
 21
337.42283604920908
 31
0.0
  0
ARC
  5
346E
  8
AM_0
 10
407.1722928549579
 20
357.90404604920911
 30
0.0
 40
3.0
 50
91.999998000000545
 51
180.00000999999941
  0
ARC
  5
3477
  8
AM_0
 10
713.91026056190935
 20
243.8249090492092
 30
0.0
 40
89.000003999999961
 50
166.12422999999961
 51
179.57177000000021
  0
ARC
  5
3478
  8
AM_0
 10
713.91026056190935
 20
243.8249090492092
 30
0.0
 40
48.0
 50
144.7768400000017
 51
180.00000999999941
  0
CIRCLE
  5
3479
  8
AM_0
 10
713.91026056190935
 20
243.8249090492092
 30
0.0
 40
29.000001000000001
  0
ARC
  5
347A
  8
AM_0
 10
713.91026056190935
 20
243.8249090492092
 30
0.0
 40
89.000003999999961
 50
0.4282278600000581
 51
13.87576399999965
  0
ARC
  5
347B
  8
AM_0
 10
713.91026056190935
 20
243.8249090492092
 30
0.0
 40
48.0
 50
0.0
 51
35.223151999999843
  0
CIRCLE
  5
347C
  8
AM_0
 10
713.91026056190935
 20
243.8249090492092
 30
0.0
 40
99.000003000000021
  0
CIRCLE
  5
347D
  8
AM_0
 10
713.91026056190935
 20
243.8249090492092
 30
0.0
 40
105.00000300000001
  0
LINE
  5
347E
  8
AM_0
 10
718.91024656190984
 20
254.8249400492092
 30
0.0
 11
718.91024656190984
 21
262.82490804920923
 31
0.0
  0
LINE
  5
347F
  8
AM_0
 10
708.91024756190961
 20
254.8249400492092
 30
0.0
 11
708.91024756190961
 21
262.82490804920923
 31
0.0
  0
LINE
  5
3480
  8
AM_0
 10
419.17229285495779
 20
243.8249090492092
 30
0.0
 11
419.17229285495779
 21
361.32494604920919
 31
0.0
  0
LINE
  5
3481
  8
AM_0
 10
596.41025956190936
 20
243.8249090492092
 30
0.0
 11
596.41025956190936
 21
273.82490904920923
 31
0.0
  0
LINE
  5
3482
  8
AM_0
 10
423.17231285495819
 20
138.82492104920919
 30
0.0
 11
423.17231285495819
 21
348.8249360492091
 31
0.0
  0
LINE
  5
3483
  8
AM_0
 10
831.41025856190981
 20
243.8249090492092
 30
0.0
 11
831.41025856190981
 21
273.82490904920923
 31
0.0
  0
LINE
  5
3484
  8
ﾁｭｳｼﾝｾﾝ
 10
713.91026056190935
 20
111.0541820492092
 30
0.0
 11
713.91026056190935
 21
366.92231604920892
 31
0.0
  0
LINE
  5
3485
  8
AM_0
 10
436.1722728549579
 20
259.82490804920923
 30
0.0
 11
436.1722728549579
 21
262.82490804920923
 31
0.0
  0
LINE
  5
3486
  8
AM_0
 10
481.17230285495828
 20
227.8249400492092
 30
0.0
 11
481.17230285495828
 21
262.82490804920923
 31
0.0
  0
ARC
  5
3488
  8
AM_0
 10
713.91026056190935
 20
215.82493704920921
 30
0.0
 40
99.500004000000004
 50
242.88566000000159
 51
297.11435000000108
  0
LINE
  5
3489
  8
AM_0
 10
743.91024856190961
 20
126.3249200492091
 30
0.0
 11
809.06952856190981
 21
129.73977804920921
 31
0.0
  0
LINE
  5
348A
  8
ﾁｭｳｼﾝｾﾝ
 10
591.24260956190949
 20
243.8249090492092
 30
0.0
 11
835.71998956190964
 21
243.8249090492092
 31
0.0
  0
ARC
  5
348B
  8
AM_0
 10
619.79771056190987
 20
149.71237104920911
 30
0.0
 40
20.000000700000001
 50
183.00000999999969
 51
267.0000000000008
  0
CIRCLE
  5
348C
  8
AM_0
 10
618.45084856190965
 20
148.36550904920909
 30
0.0
 40
7.5000002999999982
  0
ARC
  5
348D
  8
ﾁｭｳｼﾝｾﾝ1
 10
713.91026056190935
 20
243.8249090492092
 30
0.0
 40
135.00000299999999
 50
218.3683899999991
 51
232.25634999999781
  0
LINE
  5
348E
  8
ﾁｭｳｼﾝｾﾝ1
 10
630.30445456190955
 20
160.2191330492092
 30
0.0
 11
603.99759856190985
 21
133.91227704920911
 31
0.0
  0
LINE
  5
348F
  8
AM_0
 10
419.17229285495779
 20
126.3249200492091
 30
0.0
 11
419.17229285495779
 21
243.8249090492092
 31
0.0
  0
LINE
  5
3490
  8
AM_0
 10
596.41022956190955
 20
213.82492404920919
 30
0.0
 11
599.82506956190969
 21
148.66565004920909
 31
0.0
  0
LINE
  5
3491
  8
AM_0
 10
419.17229285495779
 20
138.82492104920919
 30
0.0
 11
423.17231285495819
 21
138.82492104920919
 31
0.0
  0
LINE
  5
3492
  8
AM_0
 10
481.17230285495828
 20
259.82490804920923
 30
0.0
 11
423.17231285495819
 21
259.82490804920923
 31
0.0
  0
LINE
  5
3493
  8
AM_0
 10
481.17230285495828
 20
227.8249400492092
 30
0.0
 11
423.17231285495819
 21
227.8249400492092
 31
0.0
  0
LINE
  5
3494
  8
AM_0
 10
596.41025956190936
 20
243.8249090492092
 30
0.0
 11
596.41025956190936
 21
213.82492404920919
 31
0.0
  0
LINE
  5
3495
  8
AM_0
 10
683.91024556190962
 20
126.3249200492091
 30
0.0
 11
618.75095656190956
 21
129.73977804920921
 31
0.0
  0
LINE
  5
3496
  8
AM_0
 10
713.91026056190935
 20
126.3249200492091
 30
0.0
 11
743.91026356190991
 21
126.3249200492091
 31
0.0
  0
LINE
  5
3497
  8
AM_0
 10
713.91026056190935
 20
126.3249200492091
 30
0.0
 11
683.91024556190962
 21
126.3249200492091
 31
0.0
  0
LINE
  5
3498
  8
ﾁｭｳｼﾝｾﾝ
 10
656.01597444669051
 20
190.8249230492091
 30
0.0
 11
771.80454667712843
 21
190.8249230492091
 31
0.0
  0
ARC
  5
3499
  8
AM_0
 10
713.91026056190935
 20
215.82493704920921
 30
0.0
 40
93.500003999999976
 50
162.14679000000021
 51
183.00788
  0
LINE
  5
349A
  8
AM_0
 10
665.91024556190962
 20
243.8249090492092
 30
0.0
 11
665.91024556190962
 21
205.8249230492091
 31
0.0
  0
LINE
  5
349B
  8
AM_0
 10
660.91024456190974
 20
200.82493704920921
 30
0.0
 11
627.93351256190965
 21
200.82493704920921
 31
0.0
  0
ARC
  5
349C
  8
AM_0
 10
627.93351256190965
 20
205.8249230492091
 30
0.0
 40
5.0000001000000003
 50
203.84446999999801
 51
270.0
  0
ARC
  5
349D
  8
AM_0
 10
660.91024456190974
 20
205.8249230492091
 30
0.0
 40
5.0000001000000003
 50
270.0
 51
0.0
  0
ARC
  5
349E
  8
AM_0
 10
713.91026056190935
 20
243.8249090492092
 30
0.0
 40
16.000000499999999
 50
108.20995999999811
 51
71.790051999998809
  0
CIRCLE
  5
349F
  8
AM_0
 62
     2
 10
713.91026056190935
 20
243.8249090492092
 30
0.0
 40
4.000000199999997
  0
ARC
  5
34A0
  8
AM_0
 10
713.91026056190935
 20
243.8249090492092
 30
0.0
 40
16.000000499999999
 50
108.20995999999811
 51
71.790051999998809
  0
LINE
  5
34A1
  8
AM_0
 10
708.91024756190961
 20
254.8249400492092
 30
0.0
 11
718.91024656190984
 21
254.8249400492092
 31
0.0
  0
CIRCLE
  5
34A2
  8
AM_0
 10
713.91026056190935
 20
243.8249090492092
 30
0.0
 40
2.75000007
  0
CIRCLE
  5
34A3
  8
AM_0
 10
713.91026056190935
 20
243.8249090492092
 30
0.0
 40
2.75000007
  0
LINE
  5
34A4
  8
AM_0
 10
831.41025856190981
 20
213.82492404920919
 30
0.0
 11
827.99540056190983
 21
148.66563504920919
 31
0.0
  0
ARC
  5
34A6
  8
ﾁｭｳｼﾝｾﾝ1
 10
713.91026056190935
 20
243.8249090492092
 30
0.0
 40
135.00000299999999
 50
301.60706999999701
 51
322.2563500000025
  0
ARC
  5
34A7
  8
AM_0
 10
808.02281356190963
 20
149.71237104920911
 30
0.0
 40
20.000000700000001
 50
272.99999999999909
 51
356.99999999999949
  0
LINE
  5
34A8
  8
ﾁｭｳｼﾝｾﾝ1
 10
795.49518856190923
 20
162.23999004920921
 30
0.0
 11
823.8229015619097
 21
133.91227704920911
 31
0.0
  0
CIRCLE
  5
34A9
  8
AM_0
 10
809.36966956190975
 20
148.36550904920909
 30
0.0
 40
7.5000002999999982
  0
ARC
  5
34AB
  8
AM_0
 10
713.91026056190935
 20
215.82493704920921
 30
0.0
 40
93.500003999999976
 50
356.99212
 51
17.85321299999984
  0
LINE
  5
34AC
  8
AM_0
 10
761.91026356190991
 20
243.8249090492092
 30
0.0
 11
761.91026356190991
 21
205.8249230492091
 31
0.0
  0
LINE
  5
34AD
  8
AM_0
 10
766.9102645619098
 20
200.82493704920921
 30
0.0
 11
799.88699356190955
 21
200.82493704920921
 31
0.0
  0
ARC
  5
34AE
  8
AM_0
 10
766.9102645619098
 20
205.8249230492091
 30
0.0
 40
5.0000001000000003
 50
179.99999000000059
 51
270.0
  0
ARC
  5
34AF
  8
AM_0
 10
799.88699356190955
 20
205.8249230492091
 30
0.0
 40
5.0000001000000003
 50
270.0
 51
336.15553000000199
  0
LINE
  5
34B0
  8
AM_0
 10
831.41025856190981
 20
243.8249090492092
 30
0.0
 11
831.41025856190981
 21
213.82492404920919
 31
0.0
  0
ARC
  5
34B2
  8
AM_0
 10
713.91026056190935
 20
215.82493704920921
 30
0.0
 40
99.500004000000004
 50
58.838493999998398
 51
86.644180000003004
  0
LINE
  5
34B3
  8
AM_0
 10
748.01419156190991
 20
283.58570604920908
 30
0.0
 11
777.2445085619097
 21
312.81602604920909
 31
0.0
  0
LINE
  5
34B4
  8
AM_0
 10
743.91024856190961
 20
361.32491604920921
 30
0.0
 11
809.06952856190981
 21
357.91004604920909
 31
0.0
  0
ARC
  5
34B6
  8
AM_0
 10
619.79771056190987
 20
337.93748604920921
 30
0.0
 40
20.000000700000001
 50
92.999999000001623
 51
176.9999900000002
  0
ARC
  5
34B7
  8
ﾁｭｳｼﾝｾﾝ1
 10
713.91026056190935
 20
243.8249090492092
 30
0.0
 40
135.00000299999999
 50
121.260040000003
 51
142.25635000000241
  0
CIRCLE
  5
34B8
  8
AM_0
 10
618.45084856190965
 20
339.28436604920921
 30
0.0
 40
7.5000002999999982
  0
LINE
  5
34B9
  8
ﾁｭｳｼﾝｾﾝ1
 10
629.78223856190948
 20
327.95294604920912
 30
0.0
 11
603.99759856190985
 21
353.73761604920929
 31
0.0
  0
LINE
  5
34BD
  8
AM_0
 10
481.17230285495828
 20
262.82490804920923
 30
0.0
 11
436.1722728549579
 21
262.82490804920923
 31
0.0
  0
LINE
  5
34BE
  8
AM_0
 10
596.41025956190936
 20
273.82490904920923
 30
0.0
 11
599.82509956190961
 21
338.98421604920918
 31
0.0
  0
LINE
  5
34C0
  8
AM_0
 10
419.17229285495779
 20
348.8249360492091
 30
0.0
 11
423.17231285495819
 21
348.8249360492091
 31
0.0
  0
ARC
  5
34C3
  8
AM_0
 10
683.34184156190986
 20
287.12126604920923
 30
0.0
 40
5.0000001000000003
 50
225.0
 51
305.22315000000322
  0
ARC
  5
34C4
  8
AM_0
 10
713.91026056190935
 20
215.82493704920921
 30
0.0
 40
99.500004000000004
 50
93.355817999997413
 51
121.1614999999983
  0
LINE
  5
34C5
  8
AM_0
 10
679.80631756190962
 20
283.58570604920908
 30
0.0
 11
650.57601556190957
 21
312.81602604920909
 31
0.0
  0
LINE
  5
34C6
  8
AM_0
 10
674.14945756190991
 20
277.9288460492092
 30
0.0
 11
644.9191705619096
 21
307.15916604920892
 31
0.0
  0
ARC
  5
34C7
  8
AM_0
 10
713.91026056190935
 20
215.82493704920921
 30
0.0
 40
99.500004000000004
 50
125.8636900000031
 51
150.26975999999769
  0
ARC
  5
34C8
  8
AM_0
 10
670.6139185619096
 20
274.39333104920911
 30
0.0
 40
5.0000001000000003
 50
324.77685000000042
 51
45.000001000002641
  0
ARC
  5
34C9
  8
AM_0
 10
654.11152456190962
 20
316.35158604920912
 30
0.0
 40
5.0000001000000003
 50
129.50582000000011
 51
225.0
  0
ARC
  5
34CA
  8
AM_0
 10
641.38361656190955
 20
303.6236360492091
 30
0.0
 40
5.0000001000000003
 50
45.000001000002641
 51
140.49417999999761
  0
ARC
  5
34CB
  8
AM_0
 10
713.91026056190935
 20
243.8249090492092
 30
0.0
 40
48.0
 50
54.77684999999682
 51
125.2231399999999
  0
LINE
  5
34CC
  8
AM_0
 10
708.91024756190961
 20
262.82490804920923
 30
0.0
 11
718.91024656190984
 21
262.82490804920923
 31
0.0
  0
ARC
  5
34CD
  8
AM_0
 10
744.47866756190967
 20
287.12126604920923
 30
0.0
 40
5.0000001000000003
 50
234.77686000000011
 51
315.0
  0
ARC
  5
34CE
  8
AM_0
 10
719.91026056190958
 20
318.14915604920918
 30
0.0
 40
3.0
 50
179.99999000000059
 51
266.64419000000061
  0
ARC
  5
34CF
  8
AM_0
 10
719.91026056190958
 20
324.33965604920911
 30
0.0
 40
3.0
 50
90.00000299999769
 51
180.00000999999941
  0
ARC
  5
34D0
  8
AM_0
 10
707.91024556190962
 20
324.33965604920911
 30
0.0
 40
3.0
 50
0.0
 51
90.00000299999769
  0
ARC
  5
34D2
  8
AM_0
 10
707.91024556190962
 20
318.14915604920918
 30
0.0
 40
3.0
 50
273.35581999999698
 51
0.0
  0
LINE
  5
34D3
  8
AM_0
 10
710.91026056190958
 20
324.33965604920911
 30
0.0
 11
710.91026056190958
 21
318.14915604920918
 31
0.0
  0
LINE
  5
34D4
  8
AM_0
 10
716.91026056190935
 20
324.33965604920911
 30
0.0
 11
716.91026056190935
 21
318.14915604920918
 31
0.0
  0
LINE
  5
34D5
  8
AM_0
 10
683.91024556190962
 20
361.32491604920921
 30
0.0
 11
618.75098656190937
 21
357.91004604920909
 31
0.0
  0
LINE
  5
34D7
  8
AM_0
 10
713.91026056190935
 20
361.32494604920919
 30
0.0
 11
743.91026356190991
 21
361.32494604920919
 31
0.0
  0
LINE
  5
34D8
  8
AM_0
 10
713.91026056190935
 20
361.32494604920919
 30
0.0
 11
683.91024556190962
 21
361.32494604920919
 31
0.0
  0
ARC
  5
34D9
  8
ﾁｭｳｼﾝｾﾝ1
 10
713.91026056190935
 20
243.8249090492092
 30
0.0
 40
135.00000299999999
 50
38.368392999998782
 51
52.256345999996789
  0
ARC
  5
34DA
  8
AM_0
 10
808.02281356190963
 20
337.93748604920921
 30
0.0
 40
20.000000700000001
 50
3.0000001000004741
 51
86.999998999996933
  0
LINE
  5
34DB
  8
ﾁｭｳｼﾝｾﾝ1
 10
796.27391956190945
 20
326.1886160492092
 30
0.0
 11
823.8229015619097
 21
353.73761604920929
 31
0.0
  0
LINE
  5
34DC
  8
AM_0
 10
753.67105156190962
 20
277.92887604920912
 30
0.0
 11
782.90135956190954
 21
307.15916604920892
 31
0.0
  0
ARC
  5
34DD
  8
AM_0
 10
713.91026056190935
 20
215.82493704920921
 30
0.0
 40
99.500004000000004
 50
29.730242999998609
 51
54.136312000000359
  0
ARC
  5
34DE
  8
AM_0
 10
757.20658756190983
 20
274.39333104920911
 30
0.0
 40
5.0000001000000003
 50
135.0
 51
215.22314999999961
  0
ARC
  5
34DF
  8
AM_0
 10
786.43688956190965
 20
303.6236360492091
 30
0.0
 40
5.0000001000000003
 50
39.505817999999088
 51
135.0
  0
ARC
  5
34E0
  8
AM_0
 10
773.70898456190923
 20
316.35158604920912
 30
0.0
 40
5.0000001000000003
 50
315.0
 51
50.494181999999903
  0
CIRCLE
  5
34E1
  8
AM_0
 10
809.36966956190975
 20
339.28436604920921
 30
0.0
 40
7.5000002999999982
  0
LINE
  5
34E2
  8
AM_0
 10
831.41024956190972
 20
273.82493904920921
 30
0.0
 11
827.99540056190983
 21
338.98421604920918
 31
0.0
  0
POINT
  5
34E3
  8
0
 10
80.015101032544877
 20
501.13588370760652
 30
0.0
1001
GENIUS_GENOLIS_13
1002
{
1000
ENT
1005
0
1005
33EC
1005
33EB
1002
}
1001
GENIUS_GENOENT_13
1002
{
1000
MYREF
1005
34E3
1002
}
1002
{
1000
GRP
1005
0
1002
}
1001
GENIUS_GENOBJ-NBEHI-BHB_13
1002
{
1000
OWNER
1000
genbehi
1002
}
1001
GENIUS_GENBH_13
1002
{
1000
FGO
1005
0
1002
}
1001
GENIUS_GENODEF_13
1002
{
1000
HIER
1070
     1
1002
}
1002
{
1000
MANEDIT
1070
     1
1002
}
1002
{
1000
NOSEL
1070
     1
1002
}
1002
{
1000
BEHIND
1070
     0
1002
}
1002
{
1000
OTHER
1070
     1
1002
}
1002
{
1000
REACTOR
1002
}
  0
LINE
  5
3665
  8
AM_0
 10
111.66330485495931
 20
125.22492904920919
 30
0.0
 11
181.67229285495799
 21
125.22492904920919
 31
0.0
  0
TEXT
  5
39E1
  8
AM_0
 10
604.69769790082046
 20
586.00292929653483
 30
0.0
 40
15.0
  1
VX01-800SF~VX01-K20SF
  0
ENDSEC
  0
EOF
