  0
SECTION
  2
HEADER
  9
$ACADVER
  1
AC1009
  9
$INSBASE
 10
0.0
 20
0.0
 30
0.0
  9
$EXTMIN
 10
89.515952266467139
 20
116.99733587794729
 30
-0.0015258207003583
  9
$EXTMAX
 10
650.186673875731
 20
548.40886613428574
 30
0.0000000349246037
  9
$LIMMIN
 10
0.0
 20
0.0
  9
$LIMMAX
 10
853.5
 20
555.00000000000011
  9
$ORTHOMODE
 70
     0
  9
$REGENMODE
 70
     1
  9
$FILLMODE
 70
     1
  9
$QTEXTMODE
 70
     0
  9
$MIRRTEXT
 70
     1
  9
$DRAGMODE
 70
     2
  9
$LTSCALE
 40
3.0
  9
$OSMODE
 70
   551
  9
$ATTMODE
 70
     1
  9
$TEXTSIZE
 40
2.5
  9
$TRACEWID
 40
1.0
  9
$TEXTSTYLE
  7
STANDARD
  9
$CLAYER
  8
AM_0
  9
$CELTYPE
  6
BYLAYER
  9
$CECOLOR
 62
   256
  9
$DIMSCALE
 40
1.0
  9
$DIMASZ
 40
2.5
  9
$DIMEXO
 40
1.0
  9
$DIMDLI
 40
8.0
  9
$DIMRND
 40
0.0
  9
$DIMDLE
 40
0.0
  9
$DIMEXE
 40
0.6
  9
$DIMTP
 40
0.1
  9
$DIMTM
 40
0.1
  9
$DIMTXT
 40
2.5
  9
$DIMCEN
 40
0.0
  9
$DIMTSZ
 40
0.0
  9
$DIMTOL
 70
     0
  9
$DIMLIM
 70
     0
  9
$DIMTIH
 70
     0
  9
$DIMTOH
 70
     0
  9
$DIMSE1
 70
     0
  9
$DIMSE2
 70
     0
  9
$DIMTAD
 70
     1
  9
$DIMZIN
 70
     8
  9
$DIMBLK
  1

  9
$DIMASO
 70
     1
  9
$DIMSHO
 70
     1
  9
$DIMPOST
  1

  9
$DIMAPOST
  1
"
  9
$DIMALT
 70
     0
  9
$DIMALTD
 70
     2
  9
$DIMALTF
 40
0.0393701
  9
$DIMLFAC
 40
1.0
  9
$DIMTOFL
 70
     1
  9
$DIMTVP
 40
0.0
  9
$DIMTIX
 70
     0
  9
$DIMSOXD
 70
     0
  9
$DIMSAH
 70
     0
  9
$DIMBLK1
  1

  9
$DIMBLK2
  1

  9
$DIMSTYLE
  2
AM_ISO
  9
$DIMCLRD
 70
   256
  9
$DIMCLRE
 70
   256
  9
$DIMCLRT
 70
     4
  9
$DIMTFAC
 40
0.71
  9
$DIMGAP
 40
0.8
  9
$LUNITS
 70
     2
  9
$LUPREC
 70
     2
  9
$SKETCHINC
 40
1.0
  9
$FILLETRAD
 40
15.0
  9
$AUNITS
 70
     0
  9
$AUPREC
 70
     0
  9
$MENU
  1
.
  9
$ELEVATION
 40
0.0
  9
$PELEVATION
 40
0.0
  9
$THICKNESS
 40
0.0
  9
$LIMCHECK
 70
     0
  9
$BLIPMODE
 70
     0
  9
$CHAMFERA
 40
6.0
  9
$CHAMFERB
 40
3.0
  9
$SKPOLY
 70
     0
  9
$TDCREATE
 40
2452065.7146578361
  9
$TDUPDATE
 40
2458541.5876093749
  9
$TDINDWG
 40
0.1491134722
  9
$TDUSRTIMER
 40
0.1491132755
  9
$USRTIMER
 70
     1
  9
$ANGBASE
 50
0.0
  9
$ANGDIR
 70
     0
  9
$PDMODE
 70
     0
  9
$PDSIZE
 40
0.0
  9
$PLINEWID
 40
0.0
  9
$COORDS
 70
     1
  9
$SPLFRAME
 70
     0
  9
$SPLINETYPE
 70
     6
  9
$SPLINESEGS
 70
     8
  9
$ATTDIA
 70
     1
  9
$ATTREQ
 70
     1
  9
$HANDLING
 70
     1
  9
$HANDSEED
  5
3AC1
  9
$SURFTAB1
 70
     6
  9
$SURFTAB2
 70
     6
  9
$SURFTYPE
 70
     6
  9
$SURFU
 70
     6
  9
$SURFV
 70
     6
  9
$UCSNAME
  2

  9
$UCSORG
 10
0.0
 20
0.0
 30
0.0
  9
$UCSXDIR
 10
1.0
 20
0.0
 30
0.0
  9
$UCSYDIR
 10
0.0
 20
1.0
 30
0.0
  9
$PUCSNAME
  2

  9
$PUCSORG
 10
0.0
 20
0.0
 30
0.0
  9
$PUCSXDIR
 10
1.0
 20
0.0
 30
0.0
  9
$PUCSYDIR
 10
0.0
 20
1.0
 30
0.0
  9
$USERI1
 70
     0
  9
$USERI2
 70
     0
  9
$USERI3
 70
     0
  9
$USERI4
 70
     0
  9
$USERI5
 70
     0
  9
$USERR1
 40
0.0
  9
$USERR2
 40
0.0
  9
$USERR3
 40
0.0
  9
$USERR4
 40
0.0
  9
$USERR5
 40
0.0
  9
$WORLDVIEW
 70
     1
  9
$SHADEDGE
 70
     3
  9
$SHADEDIF
 70
    70
  9
$TILEMODE
 70
     1
  9
$MAXACTVP
 70
    64
  9
$PLIMCHECK
 70
     0
  9
$PEXTMIN
 10
1.0000000000000000E+020
 20
1.0000000000000000E+020
 30
1.0000000000000000E+020
  9
$PEXTMAX
 10
-1.0000000000000000E+020
 20
-1.0000000000000000E+020
 30
-1.0000000000000000E+020
  9
$PLIMMIN
 10
0.0
 20
0.0
  9
$PLIMMAX
 10
420.0
 20
297.0
  9
$UNITMODE
 70
     0
  9
$VISRETAIN
 70
     1
  9
$PLINEGEN
 70
     0
  9
$PSLTSCALE
 70
     1
  0
ENDSEC
  0
SECTION
  2
TABLES
  0
TABLE
  2
VPORT
 70
     1
  0
VPORT
  2
*ACTIVE
 70
     0
 10
0.0
 20
0.0
 11
1.0
 21
1.0
 12
369.85131307109913
 22
332.70310100611653
 13
0.0
 23
0.0
 14
7.5
 24
7.5
 15
30.0
 25
30.0
 16
0.0
 26
0.0
 36
1.0
 17
0.0
 27
0.0
 37
0.0
 40
434.37316547548937
 41
1.7571592210767459
 42
50.0
 43
0.0
 44
0.0
 50
0.0
 51
0.0
 71
     0
 72
   100
 73
     1
 74
     3
 75
     0
 76
     0
 77
     0
 78
     0
  0
ENDTAB
  0
TABLE
  2
LTYPE
 70
    19
  0
LTYPE
  2
CONTINUOUS
 70
     0
  3
Solid line
 72
    65
 73
     0
 40
0.0
  0
LTYPE
  2
AM_ISO02W050
 70
     0
  3
__ __ __ __ __ __ __ __ __ __ __ __ __ __ __
 72
    65
 73
     2
 40
7.5
 49
6.0
 49
-1.5
  0
LTYPE
  2
AM_ISO08W050
 70
     0
  3
____ . ____ . ____ . ____ . ____ . ____ . ____
 72
    65
 73
     4
 40
18.0
 49
12.0
 49
-1.5
 49
3.0
 49
-1.5
  0
LTYPE
  2
AM_ISO09W050
 70
     0
  3
_____ . . _____ . . _____ . . ____ .. ____
 72
    65
 73
     6
 40
22.5
 49
12.0
 49
-1.5
 49
3.0
 49
-1.5
 49
3.0
 49
-1.5
  0
LTYPE
  2
AMCONSTR
 70
     0
  3
_______________________
 72
    65
 73
     2
 40
9999.0
 49
9999.0
 49
0.0
  0
LTYPE
  2
AM_ISO08W050X2
 70
     0
  3
__ . __ . __ . __ . __ . __
 72
    65
 73
     4
 40
9.0
 49
6.0
 49
-0.75
 49
1.5
 49
-0.75
  0
LTYPE
  2
AM_ISO02W050X2
 70
     0
  3
 _ _ _ _ _ _ _ _ _ _ _ _
 72
    65
 73
     2
 40
3.75
 49
3.0
 49
-0.75
  0
LTYPE
  2
AMZIGZAG
 70
     0
  3
/\/-/\/-/\/-/\/-/\/-/\/
 72
    65
 73
     2
 40
11.0001
 49
0.0001
 49
-11.0
  0
LTYPE
  2
CENTER
 70
     0
  3
__ . __
 72
    65
 73
     4
 40
7.0
 49
4.0
 49
-1.0
 49
1.0
 49
-1.0
  0
LTYPE
  2
PHANTOM2
 70
     0
  3
Phantom (.5x) ___ _ _ ___ _ _ ___ _ _ ___ _ _
 72
    65
 73
     6
 40
31.75
 49
15.875
 49
-3.174999999999998
 49
3.174999999999998
 49
-3.174999999999998
 49
3.174999999999998
 49
-3.174999999999998
  0
LTYPE
  2
GEN7
 70
     0
  3
____ . ____ . ____ . ____ . ____ . ____ . ____
 72
    65
 73
     4
 40
14.25
 49
9.75
 49
-1.5
 49
1.5
 49
-1.5
  0
LTYPE
  2
GEN7A
 70
     0
  3
__ . __ . __
 72
    65
 73
     4
 40
7.375
 49
4.75
 49
-0.875
 49
0.875
 49
-0.875
  0
LTYPE
  2
HIDDEN
 70
     0
  3
Hidden __ __ __ __ __ __ __ __ __ __ __ __ __ _
 72
    65
 73
     2
 40
9.5249999999999986
 49
6.349999999999997
 49
-3.174999999999998
  0
LTYPE
  2
CENTER2
 70
     0
  3
Center (.5x) ___ _ ___ _ ___ _ ___ _ ___ _ ___
 72
    65
 73
     4
 40
1.125
 49
0.75
 49
-0.125
 49
0.125
 49
-0.125
  0
LTYPE
  2
HIDDEN2
 70
     0
  3
Hidden (.5x) _ _ _ _ _ _ _ _ _ _ _ _ _ _ _ _ _
 72
    65
 73
     2
 40
0.1875
 49
0.125
 49
-0.0625
  0
LTYPE
  2
AMZIGZAG2
 70
     0
  3
/\/-/\/-/\/-/\/-/\/-/\/
 72
    65
 73
     2
 40
0.4401
 49
0.0001
 49
-0.4400000000000001
  0
LTYPE
  2
ACANSTGB
 70
     0
  3
__ . . __ . .
 72
    65
 73
     6
 40
0.35433070866
 49
0.15748031496
 49
-0.03937007874
 49
0.03937007874
 49
-0.03937007874
 49
0.03937007874
 49
-0.03937007874
  0
LTYPE
  2
ACANSTGL
 70
     0
  3
_ _ _ _ _
 72
    65
 73
     2
 40
0.11811023622
 49
0.07874015748
 49
-0.03937007874
  0
ENDTAB
  0
TABLE
  2
LAYER
 70
     9
  0
LAYER
  2
0
 70
     0
 62
     7
  6
CONTINUOUS
  0
LAYER
  2
AM_0
 70
     0
 62
     7
  6
CONTINUOUS
  0
LAYER
  2
AM_5
 70
     0
 62
     2
  6
CONTINUOUS
  0
LAYER
  2
DEFPOINTS
 70
     0
 62
     7
  6
CONTINUOUS
  0
LAYER
  2
ﾁｭｳｼﾝｾﾝ
 70
     0
 62
     1
  6
GEN7
  0
LAYER
  2
ﾁｭｳｼﾝｾﾝ1
 70
     0
 62
     1
  6
GEN7A
  0
LAYER
  2
AM_0N
 70
     0
 62
     7
  6
CONTINUOUS
  0
LAYER
  2
AM_3N
 70
     0
 62
     3
  6
AM_ISO02W050
  0
LAYER
  2
ｽﾝﾎ_ｳｾﾝ
 70
     0
 62
     2
  6
CONTINUOUS
  0
ENDTAB
  0
TABLE
  2
STYLE
 70
     5
  0
STYLE
  2
STANDARD
 70
     0
 40
0.0
 41
0.8299999999999999
 50
0.0
 71
     0
 42
2.5
  3
txt.shx
  4
bigfont.shx
  0
STYLE
  2
ANNOTATIVE
 70
     0
 40
0.0
 41
1.0
 50
0.0
 71
     0
 42
0.2
  3
txt
  4

  0
STYLE
  2

 70
     1
 40
0.0
 41
1.0
 50
0.0
 71
     0
 42
2.5
  3
genltshp.shx
  4

  0
STYLE
  2
ACANSTS
 70
     0
 40
0.0
 41
1.0
 50
0.0
 71
     0
 42
2.5
  3
romans.shx
  4
extfont.shx
  0
STYLE
  2
ACANSGDT
 70
     0
 40
0.0
 41
1.0
 50
0.0
 71
     0
 42
2.5
  3
amgdt.shx
  4

  0
ENDTAB
  0
TABLE
  2
VIEW
 70
     6
  0
VIEW
  2
AM_VIEW1
 70
     0
 40
277.50000000000011
 10
249.64779005524869
 20
416.24999999999989
 41
499.2955801104971
 11
0.0
 21
0.0
 31
1.0
 12
0.0
 22
0.0
 32
0.0
 42
50.0
 43
0.0
 44
0.0
 50
0.0
 71
     0
  0
VIEW
  2
AM_VIEW2
 70
     0
 40
277.50000000000011
 10
603.85220994475117
 20
416.24999999999989
 41
499.2955801104971
 11
0.0
 21
0.0
 31
1.0
 12
0.0
 22
0.0
 32
0.0
 42
50.0
 43
0.0
 44
0.0
 50
0.0
 71
     0
  0
VIEW
  2
AM_VIEW3
 70
     0
 40
277.50000000000011
 10
249.64779005524869
 20
138.75
 41
499.2955801104971
 11
0.0
 21
0.0
 31
1.0
 12
0.0
 22
0.0
 32
0.0
 42
50.0
 43
0.0
 44
0.0
 50
0.0
 71
     0
  0
VIEW
  2
AM_VIEW4
 70
     0
 40
277.50000000000011
 10
603.85220994475117
 20
138.75
 41
499.2955801104971
 11
0.0
 21
0.0
 31
1.0
 12
0.0
 22
0.0
 32
0.0
 42
50.0
 43
0.0
 44
0.0
 50
0.0
 71
     0
  0
VIEW
  2
AM_VIEW5
 70
     0
 40
277.50000000000011
 10
426.75
 20
277.50000000000011
 41
499.2955801104971
 11
0.0
 21
0.0
 31
1.0
 12
0.0
 22
0.0
 32
0.0
 42
50.0
 43
0.0
 44
0.0
 50
0.0
 71
     0
  0
VIEW
  2
AM_VIEW6
 70
     0
 40
554.99445000000014
 10
426.75
 20
277.5
 41
998.5811743093924
 11
0.0
 21
0.0
 31
1.0
 12
0.0
 22
0.0
 32
0.0
 42
50.0
 43
0.0
 44
0.0
 50
0.0
 71
     0
  0
ENDTAB
  0
TABLE
  2
UCS
 70
     0
  0
ENDTAB
  0
TABLE
  2
APPID
 70
    97
  0
APPID
  2
ACAD
 70
     0
  0
APPID
  2
ACADANNOTATIVE
 70
     0
  0
APPID
  2
MCAD_NO_VIS
 70
     0
  0
APPID
  2
ACAD_TEMP_GRAPHIC
 70
     0
  0
APPID
  2
ACATTRIBSERVICES
 70
     0
  0
APPID
  2
GENIUS_GENREC_14
 70
     0
  0
APPID
  2
GENIUS_GENOBJ-N-REC_13
 70
     0
  0
APPID
  2
GENIUS_GENODEF_13
 70
     0
  0
APPID
  2
GENIUS_GENOLIS_13
 70
     0
  0
APPID
  2
GENIUS_GENOBJ-N-TIT_13
 70
     0
  0
APPID
  2
GENIUS_GENOENT_13
 70
     0
  0
APPID
  2
GENIUS_GENTITLE_13
 70
     0
  0
APPID
  2
GENIUS_GENOREF_13
 70
     0
  0
APPID
  2
GENIUS_GENSCREG_15
 70
     0
  0
APPID
  2
GENIUS_GENOBJ-N-SDF_13
 70
     0
  0
APPID
  2
GENIUS_GENFIL_13
 70
     0
  0
APPID
  2
GENIUS_GENOBJ-N-CHA_13
 70
     0
  0
APPID
  2
GENIUS_GENDTOL_13
 70
     0
  0
APPID
  2
GENIUS_GENOBJ-N-FIL_13
 70
     0
  0
APPID
  2
AD_DRAW
 70
     0
  0
APPID
  2
DESIGNERASSEMBLIES
 70
     0
  0
APPID
  2
ASURF_PCURVE_APPNAME
 70
     0
  0
APPID
  2
GENIUS_GE3SECT_13
 70
     0
  0
APPID
  2
GENIUS_GENCFG_13
 70
     0
  0
APPID
  2
GENIUS_GE3CFG0_13
 70
     0
  0
APPID
  2
GENIUS_GENCFG0_13
 70
     0
  0
APPID
  2
GENIUS_GENCFG1_13
 70
     0
  0
APPID
  2
GENIUS_GENCFG2_13
 70
     0
  0
APPID
  2
GENIUS_GENCFG3_13
 70
     0
  0
APPID
  2
GENIUS_GENCFG4_13
 70
     0
  0
APPID
  2
GENIUS_GEVCFG0_13
 70
     0
  0
APPID
  2
GENIUS_GENHINW_13
 70
     0
  0
APPID
  2
GENIUS_FIRSTVISTXT_14
 70
     0
  0
APPID
  2
GENIUS_GENOBJ-N-LEADER_13
 70
     0
  0
APPID
  2
GEV_VCCNULL_SWITCH_OFF
 70
     0
  0
APPID
  2
GENIUS_GEFCFG0_13
 70
     0
  0
APPID
  2
GENIUS_GENZVEED_13
 70
     0
  0
APPID
  2
GENIUS_GENSCREG_13
 70
     0
  0
APPID
  2
GENIUS_DUMCFG0_13
 70
     0
  0
APPID
  2
GEVID936201362
 70
     0
  0
APPID
  2
GEVDC
 70
     0
  0
APPID
  2
GEVCON
 70
     0
  0
APPID
  2
VCC
 70
     0
  0
APPID
  2
GEVPT
 70
     0
  0
APPID
  2
GEVIT
 70
     0
  0
APPID
  2
GENBH
 70
     0
  0
APPID
  2
GEVMK
 70
     0
  0
APPID
  2
GENIUS_GENBH_13
 70
     0
  0
APPID
  2
GENIUS_GENOBJ-NBEHI-BHF_13
 70
     0
  0
APPID
  2
GENIUS_GENOBJ-NBEHI-BHB_13
 70
     0
  0
APPID
  2
GENIUS_GENOBJ-F-DESC_13
 70
     0
  0
APPID
  2
GENIUS_GEFDESC_14
 70
     0
  0
APPID
  2
GENIUS_GENOBJ-F-PART_13
 70
     0
  0
APPID
  2
GENIUS_GEFSTDP_13
 70
     0
  0
APPID
  2
GENIUS_GEFPARTINS_13
 70
     0
  0
APPID
  2
GENIUS_GENTRA_14
 70
     0
  0
APPID
  2
GENIUS_GENINF13_13
 70
     0
  0
APPID
  2
GENIUS_GENOBJ-N-INFOPT_13
 70
     0
  0
APPID
  2
GENIUS_GENOBJ-N-RSSYM_13
 70
     0
  0
APPID
  2
GENIUS_GENSYMENT_13
 70
     0
  0
APPID
  2
GENIUS_GENSCSYM_13
 70
     0
  0
APPID
  2
GENIUS_GEFINFNAM_13
 70
     0
  0
APPID
  2
GENIUS_GENOBJ-N-CEN_13
 70
     0
  0
APPID
  2
GENIUS_GENOBJ-N-CRS_13
 70
     0
  0
APPID
  2
GENIUS_GENOBJ-N-CRC_13
 70
     0
  0
APPID
  2
GENIUS_GENCRC_14
 70
     0
  0
APPID
  2
GEVID942827039
 70
     0
  0
APPID
  2
GEVID942827040
 70
     0
  0
APPID
  2
GEVID942827041
 70
     0
  0
APPID
  2
GENIUS_GENOBJ-F-SCPASSM_13
 70
     0
  0
APPID
  2
GENIUS_GENDIMSH_14
 70
     0
  0
APPID
  2
GEVID942827042
 70
     0
  0
APPID
  2
GEVID946020473
 70
     0
  0
APPID
  2
GEVID946020474
 70
     0
  0
APPID
  2
GEVID946020475
 70
     0
  0
APPID
  2
GENIUS_GENOBJ-N-HTC_13
 70
     0
  0
APPID
  2
GENIUS_GENHATCH_13
 70
     0
  0
APPID
  2
GEVID948854295
 70
     0
  0
APPID
  2
GEVID939402019
 70
     0
  0
APPID
  2
GEVID952919491
 70
     0
  0
APPID
  2
GEVID952919492
 70
     0
  0
APPID
  2
GENIUS_GEFWELD_13
 70
     0
  0
APPID
  2
GENIUS_GENOBJ-F-WELS_13
 70
     0
  0
APPID
  2
GEVID952919493
 70
     0
  0
APPID
  2
GENIUS_GENOBJ-N-RSBK_13
 70
     0
  0
APPID
  2
GENIUS_GENOBJ-N-LIB_13
 70
     0
  0
APPID
  2
GENIUS_GENSCALE_13
 70
     0
  0
APPID
  2
GEVID986376691
 70
     0
  0
APPID
  2
DCO15
 70
     0
  0
APPID
  2
ACADM_DIM_EDIT
 70
     0
  0
APPID
  2
AMDT_DM_ADJ
 70
     0
  0
APPID
  2
ACAD_DSTYLE_DIMJAG
 70
     0
  0
APPID
  2
ACAD_DSTYLE_DIMBREAK
 70
     0
  0
APPID
  2
ACAD_NAV_VCDISPLAY
 70
     0
  0
APPID
  2
ACADANNOPO
 70
     0
  0
APPID
  2
ACAD_EXEMPT_FROM_CAD_STANDARDS
 70
     0
  0
APPID
  2
ACAD_MLEADERVER
 70
     0
  0
ENDTAB
  0
TABLE
  2
DIMSTYLE
 70
     9
  0
DIMSTYLE
  2
STANDARD
 70
     0
  3

  4

  5

  6

  7

 40
1.0
 41
0.18
 42
0.0625
 43
0.38
 44
0.18
 45
0.0
 46
0.0
 47
0.0
 48
0.0
140
0.18
141
0.09
142
0.0
143
25.399999999999999
144
1.0
145
0.0
146
1.0
147
0.09
 71
     0
 72
     0
 73
     1
 74
     1
 75
     0
 76
     0
 77
     0
 78
     0
170
     0
171
     2
172
     0
173
     0
174
     0
175
     0
176
     0
177
     0
178
     0
  0
DIMSTYLE
  2
ANNOTATIVE
 70
     0
  3

  4

  5

  6

  7

 40
1.0
 41
0.18
 42
0.0625
 43
0.38
 44
0.18
 45
0.0
 46
0.0
 47
0.0
 48
0.0
140
0.18
141
0.09
142
0.0
143
25.399999999999999
144
1.0
145
0.0
146
1.0
147
0.09
 71
     0
 72
     0
 73
     1
 74
     1
 75
     0
 76
     0
 77
     0
 78
     0
170
     0
171
     2
172
     0
173
     0
174
     0
175
     0
176
     0
177
     0
178
     0
  0
DIMSTYLE
  2
AM_ISO
 70
     0
  3

  4
"
  5

  6

  7

 40
1.0
 41
2.5
 42
1.0
 43
8.0
 44
0.6
 45
0.0
 46
0.0
 47
0.1
 48
0.1
140
2.5
141
0.0
142
0.0
143
0.0393701
144
1.0
145
0.0
146
0.71
147
0.8
 71
     0
 72
     0
 73
     0
 74
     0
 75
     0
 76
     0
 77
     1
 78
     8
170
     0
171
     2
172
     1
173
     0
174
     0
175
     0
176
   256
177
   256
178
     4
  0
DIMSTYLE
  2
AM_ANSI
 70
     0
  3

  4
mm
  5

  6

  7

 40
1.0
 41
0.12
 42
0.05
 43
0.5
 44
0.1
 45
0.0
 46
0.0
 47
0.1
 48
0.1
140
0.12
141
0.0
142
0.0
143
25.399999999999999
144
1.0
145
0.0
146
0.71
147
0.06
 71
     0
 72
     0
 73
     1
 74
     1
 75
     0
 76
     0
 77
     0
 78
     7
170
     0
171
     2
172
     0
173
     0
174
     0
175
     0
176
   256
177
   256
178
     2
  0
DIMSTYLE
  2
AM_ANSI$3
 70
     0
  3

  4
mm
  5

  6

  7

 40
1.0
 41
0.12
 42
0.05
 43
0.5
 44
0.1
 45
0.0
 46
0.0
 47
0.1
 48
0.1
140
0.12
141
0.0
142
0.0
143
25.399999999999999
144
1.0
145
0.0
146
0.71
147
0.06
 71
     0
 72
     0
 73
     1
 74
     1
 75
     0
 76
     0
 77
     0
 78
     7
170
     0
171
     2
172
     0
173
     0
174
     0
175
     0
176
   256
177
   256
178
     2
  0
DIMSTYLE
  2
AM_ANSI$4
 70
     0
  3

  4
mm
  5

  6

  7

 40
1.0
 41
0.12
 42
0.05
 43
0.5
 44
0.1
 45
0.0
 46
0.0
 47
0.1
 48
0.1
140
0.12
141
0.0
142
0.0
143
25.399999999999999
144
1.0
145
0.0
146
0.71
147
0.06
 71
     0
 72
     0
 73
     1
 74
     1
 75
     0
 76
     0
 77
     0
 78
     7
170
     0
171
     2
172
     0
173
     0
174
     0
175
     0
176
   256
177
   256
178
     2
  0
DIMSTYLE
  2
AM_ANSI$7
 70
     0
  3

  4
mm
  5

  6

  7

 40
1.0
 41
0.12
 42
0.05
 43
0.5
 44
0.1
 45
0.0
 46
0.0
 47
0.1
 48
0.1
140
0.12
141
0.0
142
0.0
143
25.399999999999999
144
1.0
145
0.0
146
0.71
147
0.06
 71
     0
 72
     0
 73
     1
 74
     1
 75
     0
 76
     0
 77
     0
 78
     7
170
     0
171
     2
172
     0
173
     0
174
     0
175
     0
176
   256
177
   256
178
     2
  0
DIMSTYLE
  2
AM_ANSI$SF
 70
     0
  3

  4
mm
  5

  6

  7

 40
1.0
 41
0.12
 42
0.05
 43
0.5
 44
0.1
 45
0.0
 46
0.0
 47
0.1
 48
0.1
140
0.12
141
0.0
142
0.0
143
25.399999999999999
144
1.0
145
0.0
146
0.71
147
0.06
 71
     0
 72
     0
 73
     1
 74
     1
 75
     1
 76
     1
 77
     0
 78
     7
170
     0
171
     2
172
     0
173
     0
174
     0
175
     0
176
   256
177
   256
178
     2
  0
DIMSTYLE
  2
AM_ANSI$SH
 70
     0
  3

  4
mm
  5

  6
GENAXEH
  7

 40
1.0
 41
0.12
 42
0.05
 43
0.5
 44
0.1
 45
0.0
 46
0.0
 47
0.1
 48
0.1
140
0.12
141
0.0
142
0.0
143
25.399999999999999
144
1.0
145
0.0
146
0.71
147
0.06
 71
     0
 72
     0
 73
     1
 74
     1
 75
     1
 76
     1
 77
     0
 78
     7
170
     0
171
     2
172
     0
173
     1
174
     0
175
     0
176
   256
177
   256
178
     2
  0
ENDTAB
  0
ENDSEC
  0
SECTION
  2
BLOCKS
  0
BLOCK
  8
0
  2
$MODEL_SPACE
 70
     0
 10
0.0
 20
0.0
 30
0.0
  3
$MODEL_SPACE
  1

  0
ENDBLK
  5
3958
  8
0
  0
BLOCK
 67
     1
  8
0
  2
$PAPER_SPACE
 70
     0
 10
0.0
 20
0.0
 30
0.0
  3
$PAPER_SPACE
  1

  0
ENDBLK
  5
3954
 67
     1
  8
0
  0
BLOCK
  8
0
  2
*U2
 70
     1
 10
0.0
 20
0.0
 30
0.0
  3
*U2
  1

  0
TEXT
  5
37A9
  8
AM_0
 10
498.16365202283652
 20
133.6029043897131
 30
0.0
 40
12.0
  1
VX02-030SF
 41
0.8299999999999999
  0
ENDBLK
  5
37AB
  8
0
  0
BLOCK
  8
0
  2
GENAXEH
 70
     0
 10
0.0
 20
0.0
 30
0.0
  3
GENAXEH
  1

  0
LINE
  5
3A26
  8
0
 10
-1.0
 20
0.0
 30
0.0
 11
1.0
 21
0.0
 31
0.0
  0
ENDBLK
  5
3A28
  8
0
  0
BLOCK
  8
0
  2
_ACMFILLEDHALF
 70
     0
 10
0.0
 20
0.0
 30
0.0
  3
_ACMFILLEDHALF
  1

  0
TRACE
  5
3A36
  8
AM_0
 62
     0
 10
-0.8
 20
0.0
 30
0.0
 11
-1.0
 21
0.166666666
 31
0.0
 12
0.0
 22
0.0
 32
0.0
 13
0.0
 23
0.0
 33
0.0
  0
LINE
  5
3A37
  8
AM_0
 62
     0
 10
-1.0
 20
0.0
 30
0.0
 11
-0.8
 21
0.0
 31
0.0
  0
ENDBLK
  5
3A35
  8
0
  0
ENDSEC
  0
SECTION
  2
ENTITIES
  0
LINE
  5
27EA
  8
ﾁｭｳｼﾝｾﾝ1
 10
89.557108055015064
 20
473.3939951937021
 30
0.0
 11
392.84628804937631
 21
473.39399519370221
 31
0.0
  0
ARC
  5
2945
  8
AM_0
 10
365.48242804937632
 20
473.39399519370221
 30
0.0
 40
3.0
 50
89.986013999999244
 51
270.01398999999998
  0
LINE
  5
2946
  8
AM_0
 10
365.48242804937632
 20
470.39399519370221
 30
0.0
 11
365.48242804937632
 21
476.39399519370232
 31
0.0
  0
LINE
  5
2947
  8
AM_0
 10
387.48245804937631
 20
463.89399519370232
 30
0.0
 11
387.48245804937631
 21
482.89399519370221
 31
0.0
  0
LINE
  5
2948
  8
AM_0
 10
359.48242804937632
 20
463.39399519370221
 30
0.0
 11
359.48242804937632
 21
483.39399519370221
 31
0.0
  0
LINE
  5
2949
  8
AM_0
 10
291.48248804937629
 20
415.49939519370201
 30
0.0
 11
291.48248804937629
 21
531.28855519370211
 31
0.0
  0
LINE
  5
294A
  8
AM_0
 10
297.48248804937629
 20
413.39399519370221
 30
0.0
 11
297.48248804937629
 21
533.39399519370215
 31
0.0
  0
LINE
  5
294B
  8
AM_0
 10
357.48245804937631
 20
492.4198051937023
 30
0.0
 11
357.48245804937631
 21
454.14954519370229
 31
0.0
  0
LINE
  5
294C
  8
AM_0
 10
347.48248804937617
 20
532.89399519370215
 30
0.0
 11
347.48248804937617
 21
413.89396519370229
 31
0.0
  0
LINE
  5
294D
  8
AM_0
 10
352.48245804937631
 20
548.39396519370234
 30
0.0
 11
352.48245804937631
 21
398.39396519370229
 31
0.0
  0
LINE
  5
294E
  8
AM_0
 10
356.48248804937629
 20
543.39399519370227
 30
0.0
 11
356.48248804937629
 21
403.393965193702
 31
0.0
  0
LINE
  5
294F
  8
AM_0
 10
329.48248804937629
 20
537.62510519370232
 30
0.0
 11
329.48248804937629
 21
409.18036519370219
 31
0.0
  0
LINE
  5
2953
  8
AM_0
 10
297.48248804937629
 20
417.86762519370222
 30
0.0
 11
329.48248804937629
 21
417.86762519370222
 31
0.0
  0
LINE
  5
2954
  8
AM_0
 10
329.48248804937629
 20
412.55600519370211
 30
0.0
 11
293.43011804937618
 21
413.50006519370203
 31
0.0
  0
LINE
  5
297B
  8
AM_0
 10
282.48248804937629
 20
425.20969519370232
 30
0.0
 11
282.48248804937629
 21
418.36103519370221
 31
0.0
  0
LINE
  5
297C
  8
AM_0
 10
273.48245804937631
 20
416.89399519370221
 30
0.0
 11
283.47677804937632
 21
416.63227519370218
 31
0.0
  0
LINE
  5
297D
  8
AM_0
 10
284.43011804937618
 20
416.36170519370228
 30
0.0
 11
290.11111804937627
 21
416.21292519370201
 31
0.0
  0
ARC
  5
297E
  8
AM_0
 10
284.48248804937629
 20
418.36103519370221
 30
0.0
 40
2.0
 50
180.00001000000091
 51
268.5000000000004
  0
ARC
  5
297F
  8
AM_0
 10
293.48248804937629
 20
415.49939519370201
 30
0.0
 40
2.0
 50
180.00001000000091
 51
268.5000000000004
  0
ARC
  5
2980
  8
AM_0
 10
290.07184804937629
 20
414.71347519370221
 30
0.0
 40
1.5
 50
12.97665300000153
 51
88.499997000000747
  0
ARC
  5
2981
  8
AM_0
 10
280.48248804937629
 20
425.20969519370232
 30
0.0
 40
2.0
 50
0.0
 51
88.499997000000747
  0
LINE
  5
2982
  8
AM_0
 10
273.48248804937629
 20
427.39365519370227
 30
0.0
 11
289.53479804937632
 21
426.97333519370233
 31
0.0
  0
ARC
  5
2983
  8
AM_0
 10
289.48248804937629
 20
424.97400519370223
 30
0.0
 40
2.0
 50
0.0
 51
88.499997000000747
  0
LINE
  5
2984
  8
AM_0
 10
273.48248804937629
 20
441.45404519370231
 30
0.0
 11
289.48248804937629
 21
441.45404519370231
 31
0.0
  0
ARC
  5
2985
  8
AM_0
 10
289.48248804937629
 20
439.45404519370231
 30
0.0
 40
2.0
 50
0.0
 51
90.000003000000945
  0
ARC
  5
2986
  8
AM_0
 10
339.48245804937631
 20
400.98337519370222
 30
0.0
 40
3.0
 50
0.0
 51
87.999999999999659
  0
LINE
  5
2987
  8
AM_0
 10
342.48245804937631
 20
400.67456519370228
 30
0.0
 11
342.48245804937631
 21
432.95359519370231
 31
0.0
  0
ARC
  5
2988
  8
AM_0
 10
344.48248804937617
 20
400.67456519370228
 30
0.0
 40
2.0
 50
179.999989999999
 51
268.00000999999861
  0
LINE
  5
2989
  8
AM_0
 10
344.41266804937618
 20
398.6757951937023
 30
0.0
 11
352.48248804937617
 21
398.39399519370232
 31
0.0
  0
LINE
  5
298A
  8
AM_0
 10
359.48242804937632
 20
463.89399519370232
 30
0.0
 11
387.48245804937631
 21
463.89399519370232
 31
0.0
  0
LINE
  5
298B
  8
AM_0
 10
365.48242804937632
 20
470.39399519370221
 30
0.0
 11
387.48245804937631
 21
470.39399519370221
 31
0.0
  0
ARC
  5
298C
  8
AM_0
 10
344.48248804937617
 20
432.95359519370231
 30
0.0
 40
2.0
 50
88.485353000001012
 51
180.00001000000091
  0
ARC
  5
298E
  8
AM_0
 10
334.48245804937631
 20
409.16285519370228
 30
0.0
 40
5.0
 50
179.999989999999
 51
268.00000999999861
  0
LINE
  5
298F
  8
AM_0
 10
334.3080180493763
 20
404.16590519370209
 30
0.0
 11
339.5871980493763
 21
403.98154519370212
 31
0.0
  0
LINE
  5
2990
  8
AM_0
 10
352.48245804937631
 20
403.393965193702
 30
0.0
 11
356.48248804937629
 21
403.393965193702
 31
0.0
  0
ARC
  5
2991
  8
AM_0
 10
344.48248804937617
 20
413.89396519370229
 30
0.0
 40
3.0
 50
270.0
 51
0.0
  0
ARC
  5
2992
  8
AM_0
 10
355.48245804937631
 20
454.29526519370228
 30
0.0
 40
2.0
 50
315.0
 51
0.0
  0
LINE
  5
2993
  8
AM_0
 10
356.48245804937631
 20
452.46680519370233
 30
0.0
 11
356.89670804937617
 21
452.88105519370231
 31
0.0
  0
LINE
  5
2994
  8
AM_0
 10
357.48248804937617
 20
463.39399519370221
 30
0.0
 11
359.48242804937632
 21
463.39399519370221
 31
0.0
  0
LINE
  5
2995
  8
AM_0
 10
297.48248804937629
 20
528.92032519370218
 30
0.0
 11
329.48248804937629
 21
528.92032519370218
 31
0.0
  0
LINE
  5
2996
  8
AM_0
 10
293.43008804937631
 20
533.28785519370228
 30
0.0
 11
329.48248804937629
 21
534.23194519370224
 31
0.0
  0
ARC
  5
29BD
  8
AM_0
 10
289.48248804937629
 20
507.3339351937023
 30
0.0
 40
2.0
 50
270.0
 51
0.0
  0
LINE
  5
29BE
  8
AM_0
 10
273.48248804937629
 20
505.33393519370208
 30
0.0
 11
289.48248804937629
 21
505.33393519370208
 31
0.0
  0
LINE
  5
29BF
  8
AM_0
 10
282.48248804937629
 20
521.57825519370226
 30
0.0
 11
282.48248804937629
 21
528.42691519370226
 31
0.0
  0
ARC
  5
29C0
  8
AM_0
 10
280.48248804937629
 20
521.57825519370226
 30
0.0
 40
2.0
 50
271.49999999999949
 51
0.0
  0
LINE
  5
29C1
  8
AM_0
 10
273.48245804937631
 20
519.39426519370215
 30
0.0
 11
289.53479804937632
 21
519.81461519370225
 31
0.0
  0
ARC
  5
29C2
  8
AM_0
 10
289.48248804937629
 20
521.81394519370224
 30
0.0
 40
2.0
 50
271.49999999999949
 51
0.0
  0
LINE
  5
29C3
  8
AM_0
 10
273.48245804937631
 20
529.89396519370234
 30
0.0
 11
283.47677804937632
 21
530.15567519370234
 31
0.0
  0
ARC
  5
29C4
  8
AM_0
 10
293.48248804937629
 20
531.28855519370211
 30
0.0
 40
2.0
 50
91.500001000001546
 51
180.00001000000091
  0
LINE
  5
29C5
  8
AM_0
 10
284.43011804937618
 20
530.42621519370232
 30
0.0
 11
290.11111804937627
 21
530.57499519370231
 31
0.0
  0
ARC
  5
29C6
  8
AM_0
 10
284.48248804937629
 20
528.42691519370226
 30
0.0
 40
2.0
 50
91.500001000001546
 51
180.00001000000091
  0
ARC
  5
29C7
  8
AM_0
 10
290.07184804937629
 20
532.07450519370229
 30
0.0
 40
1.5
 50
271.49999999999949
 51
347.02334999999908
  0
ARC
  5
29C8
  8
AM_0
 10
334.48245804937631
 20
537.62510519370232
 30
0.0
 40
5.0
 50
91.999998000000545
 51
180.00001000000091
  0
LINE
  5
29C9
  8
AM_0
 10
342.48245804937631
 20
546.11338519370224
 30
0.0
 11
342.48245804937631
 21
513.83435519370232
 31
0.0
  0
LINE
  5
29CA
  8
AM_0
 10
359.48242804937632
 20
482.89399519370221
 30
0.0
 11
387.48245804937631
 21
482.89399519370221
 31
0.0
  0
LINE
  5
29CB
  8
AM_0
 10
365.48242804937632
 20
476.39399519370232
 30
0.0
 11
387.48245804937631
 21
476.39399519370232
 31
0.0
  0
LINE
  5
29CC
  8
AM_0
 10
357.48248804937617
 20
483.39399519370221
 30
0.0
 11
359.48242804937632
 21
483.39399519370221
 31
0.0
  0
ARC
  5
29CD
  8
AM_0
 10
355.48245804937631
 20
492.4926851937023
 30
0.0
 40
2.0
 50
0.0
 51
45.000000999999187
  0
LINE
  5
29CE
  8
AM_0
 10
356.48245804937631
 20
494.32114519370231
 30
0.0
 11
356.89667804937631
 21
493.90689519370233
 31
0.0
  0
ARC
  5
29CF
  8
AM_0
 10
344.48248804937617
 20
513.83435519370232
 30
0.0
 40
2.0
 50
179.999989999999
 51
271.51463999999908
  0
ARC
  5
29D1
  8
AM_0
 10
344.48248804937617
 20
532.89399519370215
 30
0.0
 40
3.0
 50
0.0
 51
90.000003000000945
  0
ARC
  5
29D2
  8
AM_0
 10
344.48248804937617
 20
546.11338519370224
 30
0.0
 40
2.0
 50
91.999998000000545
 51
180.00001000000091
  0
ARC
  5
29D3
  8
AM_0
 10
339.48245804937631
 20
545.80457519370236
 30
0.0
 40
3.0
 50
272.0000000000004
 51
0.0
  0
LINE
  5
29D4
  8
AM_0
 10
334.3080180493763
 20
542.62204519370198
 30
0.0
 11
339.5871980493763
 21
542.80640519370195
 31
0.0
  0
LINE
  5
29D5
  8
AM_0
 10
352.48245804937631
 20
543.39399519370227
 30
0.0
 11
356.48248804937629
 21
543.39399519370227
 31
0.0
  0
LINE
  5
29D6
  8
AM_0
 10
344.41266804937618
 20
548.11219519370229
 30
0.0
 11
352.48248804937617
 21
548.39399519370215
 31
0.0
  0
LINE
  5
3003
  8
AM_0
 10
170.982488049376
 20
413.13505672052281
 30
0.0
 11
145.48248804937609
 21
413.13505672052281
 31
0.0
  0
LINE
  5
3004
  8
AM_0
 10
111.4824880493763
 20
538.99402969370215
 30
0.0
 11
254.98248804937629
 21
538.99402969370215
 31
0.0
  0
LINE
  5
3005
  8
AM_0
 10
170.982488049376
 20
395.7416314634707
 30
0.0
 11
116.9824880493761
 21
395.74163146347053
 31
0.0
  0
LINE
  5
3006
  8
AM_0
 10
170.982488049376
 20
392.334030464764
 30
0.0
 11
116.9824880493761
 21
392.334030464764
 31
0.0
  0
LINE
  5
3007
  8
AM_0
 10
109.4824880493763
 20
536.99402969370226
 30
0.0
 11
109.4824880493763
 21
409.7940296937021
 31
0.0
  0
LINE
  5
3008
  8
AM_0
 10
111.9824880493763
 20
538.99402969370215
 30
0.0
 11
111.9824880493762
 21
407.79402969370187
 31
0.0
  0
ARC
  5
3009
  8
AM_0
 10
1044.1686118591961
 20
473.39402969370173
 30
0.0
 40
940.68612380981915
 50
176.76392470776139
 51
183.2360752922385
  0
LINE
  5
300A
  8
AM_0
 10
104.9824880493763
 20
526.49589756508169
 30
0.0
 11
104.9824880493761
 21
420.29216182232278
 31
0.0
  0
LINE
  5
300B
  8
AM_0
 10
114.9824880493762
 20
411.1350567205231
 30
0.0
 11
114.9824880493762
 21
394.334030464764
 31
0.0
  0
ARC
  5
300C
  8
AM_0
 10
116.9824880493761
 20
397.7416314634707
 30
0.0
 40
2.0
 50
180.0
 51
270.0
1001
GENIUS_GENODEF_13
1002
{
1000
HIER
1070
     0
1002
}
1002
{
1000
MANEDIT
1070
     0
1002
}
1002
{
1000
NOSEL
1070
     0
1002
}
1002
{
1000
BEHIND
1070
     0
1002
}
1002
{
1000
OTHER
1070
     0
1002
}
1002
{
1000
REACTOR
1002
}
1001
GENIUS_GENOBJ-N-FIL_13
1002
{
1000
OWNER
1000
GEN
1002
}
  0
ARC
  5
300D
  8
AM_0
 10
116.9824880493761
 20
394.334030464764
 30
0.0
 40
2.0
 50
180.0
 51
270.0
1001
GENIUS_GENOBJ-N-FIL_13
1002
{
1000
OWNER
1000
GEN
1002
}
1001
GENIUS_GENODEF_13
1002
{
1000
HIER
1070
     0
1002
}
1002
{
1000
MANEDIT
1070
     0
1002
}
1002
{
1000
NOSEL
1070
     0
1002
}
1002
{
1000
BEHIND
1070
     0
1002
}
1002
{
1000
OTHER
1070
     0
1002
}
1002
{
1000
REACTOR
1002
}
  0
LINE
  5
300E
  8
AM_0
 10
111.4824880493763
 20
407.79402969370187
 30
0.0
 11
114.9824880493762
 21
407.7940296937017
 31
0.0
  0
ARC
  5
300F
  8
AM_0
 10
111.4824880493763
 20
409.7940296937021
 30
0.0
 40
2.0
 50
180.0
 51
270.0
1001
GENIUS_GENOBJ-N-FIL_13
1002
{
1000
OWNER
1000
GEN
1002
}
1001
GENIUS_GENODEF_13
1002
{
1000
HIER
1070
     0
1002
}
1002
{
1000
MANEDIT
1070
     0
1002
}
1002
{
1000
NOSEL
1070
     0
1002
}
1002
{
1000
BEHIND
1070
     0
1002
}
1002
{
1000
OTHER
1070
     0
1002
}
1002
{
1000
REACTOR
1002
}
  0
LINE
  5
3010
  8
AM_0
 10
108.8112157270361
 20
415.99071620244882
 30
0.0
 11
105.6537603717163
 21
418.7973431849552
 31
0.0
  0
ARC
  5
3011
  8
AM_0
 10
106.9824880493762
 20
420.29216182232278
 30
0.0
 40
2.0
 50
180.0
 51
228.3664606634303
1001
GENIUS_GENODEF_13
1002
{
1000
HIER
1070
     0
1002
}
1002
{
1000
MANEDIT
1070
     0
1002
}
1002
{
1000
NOSEL
1070
     0
1002
}
1002
{
1000
BEHIND
1070
     0
1002
}
1002
{
1000
OTHER
1070
     0
1002
}
1002
{
1000
REACTOR
1002
}
1001
GENIUS_GENOBJ-N-FIL_13
1002
{
1000
OWNER
1000
GEN
1002
}
  0
ARC
  5
3012
  8
AM_0
 10
107.4824880493763
 20
414.49589756508158
 30
0.0
 40
2.0
 50
0.0
 51
48.366460663430352
1001
GENIUS_GENOBJ-N-FIL_13
1002
{
1000
OWNER
1000
GEN
1002
}
1001
GENIUS_GENODEF_13
1002
{
1000
HIER
1070
     0
1002
}
1002
{
1000
MANEDIT
1070
     0
1002
}
1002
{
1000
NOSEL
1070
     0
1002
}
1002
{
1000
BEHIND
1070
     0
1002
}
1002
{
1000
OTHER
1070
     0
1002
}
1002
{
1000
REACTOR
1002
}
  0
LINE
  5
3013
  8
AM_0
 10
133.48248804937609
 20
404.2444337610072
 30
0.0
 11
129.48248804937609
 21
404.24443376100709
 31
0.0
  0
LINE
  5
3014
  8
AM_0
 10
145.48248804937609
 20
417.10323671423311
 30
0.0
 11
129.48248804937609
 21
417.10323671423311
 31
0.0
1001
GENIUS_GENOREF_13
1005
303D
  0
LINE
  5
3015
  8
AM_0N
 10
129.48248804937609
 20
413.55145242251422
 30
0.0
 11
145.48248804937609
 21
413.55145242251422
 31
0.0
1001
GENIUS_GENOREF_13
1005
0
  0
ARC
  5
3016
  8
AM_0
 10
116.9824880493761
 20
411.1350567205231
 30
0.0
 40
2.0
 50
90.0
 51
180.0
1001
GENIUS_GENOBJ-N-FIL_13
1002
{
1000
OWNER
1000
GEN
1002
}
1001
GENIUS_GENODEF_13
1002
{
1000
HIER
1070
     0
1002
}
1002
{
1000
MANEDIT
1070
     0
1002
}
1002
{
1000
NOSEL
1070
     0
1002
}
1002
{
1000
BEHIND
1070
     0
1002
}
1002
{
1000
OTHER
1070
     0
1002
}
1002
{
1000
REACTOR
1002
}
  0
LINE
  5
3017
  8
AM_0
 10
129.48248804937609
 20
417.10323671423311
 30
0.0
 11
129.48248804937609
 21
404.24443376100709
 31
0.0
  0
LINE
  5
3018
  8
AM_0
 10
129.48248804937609
 20
413.1350567205231
 30
0.0
 11
116.9824880493761
 21
413.13505672052281
 31
0.0
  0
LINE
  5
3019
  8
AM_0
 10
141.48248804937629
 20
413.55145242251422
 30
0.0
 11
141.48248804937629
 21
404.2444337610072
 31
0.0
  0
ARC
  5
301A
  8
AM_0N
 10
139.00060096636639
 20
412.66787191228241
 30
0.0
 40
1.1999999999999991
 50
293.54713723707698
 51
355.00000000000023
1001
GENIUS_GENOREF_13
1005
0
  0
LINE
  5
301B
  8
AM_0
 10
133.48248804937609
 20
413.55145242251422
 30
0.0
 11
133.48248804937609
 21
404.24443376100709
 31
0.0
  0
ARC
  5
301C
  8
AM_0N
 10
135.9643751323859
 20
412.66787191228241
 30
0.0
 40
1.1999999999999991
 50
184.99999999999969
 51
246.4528627629231
1001
GENIUS_GENOREF_13
1005
0
  0
LINE
  5
301D
  8
AM_3N
  6
AM_ISO02W050X2
 10
135.9824880493762
 20
411.38175641542949
 30
0.0
 11
137.48248804937609
 21
413.2691664439883
 31
0.0
1001
GENIUS_GENOREF_13
1005
0
  0
LINE
  5
301E
  8
AM_3N
  6
AM_ISO02W050X2
 10
137.7349880493762
 20
411.15783211756508
 30
0.0
 11
137.7349880493762
 21
412.95145242251402
 31
0.0
1001
GENIUS_GENOREF_13
1005
0
  0
LINE
  5
301F
  8
AM_3N
  6
AM_ISO02W050X2
 10
137.2299880493762
 20
411.15783211756508
 30
0.0
 11
137.2299880493762
 21
412.95145242251402
 31
0.0
1001
GENIUS_GENOREF_13
1005
0
  0
LINE
  5
3020
  8
AM_3N
  6
AM_ISO02W050X2
 10
138.9824880493762
 20
411.38175641542949
 30
0.0
 11
137.48248804937609
 21
413.2691664439883
 31
0.0
1001
GENIUS_GENOREF_13
1005
0
  0
LINE
  5
3021
  8
AM_0
 10
145.48248804937609
 20
417.10323671423311
 30
0.0
 11
145.48248804937609
 21
404.24443376100709
 31
0.0
  0
LINE
  5
3022
  8
AM_0
 10
141.48248804937629
 20
409.52049655951618
 30
0.0
 11
133.48248804937609
 21
409.52049655951618
 31
0.0
  0
ARC
  5
3023
  8
AM_0N
 10
137.48248804937609
 20
416.15145242251401
 30
0.0
 40
5.0
 50
246.4528627629231
 51
293.54713723707698
1001
GENIUS_GENOREF_13
1005
0
  0
LINE
  5
3024
  8
AM_0
 10
145.48248804937609
 20
404.24443376100709
 30
0.0
 11
141.48248804937629
 21
404.2444337610072
 31
0.0
  0
LINE
  5
3025
  8
AM_0N
 10
134.7689414946758
 20
412.56328502098518
 30
0.0
 11
134.6824880493761
 21
413.55145242251422
 31
0.0
1001
GENIUS_GENOREF_13
1005
0
  0
LINE
  5
3026
  8
AM_3N
  6
AM_ISO02W050X2
 10
137.7349880493762
 20
412.95145242251402
 30
0.0
 11
137.2299880493762
 21
412.95145242251402
 31
0.0
1001
GENIUS_GENOREF_13
1005
0
  0
LINE
  5
3027
  8
AM_0N
 10
140.1960346040764
 20
412.56328502098518
 30
0.0
 11
140.28248804937621
 21
413.55145242251422
 31
0.0
1001
GENIUS_GENOREF_13
1005
0
  0
ARC
  5
3028
  8
AM_0
 10
107.4824880493763
 20
532.29216182232256
 30
0.0
 40
2.0
 50
311.63353933656958
 51
0.0
1001
GENIUS_GENOBJ-N-FIL_13
1002
{
1000
OWNER
1000
GEN
1002
}
1001
GENIUS_GENODEF_13
1002
{
1000
HIER
1070
     0
1002
}
1002
{
1000
MANEDIT
1070
     0
1002
}
1002
{
1000
NOSEL
1070
     0
1002
}
1002
{
1000
BEHIND
1070
     0
1002
}
1002
{
1000
OTHER
1070
     0
1002
}
1002
{
1000
REACTOR
1002
}
  0
LINE
  5
3029
  8
AM_0
 10
93.982488049376286
 20
490.39402969370218
 30
0.0
 11
93.982488049376144
 21
456.39402969370218
 31
0.0
  0
LINE
  5
302A
  8
AM_0
 10
96.982488049376201
 20
453.39402969370212
 30
0.0
 11
103.6951228504184
 21
453.39402969370212
 31
0.0
  0
ARC
  5
302B
  8
AM_0
 10
96.982488049376201
 20
456.39402969370218
 30
0.0
 40
3.0
 50
180.0
 51
270.0
1001
GENIUS_GENODEF_13
1002
{
1000
HIER
1070
     0
1002
}
1002
{
1000
MANEDIT
1070
     0
1002
}
1002
{
1000
NOSEL
1070
     0
1002
}
1002
{
1000
BEHIND
1070
     0
1002
}
1002
{
1000
OTHER
1070
     0
1002
}
1002
{
1000
REACTOR
1002
}
1001
GENIUS_GENOBJ-N-FIL_13
1002
{
1000
OWNER
1000
GEN
1002
}
  0
LINE
  5
302C
  8
AM_0
 10
96.982488049376272
 20
493.39402969370218
 30
0.0
 11
103.6951228504184
 21
493.39402969370218
 31
0.0
  0
ARC
  5
302D
  8
AM_0
 10
96.982488049376272
 20
490.39402969370218
 30
0.0
 40
3.0
 50
90.0
 51
180.0
1001
GENIUS_GENOBJ-N-FIL_13
1002
{
1000
OWNER
1000
GEN
1002
}
1001
GENIUS_GENODEF_13
1002
{
1000
HIER
1070
     0
1002
}
1002
{
1000
MANEDIT
1070
     0
1002
}
1002
{
1000
NOSEL
1070
     0
1002
}
1002
{
1000
BEHIND
1070
     0
1002
}
1002
{
1000
OTHER
1070
     0
1002
}
1002
{
1000
REACTOR
1002
}
  0
LINE
  5
302E
  8
AM_0
 10
108.8112157270361
 20
530.79734318495525
 30
0.0
 11
105.6537603717163
 21
527.99071620244899
 31
0.0
  0
ARC
  5
302F
  8
AM_0
 10
106.9824880493763
 20
526.49589756508169
 30
0.0
 40
2.0
 50
131.63353933656961
 51
180.0
1001
GENIUS_GENODEF_13
1002
{
1000
HIER
1070
     0
1002
}
1002
{
1000
MANEDIT
1070
     0
1002
}
1002
{
1000
NOSEL
1070
     0
1002
}
1002
{
1000
BEHIND
1070
     0
1002
}
1002
{
1000
OTHER
1070
     0
1002
}
1002
{
1000
REACTOR
1002
}
1001
GENIUS_GENOBJ-N-FIL_13
1002
{
1000
OWNER
1000
GEN
1002
}
  0
ARC
  5
3030
  8
AM_0
 10
111.4824880493763
 20
536.99402969370226
 30
0.0
 40
2.0
 50
90.0
 51
180.0
1001
GENIUS_GENOBJ-N-FIL_13
1002
{
1000
OWNER
1000
GEN
1002
}
1001
GENIUS_GENODEF_13
1002
{
1000
HIER
1070
     0
1002
}
1002
{
1000
MANEDIT
1070
     0
1002
}
1002
{
1000
NOSEL
1070
     0
1002
}
1002
{
1000
BEHIND
1070
     0
1002
}
1002
{
1000
OTHER
1070
     0
1002
}
1002
{
1000
REACTOR
1002
}
  0
LINE
  5
3031
  8
AM_0
 10
266.48248804937629
 20
539.39402969370224
 30
0.0
 11
266.48248804937629
 21
407.39402969370212
 31
0.0
  0
LINE
  5
3032
  8
AM_0
 10
254.98248804937629
 20
539.39402969370224
 30
0.0
 11
254.98248804937629
 21
407.39402969370212
 31
0.0
  0
LINE
  5
3033
  8
AM_0
 10
172.98248804937609
 20
407.79402969370221
 30
0.0
 11
254.98248804937629
 21
407.79402969370187
 31
0.0
  0
LINE
  5
3034
  8
AM_0
 10
172.98248804937609
 20
411.1350567205231
 30
0.0
 11
172.98248804937609
 21
394.33403046476388
 31
0.0
  0
ARC
  5
3035
  8
AM_0
 10
170.982488049376
 20
397.7416314634707
 30
0.0
 40
2.0
 50
270.0
 51
0.0
1001
GENIUS_GENOBJ-N-FIL_13
1002
{
1000
OWNER
1000
GEN
1002
}
1001
GENIUS_GENODEF_13
1002
{
1000
HIER
1070
     0
1002
}
1002
{
1000
MANEDIT
1070
     0
1002
}
1002
{
1000
NOSEL
1070
     0
1002
}
1002
{
1000
BEHIND
1070
     0
1002
}
1002
{
1000
OTHER
1070
     0
1002
}
1002
{
1000
REACTOR
1002
}
  0
ARC
  5
3036
  8
AM_0
 10
170.982488049376
 20
394.33403046476388
 30
0.0
 40
2.0
 50
270.0
 51
0.0
1001
GENIUS_GENOBJ-N-FIL_13
1002
{
1000
OWNER
1000
GEN
1002
}
1001
GENIUS_GENODEF_13
1002
{
1000
HIER
1070
     0
1002
}
1002
{
1000
MANEDIT
1070
     0
1002
}
1002
{
1000
NOSEL
1070
     0
1002
}
1002
{
1000
BEHIND
1070
     0
1002
}
1002
{
1000
OTHER
1070
     0
1002
}
1002
{
1000
REACTOR
1002
}
  0
ARC
  5
3037
  8
AM_0
 10
170.982488049376
 20
411.1350567205231
 30
0.0
 40
2.0
 50
0.0
 51
90.0
1001
GENIUS_GENODEF_13
1002
{
1000
HIER
1070
     0
1002
}
1002
{
1000
MANEDIT
1070
     0
1002
}
1002
{
1000
NOSEL
1070
     0
1002
}
1002
{
1000
BEHIND
1070
     0
1002
}
1002
{
1000
OTHER
1070
     0
1002
}
1002
{
1000
REACTOR
1002
}
1001
GENIUS_GENOBJ-N-FIL_13
1002
{
1000
OWNER
1000
GEN
1002
}
  0
LINE
  5
3038
  8
AM_0
 10
254.98248804937629
 20
407.39402969370212
 30
0.0
 11
266.48248804937629
 21
407.39402969370212
 31
0.0
  0
LINE
  5
3039
  8
AM_0
 10
273.48248804937629
 20
410.39402969370218
 30
0.0
 11
266.48248804937629
 21
407.39402969370212
 31
0.0
  0
LINE
  5
303A
  8
AM_0
 10
254.98248804937629
 20
539.39402969370224
 30
0.0
 11
266.48248804937629
 21
539.39402969370224
 31
0.0
  0
LINE
  5
303B
  8
AM_0
 10
266.48248804937629
 20
539.39402969370224
 30
0.0
 11
273.48248804937629
 21
536.39402969370224
 31
0.0
  0
LINE
  5
303C
  8
AM_0
 10
273.48248804937629
 20
536.39402969370212
 30
0.0
 11
273.48248804937629
 21
410.39402969370218
 31
0.0
  0
POINT
  5
303D
  8
0
 10
-12.39175055193215
 20
-38.347031673328047
 30
0.0
1001
GENIUS_GENOLIS_13
1002
{
1000
ENT
1005
0
1005
0
1005
0
1005
3014
1002
}
1001
GENIUS_GENOENT_13
1002
{
1000
MYREF
1005
303D
1002
}
1002
{
1000
GRP
1005
0
1002
}
1001
GENIUS_GENOBJ-NBEHI-BHB_13
1002
{
1000
OWNER
1000
genbehi
1002
}
1001
GENIUS_GENBH_13
1002
{
1000
FGO
1005
0
1002
}
1001
GENIUS_GENODEF_13
1002
{
1000
HIER
1070
     1
1002
}
1002
{
1000
MANEDIT
1070
     1
1002
}
1002
{
1000
NOSEL
1070
     1
1002
}
1002
{
1000
BEHIND
1070
     0
1002
}
1002
{
1000
OTHER
1070
     1
1002
}
1002
{
1000
REACTOR
1002
}
  0
LINE
  5
32FD
  8
AM_0
 10
365.4824080493762
 20
271.39851087523169
 30
0.0
 11
387.48245804937631
 21
271.39851087523169
 31
0.0
  0
LINE
  5
32FE
  8
ﾁｭｳｼﾝｾﾝ1
 10
286.31514935409399
 20
259.3985088752317
 30
0.0
 11
389.21594804937632
 21
259.3985088752317
 31
0.0
  0
LINE
  5
32FF
  8
AM_0
 10
359.4824080493762
 20
249.89851087523169
 30
0.0
 11
387.48245804937631
 21
249.89851087523169
 31
0.0
  0
LINE
  5
3300
  8
AM_0
 10
359.4824080493762
 20
268.89850987523181
 30
0.0
 11
387.48245804937631
 21
268.89850987523181
 31
0.0
  0
ARC
  5
3301
  8
AM_0
 10
1044.1686118591961
 20
242.39854687523149
 30
0.0
 40
940.68612380981915
 50
176.76392470776159
 51
183.2360752922383
  0
LINE
  5
3302
  8
AM_0
 10
104.9824880493763
 20
295.50041474661111
 30
0.0
 11
104.9824880493763
 21
189.2966790038522
 31
0.0
  0
LINE
  5
3303
  8
AM_0
 10
109.4824880493763
 20
305.9985468752318
 30
0.0
 11
109.4824880493763
 21
178.79854687523161
 31
0.0
  0
LINE
  5
3304
  8
AM_0
 10
111.9824880493763
 20
307.99854687523168
 30
0.0
 11
111.9824880493763
 21
176.79854687523141
 31
0.0
  0
LINE
  5
3305
  8
AM_0
 10
266.48248804937617
 20
308.39854687523172
 30
0.0
 11
266.48248804937617
 21
176.39854687523169
 31
0.0
  0
LINE
  5
3306
  8
AM_0
 10
254.9824880493762
 20
308.39854687523172
 30
0.0
 11
254.9824880493762
 21
176.39854687523169
 31
0.0
  0
LINE
  5
330A
  8
AM_0
 10
285.48248804937617
 20
286.39851187523169
 30
0.0
 11
285.48248804937617
 21
268.18122487523169
 31
0.0
  0
LINE
  5
330B
  8
AM_0
 10
347.4824380493763
 20
318.89852587523171
 30
0.0
 11
347.4824380493763
 21
204.78319687523171
 31
0.0
  0
LINE
  5
330C
  8
AM_0
 10
352.48241804937618
 20
334.39850587523182
 30
0.0
 11
352.48241804937618
 21
189.49468387523169
 31
0.0
  0
LINE
  5
330D
  8
AM_0
 10
356.48243804937619
 20
329.39852587523171
 30
0.0
 11
356.48243804937619
 21
259.3985088752317
 31
0.0
  0
LINE
  5
330E
  8
AM_0
 10
329.48243804937619
 20
323.62961587523171
 30
0.0
 11
329.48243804937619
 21
217.66320187523181
 31
0.0
  0
LINE
  5
330F
  8
AM_0
 10
297.48248804937617
 20
302.39851087523169
 30
0.0
 11
297.48248804937617
 21
177.5845878752317
 31
0.0
  0
LINE
  5
3310
  8
AM_0
 10
273.48248804937629
 20
179.39854687523169
 30
0.0
 11
273.48248804937617
 21
305.3985468752316
 31
0.0
  0
ARC
  5
3311
  8
AM_0
 10
115.9824880493763
 20
267.39854687523172
 30
0.0
 40
1.0
 50
90.0
 51
180.0
1001
GENIUS_GENODEF_13
1002
{
1000
HIER
1070
     0
1002
}
1002
{
1000
MANEDIT
1070
     0
1002
}
1002
{
1000
NOSEL
1070
     0
1002
}
1002
{
1000
BEHIND
1070
     0
1002
}
1002
{
1000
OTHER
1070
     0
1002
}
1002
{
1000
REACTOR
1002
}
1001
GENIUS_GENOBJ-N-FIL_13
1002
{
1000
OWNER
1000
GEN
1002
}
  0
ARC
  5
3312
  8
AM_0
 10
115.9824880493763
 20
223.39854687523169
 30
0.0
 40
1.0
 50
180.0
 51
270.0
1001
GENIUS_GENOBJ-N-FIL_13
1002
{
1000
OWNER
1000
GEN
1002
}
1001
GENIUS_GENODEF_13
1002
{
1000
HIER
1070
     0
1002
}
1002
{
1000
MANEDIT
1070
     0
1002
}
1002
{
1000
NOSEL
1070
     0
1002
}
1002
{
1000
BEHIND
1070
     0
1002
}
1002
{
1000
OTHER
1070
     0
1002
}
1002
{
1000
REACTOR
1002
}
  0
LINE
  5
3313
  8
AM_0
 10
111.4824880493763
 20
176.79854687523141
 30
0.0
 11
158.98248804937629
 21
176.79854687523141
 31
0.0
  0
LINE
  5
3314
  8
ﾁｭｳｼﾝｾﾝ1
 10
89.557108055015064
 20
242.39851087523169
 30
0.0
 11
289.73582260159139
 21
242.39851087523169
 31
0.0
  0
LINE
  5
3315
  8
AM_0
 10
108.8112157270361
 20
184.9952333839785
 30
0.0
 11
105.6537603717165
 21
187.80186036648479
 31
0.0
  0
ARC
  5
3316
  8
AM_0
 10
107.4824880493763
 20
183.50041474661111
 30
0.0
 40
2.0
 50
0.0
 51
48.366460663431418
1001
GENIUS_GENOBJ-N-FIL_13
1002
{
1000
OWNER
1000
GEN
1002
}
1001
GENIUS_GENODEF_13
1002
{
1000
HIER
1070
     0
1002
}
1002
{
1000
MANEDIT
1070
     0
1002
}
1002
{
1000
NOSEL
1070
     0
1002
}
1002
{
1000
BEHIND
1070
     0
1002
}
1002
{
1000
OTHER
1070
     0
1002
}
1002
{
1000
REACTOR
1002
}
  0
ARC
  5
3317
  8
AM_0
 10
111.4824880493763
 20
178.79854687523161
 30
0.0
 40
2.0
 50
180.0
 51
270.0
1001
GENIUS_GENOBJ-N-FIL_13
1002
{
1000
OWNER
1000
GEN
1002
}
1001
GENIUS_GENODEF_13
1002
{
1000
HIER
1070
     0
1002
}
1002
{
1000
MANEDIT
1070
     0
1002
}
1002
{
1000
NOSEL
1070
     0
1002
}
1002
{
1000
BEHIND
1070
     0
1002
}
1002
{
1000
OTHER
1070
     0
1002
}
1002
{
1000
REACTOR
1002
}
  0
ARC
  5
3318
  8
AM_0
 10
106.9824880493763
 20
189.2966790038522
 30
0.0
 40
2.0
 50
180.0
 51
228.36646066343141
1001
GENIUS_GENODEF_13
1002
{
1000
HIER
1070
     0
1002
}
1002
{
1000
MANEDIT
1070
     0
1002
}
1002
{
1000
NOSEL
1070
     0
1002
}
1002
{
1000
BEHIND
1070
     0
1002
}
1002
{
1000
OTHER
1070
     0
1002
}
1002
{
1000
REACTOR
1002
}
1001
GENIUS_GENOBJ-N-FIL_13
1002
{
1000
OWNER
1000
GEN
1002
}
  0
LINE
  5
3319
  8
AM_0
 10
93.982488049376286
 20
259.3985468752316
 30
0.0
 11
93.982488049376286
 21
225.39854687523169
 31
0.0
  0
LINE
  5
331A
  8
AM_0
 10
114.9824880493763
 20
267.39854687523172
 30
0.0
 11
114.9824880493763
 21
223.39854687523169
 31
0.0
  0
LINE
  5
331B
  8
AM_0
 10
96.982488049376272
 20
222.39854687523169
 30
0.0
 11
103.6951228504184
 21
222.39854687523169
 31
0.0
  0
ARC
  5
331C
  8
AM_0
 10
96.982488049376272
 20
225.39854687523169
 30
0.0
 40
3.0
 50
180.0
 51
270.0
1001
GENIUS_GENODEF_13
1002
{
1000
HIER
1070
     0
1002
}
1002
{
1000
MANEDIT
1070
     0
1002
}
1002
{
1000
NOSEL
1070
     0
1002
}
1002
{
1000
BEHIND
1070
     0
1002
}
1002
{
1000
OTHER
1070
     0
1002
}
1002
{
1000
REACTOR
1002
}
1001
GENIUS_GENOBJ-N-FIL_13
1002
{
1000
OWNER
1000
GEN
1002
}
  0
ARC
  5
331D
  8
AM_0
 10
96.982488049376272
 20
259.3985468752316
 30
0.0
 40
3.0
 50
90.0
 51
180.0
1001
GENIUS_GENOBJ-N-FIL_13
1002
{
1000
OWNER
1000
GEN
1002
}
1001
GENIUS_GENODEF_13
1002
{
1000
HIER
1070
     0
1002
}
1002
{
1000
MANEDIT
1070
     0
1002
}
1002
{
1000
NOSEL
1070
     0
1002
}
1002
{
1000
BEHIND
1070
     0
1002
}
1002
{
1000
OTHER
1070
     0
1002
}
1002
{
1000
REACTOR
1002
}
  0
LINE
  5
331E
  8
AM_0
 10
96.982488049376272
 20
262.39854687523172
 30
0.0
 11
103.6951228504184
 21
262.39854687523172
 31
0.0
  0
LINE
  5
331F
  8
AM_0
 10
244.9824880493762
 20
198.1985468752317
 30
0.0
 11
244.98248804937629
 21
194.99854687523171
 31
0.0
  0
LINE
  5
3320
  8
AM_0
 10
219.9824880493762
 20
198.19854687523161
 30
0.0
 11
219.9824880493762
 21
194.99854687523171
 31
0.0
  0
LINE
  5
3322
  8
AM_0
 10
136.9824880493762
 20
198.19854687523161
 30
0.0
 11
136.9824880493762
 21
194.99854687523171
 31
0.0
  0
LINE
  5
3323
  8
ﾁｭｳｼﾝｾﾝ
 10
162.98248804937629
 20
223.7189180835986
 30
0.0
 11
162.98248804937629
 21
117.02240347119179
 31
0.0
  0
ARC
  5
3325
  8
ｽﾝﾎ_ｳｾﾝ
 10
165.96900604937619
 20
123.7744069610781
 30
0.0
 40
1.5050001119999981
 50
241.0912951394732
 51
145.9182257596149
  0
LINE
  5
3326
  8
AM_0
 10
161.8283490493763
 20
126.80502517523161
 30
0.0
 11
160.79349004937609
 21
122.9999805752315
 31
0.0
  0
LINE
  5
3327
  8
AM_0
 10
164.13984004937609
 20
126.8028768752315
 30
0.0
 11
165.23961004937641
 21
123.04546237523149
 31
0.0
  0
CIRCLE
  5
3328
  8
ｽﾝﾎ_ｳｾﾝ
 10
162.98248804937629
 20
122.3985468752317
 30
0.0
 40
1.5050001119999981
  0
ARC
  5
3329
  8
ｽﾝﾎ_ｳｾﾝ
 10
159.98698204937631
 20
123.7744069610781
 30
0.0
 40
1.5050001119999981
 50
34.081774240385151
 51
298.90870486052597
  0
ARC
  5
332A
  8
AM_0
 10
160.0274280493764
 20
123.774472061078
 30
0.0
 40
2.3091486599999991
 50
164.90527199999909
 51
290.87219614688911
  0
ARC
  5
332B
  8
AM_0
 10
165.9285600493761
 20
123.774472061078
 30
0.0
 40
2.3091486599999991
 50
249.12780385311081
 51
15.094728000000879
  0
LINE
  5
332C
  8
AM_0
 10
137.9824880493762
 20
182.69854687523161
 30
0.0
 11
158.98248804937629
 21
182.69854687523161
 31
0.0
  0
LINE
  5
332D
  8
AM_0
 10
137.9824880493762
 20
180.0985468752317
 30
0.0
 11
158.98248804937629
 21
180.0985468752317
 31
0.0
  0
LINE
  5
332E
  8
AM_0
 10
137.9824880493762
 20
186.19854687523161
 30
0.0
 11
158.98248804937629
 21
186.19854687523161
 31
0.0
  0
LINE
  5
332F
  8
AM_0
 10
137.9824880493762
 20
190.49854687523171
 30
0.0
 11
158.98248804937629
 21
190.49854687523171
 31
0.0
  0
LINE
  5
3330
  8
AM_0
 10
137.9824880493762
 20
193.99854687523171
 30
0.0
 11
158.98248804937629
 21
193.99854687523171
 31
0.0
  0
ARC
  5
3331
  8
AM_0
 10
137.9824880493762
 20
181.69854687523161
 30
0.0
 40
1.0
 50
90.0
 51
180.0
1001
GENIUS_GENOBJ-N-FIL_13
1002
{
1000
OWNER
1000
GEN
1002
}
1001
GENIUS_GENODEF_13
1002
{
1000
HIER
1070
     0
1002
}
1002
{
1000
MANEDIT
1070
     0
1002
}
1002
{
1000
NOSEL
1070
     0
1002
}
1002
{
1000
BEHIND
1070
     0
1002
}
1002
{
1000
OTHER
1070
     0
1002
}
1002
{
1000
REACTOR
1002
}
  0
LINE
  5
3332
  8
AM_0
 10
136.9824880493762
 20
181.69854687523161
 30
0.0
 11
136.9824880493762
 21
181.0985468752317
 31
0.0
  0
ARC
  5
3333
  8
AM_0
 10
137.9824880493762
 20
181.0985468752317
 30
0.0
 40
1.0
 50
180.0
 51
270.0
1001
GENIUS_GENODEF_13
1002
{
1000
HIER
1070
     0
1002
}
1002
{
1000
MANEDIT
1070
     0
1002
}
1002
{
1000
NOSEL
1070
     0
1002
}
1002
{
1000
BEHIND
1070
     0
1002
}
1002
{
1000
OTHER
1070
     0
1002
}
1002
{
1000
REACTOR
1002
}
1001
GENIUS_GENOBJ-N-FIL_13
1002
{
1000
OWNER
1000
GEN
1002
}
  0
ARC
  5
3334
  8
AM_0
 10
137.9824880493762
 20
194.99854687523171
 30
0.0
 40
1.0
 50
180.0
 51
270.0
1001
GENIUS_GENOBJ-N-FIL_13
1002
{
1000
OWNER
1000
GEN
1002
}
1001
GENIUS_GENODEF_13
1002
{
1000
HIER
1070
     0
1002
}
1002
{
1000
MANEDIT
1070
     0
1002
}
1002
{
1000
NOSEL
1070
     0
1002
}
1002
{
1000
BEHIND
1070
     0
1002
}
1002
{
1000
OTHER
1070
     0
1002
}
1002
{
1000
REACTOR
1002
}
  0
ARC
  5
3335
  8
AM_0
 10
137.9824880493762
 20
187.1985468752315
 30
0.0
 40
1.0
 50
180.0
 51
270.0
1001
GENIUS_GENOBJ-N-FIL_13
1002
{
1000
OWNER
1000
GEN
1002
}
1001
GENIUS_GENODEF_13
1002
{
1000
HIER
1070
     0
1002
}
1002
{
1000
MANEDIT
1070
     0
1002
}
1002
{
1000
NOSEL
1070
     0
1002
}
1002
{
1000
BEHIND
1070
     0
1002
}
1002
{
1000
OTHER
1070
     0
1002
}
1002
{
1000
REACTOR
1002
}
  0
ARC
  5
3336
  8
AM_0
 10
137.9824880493762
 20
189.49854687523171
 30
0.0
 40
1.0
 50
90.0
 51
180.0
1001
GENIUS_GENODEF_13
1002
{
1000
HIER
1070
     0
1002
}
1002
{
1000
MANEDIT
1070
     0
1002
}
1002
{
1000
NOSEL
1070
     0
1002
}
1002
{
1000
BEHIND
1070
     0
1002
}
1002
{
1000
OTHER
1070
     0
1002
}
1002
{
1000
REACTOR
1002
}
1001
GENIUS_GENOBJ-N-FIL_13
1002
{
1000
OWNER
1000
GEN
1002
}
  0
LINE
  5
3337
  8
AM_0
 10
136.9824880493762
 20
189.49854687523171
 30
0.0
 11
136.9824880493762
 21
187.1985468752315
 31
0.0
  0
LINE
  5
3338
  8
AM_0
 10
167.68957804937631
 20
134.47876006107811
 30
0.0
 11
164.25750483678831
 21
134.48004631107801
 31
0.0
  0
LINE
  5
3348
  8
AM_0
 10
165.96738904937621
 20
128.17979536107811
 30
0.0
 11
164.6893586960351
 21
128.1786133972175
 31
0.0
  0
LINE
  5
3349
  8
AM_0
 10
165.19035478923709
 20
222.39854687523169
 30
0.0
 11
164.97350004937621
 21
134.47977797506499
 31
0.0
  0
LINE
  5
334A
  8
AM_0
 10
160.98248804937629
 20
222.39854687523169
 30
0.0
 11
160.98248804937629
 21
134.47977797506499
 31
0.0
  0
LINE
  5
334B
  8
AM_0
 10
161.98248804937629
 20
222.39854687523169
 30
0.0
 11
161.98248804937629
 21
133.10344613773941
 31
0.0
  0
LINE
  5
334C
  8
AM_0
 10
163.98248804937629
 20
222.39854687523169
 30
0.0
 11
163.98248804937629
 21
133.1049329946585
 31
0.0
  0
LINE
  5
334D
  8
AM_0
 10
158.98248804937629
 20
222.39854687523169
 30
0.0
 11
158.98248804937629
 21
134.4790284281176
 31
0.0
  0
LINE
  5
334E
  8
AM_0
 10
161.26195804937609
 20
133.10291047523151
 30
0.0
 11
164.69403004937621
 21
133.10546197523141
 31
0.0
  0
LINE
  5
334F
  8
AM_0
 10
161.69848204937639
 20
134.481322061078
 30
0.0
 11
161.69979190660939
 21
133.10323597338149
 31
0.0
  0
LINE
  5
3350
  8
AM_0
 10
164.2575060493761
 20
134.481322061078
 30
0.0
 11
164.25619619214311
 21
133.10323597338149
 31
0.0
  0
LINE
  5
3351
  8
AM_0
 10
158.26641004937619
 20
134.47876006107811
 30
0.0
 11
161.69848326196421
 21
134.48004631107801
 31
0.0
  0
LINE
  5
3352
  8
AM_0
 10
162.98410504937621
 20
126.80393527523169
 30
0.0
 11
164.1398820493763
 21
126.8028663752315
 31
0.0
  0
LINE
  5
3353
  8
AM_0
 10
161.5462465341343
 20
126.8055845765239
 30
0.0
 11
161.69255320152379
 21
126.305721156449
 31
0.0
  0
LINE
  5
3354
  8
AM_0
 10
159.98859904937621
 20
128.17979536107811
 30
0.0
 11
161.2666294027174
 21
128.1786133972175
 31
0.0
  0
LINE
  5
3355
  8
AM_0
 10
161.14433404937611
 20
128.17873696107799
 30
0.0
 11
161.26703052609761
 21
127.75953883716819
 31
0.0
  0
LINE
  5
3356
  8
AM_0
 10
161.8283490493763
 20
126.8050041752316
 30
0.0
 11
162.98410504937621
 21
126.80393527523169
 31
0.0
  0
LINE
  5
3357
  8
AM_0
 10
161.8283490493763
 20
126.8050041752316
 30
0.0
 11
161.26798504937619
 21
126.8061570752316
 31
0.0
  0
LINE
  5
3358
  8
AM_0
 10
164.4097415646182
 20
126.8055845765239
 30
0.0
 11
164.26343489722871
 21
126.305721156449
 31
0.0
  0
LINE
  5
3359
  8
AM_0
 10
164.81165404937639
 20
128.17873696107799
 30
0.0
 11
164.6889575726548
 21
127.75953883716819
 31
0.0
  0
LINE
  5
335A
  8
AM_0
 10
164.70001504937611
 20
126.8087421752315
 30
0.0
 11
164.1398820493763
 21
126.8028999752316
 31
0.0
  0
LINE
  5
335B
  8
AM_0
 10
158.83284304937621
 20
128.180864261078
 30
0.0
 11
158.27247904937599
 21
128.18201716107811
 31
0.0
  0
LINE
  5
335C
  8
AM_0
 10
158.83284304937621
 20
128.180885261078
 30
0.0
 11
157.79798404937631
 21
124.375840661078
 31
0.0
  0
LINE
  5
335D
  8
AM_0
 10
158.83284304937621
 20
128.180864261078
 30
0.0
 11
159.98859904937621
 21
128.17979536107811
 31
0.0
  0
LINE
  5
335E
  8
AM_0
 10
158.27243704937621
 20
128.182038161078
 30
0.0
 11
158.26641004937619
 21
134.47876006107811
 31
0.0
  0
LINE
  5
335F
  8
AM_0
 10
161.26794304937621
 20
126.8061780752315
 30
0.0
 11
161.26191604937611
 21
133.10289997523159
 31
0.0
  0
LINE
  5
3360
  8
AM_0
 10
164.6939880493764
 20
133.10546197523141
 30
0.0
 11
164.69997304937621
 21
126.80871067523159
 31
0.0
  0
LINE
  5
3361
  8
AM_0
 10
166.97350004937621
 20
222.39854687523169
 30
0.0
 11
166.97350004937621
 21
134.4790284281176
 31
0.0
  0
LINE
  5
3362
  8
AM_0
 10
167.12314504937609
 20
128.180864261078
 30
0.0
 11
165.96738904937621
 21
128.17979536107811
 31
0.0
  0
LINE
  5
3363
  8
AM_0
 10
167.12314504937609
 20
128.180885261078
 30
0.0
 11
168.15800404937619
 21
124.375840661078
 31
0.0
  0
LINE
  5
3364
  8
AM_0
 10
167.12314504937609
 20
128.180864261078
 30
0.0
 11
167.68350904937611
 21
128.18201716107811
 31
0.0
  0
LINE
  5
3365
  8
AM_0
 10
167.68355104937621
 20
128.182038161078
 30
0.0
 11
167.68957804937631
 21
134.47876006107811
 31
0.0
  0
LINE
  5
336D
  8
AM_0
 10
220.9824880493762
 20
182.69854687523161
 30
0.0
 11
243.98248804937629
 21
182.69854687523161
 31
0.0
  0
LINE
  5
336E
  8
AM_0
 10
220.9824880493762
 20
186.19854687523161
 30
0.0
 11
243.98248804937629
 21
186.19854687523161
 31
0.0
  0
LINE
  5
336F
  8
AM_0
 10
220.9824880493762
 20
190.49854687523171
 30
0.0
 11
243.98248804937629
 21
190.49854687523171
 31
0.0
  0
LINE
  5
3370
  8
AM_0
 10
220.9824880493762
 20
193.99854687523171
 30
0.0
 11
243.98248804937629
 21
193.99854687523171
 31
0.0
  0
LINE
  5
3371
  8
AM_0
 10
220.9824880493762
 20
180.0985468752317
 30
0.0
 11
243.98248804937629
 21
180.0985468752317
 31
0.0
  0
ARC
  5
3372
  8
AM_0
 10
220.9824880493762
 20
181.69854687523161
 30
0.0
 40
1.0
 50
90.0
 51
180.0
1001
GENIUS_GENOBJ-N-FIL_13
1002
{
1000
OWNER
1000
GEN
1002
}
1001
GENIUS_GENODEF_13
1002
{
1000
HIER
1070
     0
1002
}
1002
{
1000
MANEDIT
1070
     0
1002
}
1002
{
1000
NOSEL
1070
     0
1002
}
1002
{
1000
BEHIND
1070
     0
1002
}
1002
{
1000
OTHER
1070
     0
1002
}
1002
{
1000
REACTOR
1002
}
  0
LINE
  5
3373
  8
AM_0
 10
219.9824880493762
 20
181.69854687523161
 30
0.0
 11
219.9824880493762
 21
181.0985468752317
 31
0.0
  0
ARC
  5
3374
  8
AM_0
 10
220.9824880493762
 20
181.0985468752317
 30
0.0
 40
1.0
 50
180.0
 51
270.0
1001
GENIUS_GENODEF_13
1002
{
1000
HIER
1070
     0
1002
}
1002
{
1000
MANEDIT
1070
     0
1002
}
1002
{
1000
NOSEL
1070
     0
1002
}
1002
{
1000
BEHIND
1070
     0
1002
}
1002
{
1000
OTHER
1070
     0
1002
}
1002
{
1000
REACTOR
1002
}
1001
GENIUS_GENOBJ-N-FIL_13
1002
{
1000
OWNER
1000
GEN
1002
}
  0
ARC
  5
3375
  8
AM_0
 10
220.9824880493762
 20
194.99854687523171
 30
0.0
 40
1.0
 50
180.0
 51
270.0
1001
GENIUS_GENOBJ-N-FIL_13
1002
{
1000
OWNER
1000
GEN
1002
}
1001
GENIUS_GENODEF_13
1002
{
1000
HIER
1070
     0
1002
}
1002
{
1000
MANEDIT
1070
     0
1002
}
1002
{
1000
NOSEL
1070
     0
1002
}
1002
{
1000
BEHIND
1070
     0
1002
}
1002
{
1000
OTHER
1070
     0
1002
}
1002
{
1000
REACTOR
1002
}
  0
ARC
  5
3376
  8
AM_0
 10
220.9824880493762
 20
187.1985468752315
 30
0.0
 40
1.0
 50
180.0
 51
270.0
1001
GENIUS_GENOBJ-N-FIL_13
1002
{
1000
OWNER
1000
GEN
1002
}
1001
GENIUS_GENODEF_13
1002
{
1000
HIER
1070
     0
1002
}
1002
{
1000
MANEDIT
1070
     0
1002
}
1002
{
1000
NOSEL
1070
     0
1002
}
1002
{
1000
BEHIND
1070
     0
1002
}
1002
{
1000
OTHER
1070
     0
1002
}
1002
{
1000
REACTOR
1002
}
  0
ARC
  5
3377
  8
AM_0
 10
220.9824880493762
 20
189.49854687523171
 30
0.0
 40
1.0
 50
90.0
 51
180.0
1001
GENIUS_GENODEF_13
1002
{
1000
HIER
1070
     0
1002
}
1002
{
1000
MANEDIT
1070
     0
1002
}
1002
{
1000
NOSEL
1070
     0
1002
}
1002
{
1000
BEHIND
1070
     0
1002
}
1002
{
1000
OTHER
1070
     0
1002
}
1002
{
1000
REACTOR
1002
}
1001
GENIUS_GENOBJ-N-FIL_13
1002
{
1000
OWNER
1000
GEN
1002
}
  0
LINE
  5
3378
  8
AM_0
 10
219.9824880493762
 20
189.49854687523171
 30
0.0
 11
219.9824880493762
 21
187.1985468752315
 31
0.0
  0
LINE
  5
3379
  8
AM_0
 10
244.98248804937629
 20
181.69854687523161
 30
0.0
 11
244.98248804937629
 21
181.0985468752317
 31
0.0
  0
ARC
  5
337A
  8
AM_0
 10
243.98248804937629
 20
181.69854687523161
 30
0.0
 40
1.0
 50
0.0
 51
90.0
1001
GENIUS_GENODEF_13
1002
{
1000
HIER
1070
     0
1002
}
1002
{
1000
MANEDIT
1070
     0
1002
}
1002
{
1000
NOSEL
1070
     0
1002
}
1002
{
1000
BEHIND
1070
     0
1002
}
1002
{
1000
OTHER
1070
     0
1002
}
1002
{
1000
REACTOR
1002
}
1001
GENIUS_GENOBJ-N-FIL_13
1002
{
1000
OWNER
1000
GEN
1002
}
  0
ARC
  5
337B
  8
AM_0
 10
243.98248804937629
 20
181.0985468752317
 30
0.0
 40
1.0
 50
270.0
 51
0.0
1001
GENIUS_GENOBJ-N-FIL_13
1002
{
1000
OWNER
1000
GEN
1002
}
1001
GENIUS_GENODEF_13
1002
{
1000
HIER
1070
     0
1002
}
1002
{
1000
MANEDIT
1070
     0
1002
}
1002
{
1000
NOSEL
1070
     0
1002
}
1002
{
1000
BEHIND
1070
     0
1002
}
1002
{
1000
OTHER
1070
     0
1002
}
1002
{
1000
REACTOR
1002
}
  0
ARC
  5
337C
  8
AM_0
 10
243.98248804937629
 20
194.99854687523171
 30
0.0
 40
1.0
 50
270.0
 51
0.0
1001
GENIUS_GENODEF_13
1002
{
1000
HIER
1070
     0
1002
}
1002
{
1000
MANEDIT
1070
     0
1002
}
1002
{
1000
NOSEL
1070
     0
1002
}
1002
{
1000
BEHIND
1070
     0
1002
}
1002
{
1000
OTHER
1070
     0
1002
}
1002
{
1000
REACTOR
1002
}
1001
GENIUS_GENOBJ-N-FIL_13
1002
{
1000
OWNER
1000
GEN
1002
}
  0
ARC
  5
337D
  8
AM_0
 10
243.98248804937629
 20
187.1985468752315
 30
0.0
 40
1.0
 50
270.0
 51
0.0
1001
GENIUS_GENODEF_13
1002
{
1000
HIER
1070
     0
1002
}
1002
{
1000
MANEDIT
1070
     0
1002
}
1002
{
1000
NOSEL
1070
     0
1002
}
1002
{
1000
BEHIND
1070
     0
1002
}
1002
{
1000
OTHER
1070
     0
1002
}
1002
{
1000
REACTOR
1002
}
1001
GENIUS_GENOBJ-N-FIL_13
1002
{
1000
OWNER
1000
GEN
1002
}
  0
LINE
  5
337E
  8
AM_0
 10
244.98248804937629
 20
189.49854687523171
 30
0.0
 11
244.98248804937629
 21
187.1985468752315
 31
0.0
  0
ARC
  5
337F
  8
AM_0
 10
243.98248804937629
 20
189.49854687523171
 30
0.0
 40
1.0
 50
0.0
 51
90.0
1001
GENIUS_GENODEF_13
1002
{
1000
HIER
1070
     0
1002
}
1002
{
1000
MANEDIT
1070
     0
1002
}
1002
{
1000
NOSEL
1070
     0
1002
}
1002
{
1000
BEHIND
1070
     0
1002
}
1002
{
1000
OTHER
1070
     0
1002
}
1002
{
1000
REACTOR
1002
}
1001
GENIUS_GENOBJ-N-FIL_13
1002
{
1000
OWNER
1000
GEN
1002
}
  0
LINE
  5
3380
  8
AM_0
 10
172.98248804937629
 20
267.39854687523172
 30
0.0
 11
172.98248804937629
 21
223.39854687523169
 31
0.0
  0
LINE
  5
3381
  8
AM_0
 10
137.9824880493762
 20
202.89854687523169
 30
0.0
 11
158.98248804937629
 21
202.89854687523169
 31
0.0
  0
LINE
  5
3382
  8
AM_0
 10
137.9824880493762
 20
208.39854687523169
 30
0.0
 11
158.98248804937629
 21
208.39854687523169
 31
0.0
  0
LINE
  5
3383
  8
AM_0
 10
137.9824880493762
 20
199.19854687523161
 30
0.0
 11
158.98248804937629
 21
199.1985468752317
 31
0.0
  0
LINE
  5
3384
  8
AM_0
 10
115.9824880493763
 20
222.39854687523169
 30
0.0
 11
171.98248804937629
 21
222.39854687523169
 31
0.0
  0
LINE
  5
3385
  8
AM_0
 10
145.48248804937629
 20
216.39854687523169
 30
0.0
 11
145.48248804937629
 21
222.39854687523169
 31
0.0
  0
LINE
  5
3386
  8
AM_0
 10
141.48248804937629
 20
214.39854687523169
 30
0.0
 11
141.48248804937629
 21
222.39854687523169
 31
0.0
  0
LINE
  5
3387
  8
AM_0N
 10
137.22998804937629
 20
216.9199516804606
 30
0.0
 11
137.22998804937629
 21
218.1460468752316
 31
0.0
  0
LINE
  5
3388
  8
AM_0N
 10
137.73498804937631
 20
216.9199516804606
 30
0.0
 11
137.73498804937631
 21
218.1460468752316
 31
0.0
  0
LINE
  5
3389
  8
AM_0
 10
129.48248804937629
 20
216.39854687523169
 30
0.0
 11
129.48248804937629
 21
222.39854687523169
 31
0.0
  0
LINE
  5
338A
  8
AM_0
 10
133.48248804937629
 20
214.39854687523169
 30
0.0
 11
133.48248804937629
 21
222.39854687523169
 31
0.0
  0
CIRCLE
  5
338B
  8
AM_0N
 10
137.48248804937629
 20
218.39854687523169
 30
0.0
 40
2.799999999999998
  0
LINE
  5
338C
  8
AM_0
 10
131.48248804937629
 20
214.39854687523169
 30
0.0
 11
143.48248804937629
 21
214.39854687523169
 31
0.0
  0
ARC
  5
338D
  8
AM_0
 10
131.48248804937629
 20
216.39854687523169
 30
0.0
 40
2.0
 50
180.0
 51
270.0
1001
GENIUS_GENOBJ-N-FIL_13
1002
{
1000
OWNER
1000
GEN
1002
}
1001
GENIUS_GENODEF_13
1002
{
1000
HIER
1070
     0
1002
}
1002
{
1000
MANEDIT
1070
     0
1002
}
1002
{
1000
NOSEL
1070
     0
1002
}
1002
{
1000
BEHIND
1070
     0
1002
}
1002
{
1000
OTHER
1070
     0
1002
}
1002
{
1000
REACTOR
1002
}
  0
LINE
  5
338E
  8
AM_0
 10
136.9824880493762
 20
207.39854687523169
 30
0.0
 11
136.9824880493762
 21
203.89854687523169
 31
0.0
  0
ARC
  5
338F
  8
AM_0
 10
137.9824880493762
 20
203.89854687523169
 30
0.0
 40
1.0
 50
180.0
 51
270.0
1001
GENIUS_GENODEF_13
1002
{
1000
HIER
1070
     0
1002
}
1002
{
1000
MANEDIT
1070
     0
1002
}
1002
{
1000
NOSEL
1070
     0
1002
}
1002
{
1000
BEHIND
1070
     0
1002
}
1002
{
1000
OTHER
1070
     0
1002
}
1002
{
1000
REACTOR
1002
}
1001
GENIUS_GENOBJ-N-FIL_13
1002
{
1000
OWNER
1000
GEN
1002
}
  0
ARC
  5
3390
  8
AM_0
 10
137.9824880493762
 20
198.19854687523161
 30
0.0
 40
1.0
 50
90.0
 51
180.0
1001
GENIUS_GENODEF_13
1002
{
1000
HIER
1070
     0
1002
}
1002
{
1000
MANEDIT
1070
     0
1002
}
1002
{
1000
NOSEL
1070
     0
1002
}
1002
{
1000
BEHIND
1070
     0
1002
}
1002
{
1000
OTHER
1070
     0
1002
}
1002
{
1000
REACTOR
1002
}
1001
GENIUS_GENOBJ-N-FIL_13
1002
{
1000
OWNER
1000
GEN
1002
}
  0
LINE
  5
3391
  8
AM_0N
 10
137.22998804937629
 20
216.9199516804606
 30
0.0
 11
137.73498804937631
 21
216.9199516804606
 31
0.0
  0
ARC
  5
3392
  8
AM_0
 10
137.9824880493762
 20
207.39854687523169
 30
0.0
 40
1.0
 50
90.0
 51
180.0
1001
GENIUS_GENODEF_13
1002
{
1000
HIER
1070
     0
1002
}
1002
{
1000
MANEDIT
1070
     0
1002
}
1002
{
1000
NOSEL
1070
     0
1002
}
1002
{
1000
BEHIND
1070
     0
1002
}
1002
{
1000
OTHER
1070
     0
1002
}
1002
{
1000
REACTOR
1002
}
1001
GENIUS_GENOBJ-N-FIL_13
1002
{
1000
OWNER
1000
GEN
1002
}
  0
ARC
  5
3393
  8
AM_0
 10
143.48248804937629
 20
216.39854687523169
 30
0.0
 40
2.0
 50
270.0
 51
0.0
1001
GENIUS_GENOBJ-N-FIL_13
1002
{
1000
OWNER
1000
GEN
1002
}
1001
GENIUS_GENODEF_13
1002
{
1000
HIER
1070
     0
1002
}
1002
{
1000
MANEDIT
1070
     0
1002
}
1002
{
1000
NOSEL
1070
     0
1002
}
1002
{
1000
BEHIND
1070
     0
1002
}
1002
{
1000
OTHER
1070
     0
1002
}
1002
{
1000
REACTOR
1002
}
  0
LINE
  5
3394
  8
AM_0N
 10
137.22998804937629
 20
218.6510468752318
 30
0.0
 11
136.0038928546052
 21
218.6510468752318
 31
0.0
  0
LINE
  5
3395
  8
AM_0N
 10
137.22998804937629
 20
218.1460468752316
 30
0.0
 11
136.0038928546052
 21
218.1460468752316
 31
0.0
  0
LINE
  5
3396
  8
AM_0N
 10
136.0038928546052
 20
218.6510468752318
 30
0.0
 11
136.0038928546052
 21
218.1460468752316
 31
0.0
  0
LINE
  5
3397
  8
AM_0N
 10
137.73498804937631
 20
218.6510468752318
 30
0.0
 11
137.73498804937631
 21
219.87714207000269
 31
0.0
  0
LINE
  5
3398
  8
AM_0N
 10
137.22998804937629
 20
218.6510468752318
 30
0.0
 11
137.22998804937629
 21
219.87714207000269
 31
0.0
  0
LINE
  5
3399
  8
AM_0N
 10
138.96108324414729
 20
218.6510468752318
 30
0.0
 11
138.96108324414729
 21
218.1460468752316
 31
0.0
  0
LINE
  5
339A
  8
AM_0N
 10
138.96108324414729
 20
218.6510468752318
 30
0.0
 11
137.73498804937631
 21
218.6510468752318
 31
0.0
  0
LINE
  5
339B
  8
AM_0N
 10
138.96108324414729
 20
218.1460468752316
 30
0.0
 11
137.73498804937631
 21
218.1460468752316
 31
0.0
  0
LINE
  5
339C
  8
AM_0N
 10
137.22998804937629
 20
219.87714207000269
 30
0.0
 11
137.73498804937631
 21
219.87714207000269
 31
0.0
  0
ARC
  5
33B6
  8
AM_0
 10
171.98248804937629
 20
223.39854687523169
 30
0.0
 40
1.0
 50
270.0
 51
0.0
1001
GENIUS_GENOBJ-N-FIL_13
1002
{
1000
OWNER
1000
GEN
1002
}
1001
GENIUS_GENODEF_13
1002
{
1000
HIER
1070
     0
1002
}
1002
{
1000
MANEDIT
1070
     0
1002
}
1002
{
1000
NOSEL
1070
     0
1002
}
1002
{
1000
BEHIND
1070
     0
1002
}
1002
{
1000
OTHER
1070
     0
1002
}
1002
{
1000
REACTOR
1002
}
  0
LINE
  5
33B7
  8
AM_0
 10
115.9824880493763
 20
268.39854687523172
 30
0.0
 11
171.98248804937629
 21
268.39854687523172
 31
0.0
1001
GENIUS_GENOREF_13
1005
34D1
  0
LINE
  5
33B8
  8
AM_0
 10
131.48248804937629
 20
276.3985468752316
 30
0.0
 11
143.48248804937629
 21
276.3985468752316
 31
0.0
1001
GENIUS_GENOREF_13
1005
34D1
  0
LINE
  5
33B9
  8
AM_0
 10
129.48248804937629
 20
274.39854687523172
 30
0.0
 11
129.48248804937629
 21
268.39854687523172
 31
0.0
  0
ARC
  5
33BA
  8
AM_0
 10
131.48248804937629
 20
274.39854687523172
 30
0.0
 40
2.0
 50
90.0
 51
180.0
1001
GENIUS_GENOBJ-N-FIL_13
1002
{
1000
OWNER
1000
GEN
1002
}
1001
GENIUS_GENODEF_13
1002
{
1000
HIER
1070
     0
1002
}
1002
{
1000
MANEDIT
1070
     0
1002
}
1002
{
1000
NOSEL
1070
     0
1002
}
1002
{
1000
BEHIND
1070
     0
1002
}
1002
{
1000
OTHER
1070
     0
1002
}
1002
{
1000
REACTOR
1002
}
  0
LINE
  5
33BB
  8
AM_0
 10
145.48248804937629
 20
274.39854687523172
 30
0.0
 11
145.48248804937629
 21
268.39854687523172
 31
0.0
  0
LINE
  5
33BC
  8
AM_0N
 10
136.0038928546052
 20
272.1460468752316
 30
0.0
 11
136.0038928546052
 21
272.65104687523171
 31
0.0
1001
GENIUS_GENOREF_13
1005
0
  0
LINE
  5
33BD
  8
AM_0
 10
141.48248804937629
 20
276.3985468752316
 30
0.0
 11
141.48248804937629
 21
268.39854687523172
 31
0.0
  0
LINE
  5
33BE
  8
AM_0N
 10
138.96108324414729
 20
272.1460468752316
 30
0.0
 11
138.96108324414729
 21
272.65104687523171
 31
0.0
1001
GENIUS_GENOREF_13
1005
0
  0
LINE
  5
33BF
  8
AM_0
 10
133.48248804937629
 20
276.3985468752316
 30
0.0
 11
133.48248804937629
 21
268.39854687523172
 31
0.0
  0
CIRCLE
  5
33C0
  8
AM_0N
 10
137.48248804937629
 20
272.39854687523172
 30
0.0
 40
2.799999999999998
1001
GENIUS_GENOREF_13
1005
0
  0
LINE
  5
33C1
  8
AM_0N
 10
137.22998804937629
 20
272.1460468752316
 30
0.0
 11
136.0038928546052
 21
272.1460468752316
 31
0.0
1001
GENIUS_GENOREF_13
1005
0
  0
LINE
  5
33C2
  8
AM_0N
 10
137.22998804937629
 20
272.1460468752316
 30
0.0
 11
137.22998804937629
 21
270.9199516804606
 31
0.0
1001
GENIUS_GENOREF_13
1005
0
  0
LINE
  5
33C3
  8
AM_0N
 10
137.73498804937631
 20
272.1460468752316
 30
0.0
 11
137.73498804937631
 21
270.9199516804606
 31
0.0
1001
GENIUS_GENOREF_13
1005
0
  0
LINE
  5
33C4
  8
AM_0N
 10
137.22998804937629
 20
270.9199516804606
 30
0.0
 11
137.73498804937631
 21
270.9199516804606
 31
0.0
1001
GENIUS_GENOREF_13
1005
0
  0
LINE
  5
33C5
  8
AM_0N
 10
138.96108324414729
 20
272.1460468752316
 30
0.0
 11
137.73498804937631
 21
272.1460468752316
 31
0.0
1001
GENIUS_GENOREF_13
1005
0
  0
LINE
  5
33C6
  8
AM_0N
 10
137.22998804937629
 20
272.65104687523171
 30
0.0
 11
136.0038928546052
 21
272.65104687523171
 31
0.0
1001
GENIUS_GENOREF_13
1005
0
  0
LINE
  5
33C7
  8
AM_0N
 10
137.73498804937631
 20
273.87714207000272
 30
0.0
 11
137.73498804937631
 21
272.65104687523171
 31
0.0
1001
GENIUS_GENOREF_13
1005
0
  0
LINE
  5
33C8
  8
AM_0N
 10
137.22998804937629
 20
273.87714207000272
 30
0.0
 11
137.22998804937629
 21
272.65104687523171
 31
0.0
1001
GENIUS_GENOREF_13
1005
0
  0
LINE
  5
33C9
  8
AM_0N
 10
138.96108324414729
 20
272.65104687523171
 30
0.0
 11
137.73498804937631
 21
272.65104687523171
 31
0.0
1001
GENIUS_GENOREF_13
1005
0
  0
LINE
  5
33CA
  8
AM_0N
 10
137.22998804937629
 20
273.87714207000272
 30
0.0
 11
137.73498804937631
 21
273.87714207000272
 31
0.0
1001
GENIUS_GENOREF_13
1005
0
  0
ARC
  5
33CB
  8
AM_0
 10
143.48248804937629
 20
274.39854687523172
 30
0.0
 40
2.0
 50
0.0
 51
90.0
1001
GENIUS_GENOBJ-N-FIL_13
1002
{
1000
OWNER
1000
GEN
1002
}
1001
GENIUS_GENODEF_13
1002
{
1000
HIER
1070
     0
1002
}
1002
{
1000
MANEDIT
1070
     0
1002
}
1002
{
1000
NOSEL
1070
     0
1002
}
1002
{
1000
BEHIND
1070
     0
1002
}
1002
{
1000
OTHER
1070
     0
1002
}
1002
{
1000
REACTOR
1002
}
  0
ARC
  5
33CC
  8
AM_0
 10
171.98248804937629
 20
267.39854687523172
 30
0.0
 40
1.0
 50
0.0
 51
90.0
1001
GENIUS_GENODEF_13
1002
{
1000
HIER
1070
     0
1002
}
1002
{
1000
MANEDIT
1070
     0
1002
}
1002
{
1000
NOSEL
1070
     0
1002
}
1002
{
1000
BEHIND
1070
     0
1002
}
1002
{
1000
OTHER
1070
     0
1002
}
1002
{
1000
REACTOR
1002
}
1001
GENIUS_GENOBJ-N-FIL_13
1002
{
1000
OWNER
1000
GEN
1002
}
  0
LINE
  5
33CD
  8
AM_0
 10
244.9824880493762
 20
219.39854687523169
 30
0.0
 11
244.9824880493762
 21
214.89854687523169
 31
0.0
  0
LINE
  5
33CE
  8
AM_0
 10
219.9824880493762
 20
219.39854687523169
 30
0.0
 11
219.9824880493762
 21
214.89854687523169
 31
0.0
  0
LINE
  5
33CF
  8
AM_0
 10
220.9824880493762
 20
202.89854687523169
 30
0.0
 11
243.98248804937629
 21
202.89854687523169
 31
0.0
  0
LINE
  5
33D0
  8
AM_0
 10
220.9824880493762
 20
208.39854687523169
 30
0.0
 11
243.9824880493762
 21
208.39854687523169
 31
0.0
  0
LINE
  5
33D1
  8
AM_0
 10
220.9824880493762
 20
213.89854687523169
 30
0.0
 11
243.9824880493762
 21
213.89854687523169
 31
0.0
  0
LINE
  5
33D2
  8
AM_0
 10
220.9824880493762
 20
199.19854687523161
 30
0.0
 11
243.98248804937629
 21
199.1985468752317
 31
0.0
  0
LINE
  5
33D3
  8
AM_0
 10
219.9824880493762
 20
207.39854687523169
 30
0.0
 11
219.9824880493762
 21
203.89854687523169
 31
0.0
  0
ARC
  5
33D4
  8
AM_0
 10
220.9824880493762
 20
203.89854687523169
 30
0.0
 40
1.0
 50
180.0
 51
270.0
1001
GENIUS_GENODEF_13
1002
{
1000
HIER
1070
     0
1002
}
1002
{
1000
MANEDIT
1070
     0
1002
}
1002
{
1000
NOSEL
1070
     0
1002
}
1002
{
1000
BEHIND
1070
     0
1002
}
1002
{
1000
OTHER
1070
     0
1002
}
1002
{
1000
REACTOR
1002
}
1001
GENIUS_GENOBJ-N-FIL_13
1002
{
1000
OWNER
1000
GEN
1002
}
  0
ARC
  5
33D5
  8
AM_0
 10
220.9824880493762
 20
198.19854687523161
 30
0.0
 40
1.0
 50
90.0
 51
180.0
1001
GENIUS_GENODEF_13
1002
{
1000
HIER
1070
     0
1002
}
1002
{
1000
MANEDIT
1070
     0
1002
}
1002
{
1000
NOSEL
1070
     0
1002
}
1002
{
1000
BEHIND
1070
     0
1002
}
1002
{
1000
OTHER
1070
     0
1002
}
1002
{
1000
REACTOR
1002
}
1001
GENIUS_GENOBJ-N-FIL_13
1002
{
1000
OWNER
1000
GEN
1002
}
  0
ARC
  5
33D6
  8
AM_0
 10
220.9824880493762
 20
214.89854687523169
 30
0.0
 40
1.0
 50
180.0
 51
270.0
1001
GENIUS_GENODEF_13
1002
{
1000
HIER
1070
     0
1002
}
1002
{
1000
MANEDIT
1070
     0
1002
}
1002
{
1000
NOSEL
1070
     0
1002
}
1002
{
1000
BEHIND
1070
     0
1002
}
1002
{
1000
OTHER
1070
     0
1002
}
1002
{
1000
REACTOR
1002
}
1001
GENIUS_GENOBJ-N-FIL_13
1002
{
1000
OWNER
1000
GEN
1002
}
  0
ARC
  5
33D7
  8
AM_0
 10
220.9824880493762
 20
207.39854687523169
 30
0.0
 40
1.0
 50
90.0
 51
180.0
1001
GENIUS_GENODEF_13
1002
{
1000
HIER
1070
     0
1002
}
1002
{
1000
MANEDIT
1070
     0
1002
}
1002
{
1000
NOSEL
1070
     0
1002
}
1002
{
1000
BEHIND
1070
     0
1002
}
1002
{
1000
OTHER
1070
     0
1002
}
1002
{
1000
REACTOR
1002
}
1001
GENIUS_GENOBJ-N-FIL_13
1002
{
1000
OWNER
1000
GEN
1002
}
  0
LINE
  5
33D8
  8
AM_0
 10
244.9824880493762
 20
207.39854687523169
 30
0.0
 11
244.9824880493762
 21
203.89854687523169
 31
0.0
  0
ARC
  5
33D9
  8
AM_0
 10
243.98248804937629
 20
203.89854687523169
 30
0.0
 40
1.0
 50
270.0
 51
0.0
1001
GENIUS_GENODEF_13
1002
{
1000
HIER
1070
     0
1002
}
1002
{
1000
MANEDIT
1070
     0
1002
}
1002
{
1000
NOSEL
1070
     0
1002
}
1002
{
1000
BEHIND
1070
     0
1002
}
1002
{
1000
OTHER
1070
     0
1002
}
1002
{
1000
REACTOR
1002
}
1001
GENIUS_GENOBJ-N-FIL_13
1002
{
1000
OWNER
1000
GEN
1002
}
  0
ARC
  5
33DA
  8
AM_0
 10
243.98248804937629
 20
198.1985468752317
 30
0.0
 40
1.0
 50
0.0
 51
90.0
1001
GENIUS_GENODEF_13
1002
{
1000
HIER
1070
     0
1002
}
1002
{
1000
MANEDIT
1070
     0
1002
}
1002
{
1000
NOSEL
1070
     0
1002
}
1002
{
1000
BEHIND
1070
     0
1002
}
1002
{
1000
OTHER
1070
     0
1002
}
1002
{
1000
REACTOR
1002
}
1001
GENIUS_GENOBJ-N-FIL_13
1002
{
1000
OWNER
1000
GEN
1002
}
  0
ARC
  5
33DB
  8
AM_0
 10
243.9824880493762
 20
214.89854687523169
 30
0.0
 40
1.0
 50
270.0
 51
0.0
1001
GENIUS_GENODEF_13
1002
{
1000
HIER
1070
     0
1002
}
1002
{
1000
MANEDIT
1070
     0
1002
}
1002
{
1000
NOSEL
1070
     0
1002
}
1002
{
1000
BEHIND
1070
     0
1002
}
1002
{
1000
OTHER
1070
     0
1002
}
1002
{
1000
REACTOR
1002
}
1001
GENIUS_GENOBJ-N-FIL_13
1002
{
1000
OWNER
1000
GEN
1002
}
  0
ARC
  5
33DC
  8
AM_0
 10
243.9824880493762
 20
207.39854687523169
 30
0.0
 40
1.0
 50
0.0
 51
90.0
1001
GENIUS_GENOBJ-N-FIL_13
1002
{
1000
OWNER
1000
GEN
1002
}
1001
GENIUS_GENODEF_13
1002
{
1000
HIER
1070
     0
1002
}
1002
{
1000
MANEDIT
1070
     0
1002
}
1002
{
1000
NOSEL
1070
     0
1002
}
1002
{
1000
BEHIND
1070
     0
1002
}
1002
{
1000
OTHER
1070
     0
1002
}
1002
{
1000
REACTOR
1002
}
  0
LINE
  5
33DD
  8
AM_0
 10
220.9824880493762
 20
220.39854687523169
 30
0.0
 11
243.98248804937629
 21
220.39854687523169
 31
0.0
  0
ARC
  5
33DE
  8
AM_0
 10
220.9824880493762
 20
219.39854687523169
 30
0.0
 40
1.0
 50
90.0
 51
180.0
1001
GENIUS_GENOBJ-N-FIL_13
1002
{
1000
OWNER
1000
GEN
1002
}
1001
GENIUS_GENODEF_13
1002
{
1000
HIER
1070
     0
1002
}
1002
{
1000
MANEDIT
1070
     0
1002
}
1002
{
1000
NOSEL
1070
     0
1002
}
1002
{
1000
BEHIND
1070
     0
1002
}
1002
{
1000
OTHER
1070
     0
1002
}
1002
{
1000
REACTOR
1002
}
  0
ARC
  5
33DF
  8
AM_0
 10
243.98248804937629
 20
219.39854687523169
 30
0.0
 40
1.0
 50
0.0
 51
90.0
1001
GENIUS_GENOBJ-N-FIL_13
1002
{
1000
OWNER
1000
GEN
1002
}
1001
GENIUS_GENODEF_13
1002
{
1000
HIER
1070
     0
1002
}
1002
{
1000
MANEDIT
1070
     0
1002
}
1002
{
1000
NOSEL
1070
     0
1002
}
1002
{
1000
BEHIND
1070
     0
1002
}
1002
{
1000
OTHER
1070
     0
1002
}
1002
{
1000
REACTOR
1002
}
  0
LINE
  5
33E0
  8
AM_0
 10
342.48245804937619
 20
191.77527787523169
 30
0.0
 11
342.48245804937619
 21
218.86350487523171
 31
0.0
  0
LINE
  5
33E1
  8
AM_0
 10
291.48248804937617
 20
191.60662387523169
 30
0.0
 11
291.48248804937617
 21
242.39851087523169
 31
0.0
  0
LINE
  5
33E2
  8
AM_0
 10
356.48243804937619
 20
259.3985088752317
 30
0.0
 11
356.48243804937619
 21
193.89849187523171
 31
0.0
  0
LINE
  5
33E3
  8
AM_0
 10
297.48248804937617
 20
177.5845878752317
 30
0.0
 11
333.48248804937629
 21
176.32744687523169
 31
0.0
  0
LINE
  5
33E4
  8
AM_0
 10
297.48248804937617
 20
189.61786987523169
 30
0.0
 11
333.48245804937631
 21
189.61786987523169
 31
0.0
  0
LINE
  5
33E5
  8
AM_0
 10
273.48239804937617
 20
186.3985068752317
 30
0.0
 11
284.02166804937627
 21
186.12252187523171
 31
0.0
  0
LINE
  5
33E6
  8
AM_0
 10
254.9824880493762
 20
176.39854687523169
 30
0.0
 11
266.48248804937617
 21
176.39854687523169
 31
0.0
  0
LINE
  5
33E7
  8
AM_0
 10
273.48248804937617
 20
179.39854687523169
 30
0.0
 11
266.48248804937617
 21
176.39854687523169
 31
0.0
  0
ARC
  5
33E8
  8
AM_0
 10
283.98248804937629
 20
184.62304087523171
 30
0.0
 40
1.500000029999998
 50
0.0
 51
88.499997000000747
  0
LINE
  5
33E9
  8
AM_0
 10
285.48248804937617
 20
190.02808687523171
 30
0.0
 11
285.48248804937617
 21
179.36005687523169
 31
0.0
  0
LINE
  5
33EA
  8
AM_0
 10
286.94315804937628
 20
177.86057587523169
 30
0.0
 11
297.48242804937632
 21
177.5846028752317
 31
0.0
  0
ARC
  5
33EB
  8
AM_0
 10
286.98248804937617
 20
179.36005687523169
 30
0.0
 40
1.500000029999998
 50
179.99999000000059
 51
268.50000999999878
  0
ARC
  5
33EC
  8
AM_0
 10
289.48241804937618
 20
191.60662387523169
 30
0.0
 40
2.00000007
 50
270.0
 51
0.0
  0
ARC
  5
33ED
  8
AM_0
 10
283.48241804937618
 20
190.02808687523171
 30
0.0
 40
2.00000007
 50
0.0
 51
90.00000299999769
  0
LINE
  5
33EE
  8
AM_0
 10
291.48248804937617
 20
189.60662287523169
 30
0.0
 11
297.48248804937617
 21
189.60662287523169
 31
0.0
  0
LINE
  5
33EF
  8
AM_0
 10
344.4126880493763
 20
189.77648287523169
 30
0.0
 11
352.48244804937622
 21
189.49468387523169
 31
0.0
  0
ARC
  5
33F0
  8
AM_0
 10
327.96794804937628
 20
184.19408587523171
 30
0.0
 40
9.5144921999999994
 50
342.41195999999752
 51
17.588032999999289
  0
LINE
  5
33F1
  8
AM_0
 10
337.48241804937618
 20
188.50658587523171
 30
0.0
 11
337.48241804937618
 21
179.88157087523169
 31
0.0
  0
LINE
  5
33F2
  8
AM_0
 10
333.48245804937631
 20
192.59728387523171
 30
0.0
 11
333.48245804937631
 21
176.39849287523171
 31
0.0
  0
ARC
  5
33F3
  8
AM_0
 10
334.93703804937638
 20
179.88157087523169
 30
0.0
 40
2.5454064299999981
 50
325.61556999999959
 51
34.38443900000275
  0
LINE
  5
33F4
  8
AM_0
 10
337.0376380493762
 20
181.3190868752317
 30
0.0
 11
333.48245804937631
 21
181.3190868752317
 31
0.0
  0
LINE
  5
33F5
  8
AM_0
 10
337.0376380493762
 20
178.44408487523171
 30
0.0
 11
333.48245804937631
 21
178.44408487523171
 31
0.0
  0
LINE
  5
33F6
  8
AM_0
 10
334.45625804937617
 20
193.3217118752317
 30
0.0
 11
342.48245804937619
 21
193.53188587523169
 31
0.0
  0
ARC
  5
33F7
  8
AM_0
 10
334.93703804937638
 20
188.50658587523171
 30
0.0
 40
2.5454064299999981
 50
325.61556999999959
 51
34.38443900000275
  0
ARC
  5
33F8
  8
AM_0
 10
334.48241804937629
 20
192.32207587523169
 30
0.0
 40
1.0000000199999981
 50
91.500001000001546
 51
180.00000999999941
  0
LINE
  5
33F9
  8
AM_0
 10
337.0376380493762
 20
187.06910287523169
 30
0.0
 11
333.48245804937631
 21
187.06910287523169
 31
0.0
  0
LINE
  5
33FA
  8
AM_0
 10
337.0376380493762
 20
189.9440868752317
 30
0.0
 11
333.48245804937631
 21
189.9440868752317
 31
0.0
  0
ARC
  5
33FB
  8
AM_0
 10
344.48243804937619
 20
191.77527787523169
 30
0.0
 40
2.00000007
 50
179.99999000000059
 51
268.00000999999872
  0
LINE
  5
33FC
  8
AM_0
 10
352.48244804937622
 20
193.79374087523169
 30
0.0
 11
356.4824080493762
 21
193.89849187523171
 31
0.0
  0
LINE
  5
33FE
  8
AM_0
 10
273.48248804937617
 20
196.39849387523171
 30
0.0
 11
291.48248804937617
 21
196.39849387523171
 31
0.0
  0
LINE
  5
33FF
  8
AM_0
 10
273.48248804937617
 20
210.46106887523169
 30
0.0
 11
291.48248804937617
 21
210.46106887523169
 31
0.0
  0
LINE
  5
3400
  8
AM_0
 10
273.48248804937617
 20
274.33594987523168
 30
0.0
 11
285.48248804937617
 21
274.33594987523168
 31
0.0
  0
LINE
  5
3401
  8
AM_0
 10
291.48248804937617
 20
282.27213787523169
 30
0.0
 11
291.48248804937617
 21
242.39851087523169
 31
0.0
  0
LINE
  5
3402
  8
AM_0
 10
285.48248804937617
 20
268.18122487523169
 30
0.0
 11
291.48248804937617
 21
268.18122487523169
 31
0.0
  0
ARC
  5
3403
  8
AM_0
 10
355.48241804937629
 20
240.1540788752317
 30
0.0
 40
2.00000007
 50
315.0
 51
0.0
  0
ARC
  5
3404
  8
AM_0
 10
334.48241804937629
 20
217.66320187523181
 30
0.0
 40
5.0000001000000003
 50
179.99999000000059
 51
270.0
  0
ARC
  5
3405
  8
AM_0
 10
345.48245804937631
 20
204.78319687523171
 30
0.0
 40
2.00000007
 50
268.0000000000029
 51
0.0
  0
LINE
  5
3406
  8
AM_0
 10
334.48241804937629
 20
212.66321887523171
 30
0.0
 11
342.48245804937619
 21
212.66321887523171
 31
0.0
  0
ARC
  5
3407
  8
AM_0
 10
344.48243804937619
 20
218.86350487523171
 30
0.0
 40
2.00000007
 50
90.00000299999769
 51
180.00000999999941
  0
LINE
  5
3408
  8
AM_0
 10
356.48246804937622
 20
238.32560287523171
 30
0.0
 11
356.89667804937631
 21
238.73981887523169
 31
0.0
  0
LINE
  5
3409
  8
AM_0
 10
357.48245804937619
 20
278.4243588752318
 30
0.0
 11
357.48245804937619
 21
240.1540788752317
 31
0.0
  0
LINE
  5
340A
  8
AM_0
 10
359.4824080493762
 20
269.39851087523169
 30
0.0
 11
359.4824080493762
 21
259.3985088752317
 31
0.0
  0
LINE
  5
340B
  8
AM_0
 10
359.4824080493762
 20
249.39852487523169
 30
0.0
 11
359.4824080493762
 21
259.3985088752317
 31
0.0
  0
LINE
  5
340C
  8
AM_0
 10
357.48245804937619
 20
249.39852487523169
 30
0.0
 11
359.4824080493762
 21
249.39852487523169
 31
0.0
  0
LINE
  5
340D
  8
AM_0
 10
357.48245804937619
 20
269.39851087523169
 30
0.0
 11
359.4824080493762
 21
269.39851087523169
 31
0.0
  0
LINE
  5
340E
  8
AM_0
 10
356.48246804937622
 20
280.32563587523168
 30
0.0
 11
356.89667804937631
 21
279.91141987523167
 31
0.0
  0
ARC
  5
340F
  8
AM_0
 10
355.48241804937629
 20
278.49720487523172
 30
0.0
 40
2.00000007
 50
0.0
 51
45.000001000002641
  0
LINE
  5
3410
  8
AM_0
 10
365.4824080493762
 20
268.89850987523181
 30
0.0
 11
365.4824080493762
 21
271.39851087523169
 31
0.0
  0
LINE
  5
3411
  8
AM_0
 10
111.4824880493763
 20
307.9985468752318
 30
0.0
 11
254.98248804937629
 21
307.99854687523168
 31
0.0
  0
LINE
  5
3412
  8
AM_0
 10
108.8112157270361
 20
299.80186036648479
 30
0.0
 11
105.6537603717165
 21
296.99523338397847
 31
0.0
  0
ARC
  5
3413
  8
AM_0
 10
106.9824880493763
 20
295.50041474661111
 30
0.0
 40
2.0
 50
131.6335393365685
 51
180.0
1001
GENIUS_GENODEF_13
1002
{
1000
HIER
1070
     0
1002
}
1002
{
1000
MANEDIT
1070
     0
1002
}
1002
{
1000
NOSEL
1070
     0
1002
}
1002
{
1000
BEHIND
1070
     0
1002
}
1002
{
1000
OTHER
1070
     0
1002
}
1002
{
1000
REACTOR
1002
}
1001
GENIUS_GENOBJ-N-FIL_13
1002
{
1000
OWNER
1000
GEN
1002
}
  0
ARC
  5
3414
  8
AM_0
 10
107.4824880493763
 20
301.2966790038522
 30
0.0
 40
2.0
 50
311.63353933656862
 51
0.0
1001
GENIUS_GENOBJ-N-FIL_13
1002
{
1000
OWNER
1000
GEN
1002
}
1001
GENIUS_GENODEF_13
1002
{
1000
HIER
1070
     0
1002
}
1002
{
1000
MANEDIT
1070
     0
1002
}
1002
{
1000
NOSEL
1070
     0
1002
}
1002
{
1000
BEHIND
1070
     0
1002
}
1002
{
1000
OTHER
1070
     0
1002
}
1002
{
1000
REACTOR
1002
}
  0
ARC
  5
3415
  8
AM_0
 10
111.4824880493763
 20
305.9985468752318
 30
0.0
 40
2.0
 50
90.0
 51
180.0
1001
GENIUS_GENOBJ-N-FIL_13
1002
{
1000
OWNER
1000
GEN
1002
}
1001
GENIUS_GENODEF_13
1002
{
1000
HIER
1070
     0
1002
}
1002
{
1000
MANEDIT
1070
     0
1002
}
1002
{
1000
NOSEL
1070
     0
1002
}
1002
{
1000
BEHIND
1070
     0
1002
}
1002
{
1000
OTHER
1070
     0
1002
}
1002
{
1000
REACTOR
1002
}
  0
LINE
  5
3417
  8
AM_0
 10
297.48242804937632
 20
302.39851087523169
 30
0.0
 11
326.56094804937618
 21
303.15995587523167
 31
0.0
  0
LINE
  5
3418
  8
AM_0
 10
297.48248804937617
 20
285.00535387523172
 30
0.0
 11
327.6784480493763
 21
285.00535387523172
 31
0.0
  0
LINE
  5
3419
  8
AM_0
 10
273.48248804937617
 20
288.3985098752317
 30
0.0
 11
291.48248804937617
 21
288.3985098752317
 31
0.0
  0
LINE
  5
341A
  8
AM_0
 10
273.48248804937617
 20
298.39851187523169
 30
0.0
 11
290.02166804937627
 21
298.83158587523172
 31
0.0
  0
LINE
  5
341B
  8
AM_0
 10
254.9824880493762
 20
308.39854687523172
 30
0.0
 11
266.48248804937617
 21
308.39854687523172
 31
0.0
  0
LINE
  5
341C
  8
AM_0
 10
266.48248804937617
 20
308.39854687523172
 30
0.0
 11
273.48248804937617
 21
305.3985468752316
 31
0.0
  0
LINE
  5
341D
  8
AM_0
 10
291.48248804937617
 20
300.78016387523172
 30
0.0
 11
291.48248804937617
 21
286.39851187523169
 31
0.0
  0
LINE
  5
341E
  8
AM_0
 10
285.48248804937617
 20
286.39851187523169
 30
0.0
 11
291.48248804937617
 21
286.39851187523169
 31
0.0
  0
LINE
  5
341F
  8
AM_0
 10
285.48248804937617
 20
285.00535387523172
 30
0.0
 11
297.48248804937617
 21
285.00535387523172
 31
0.0
  0
ARC
  5
3420
  8
AM_0
 10
289.98248804937617
 20
300.33109687523182
 30
0.0
 40
1.500000029999998
 50
271.50000000000267
 51
0.0
  0
ARC
  5
3421
  8
AM_0
 10
292.98248804937617
 20
300.78016387523172
 30
0.0
 40
1.500000029999998
 50
91.500001000001546
 51
180.00000999999941
  0
LINE
  5
3422
  8
AM_0
 10
292.94315804937628
 20
302.27964487523172
 30
0.0
 11
297.48242804937632
 21
302.39851087523169
 31
0.0
  0
ARC
  5
3423
  8
AM_0
 10
334.48241804937629
 20
323.62961587523171
 30
0.0
 40
5.0000001000000003
 50
91.999998000000545
 51
180.00000999999941
  0
LINE
  5
3424
  8
AM_0
 10
342.48245804937619
 20
332.11793587523169
 30
0.0
 11
342.48245804937619
 21
299.83888087523172
 31
0.0
  0
ARC
  5
3425
  8
AM_0
 10
326.4824380493763
 20
306.15891787523168
 30
0.0
 40
3.0
 50
271.50000000000267
 51
0.0
  0
ARC
  5
3426
  8
AM_0
 10
344.48243804937619
 20
299.83888087523172
 30
0.0
 40
2.00000007
 50
179.99999000000059
 51
271.51463999999908
  0
ARC
  5
3427
  8
AM_0
 10
344.48243804937619
 20
318.89852587523171
 30
0.0
 40
3.0
 50
0.0
 51
90.00000299999769
  0
LINE
  5
3429
  8
AM_0
 10
344.4126580493762
 20
334.11668587523172
 30
0.0
 11
352.48244804937622
 21
334.39850587523182
 31
0.0
  0
ARC
  5
342A
  8
AM_0
 10
339.48245804937631
 20
331.80911587523173
 30
0.0
 40
3.0
 50
271.9999999999971
 51
0.0
  0
LINE
  5
342B
  8
AM_0
 10
334.30796804937631
 20
328.62656587523168
 30
0.0
 11
339.58718804937621
 21
328.81091587523167
 31
0.0
  0
ARC
  5
342C
  8
AM_0
 10
344.48243804937619
 20
332.11793587523169
 30
0.0
 40
2.00000007
 50
91.999998000000545
 51
180.00000999999941
  0
LINE
  5
342E
  8
AM_0
 10
352.48241804937618
 20
329.39852587523171
 30
0.0
 11
356.48243804937619
 21
329.39852587523171
 31
0.0
  0
ARC
  5
3434
  8
AM_0
 10
525.94406602283641
 20
285.99915787523179
 30
0.0
 40
3.0
 50
225.0
 51
306.28525999999772
  0
ARC
  5
3435
  8
AM_0
 10
545.47365202283618
 20
259.3985088752317
 30
0.0
 40
30.0
 50
17.592214000000201
 51
225.8260300000002
  0
ARC
  5
3436
  8
AM_0
 10
565.00325602283635
 20
285.99915787523179
 30
0.0
 40
3.0
 50
233.71475000000049
 51
315.0
  0
ARC
  5
3437
  8
AM_0
 10
545.47365202283618
 20
259.3985088752317
 30
0.0
 40
44.000000999999983
 50
137.54731999999879
 51
174.50581000000039
  0
CIRCLE
  5
3438
  8
AM_0
 10
495.49238902283622
 20
280.75046887523172
 30
0.0
 40
4.9999998000000003
  0
ARC
  5
3439
  8
AM_0
 10
545.47365202283618
 20
259.3985088752317
 30
0.0
 40
66.000003000000007
 50
291.2799600000028
 51
248.72003000000129
  0
ARC
  5
343A
  8
AM_0
 10
545.47365202283618
 20
259.3985088752317
 30
0.0
 40
70.000001999999995
 50
290.6561499999973
 51
249.34384000000179
  0
ARC
  5
343B
  8
AM_0
 10
545.47365202283618
 20
259.3985088752317
 30
0.0
 40
44.000000999999983
 50
19.999999000003221
 51
42.452681999999967
  0
CIRCLE
  5
343C
  8
AM_0
 10
595.45490002283645
 20
280.75046887523172
 30
0.0
 40
4.9999998000000003
  0
LINE
  5
343D
  8
AM_0
 10
470.47364902283653
 20
279.39847987523171
 30
0.0
 11
474.16707202283641
 21
321.6146958752318
 31
0.0
  0
LINE
  5
343E
  8
AM_0
 10
620.47365502283651
 20
279.39847987523171
 30
0.0
 11
616.78022002283649
 21
321.61466587523171
 31
0.0
  0
LINE
  5
343F
  8
AM_0
 10
569.95299202283616
 20
281.04938887523173
 30
0.0
 11
591.29507902283638
 21
302.39149387523167
 31
0.0
  0
LINE
  5
3440
  8
AM_0
 10
490.49238802283651
 20
283.63721887523172
 30
0.0
 11
490.49238802283651
 21
277.8637218752317
 31
0.0
  0
LINE
  5
3441
  8
AM_0
 10
500.49242002283648
 20
277.8637218752317
 30
0.0
 11
500.49242002283648
 21
283.63721887523172
 31
0.0
  0
LINE
  5
3442
  8
AM_0
 10
520.99431202283654
 20
281.04938887523173
 30
0.0
 11
499.65227002283649
 21
302.3914608752317
 31
0.0
  0
LINE
  5
3443
  8
AM_0
 10
590.45491702283653
 20
283.63721887523172
 30
0.0
 11
590.45491702283653
 21
277.8637218752317
 31
0.0
  0
LINE
  5
3444
  8
AM_0
 10
600.45491602283653
 20
277.8637218752317
 30
0.0
 11
600.45491602283653
 21
283.63721887523172
 31
0.0
  0
LINE
  5
3445
  8
ﾁｭｳｼﾝｾﾝ1
 10
545.47365202283618
 20
174.89849287523171
 30
0.0
 11
545.47365202283618
 21
337.90273271476491
 31
0.0
  0
ARC
  5
3447
  8
ﾁｭｳｼﾝｾﾝ1
 10
545.47365202283618
 20
259.3985088752317
 30
0.0
 40
85.000001999999981
 50
305.69552999999621
 51
324.14258000000262
  0
LINE
  5
3448
  8
AM_0
 10
583.97258602283625
 20
188.39849287523171
 30
0.0
 11
606.84842602283652
 21
188.39849287523171
 31
0.0
  0
LINE
  5
3449
  8
AM_0
 10
608.31272002283652
 20
257.89850887523181
 30
0.0
 11
597.12787402283652
 21
257.89850887523181
 31
0.0
  0
LINE
  5
344A
  8
AM_0
 10
608.31272002283652
 20
260.89850887523181
 30
0.0
 11
593.85216502283652
 21
260.89850887523181
 31
0.0
  0
LINE
  5
344B
  8
AM_0
 10
594.30879802283653
 20
253.8724188752318
 30
0.0
 11
603.33301402283655
 21
229.07860987523171
 31
0.0
  0
LINE
  5
344C
  8
ﾁｭｳｼﾝｾﾝ1
 10
597.8039450228365
 20
207.0682008752317
 30
0.0
 11
612.95212402283653
 21
191.9200218752317
 31
0.0
  0
LINE
  5
344D
  8
AM_0
 10
595.45490002283645
 20
274.97700187523168
 30
0.0
 11
600.45491602283653
 21
277.86375187523169
 31
0.0
  0
LINE
  5
344E
  8
ﾁｭｳｼﾝｾﾝ1
 10
467.5583360228365
 20
259.3985088752317
 30
0.0
 11
624.46940039658159
 21
259.3985088752317
 31
0.0
  0
ARC
  5
344F
  8
AM_0
 10
470.83920221559498
 20
263.66924142589312
 30
0.0
 40
5.0
 50
94.192671786177414
 51
173.53019364652329
1001
GENIUS_GENODEF_13
1002
{
1000
HIER
1070
     0
1002
}
1002
{
1000
MANEDIT
1070
     0
1002
}
1002
{
1000
NOSEL
1070
     0
1002
}
1002
{
1000
BEHIND
1070
     0
1002
}
1002
{
1000
OTHER
1070
     0
1002
}
1002
{
1000
REACTOR
1002
}
1001
GENIUS_GENOBJ-N-FIL_13
1002
{
1000
OWNER
1000
GEN
1002
}
  0
ARC
  5
3450
  8
AM_0
 10
469.26890427044322
 20
227.70350544894629
 30
0.0
 40
5.0
 50
181.46980635347501
 51
267.50000000000148
1001
GENIUS_GENOBJ-N-FIL_13
1002
{
1000
OWNER
1000
GEN
1002
}
1001
GENIUS_GENODEF_13
1002
{
1000
HIER
1070
     0
1002
}
1002
{
1000
MANEDIT
1070
     0
1002
}
1002
{
1000
NOSEL
1070
     0
1002
}
1002
{
1000
BEHIND
1070
     0
1002
}
1002
{
1000
OTHER
1070
     0
1002
}
1002
{
1000
REACTOR
1002
}
  0
ARC
  5
3451
  8
AM_0
 10
729.18335929389809
 20
234.37254360000969
 30
0.0
 40
264.99999999999989
 50
173.53019364652329
 51
181.46980635347501
  0
LINE
  5
3454
  8
AM_0
 10
387.48245804937631
 20
249.89851087523169
 30
0.0
 11
387.48245804937631
 21
271.39851087523169
 31
0.0
  0
ARC
  5
3457
  8
AM_0
 10
484.09889602283619
 20
198.39849187523171
 30
0.0
 40
10.000000200000001
 50
184.99998999999951
 51
270.0
  0
ARC
  5
3458
  8
ﾁｭｳｼﾝｾﾝ1
 10
545.47365202283618
 20
259.3985088752317
 30
0.0
 40
85.000001999999981
 50
215.6955299999976
 51
234.14257999999799
  0
CIRCLE
  5
3459
  8
AM_0
 10
485.36958502283647
 20
199.2944118752317
 30
0.0
 40
5.0000001000000003
  0
LINE
  5
345A
  8
ﾁｭｳｼﾝｾﾝ1
 10
493.1433890228364
 20
207.0682008752317
 30
0.0
 11
477.99519502283641
 21
191.92000687523171
 31
0.0
  0
LINE
  5
345B
  8
AM_0
 10
521.36459602283639
 20
177.1940868752317
 30
0.0
 11
569.58272302283626
 21
177.1940868752317
 31
0.0
  0
LINE
  5
345C
  8
AM_0
 10
510.15013402283648
 20
193.89849187523171
 30
0.0
 11
545.47365202283618
 21
193.89849187523171
 31
0.0
  0
LINE
  5
345D
  8
AM_0
 10
506.97472102283649
 20
188.39849287523171
 30
0.0
 11
484.09889602283619
 21
188.39849287523171
 31
0.0
  0
ARC
  5
345E
  8
AM_0
 10
521.36459602283639
 20
184.19407087523169
 30
0.0
 40
7.0000007999999987
 50
161.74802000000011
 51
270.0
  0
ARC
  5
345F
  8
AM_0
 10
509.96834002283617
 20
187.95244687523169
 30
0.0
 40
5.0000001000000003
 50
341.74802
 51
56.890858999998073
  0
LINE
  5
3460
  8
AM_0
 10
506.97472102283649
 20
188.39849287523171
 30
0.0
 11
510.1501490228365
 21
193.89849187523171
 31
0.0
  0
ARC
  5
3461
  8
AM_0
 10
545.47365202283618
 20
242.3984958752317
 30
0.0
 40
60.000002999999992
 50
233.9334100000016
 51
236.89085000000259
  0
CIRCLE
  5
3462
  8
AM_0
 10
521.36459602283639
 20
184.1941008752317
 30
0.0
 40
4.9999998000000003
  0
LINE
  5
3463
  8
AM_0
 10
516.36459802283639
 20
187.0808508752317
 30
0.0
 11
516.36459802283639
 21
181.30732087523171
 31
0.0
  0
LINE
  5
3464
  8
AM_0
 10
526.36458202283654
 20
181.30732087523171
 30
0.0
 11
526.36458202283654
 21
187.0808508752317
 31
0.0
  0
LINE
  5
3465
  8
AM_0
 10
521.36459602283639
 20
178.4206188752317
 30
0.0
 11
526.36458202283654
 21
181.30736587523171
 31
0.0
  0
LINE
  5
3466
  8
AM_0
 10
516.36459802283639
 20
181.3073358752317
 30
0.0
 11
521.36459602283639
 21
178.42058587523169
 31
0.0
  0
LINE
  5
3467
  8
AM_0
 10
526.36459702283651
 20
187.08083587523171
 30
0.0
 11
521.36459602283639
 21
189.96758587523169
 31
0.0
  0
LINE
  5
3468
  8
AM_0
 10
521.36459602283639
 20
189.9676158752317
 30
0.0
 11
516.36459802283639
 21
187.08086587523169
 31
0.0
  0
CIRCLE
  5
3469
  8
AM_0
 10
569.58272302283626
 20
184.1941008752317
 30
0.0
 40
4.9999998000000003
  0
LINE
  5
346A
  8
AM_0
 10
569.58270802283653
 20
189.96763087523169
 30
0.0
 11
564.58270702283653
 21
187.08086587523169
 31
0.0
  0
LINE
  5
346B
  8
AM_0
 10
580.79717002283655
 20
193.89849187523171
 30
0.0
 11
545.47365202283618
 21
193.89849187523171
 31
0.0
  0
LINE
  5
346C
  8
AM_0
 10
564.58270702283653
 20
181.30732087523171
 30
0.0
 11
569.58270802283653
 21
178.4205708752317
 31
0.0
  0
LINE
  5
346D
  8
AM_0
 10
564.58270702283653
 20
187.0808508752317
 30
0.0
 11
564.58270702283653
 21
181.30732087523171
 31
0.0
  0
LINE
  5
346E
  8
AM_0
 10
583.97258602283625
 20
188.39849287523171
 30
0.0
 11
580.79715502283648
 21
193.89849187523171
 31
0.0
  0
ARC
  5
346F
  8
AM_0
 10
569.58272302283626
 20
184.19407087523169
 30
0.0
 40
7.0000007999999987
 50
270.0
 51
18.25197800000095
  0
LINE
  5
3470
  8
AM_0
 10
574.58270902283653
 20
181.30732087523171
 30
0.0
 11
574.58270902283653
 21
187.0808508752317
 31
0.0
  0
LINE
  5
3471
  8
AM_0
 10
569.58270802283653
 20
178.42060387523171
 30
0.0
 11
574.58270902283653
 21
181.30736587523171
 31
0.0
  0
LINE
  5
3472
  8
AM_0
 10
574.58270902283653
 20
187.08083587523171
 30
0.0
 11
569.58270802283653
 21
189.96758587523169
 31
0.0
  0
ARC
  5
3473
  8
AM_0
 10
545.47365202283618
 20
242.3984958752317
 30
0.0
 40
60.000002999999992
 50
303.10914000000122
 51
306.06658999999843
  0
ARC
  5
3474
  8
AM_0
 10
545.47365202283618
 20
242.3984958752317
 30
0.0
 40
60.000002999999992
 50
303.10914000000122
 51
304.41150999999923
  0
ARC
  5
3475
  8
AM_0
 10
580.97897902283626
 20
187.95244687523169
 30
0.0
 40
5.0000001000000003
 50
123.1091299999986
 51
198.2519799999998
  0
ARC
  5
3476
  8
AM_0
 10
545.47365202283618
 20
259.3985088752317
 30
0.0
 40
20.000000700000001
 50
90.00000299999769
 51
270.0
  0
ARC
  5
3477
  8
AM_0
 10
545.47365202283618
 20
259.3985088752317
 30
0.0
 40
20.000000700000001
 50
270.0
 51
90.00000299999769
  0
ARC
  5
3478
  8
AM_0
 10
545.47365202283618
 20
259.3985088752317
 30
0.0
 40
20.000000700000001
 50
90.00000299999769
 51
270.0
  0
ARC
  5
3479
  8
AM_0
 10
545.47365202283618
 20
259.3985088752317
 30
0.0
 40
20.000000700000001
 50
270.0
 51
90.00000299999769
  0
LINE
  5
347A
  8
AM_0
 10
553.08685702283628
 20
210.1739598752317
 30
0.0
 11
524.56845502283647
 21
237.8816958752318
 31
0.0
  0
LINE
  5
347B
  8
ﾁｭｳｼﾝｾﾝ1
 10
579.1079570646624
 20
242.39851087523169
 30
0.0
 11
511.83934698101052
 21
242.39851087523169
 31
0.0
  0
LINE
  5
347C
  8
AM_0
 10
569.42673202283652
 20
197.89849387523171
 30
0.0
 11
521.52057202283652
 21
197.89849387523171
 31
0.0
  0
LINE
  5
347D
  8
AM_0
 10
515.77516402283652
 20
226.87157887523171
 30
0.0
 11
539.62692802283652
 21
203.0198148752317
 31
0.0
  0
ARC
  5
347E
  8
AM_0
 10
545.47365202283618
 20
259.3985088752317
 30
0.0
 40
44.000000999999983
 50
185.49418999999949
 51
222.45268000000121
  0
ARC
  5
347F
  8
AM_0
 10
518.87299102283646
 20
239.86890787523171
 30
0.0
 40
3.0
 50
315.0
 51
36.285256999998218
  0
LINE
  5
3480
  8
AM_0
 10
470.47364902283653
 20
259.3985088752317
 30
0.0
 11
470.47364902283653
 21
239.3984958752317
 31
0.0
  0
ARC
  5
3481
  8
AM_0
 10
497.53093402283622
 20
218.52682087523169
 30
0.0
 40
3.0
 50
220.4479200000022
 51
315.0
  0
LINE
  5
3482
  8
AM_0
 10
470.47364902283653
 20
239.39847787523169
 30
0.0
 11
474.13691902283648
 21
197.52692587523171
 31
0.0
  0
LINE
  5
3483
  8
AM_0
 10
469.05080733361649
 20
222.70826434103691
 30
0.0
 11
471.94490199448308
 21
222.58190543927699
 31
0.0
  0
LINE
  5
3484
  8
AM_0
 10
523.6019030228365
 20
234.6982998752317
 30
0.0
 11
502.48067002283648
 21
213.57706687523171
 31
0.0
  0
LINE
  5
3485
  8
AM_0
 10
520.99431202283654
 20
237.7475838752317
 30
0.0
 11
499.65224002283622
 21
216.40549687523171
 31
0.0
  0
ARC
  5
3486
  8
AM_0
 10
504.60197902283647
 20
211.45574587523171
 30
0.0
 40
3.0
 50
135.0
 51
229.5520800000001
  0
ARC
  5
3487
  8
AM_0
 10
525.7232090228365
 20
232.5769908752317
 30
0.0
 40
3.0
 50
45.82603099999853
 51
135.0
  0
ARC
  5
3488
  8
AM_0
 10
498.68956402283652
 20
263.8985118752318
 30
0.0
 40
3.0
 50
270.0
 51
354.50582000000048
  0
ARC
  5
3489
  8
AM_0
 10
498.68956402283652
 20
254.8985088752317
 30
0.0
 40
3.0
 50
5.4941789999992992
 51
90.00000299999769
  0
LINE
  5
348A
  8
AM_0
 10
495.49238902283622
 20
274.9769718752317
 30
0.0
 11
500.4923900228365
 21
277.86375187523169
 31
0.0
  0
ARC
  5
348B
  8
AM_0
 10
482.63459902283643
 20
263.8985118752318
 30
0.0
 40
3.0
 50
175.90395000000069
 51
270.0
  0
LINE
  5
348C
  8
AM_0
 10
470.47364902283653
 20
259.3985088752317
 30
0.0
 11
470.47364902283653
 21
279.39847987523171
 31
0.0
  0
ARC
  5
348D
  8
AM_0
 10
482.63459902283643
 20
254.8985088752317
 30
0.0
 40
3.0
 50
90.00000299999769
 51
184.09603999999911
  0
LINE
  5
348E
  8
AM_0
 10
482.63459902283643
 20
260.89850887523181
 30
0.0
 11
498.68956402283652
 21
260.89850887523181
 31
0.0
  0
LINE
  5
348F
  8
AM_0
 10
482.63459902283643
 20
257.89850887523181
 30
0.0
 11
498.68956402283652
 21
257.89850887523181
 31
0.0
  0
LINE
  5
3490
  8
AM_0
 10
490.49238802283651
 20
277.8637218752317
 30
0.0
 11
495.49238902283622
 21
274.9769718752317
 31
0.0
  0
ARC
  5
3491
  8
AM_0
 10
518.87299102283646
 20
278.92808287523172
 30
0.0
 40
3.0
 50
323.71473999999768
 51
45.000001000002641
  0
LINE
  5
3492
  8
AM_0
 10
586.08829402283652
 20
230.56328887523171
 30
0.0
 11
574.07060902283615
 21
268.46567887523167
 31
0.0
  0
ARC
  5
3493
  8
AM_0
 10
567.02365702283646
 20
224.51848987523169
 30
0.0
 40
20.000000700000001
 50
225.8260300000002
 51
17.592214000000201
  0
ARC
  5
3494
  8
AM_0
 10
537.50561902283653
 20
200.8985088752317
 30
0.0
 40
3.0
 50
270.0
 51
45.000001000002641
  0
ARC
  5
3495
  8
AM_0
 10
582.73610602283657
 20
208.59975787523169
 30
0.0
 40
3.0
 50
211.70912000000089
 51
306.2611999999969
  0
LINE
  5
3496
  8
AM_0
 10
579.18456202283653
 20
208.6404378752317
 30
0.0
 11
580.18390402283626
 21
207.02296087523169
 31
0.0
  0
ARC
  5
3497
  8
AM_0
 10
574.22881102283645
 20
203.3436978752317
 30
0.0
 40
3.0
 50
297.15705000000168
 51
31.709121999999109
  0
LINE
  5
3498
  8
AM_0
 10
575.78165302283651
 20
206.53800487523171
 30
0.0
 11
576.78099502283646
 21
204.9205278752317
 31
0.0
  0
CIRCLE
  5
3499
  8
AM_0
 10
545.47365202283618
 20
259.3985088752317
 30
0.0
 40
2.4999998400000001
  0
CIRCLE
  5
349A
  8
AM_5
 10
545.47365202283618
 20
259.3985088752317
 30
0.0
 40
3.0
  0
ARC
  5
349B
  8
AM_0
 10
545.47365202283618
 20
259.3985088752317
 30
0.0
 40
9.5000003999999993
 50
108.40848
 51
71.591512000000776
  0
LINE
  5
349C
  8
AM_0
 10
548.47365202283652
 20
271.39851187523169
 30
0.0
 11
542.47365202283652
 21
271.39851187523169
 31
0.0
  0
LINE
  5
349D
  8
AM_0
 10
548.47365202283652
 20
265.39851187523169
 30
0.0
 11
548.47365202283652
 21
271.39851187523169
 31
0.0
  0
LINE
  5
349E
  8
AM_0
 10
542.47365202283652
 20
265.39851187523169
 30
0.0
 11
548.47365202283652
 21
265.39851187523169
 31
0.0
  0
LINE
  5
349F
  8
AM_0
 10
542.47365202283652
 20
271.39851187523169
 30
0.0
 11
542.47365202283652
 21
265.39851187523169
 31
0.0
  0
ARC
  5
34A0
  8
AM_0
 10
593.85216502283652
 20
263.8985118752318
 30
0.0
 40
3.0
 50
200.0000000000006
 51
270.0
  0
ARC
  5
34A1
  8
AM_0
 10
597.12787402283652
 20
254.8985088752317
 30
0.0
 40
3.0
 50
90.00000299999769
 51
200.0000000000006
  0
ARC
  5
34A2
  8
AM_0
 10
572.07433102283653
 20
278.92808287523172
 30
0.0
 40
3.0
 50
135.0
 51
216.28526000000221
  0
LINE
  5
34A3
  8
AM_0
 10
586.82013502283655
 20
274.44736987523169
 30
0.0
 11
591.03307102283645
 21
262.8724188752318
 31
0.0
  0
LINE
  5
34A4
  8
AM_0
 10
590.45490202283645
 20
277.8637218752317
 30
0.0
 11
595.45490002283645
 21
274.9769718752317
 31
0.0
  0
ARC
  5
34A5
  8
AM_0
 10
606.84842602283652
 20
198.39849187523171
 30
0.0
 40
10.000000200000001
 50
270.0
 51
354.99999999999977
  0
CIRCLE
  5
34A6
  8
AM_0
 10
605.5777190228365
 20
199.2944118752317
 30
0.0
 40
5.0000001000000003
  0
LINE
  5
34A7
  8
AM_0
 10
620.47365502283651
 20
259.3985088752317
 30
0.0
 11
620.47365502283651
 21
239.3984958752317
 31
0.0
  0
LINE
  5
34A8
  8
AM_0
 10
620.47365502283651
 20
239.39851087523169
 30
0.0
 11
616.81037002283654
 21
197.5269408752317
 31
0.0
  0
ARC
  5
34A9
  8
AM_0
 10
608.31272002283652
 20
263.8985118752318
 30
0.0
 40
3.0
 50
270.0
 51
4.096044000000556
  0
LINE
  5
34AA
  8
AM_0
 10
620.47365502283651
 20
259.3985088752317
 30
0.0
 11
620.47365502283651
 21
279.39847987523171
 31
0.0
  0
ARC
  5
34AB
  8
AM_0
 10
608.31272002283652
 20
254.8985088752317
 30
0.0
 40
3.0
 50
355.90396000000089
 51
90.00000299999769
  0
ARC
  5
34AC
  8
ﾁｭｳｼﾝｾﾝ1
 10
545.47365202283618
 20
259.3985088752317
 30
0.0
 40
85.000001999999981
 50
35.69552799999677
 51
54.142581999996843
  0
LINE
  5
34AD
  8
AM_0
 10
565.4736530228364
 20
334.39850587523182
 30
0.0
 11
607.68982702283654
 21
330.70505587523172
 31
0.0
  0
LINE
  5
34AE
  8
ﾁｭｳｼﾝｾﾝ1
 10
597.8039450228365
 20
311.72876587523172
 30
0.0
 11
612.95213902283615
 21
326.8769658752318
 31
0.0
  0
LINE
  5
34AF
  8
AM_0
 10
600.45490102283645
 20
283.63721887523172
 30
0.0
 11
595.45491502283653
 21
286.52396887523167
 31
0.0
  0
LINE
  5
34B1
  8
AM_0
 10
545.47365202283618
 20
334.39850587523182
 30
0.0
 11
525.4736660228366
 21
334.39850587523182
 31
0.0
  0
ARC
  5
34B2
  8
AM_0
 10
484.12904602283652
 20
320.74310587523172
 30
0.0
 40
10.000000200000001
 50
95.00000199999856
 51
175.0000100000004
  0
ARC
  5
34B3
  8
ﾁｭｳｼﾝｾﾝ1
 10
545.47365202283618
 20
259.3985088752317
 30
0.0
 40
85.000001999999981
 50
125.6955299999962
 51
144.1425800000026
  0
LINE
  5
34B4
  8
ﾁｭｳｼﾝｾﾝ1
 10
493.1433890228364
 20
311.72876587523172
 30
0.0
 11
477.99522802283622
 21
326.87693587523182
 31
0.0
  0
ARC
  5
34B5
  8
AM_0
 10
497.53093402283622
 20
300.27015487523181
 30
0.0
 40
3.0
 50
45.000001000002641
 51
139.5520799999978
  0
LINE
  5
34B6
  8
AM_0
 10
500.4923900228365
 20
283.63721887523172
 30
0.0
 11
495.49238902283622
 21
286.52396887523167
 31
0.0
  0
LINE
  5
34B7
  8
AM_0
 10
495.49241902283649
 20
286.52396887523167
 30
0.0
 11
490.49241802283649
 21
283.63721887523172
 31
0.0
  0
CIRCLE
  5
34B8
  8
AM_0
 10
485.36958502283647
 20
319.5025758752318
 30
0.0
 40
5.0000001000000003
  0
LINE
  5
34B9
  8
AM_0
 10
523.82274202283656
 20
283.87781887523181
 30
0.0
 11
502.4807000228364
 21
305.21989087523173
 31
0.0
  0
ARC
  5
34BA
  8
AM_0
 10
545.47365202283618
 20
259.39850887523198
 30
0.0
 40
44.000000999999983
 50
95.494178999999249
 51
132.4526799999978
  0
ARC
  5
34BB
  8
AM_0
 10
504.60197902283647
 20
307.34122987523182
 30
0.0
 40
3.0
 50
130.4479300000001
 51
225.0
  0
LINE
  5
34BD
  8
AM_0
 10
525.47363602283644
 20
334.39847587523172
 30
0.0
 11
483.25746502283653
 21
330.7050258752318
 31
0.0
  0
ARC
  5
34BF
  8
AM_0
 10
545.47365202283618
 20
259.3985088752317
 30
0.0
 40
44.000000999999983
 50
47.547317000000739
 51
84.505819000000585
  0
ARC
  5
34C0
  8
AM_0
 10
549.97365202283652
 20
306.18256987523171
 30
0.0
 40
3.0
 50
179.99999000000059
 51
264.50581999999741
  0
ARC
  5
34C1
  8
AM_0
 10
540.9736520228364
 20
306.18256987523171
 30
0.0
 40
3.0
 50
275.49418000000247
 51
0.0
  0
ARC
  5
34C3
  8
AM_0
 10
549.97365202283652
 20
322.23755587523169
 30
0.0
 40
3.0
 50
85.903958999999986
 51
180.00000999999941
  0
LINE
  5
34C4
  8
AM_0
 10
546.97365202283652
 20
322.23755587523169
 30
0.0
 11
546.97365202283652
 21
306.18256987523171
 31
0.0
  0
LINE
  5
34C5
  8
AM_0
 10
543.97365202283652
 20
322.23755587523169
 30
0.0
 11
543.97365202283652
 21
306.18256987523171
 31
0.0
  0
ARC
  5
34C6
  8
AM_0
 10
540.9736520228364
 20
322.23755587523169
 30
0.0
 40
3.0
 50
0.0
 51
94.096045999998367
  0
LINE
  5
34C7
  8
AM_0
 10
567.12456202283602
 20
283.87781887523181
 30
0.0
 11
588.46664902283635
 21
305.21992387523181
 31
0.0
  0
LINE
  5
34C8
  8
AM_0
 10
595.45490002283645
 20
286.52399887523183
 30
0.0
 11
590.45490202283645
 21
283.63724887523171
 31
0.0
  0
ARC
  5
34C9
  8
AM_0
 10
593.4163880228366
 20
300.27015487523181
 30
0.0
 40
3.0
 50
40.447928999998211
 51
135.0
  0
ARC
  5
34CA
  8
AM_0
 10
586.34534302283646
 20
307.34122987523182
 30
0.0
 40
3.0
 50
315.0
 51
49.552073000000021
  0
LINE
  5
34CB
  8
AM_0
 10
545.47365202283618
 20
334.39850587523182
 30
0.0
 11
565.4736530228364
 21
334.39850587523182
 31
0.0
  0
ARC
  5
34CE
  8
AM_0
 10
606.81825802283652
 20
320.74310587523172
 30
0.0
 40
10.000000200000001
 50
4.999999899999449
 51
84.999996999998729
  0
CIRCLE
  5
34CF
  8
AM_0
 10
605.5777190228365
 20
319.5025758752318
 30
0.0
 40
5.0000001000000003
  0
ARC
  5
34D0
  8
AM_0
 10
163.02293404937629
 20
122.3986119752316
 30
0.0
 40
2.3091486599999991
 50
164.90527199999909
 51
16.267320000003402
  0
POINT
  5
34D1
  8
0
 10
58.559597607213107
 20
519.10732404442058
 30
0.0
1001
GENIUS_GENOLIS_13
1002
{
1000
ENT
1005
0
1005
33B7
1005
33B8
1002
}
1001
GENIUS_GENOENT_13
1002
{
1000
MYREF
1005
34D1
1002
}
1002
{
1000
GRP
1005
0
1002
}
1001
GENIUS_GENOBJ-NBEHI-BHB_13
1002
{
1000
OWNER
1000
genbehi
1002
}
1001
GENIUS_GENBH_13
1002
{
1000
FGO
1005
0
1002
}
1001
GENIUS_GENODEF_13
1002
{
1000
HIER
1070
     1
1002
}
1002
{
1000
MANEDIT
1070
     1
1002
}
1002
{
1000
NOSEL
1070
     1
1002
}
1002
{
1000
BEHIND
1070
     0
1002
}
1002
{
1000
OTHER
1070
     1
1002
}
1002
{
1000
REACTOR
1002
}
  0
LINE
  5
3673
  8
AM_0
 10
166.97350004937621
 20
176.79854687523141
 30
0.0
 11
254.9824880493762
 21
176.79854687523141
 31
0.0
  0
TEXT
  5
3A5E
  8
AM_0
 10
446.84061304984192
 20
486.3621549881247
 30
0.0
 40
10.0
  1
VX02-005SF~VX02-030SF
  0
ENDSEC
  0
EOF
