  0
SECTION
  2
HEADER
  9
$ACADVER
  1
AC1009
  9
$INSBASE
 10
0.0
 20
0.0
 30
0.0
  9
$EXTMIN
 10
50.28296601396687
 20
102.4956844272719
 30
-0.0015258207003583
  9
$EXTMAX
 10
652.23291694565125
 20
557.85542891456453
 30
0.0000000349246037
  9
$LIMMIN
 10
0.0
 20
0.0
  9
$LIMMAX
 10
853.5
 20
555.00000000000011
  9
$ORTHOMODE
 70
     0
  9
$REGENMODE
 70
     1
  9
$FILLMODE
 70
     1
  9
$QTEXTMODE
 70
     0
  9
$MIRRTEXT
 70
     1
  9
$DRAGMODE
 70
     2
  9
$LTSCALE
 40
3.0
  9
$OSMODE
 70
   551
  9
$ATTMODE
 70
     1
  9
$TEXTSIZE
 40
2.5
  9
$TRACEWID
 40
1.0
  9
$TEXTSTYLE
  7
STANDARD
  9
$CLAYER
  8
AM_0
  9
$CELTYPE
  6
BYLAYER
  9
$CECOLOR
 62
   256
  9
$DIMSCALE
 40
1.0
  9
$DIMASZ
 40
2.5
  9
$DIMEXO
 40
1.0
  9
$DIMDLI
 40
8.0
  9
$DIMRND
 40
0.0
  9
$DIMDLE
 40
0.0
  9
$DIMEXE
 40
0.6
  9
$DIMTP
 40
0.1
  9
$DIMTM
 40
0.1
  9
$DIMTXT
 40
2.5
  9
$DIMCEN
 40
0.0
  9
$DIMTSZ
 40
0.0
  9
$DIMTOL
 70
     0
  9
$DIMLIM
 70
     0
  9
$DIMTIH
 70
     0
  9
$DIMTOH
 70
     0
  9
$DIMSE1
 70
     0
  9
$DIMSE2
 70
     0
  9
$DIMTAD
 70
     1
  9
$DIMZIN
 70
     8
  9
$DIMBLK
  1

  9
$DIMASO
 70
     1
  9
$DIMSHO
 70
     1
  9
$DIMPOST
  1

  9
$DIMAPOST
  1
"
  9
$DIMALT
 70
     0
  9
$DIMALTD
 70
     2
  9
$DIMALTF
 40
0.0393701
  9
$DIMLFAC
 40
1.0
  9
$DIMTOFL
 70
     1
  9
$DIMTVP
 40
0.0
  9
$DIMTIX
 70
     0
  9
$DIMSOXD
 70
     0
  9
$DIMSAH
 70
     0
  9
$DIMBLK1
  1

  9
$DIMBLK2
  1

  9
$DIMSTYLE
  2
AM_ISO
  9
$DIMCLRD
 70
   256
  9
$DIMCLRE
 70
   256
  9
$DIMCLRT
 70
     4
  9
$DIMTFAC
 40
0.71
  9
$DIMGAP
 40
0.8
  9
$LUNITS
 70
     2
  9
$LUPREC
 70
     2
  9
$SKETCHINC
 40
1.0
  9
$FILLETRAD
 40
15.0
  9
$AUNITS
 70
     0
  9
$AUPREC
 70
     0
  9
$MENU
  1
.
  9
$ELEVATION
 40
0.0
  9
$PELEVATION
 40
0.0
  9
$THICKNESS
 40
0.0
  9
$LIMCHECK
 70
     0
  9
$BLIPMODE
 70
     0
  9
$CHAMFERA
 40
6.0
  9
$CHAMFERB
 40
3.0
  9
$SKPOLY
 70
     0
  9
$TDCREATE
 40
2452065.735910729
  9
$TDUPDATE
 40
2458541.5879270141
  9
$TDINDWG
 40
0.1634258333
  9
$TDUSRTIMER
 40
0.1634256481
  9
$USRTIMER
 70
     1
  9
$ANGBASE
 50
0.0
  9
$ANGDIR
 70
     0
  9
$PDMODE
 70
     0
  9
$PDSIZE
 40
0.0
  9
$PLINEWID
 40
0.0
  9
$COORDS
 70
     1
  9
$SPLFRAME
 70
     0
  9
$SPLINETYPE
 70
     6
  9
$SPLINESEGS
 70
     8
  9
$ATTDIA
 70
     1
  9
$ATTREQ
 70
     1
  9
$HANDLING
 70
     1
  9
$HANDSEED
  5
3A2E
  9
$SURFTAB1
 70
     6
  9
$SURFTAB2
 70
     6
  9
$SURFTYPE
 70
     6
  9
$SURFU
 70
     6
  9
$SURFV
 70
     6
  9
$UCSNAME
  2

  9
$UCSORG
 10
0.0
 20
0.0
 30
0.0
  9
$UCSXDIR
 10
1.0
 20
0.0
 30
0.0
  9
$UCSYDIR
 10
0.0
 20
1.0
 30
0.0
  9
$PUCSNAME
  2

  9
$PUCSORG
 10
0.0
 20
0.0
 30
0.0
  9
$PUCSXDIR
 10
1.0
 20
0.0
 30
0.0
  9
$PUCSYDIR
 10
0.0
 20
1.0
 30
0.0
  9
$USERI1
 70
     0
  9
$USERI2
 70
     0
  9
$USERI3
 70
     0
  9
$USERI4
 70
     0
  9
$USERI5
 70
     0
  9
$USERR1
 40
0.0
  9
$USERR2
 40
0.0
  9
$USERR3
 40
0.0
  9
$USERR4
 40
0.0
  9
$USERR5
 40
0.0
  9
$WORLDVIEW
 70
     1
  9
$SHADEDGE
 70
     3
  9
$SHADEDIF
 70
    70
  9
$TILEMODE
 70
     1
  9
$MAXACTVP
 70
    64
  9
$PLIMCHECK
 70
     0
  9
$PEXTMIN
 10
1.0000000000000000E+020
 20
1.0000000000000000E+020
 30
1.0000000000000000E+020
  9
$PEXTMAX
 10
-1.0000000000000000E+020
 20
-1.0000000000000000E+020
 30
-1.0000000000000000E+020
  9
$PLIMMIN
 10
0.0
 20
0.0
  9
$PLIMMAX
 10
420.0
 20
297.0
  9
$UNITMODE
 70
     0
  9
$VISRETAIN
 70
     1
  9
$PLINEGEN
 70
     0
  9
$PSLTSCALE
 70
     1
  0
ENDSEC
  0
SECTION
  2
TABLES
  0
TABLE
  2
VPORT
 70
     1
  0
VPORT
  2
*ACTIVE
 70
     0
 10
0.0
 20
0.0
 11
1.0
 21
1.0
 12
351.25794147980918
 22
330.1755566709183
 13
0.0
 23
0.0
 14
7.5
 24
7.5
 15
30.0
 25
30.0
 16
0.0
 26
0.0
 36
1.0
 17
0.0
 27
0.0
 37
0.0
 40
458.48578392313209
 41
1.7571592210767459
 42
50.0
 43
0.0
 44
0.0
 50
0.0
 51
0.0
 71
     0
 72
   100
 73
     1
 74
     3
 75
     0
 76
     0
 77
     0
 78
     0
  0
ENDTAB
  0
TABLE
  2
LTYPE
 70
    19
  0
LTYPE
  2
CONTINUOUS
 70
     0
  3
Solid line
 72
    65
 73
     0
 40
0.0
  0
LTYPE
  2
AM_ISO02W050
 70
     0
  3
__ __ __ __ __ __ __ __ __ __ __ __ __ __ __
 72
    65
 73
     2
 40
7.5
 49
6.0
 49
-1.5
  0
LTYPE
  2
AM_ISO08W050
 70
     0
  3
____ . ____ . ____ . ____ . ____ . ____ . ____
 72
    65
 73
     4
 40
18.0
 49
12.0
 49
-1.5
 49
3.0
 49
-1.5
  0
LTYPE
  2
AM_ISO09W050
 70
     0
  3
_____ . . _____ . . _____ . . ____ .. ____
 72
    65
 73
     6
 40
22.5
 49
12.0
 49
-1.5
 49
3.0
 49
-1.5
 49
3.0
 49
-1.5
  0
LTYPE
  2
AMCONSTR
 70
     0
  3
_______________________
 72
    65
 73
     2
 40
9999.0
 49
9999.0
 49
0.0
  0
LTYPE
  2
AM_ISO08W050X2
 70
     0
  3
__ . __ . __ . __ . __ . __
 72
    65
 73
     4
 40
9.0
 49
6.0
 49
-0.75
 49
1.5
 49
-0.75
  0
LTYPE
  2
AM_ISO02W050X2
 70
     0
  3
 _ _ _ _ _ _ _ _ _ _ _ _
 72
    65
 73
     2
 40
3.75
 49
3.0
 49
-0.75
  0
LTYPE
  2
AMZIGZAG
 70
     0
  3
/\/-/\/-/\/-/\/-/\/-/\/
 72
    65
 73
     2
 40
11.0001
 49
0.0001
 49
-11.0
  0
LTYPE
  2
CENTER
 70
     0
  3
__ . __
 72
    65
 73
     4
 40
7.0
 49
4.0
 49
-1.0
 49
1.0
 49
-1.0
  0
LTYPE
  2
PHANTOM2
 70
     0
  3
Phantom (.5x) ___ _ _ ___ _ _ ___ _ _ ___ _ _
 72
    65
 73
     6
 40
31.75
 49
15.875
 49
-3.174999999999998
 49
3.174999999999998
 49
-3.174999999999998
 49
3.174999999999998
 49
-3.174999999999998
  0
LTYPE
  2
GEN7
 70
     0
  3
____ . ____ . ____ . ____ . ____ . ____ . ____
 72
    65
 73
     4
 40
14.25
 49
9.75
 49
-1.5
 49
1.5
 49
-1.5
  0
LTYPE
  2
GEN7A
 70
     0
  3
__ . __ . __
 72
    65
 73
     4
 40
7.375
 49
4.75
 49
-0.875
 49
0.875
 49
-0.875
  0
LTYPE
  2
HIDDEN
 70
     0
  3
Hidden __ __ __ __ __ __ __ __ __ __ __ __ __ _
 72
    65
 73
     2
 40
9.5249999999999986
 49
6.349999999999997
 49
-3.174999999999998
  0
LTYPE
  2
CENTER2
 70
     0
  3
Center (.5x) ___ _ ___ _ ___ _ ___ _ ___ _ ___
 72
    65
 73
     4
 40
1.125
 49
0.75
 49
-0.125
 49
0.125
 49
-0.125
  0
LTYPE
  2
HIDDEN2
 70
     0
  3
Hidden (.5x) _ _ _ _ _ _ _ _ _ _ _ _ _ _ _ _ _
 72
    65
 73
     2
 40
0.1875
 49
0.125
 49
-0.0625
  0
LTYPE
  2
AMZIGZAG2
 70
     0
  3
/\/-/\/-/\/-/\/-/\/-/\/
 72
    65
 73
     2
 40
0.4401
 49
0.0001
 49
-0.4400000000000001
  0
LTYPE
  2
ACANSTGB
 70
     0
  3
__ . . __ . .
 72
    65
 73
     6
 40
0.35433070866
 49
0.15748031496
 49
-0.03937007874
 49
0.03937007874
 49
-0.03937007874
 49
0.03937007874
 49
-0.03937007874
  0
LTYPE
  2
ACANSTGL
 70
     0
  3
_ _ _ _ _
 72
    65
 73
     2
 40
0.11811023622
 49
0.07874015748
 49
-0.03937007874
  0
ENDTAB
  0
TABLE
  2
LAYER
 70
     9
  0
LAYER
  2
0
 70
     0
 62
     7
  6
CONTINUOUS
  0
LAYER
  2
AM_0
 70
     0
 62
     7
  6
CONTINUOUS
  0
LAYER
  2
AM_5
 70
     0
 62
     2
  6
CONTINUOUS
  0
LAYER
  2
DEFPOINTS
 70
     0
 62
     7
  6
CONTINUOUS
  0
LAYER
  2
ﾁｭｳｼﾝｾﾝ
 70
     0
 62
     1
  6
GEN7
  0
LAYER
  2
ﾁｭｳｼﾝｾﾝ1
 70
     0
 62
     1
  6
GEN7A
  0
LAYER
  2
AM_0N
 70
     0
 62
     7
  6
CONTINUOUS
  0
LAYER
  2
AM_3N
 70
     0
 62
     3
  6
AM_ISO02W050
  0
LAYER
  2
ｽﾝﾎ_ｳｾﾝ
 70
     0
 62
     2
  6
CONTINUOUS
  0
ENDTAB
  0
TABLE
  2
STYLE
 70
     5
  0
STYLE
  2
STANDARD
 70
     0
 40
0.0
 41
0.8299999999999999
 50
0.0
 71
     0
 42
2.5
  3
txt.shx
  4
bigfont.shx
  0
STYLE
  2
ANNOTATIVE
 70
     0
 40
0.0
 41
1.0
 50
0.0
 71
     0
 42
0.2
  3
txt
  4

  0
STYLE
  2

 70
     1
 40
0.0
 41
1.0
 50
0.0
 71
     0
 42
2.5
  3
genltshp.shx
  4

  0
STYLE
  2
ACANSTS
 70
     0
 40
0.0
 41
1.0
 50
0.0
 71
     0
 42
2.5
  3
romans.shx
  4
extfont.shx
  0
STYLE
  2
ACANSGDT
 70
     0
 40
0.0
 41
1.0
 50
0.0
 71
     0
 42
2.5
  3
amgdt.shx
  4

  0
ENDTAB
  0
TABLE
  2
VIEW
 70
     6
  0
VIEW
  2
AM_VIEW1
 70
     0
 40
277.50000000000011
 10
249.64779005524869
 20
416.24999999999989
 41
499.2955801104971
 11
0.0
 21
0.0
 31
1.0
 12
0.0
 22
0.0
 32
0.0
 42
50.0
 43
0.0
 44
0.0
 50
0.0
 71
     0
  0
VIEW
  2
AM_VIEW2
 70
     0
 40
277.50000000000011
 10
603.85220994475117
 20
416.24999999999989
 41
499.2955801104971
 11
0.0
 21
0.0
 31
1.0
 12
0.0
 22
0.0
 32
0.0
 42
50.0
 43
0.0
 44
0.0
 50
0.0
 71
     0
  0
VIEW
  2
AM_VIEW3
 70
     0
 40
277.50000000000011
 10
249.64779005524869
 20
138.75
 41
499.2955801104971
 11
0.0
 21
0.0
 31
1.0
 12
0.0
 22
0.0
 32
0.0
 42
50.0
 43
0.0
 44
0.0
 50
0.0
 71
     0
  0
VIEW
  2
AM_VIEW4
 70
     0
 40
277.50000000000011
 10
603.85220994475117
 20
138.75
 41
499.2955801104971
 11
0.0
 21
0.0
 31
1.0
 12
0.0
 22
0.0
 32
0.0
 42
50.0
 43
0.0
 44
0.0
 50
0.0
 71
     0
  0
VIEW
  2
AM_VIEW5
 70
     0
 40
277.50000000000011
 10
426.75
 20
277.50000000000011
 41
499.2955801104971
 11
0.0
 21
0.0
 31
1.0
 12
0.0
 22
0.0
 32
0.0
 42
50.0
 43
0.0
 44
0.0
 50
0.0
 71
     0
  0
VIEW
  2
AM_VIEW6
 70
     0
 40
554.99445000000014
 10
426.75
 20
277.5
 41
998.5811743093924
 11
0.0
 21
0.0
 31
1.0
 12
0.0
 22
0.0
 32
0.0
 42
50.0
 43
0.0
 44
0.0
 50
0.0
 71
     0
  0
ENDTAB
  0
TABLE
  2
UCS
 70
     0
  0
ENDTAB
  0
TABLE
  2
APPID
 70
    97
  0
APPID
  2
ACAD
 70
     0
  0
APPID
  2
ACADANNOTATIVE
 70
     0
  0
APPID
  2
MCAD_NO_VIS
 70
     0
  0
APPID
  2
ACAD_TEMP_GRAPHIC
 70
     0
  0
APPID
  2
ACATTRIBSERVICES
 70
     0
  0
APPID
  2
GENIUS_GENREC_14
 70
     0
  0
APPID
  2
GENIUS_GENOBJ-N-REC_13
 70
     0
  0
APPID
  2
GENIUS_GENODEF_13
 70
     0
  0
APPID
  2
GENIUS_GENOLIS_13
 70
     0
  0
APPID
  2
GENIUS_GENOBJ-N-TIT_13
 70
     0
  0
APPID
  2
GENIUS_GENOENT_13
 70
     0
  0
APPID
  2
GENIUS_GENTITLE_13
 70
     0
  0
APPID
  2
GENIUS_GENOREF_13
 70
     0
  0
APPID
  2
GENIUS_GENSCREG_15
 70
     0
  0
APPID
  2
GENIUS_GENOBJ-N-SDF_13
 70
     0
  0
APPID
  2
GENIUS_GENFIL_13
 70
     0
  0
APPID
  2
GENIUS_GENOBJ-N-CHA_13
 70
     0
  0
APPID
  2
GENIUS_GENDTOL_13
 70
     0
  0
APPID
  2
GENIUS_GENOBJ-N-FIL_13
 70
     0
  0
APPID
  2
AD_DRAW
 70
     0
  0
APPID
  2
DESIGNERASSEMBLIES
 70
     0
  0
APPID
  2
ASURF_PCURVE_APPNAME
 70
     0
  0
APPID
  2
GENIUS_GE3SECT_13
 70
     0
  0
APPID
  2
GENIUS_GENCFG_13
 70
     0
  0
APPID
  2
GENIUS_GE3CFG0_13
 70
     0
  0
APPID
  2
GENIUS_GENCFG0_13
 70
     0
  0
APPID
  2
GENIUS_GENCFG1_13
 70
     0
  0
APPID
  2
GENIUS_GENCFG2_13
 70
     0
  0
APPID
  2
GENIUS_GENCFG3_13
 70
     0
  0
APPID
  2
GENIUS_GENCFG4_13
 70
     0
  0
APPID
  2
GENIUS_GEVCFG0_13
 70
     0
  0
APPID
  2
GENIUS_GENHINW_13
 70
     0
  0
APPID
  2
GENIUS_FIRSTVISTXT_14
 70
     0
  0
APPID
  2
GENIUS_GENOBJ-N-LEADER_13
 70
     0
  0
APPID
  2
GEV_VCCNULL_SWITCH_OFF
 70
     0
  0
APPID
  2
GENIUS_GEFCFG0_13
 70
     0
  0
APPID
  2
GENIUS_GENZVEED_13
 70
     0
  0
APPID
  2
GENIUS_GENSCREG_13
 70
     0
  0
APPID
  2
GENIUS_DUMCFG0_13
 70
     0
  0
APPID
  2
GEVID936201362
 70
     0
  0
APPID
  2
GEVDC
 70
     0
  0
APPID
  2
GEVCON
 70
     0
  0
APPID
  2
VCC
 70
     0
  0
APPID
  2
GEVPT
 70
     0
  0
APPID
  2
GEVIT
 70
     0
  0
APPID
  2
GENBH
 70
     0
  0
APPID
  2
GEVMK
 70
     0
  0
APPID
  2
GENIUS_GENBH_13
 70
     0
  0
APPID
  2
GENIUS_GENOBJ-NBEHI-BHF_13
 70
     0
  0
APPID
  2
GENIUS_GENOBJ-NBEHI-BHB_13
 70
     0
  0
APPID
  2
GENIUS_GENOBJ-F-DESC_13
 70
     0
  0
APPID
  2
GENIUS_GEFDESC_14
 70
     0
  0
APPID
  2
GENIUS_GENOBJ-F-PART_13
 70
     0
  0
APPID
  2
GENIUS_GEFSTDP_13
 70
     0
  0
APPID
  2
GENIUS_GEFPARTINS_13
 70
     0
  0
APPID
  2
GENIUS_GENTRA_14
 70
     0
  0
APPID
  2
GENIUS_GENINF13_13
 70
     0
  0
APPID
  2
GENIUS_GENOBJ-N-INFOPT_13
 70
     0
  0
APPID
  2
GENIUS_GENOBJ-N-RSSYM_13
 70
     0
  0
APPID
  2
GENIUS_GENSYMENT_13
 70
     0
  0
APPID
  2
GENIUS_GENSCSYM_13
 70
     0
  0
APPID
  2
GENIUS_GEFINFNAM_13
 70
     0
  0
APPID
  2
GENIUS_GENOBJ-N-CEN_13
 70
     0
  0
APPID
  2
GENIUS_GENOBJ-N-CRS_13
 70
     0
  0
APPID
  2
GENIUS_GENOBJ-N-CRC_13
 70
     0
  0
APPID
  2
GENIUS_GENCRC_14
 70
     0
  0
APPID
  2
GEVID942827039
 70
     0
  0
APPID
  2
GEVID942827040
 70
     0
  0
APPID
  2
GEVID942827041
 70
     0
  0
APPID
  2
GENIUS_GENOBJ-F-SCPASSM_13
 70
     0
  0
APPID
  2
GENIUS_GENDIMSH_14
 70
     0
  0
APPID
  2
GEVID942827042
 70
     0
  0
APPID
  2
GEVID946020473
 70
     0
  0
APPID
  2
GEVID946020474
 70
     0
  0
APPID
  2
GEVID946020475
 70
     0
  0
APPID
  2
GENIUS_GENOBJ-N-HTC_13
 70
     0
  0
APPID
  2
GENIUS_GENHATCH_13
 70
     0
  0
APPID
  2
GEVID948854295
 70
     0
  0
APPID
  2
GEVID939402019
 70
     0
  0
APPID
  2
GEVID952919491
 70
     0
  0
APPID
  2
GEVID952919492
 70
     0
  0
APPID
  2
GENIUS_GEFWELD_13
 70
     0
  0
APPID
  2
GENIUS_GENOBJ-F-WELS_13
 70
     0
  0
APPID
  2
GEVID952919493
 70
     0
  0
APPID
  2
GENIUS_GENOBJ-N-RSBK_13
 70
     0
  0
APPID
  2
GENIUS_GENOBJ-N-LIB_13
 70
     0
  0
APPID
  2
GENIUS_GENSCALE_13
 70
     0
  0
APPID
  2
GEVID986376691
 70
     0
  0
APPID
  2
DCO15
 70
     0
  0
APPID
  2
ACADM_DIM_EDIT
 70
     0
  0
APPID
  2
AMDT_DM_ADJ
 70
     0
  0
APPID
  2
ACAD_DSTYLE_DIMJAG
 70
     0
  0
APPID
  2
ACAD_DSTYLE_DIMBREAK
 70
     0
  0
APPID
  2
ACAD_NAV_VCDISPLAY
 70
     0
  0
APPID
  2
ACADANNOPO
 70
     0
  0
APPID
  2
ACAD_EXEMPT_FROM_CAD_STANDARDS
 70
     0
  0
APPID
  2
ACAD_MLEADERVER
 70
     0
  0
ENDTAB
  0
TABLE
  2
DIMSTYLE
 70
     9
  0
DIMSTYLE
  2
STANDARD
 70
     0
  3

  4

  5

  6

  7

 40
1.0
 41
0.18
 42
0.0625
 43
0.38
 44
0.18
 45
0.0
 46
0.0
 47
0.0
 48
0.0
140
0.18
141
0.09
142
0.0
143
25.399999999999999
144
1.0
145
0.0
146
1.0
147
0.09
 71
     0
 72
     0
 73
     1
 74
     1
 75
     0
 76
     0
 77
     0
 78
     0
170
     0
171
     2
172
     0
173
     0
174
     0
175
     0
176
     0
177
     0
178
     0
  0
DIMSTYLE
  2
ANNOTATIVE
 70
     0
  3

  4

  5

  6

  7

 40
1.0
 41
0.18
 42
0.0625
 43
0.38
 44
0.18
 45
0.0
 46
0.0
 47
0.0
 48
0.0
140
0.18
141
0.09
142
0.0
143
25.399999999999999
144
1.0
145
0.0
146
1.0
147
0.09
 71
     0
 72
     0
 73
     1
 74
     1
 75
     0
 76
     0
 77
     0
 78
     0
170
     0
171
     2
172
     0
173
     0
174
     0
175
     0
176
     0
177
     0
178
     0
  0
DIMSTYLE
  2
AM_ISO
 70
     0
  3

  4
"
  5

  6

  7

 40
1.0
 41
2.5
 42
1.0
 43
8.0
 44
0.6
 45
0.0
 46
0.0
 47
0.1
 48
0.1
140
2.5
141
0.0
142
0.0
143
0.0393701
144
1.0
145
0.0
146
0.71
147
0.8
 71
     0
 72
     0
 73
     0
 74
     0
 75
     0
 76
     0
 77
     1
 78
     8
170
     0
171
     2
172
     1
173
     0
174
     0
175
     0
176
   256
177
   256
178
     4
  0
DIMSTYLE
  2
AM_ANSI
 70
     0
  3

  4
mm
  5

  6

  7

 40
1.0
 41
0.12
 42
0.05
 43
0.5
 44
0.1
 45
0.0
 46
0.0
 47
0.1
 48
0.1
140
0.12
141
0.0
142
0.0
143
25.399999999999999
144
1.0
145
0.0
146
0.71
147
0.06
 71
     0
 72
     0
 73
     1
 74
     1
 75
     0
 76
     0
 77
     0
 78
     7
170
     0
171
     2
172
     0
173
     0
174
     0
175
     0
176
   256
177
   256
178
     2
  0
DIMSTYLE
  2
AM_ANSI$3
 70
     0
  3

  4
mm
  5

  6

  7

 40
1.0
 41
0.12
 42
0.05
 43
0.5
 44
0.1
 45
0.0
 46
0.0
 47
0.1
 48
0.1
140
0.12
141
0.0
142
0.0
143
25.399999999999999
144
1.0
145
0.0
146
0.71
147
0.06
 71
     0
 72
     0
 73
     1
 74
     1
 75
     0
 76
     0
 77
     0
 78
     7
170
     0
171
     2
172
     0
173
     0
174
     0
175
     0
176
   256
177
   256
178
     2
  0
DIMSTYLE
  2
AM_ANSI$4
 70
     0
  3

  4
mm
  5

  6

  7

 40
1.0
 41
0.12
 42
0.05
 43
0.5
 44
0.1
 45
0.0
 46
0.0
 47
0.1
 48
0.1
140
0.12
141
0.0
142
0.0
143
25.399999999999999
144
1.0
145
0.0
146
0.71
147
0.06
 71
     0
 72
     0
 73
     1
 74
     1
 75
     0
 76
     0
 77
     0
 78
     7
170
     0
171
     2
172
     0
173
     0
174
     0
175
     0
176
   256
177
   256
178
     2
  0
DIMSTYLE
  2
AM_ANSI$7
 70
     0
  3

  4
mm
  5

  6

  7

 40
1.0
 41
0.12
 42
0.05
 43
0.5
 44
0.1
 45
0.0
 46
0.0
 47
0.1
 48
0.1
140
0.12
141
0.0
142
0.0
143
25.399999999999999
144
1.0
145
0.0
146
0.71
147
0.06
 71
     0
 72
     0
 73
     1
 74
     1
 75
     0
 76
     0
 77
     0
 78
     7
170
     0
171
     2
172
     0
173
     0
174
     0
175
     0
176
   256
177
   256
178
     2
  0
DIMSTYLE
  2
AM_ANSI$SF
 70
     0
  3

  4
mm
  5

  6

  7

 40
1.0
 41
0.12
 42
0.05
 43
0.5
 44
0.1
 45
0.0
 46
0.0
 47
0.1
 48
0.1
140
0.12
141
0.0
142
0.0
143
25.399999999999999
144
1.0
145
0.0
146
0.71
147
0.06
 71
     0
 72
     0
 73
     1
 74
     1
 75
     1
 76
     1
 77
     0
 78
     7
170
     0
171
     2
172
     0
173
     0
174
     0
175
     0
176
   256
177
   256
178
     2
  0
DIMSTYLE
  2
AM_ANSI$SH
 70
     0
  3

  4
mm
  5

  6
GENAXEH
  7

 40
1.0
 41
0.12
 42
0.05
 43
0.5
 44
0.1
 45
0.0
 46
0.0
 47
0.1
 48
0.1
140
0.12
141
0.0
142
0.0
143
25.399999999999999
144
1.0
145
0.0
146
0.71
147
0.06
 71
     0
 72
     0
 73
     1
 74
     1
 75
     1
 76
     1
 77
     0
 78
     7
170
     0
171
     2
172
     0
173
     1
174
     0
175
     0
176
   256
177
   256
178
     2
  0
ENDTAB
  0
ENDSEC
  0
SECTION
  2
BLOCKS
  0
BLOCK
  8
0
  2
$MODEL_SPACE
 70
     0
 10
0.0
 20
0.0
 30
0.0
  3
$MODEL_SPACE
  1

  0
ENDBLK
  5
38C5
  8
0
  0
BLOCK
 67
     1
  8
0
  2
$PAPER_SPACE
 70
     0
 10
0.0
 20
0.0
 30
0.0
  3
$PAPER_SPACE
  1

  0
ENDBLK
  5
38C1
 67
     1
  8
0
  0
BLOCK
  8
0
  2
*U2
 70
     1
 10
0.0
 20
0.0
 30
0.0
  3
*U2
  1

  0
TEXT
  5
3716
  8
AM_0
 10
502.27234559231169
 20
108.9200963184241
 30
0.0
 40
12.0
  1
VX02-060SF
 41
0.8299999999999999
  0
ENDBLK
  5
3718
  8
0
  0
BLOCK
  8
0
  2
GENAXEH
 70
     0
 10
0.0
 20
0.0
 30
0.0
  3
GENAXEH
  1

  0
LINE
  5
3993
  8
0
 10
-1.0
 20
0.0
 30
0.0
 11
1.0
 21
0.0
 31
0.0
  0
ENDBLK
  5
3995
  8
0
  0
BLOCK
  8
0
  2
_ACMFILLEDHALF
 70
     0
 10
0.0
 20
0.0
 30
0.0
  3
_ACMFILLEDHALF
  1

  0
TRACE
  5
39A3
  8
AM_0
 62
     0
 10
-0.8
 20
0.0
 30
0.0
 11
-1.0
 21
0.166666666
 31
0.0
 12
0.0
 22
0.0
 32
0.0
 13
0.0
 23
0.0
 33
0.0
  0
LINE
  5
39A4
  8
AM_0
 62
     0
 10
-1.0
 20
0.0
 30
0.0
 11
-0.8
 21
0.0
 31
0.0
  0
ENDBLK
  5
39A2
  8
0
  0
ENDSEC
  0
SECTION
  2
ENTITIES
  0
LINE
  5
2849
  8
ﾁｭｳｼﾝｾﾝ1
 10
50.320532023922972
 20
472.82018744089652
 30
0.0
 11
385.1683303797746
 21
472.82018744089652
 31
0.0
  0
LINE
  5
29D4
  8
AM_0
 10
336.94864037977447
 20
447.28584744089648
 30
0.0
 11
336.94864037977447
 21
498.35448744089649
 31
0.0
  0
LINE
  5
29D5
  8
AM_0
 10
303.94864037977459
 20
543.20915744089655
 30
0.0
 11
303.94864037977459
 21
402.43120744089663
 31
0.0
  0
LINE
  5
29D6
  8
AM_0
 10
378.94864037977459
 20
484.82018744089652
 30
0.0
 11
378.94864037977459
 21
460.82018744089652
 31
0.0
  0
LINE
  5
29D7
  8
AM_0
 10
331.94864037977447
 20
387.82018744089692
 30
0.0
 11
331.94864037977447
 21
557.82021744089661
 31
0.0
  0
LINE
  5
29D8
  8
AM_0
 10
325.94864037977447
 20
406.03883744089649
 30
0.0
 11
325.94864037977447
 21
539.60152744089658
 31
0.0
  0
LINE
  5
29D9
  8
AM_0
 10
335.94867037977463
 20
542.82018744089669
 30
0.0
 11
335.94867037977463
 21
402.8201874408964
 31
0.0
  0
LINE
  5
29DA
  8
AM_0
 10
338.94861037977461
 20
485.32015744089648
 30
0.0
 11
338.94861037977461
 21
460.3202174408965
 31
0.0
  0
LINE
  5
29DC
  8
AM_0
 10
264.94867037977463
 20
403.95180744089652
 30
0.0
 11
264.94867037977463
 21
541.6885574408966
 31
0.0
  0
LINE
  5
29DF
  8
AM_0
 10
271.94864037977447
 20
543.82018744089646
 30
0.0
 11
271.94864037977447
 21
401.82018744089652
 31
0.0
  0
LINE
  5
29E0
  8
AM_0
 10
306.8701503797746
 20
399.43224744089667
 30
0.0
 11
319.02719037977459
 21
399.1139174408969
 31
0.0
  0
LINE
  5
29E1
  8
AM_0
 10
319.49145037977462
 20
414.14232744089668
 30
0.0
 11
306.40585037977462
 21
421.87135744089642
 31
0.0
  0
LINE
  5
29E2
  8
AM_0
 10
304.94864037977447
 20
425.12206744089661
 30
0.0
 11
319.94864037977447
 21
425.12206744089661
 31
0.0
  0
LINE
  5
29E3
  8
AM_0
 10
319.4914803797746
 20
410.65810744089652
 30
0.0
 11
306.4057903797746
 21
418.38716744089652
 31
0.0
  0
LINE
  5
29E4
  8
AM_0
 10
233.9486703797746
 20
440.88024744089648
 30
0.0
 11
264.94867037977463
 21
440.88024744089648
 31
0.0
  0
LINE
  5
29E5
  8
AM_0
 10
261.94864037977447
 20
407.60890744089647
 30
0.0
 11
262.94867037977463
 21
407.60890744089647
 31
0.0
  0
LINE
  5
29E6
  8
AM_0
 10
233.9486703797746
 20
426.81987744089668
 30
0.0
 11
264.94867037977463
 21
426.81987744089668
 31
0.0
  0
LINE
  5
29E8
  8
AM_0
 10
259.94867037977463
 20
416.13933744089661
 30
0.0
 11
233.94870037977461
 21
416.82018744089669
 31
0.0
  0
LINE
  5
29EF
  8
AM_0
 10
259.94864037977447
 20
409.60890744089647
 30
0.0
 11
259.94864037977447
 21
424.81987744089662
 31
0.0
  0
ARC
  5
29F0
  8
AM_0
 10
261.94864037977447
 20
409.60890744089647
 30
0.0
 40
2.0
 50
180.00001000000091
 51
270.0
  0
ARC
  5
29F1
  8
AM_0
 10
257.94864037977447
 20
424.81987744089662
 30
0.0
 40
2.0
 50
0.0
 51
90.000003000000945
  0
LINE
  5
29F8
  8
AM_0
 10
302.97226037977453
 20
401.00777744089652
 30
0.0
 11
271.94864037977447
 21
401.82015744089648
 31
0.0
  0
ARC
  5
29F9
  8
AM_0
 10
266.94867037977463
 20
403.95180744089652
 30
0.0
 40
2.0
 50
180.00001000000091
 51
268.5000000000004
  0
LINE
  5
29FA
  8
AM_0
 10
271.94867037977463
 20
401.82018744089652
 30
0.0
 11
266.89633037977461
 21
401.95247744089647
 31
0.0
  0
ARC
  5
29FB
  8
AM_0
 10
262.94867037977463
 20
405.60890744089647
 30
0.0
 40
2.0
 50
0.0
 51
90.000003000000945
  0
ARC
  5
29FC
  8
AM_0
 10
306.94864037977447
 20
402.43120744089663
 30
0.0
 40
3.0
 50
179.999989999999
 51
268.50000999999878
  0
ARC
  5
29FD
  8
AM_0
 10
302.89371037977457
 20
398.00881744089662
 30
0.0
 40
3.0
 50
47.481952000001627
 51
88.499997000000747
  0
ARC
  5
29FE
  8
AM_0
 10
308.94864037977447
 20
422.69225744089641
 30
0.0
 40
5.0
 50
179.999989999999
 51
239.431710000001
  0
ARC
  5
29FF
  8
AM_0
 10
304.94864037977447
 20
426.1220674408965
 30
0.0
 40
1.0
 50
179.999989999999
 51
270.0
  0
ARC
  5
2A00
  8
AM_0
 10
308.94864037977447
 20
426.17650744089661
 30
0.0
 40
5.0
 50
179.999989999999
 51
239.431710000001
  0
LINE
  5
2A01
  8
AM_0
 10
321.94864037977447
 20
430.86852744089663
 30
0.0
 11
321.94864037977447
 21
390.10079744089671
 31
0.0
  0
ARC
  5
2A02
  8
AM_0
 10
323.94867037977463
 20
390.10079744089671
 30
0.0
 40
2.0
 50
179.999989999999
 51
268.00000999999861
  0
LINE
  5
2A03
  8
AM_0
 10
323.87881037977451
 20
388.10198744089678
 30
0.0
 11
331.94861037977449
 21
387.82018744089692
 31
0.0
  0
LINE
  5
2A04
  8
AM_0
 10
338.94861037977461
 20
460.82018744089652
 30
0.0
 11
378.94864037977459
 21
460.82018744089652
 31
0.0
  0
LINE
  5
2A05
  8
AM_0
 10
331.94864037977447
 20
402.8201874408964
 30
0.0
 11
335.94867037977463
 21
402.8201874408964
 31
0.0
  0
ARC
  5
2A06
  8
AM_0
 10
316.94864037977447
 20
409.8372174408965
 30
0.0
 40
5.0
 50
0.0
 51
59.431709000000481
  0
ARC
  5
2A07
  8
AM_0
 10
322.94864037977447
 20
406.03883744089649
 30
0.0
 40
3.0
 50
270.0
 51
0.0
  0
ARC
  5
2A08
  8
AM_0
 10
318.94864037977447
 20
396.11492744089668
 30
0.0
 40
3.0
 50
0.0
 51
88.499997000000747
  0
ARC
  5
2A09
  8
AM_0
 10
316.94864037977447
 20
406.35295744089649
 30
0.0
 40
5.0
 50
0.0
 51
59.431709000000481
  0
ARC
  5
2A0A
  8
AM_0
 10
319.94864037977447
 20
423.12206744089661
 30
0.0
 40
2.0
 50
0.0
 51
90.000003000000945
  0
ARC
  5
2A0B
  8
AM_0
 10
324.94864037977459
 20
430.86852744089663
 30
0.0
 40
3.0
 50
90.000003000000945
 51
180.00001000000091
  0
ARC
  5
2A0C
  8
AM_0
 10
335.94864037977447
 20
447.28584744089648
 30
0.0
 40
1.0
 50
272.0000000000004
 51
0.0
  0
LINE
  5
2A0D
  8
AM_0
 10
335.94867037977463
 20
446.2852674408964
 30
0.0
 11
335.98355037977461
 21
446.28649744089648
 31
0.0
  0
LINE
  5
2A0E
  8
AM_0
 10
336.94864037977447
 20
460.3202174408965
 30
0.0
 11
338.94861037977461
 21
460.3202174408965
 31
0.0
  0
LINE
  5
2A0F
  8
AM_0
 10
304.94864037977447
 20
520.51830744089648
 30
0.0
 11
319.94864037977447
 21
520.51830744089648
 31
0.0
  0
LINE
  5
2A10
  8
AM_0
 10
306.87012037977462
 20
546.20812744089665
 30
0.0
 11
319.02716037977461
 21
546.52648744089663
 31
0.0
  0
LINE
  5
2A11
  8
AM_0
 10
319.4914803797746
 20
531.49803744089661
 30
0.0
 11
306.40582037977453
 21
523.76897744089638
 31
0.0
  0
LINE
  5
2A12
  8
AM_0
 10
319.4914803797746
 20
534.98226744089675
 30
0.0
 11
306.40582037977453
 21
527.25319744089666
 31
0.0
  0
ARC
  5
2A13
  8
AM_0
 10
266.94867037977463
 20
541.6885574408966
 30
0.0
 40
2.0
 50
91.500001000001546
 51
180.00001000000091
  0
LINE
  5
2A14
  8
AM_0
 10
233.9486703797746
 20
504.7601274408965
 30
0.0
 11
264.94867037977463
 21
504.7601274408965
 31
0.0
  0
LINE
  5
2A15
  8
AM_0
 10
261.94864037977447
 20
538.03148744089651
 30
0.0
 11
262.94867037977463
 21
538.03148744089651
 31
0.0
  0
LINE
  5
2A16
  8
AM_0
 10
233.9486703797746
 20
518.82048744089661
 30
0.0
 11
264.94867037977463
 21
518.82048744089661
 31
0.0
  0
LINE
  5
2A1A
  8
AM_0
 10
259.94867037977463
 20
529.50099744089675
 30
0.0
 11
233.94870037977461
 21
528.8201874408968
 31
0.0
  0
LINE
  5
2A2C
  8
AM_0
 10
259.94864037977447
 20
536.03148744089663
 30
0.0
 11
259.94864037977447
 21
520.8204874408965
 31
0.0
  0
ARC
  5
2A2D
  8
AM_0
 10
257.94864037977447
 20
520.8204874408965
 30
0.0
 40
2.0
 50
270.0
 51
0.0
  0
ARC
  5
2A2E
  8
AM_0
 10
261.94864037977447
 20
536.03148744089663
 30
0.0
 40
2.0
 50
90.000003000000945
 51
180.00001000000091
  0
ARC
  5
2A2F
  8
AM_0
 10
262.94867037977463
 20
540.03148744089663
 30
0.0
 40
2.0
 50
270.0
 51
0.0
  0
ARC
  5
2A30
  8
AM_0
 10
308.94864037977447
 20
519.46385744089662
 30
0.0
 40
5.0
 50
120.5682899999989
 51
180.00001000000091
  0
ARC
  5
2A31
  8
AM_0
 10
308.94864037977447
 20
522.94811744089668
 30
0.0
 40
5.0
 50
120.5682899999989
 51
180.00001000000091
  0
ARC
  5
2A32
  8
AM_0
 10
304.94864037977447
 20
519.51830744089671
 30
0.0
 40
1.0
 50
90.000003000000945
 51
180.00001000000091
  0
LINE
  5
2A33
  8
AM_0
 10
302.9722303797746
 20
544.63255744089645
 30
0.0
 11
271.94864037977447
 21
543.82018744089646
 31
0.0
  0
LINE
  5
2A34
  8
AM_0
 10
271.94864037977447
 20
543.82018744089646
 30
0.0
 11
266.89633037977461
 21
543.68788744089636
 31
0.0
  0
ARC
  5
2A35
  8
AM_0
 10
302.89371037977457
 20
547.63152744089678
 30
0.0
 40
3.0
 50
271.49999999999949
 51
312.51811999999887
  0
ARC
  5
2A36
  8
AM_0
 10
306.94864037977447
 20
543.20915744089655
 30
0.0
 40
3.0
 50
91.500001000001546
 51
180.00001000000091
  0
ARC
  5
2A37
  8
AM_0
 10
322.94864037977447
 20
539.60152744089658
 30
0.0
 40
3.0
 50
0.0
 51
90.000003000000945
  0
LINE
  5
2A38
  8
AM_0
 10
321.94864037977447
 20
514.77184744089664
 30
0.0
 11
321.94864037977447
 21
555.53957744089666
 31
0.0
  0
LINE
  5
2A39
  8
AM_0
 10
346.94864037977447
 20
476.82015744089648
 30
0.0
 11
378.94864037977459
 21
476.82015744089648
 31
0.0
  0
LINE
  5
2A3A
  8
AM_0
 10
346.94864037977447
 20
468.82018744089652
 30
0.0
 11
378.94864037977459
 21
468.82018744089652
 31
0.0
  0
LINE
  5
2A3B
  8
AM_0
 10
338.94861037977461
 20
484.82018744089652
 30
0.0
 11
378.94864037977459
 21
484.82018744089652
 31
0.0
  0
ARC
  5
2A3C
  8
AM_0
 10
346.94864037977447
 20
472.82015744089648
 30
0.0
 40
3.9999962
 50
90.000003000000945
 51
270.0
  0
LINE
  5
2A3D
  8
AM_0
 10
346.94864037977447
 20
476.82015744089648
 30
0.0
 11
346.94864037977447
 21
468.82018744089652
 31
0.0
  0
LINE
  5
2A3E
  8
AM_0
 10
336.94864037977447
 20
485.32015744089648
 30
0.0
 11
338.94861037977461
 21
485.32015744089648
 31
0.0
  0
ARC
  5
2A3F
  8
AM_0
 10
335.94864037977447
 20
498.35448744089649
 30
0.0
 40
1.0
 50
0.0
 51
87.999999999999659
  0
LINE
  5
2A40
  8
AM_0
 10
335.94867037977463
 20
499.35509744089649
 30
0.0
 11
335.98352037977457
 21
499.35387744089678
 31
0.0
  0
LINE
  5
2A41
  8
AM_0
 10
331.94864037977447
 20
542.82018744089669
 30
0.0
 11
335.94867037977463
 21
542.82018744089669
 31
0.0
  0
ARC
  5
2A42
  8
AM_0
 10
324.94864037977459
 20
514.77184744089664
 30
0.0
 40
3.0
 50
179.999989999999
 51
270.0
  0
ARC
  5
2A43
  8
AM_0
 10
319.94864037977447
 20
522.51830744089671
 30
0.0
 40
2.0
 50
270.0
 51
0.0
  0
ARC
  5
2A44
  8
AM_0
 10
316.94864037977447
 20
535.80315744089671
 30
0.0
 40
5.0
 50
300.56828999999891
 51
0.0
  0
ARC
  5
2A45
  8
AM_0
 10
316.94864037977447
 20
539.28740744089657
 30
0.0
 40
5.0
 50
300.56828999999891
 51
0.0
  0
ARC
  5
2A46
  8
AM_0
 10
323.94867037977463
 20
555.53957744089666
 30
0.0
 40
2.0
 50
91.999998000000545
 51
180.00001000000091
  0
ARC
  5
2A47
  8
AM_0
 10
318.94864037977447
 20
549.52544744089664
 30
0.0
 40
3.0
 50
271.49999999999949
 51
0.0
  0
LINE
  5
2A48
  8
AM_0
 10
323.87881037977451
 20
557.53841744089664
 30
0.0
 11
331.94864037977447
 21
557.82021744089661
 31
0.0
  0
LINE
  5
2FEA
  8
AM_0
 10
131.44867037977451
 20
412.56124896771752
 30
0.0
 11
105.9486703797745
 21
412.56124896771752
 31
0.0
  0
LINE
  5
2FEB
  8
AM_0
 10
71.948670379774583
 20
538.42022194089645
 30
0.0
 11
215.44867037977471
 21
538.42022194089645
 31
0.0
  0
LINE
  5
2FEC
  8
AM_0
 10
131.44867037977451
 20
395.16782371066512
 30
0.0
 11
77.448670379774484
 21
395.16782371066512
 31
0.0
  0
LINE
  5
2FED
  8
AM_0
 10
131.4486703797744
 20
391.76022271195842
 30
0.0
 11
77.448670379774484
 21
391.76022271195842
 31
0.0
  0
LINE
  5
2FEE
  8
AM_0
 10
69.948670379774597
 20
536.42022194089679
 30
0.0
 11
69.948670379774597
 21
409.22022194089652
 31
0.0
  0
LINE
  5
2FEF
  8
AM_0
 10
72.448670379774583
 20
538.42022194089645
 30
0.0
 11
72.448670379774484
 21
407.22022194089652
 31
0.0
  0
ARC
  5
2FF0
  8
AM_0
 10
1004.634794189594
 20
472.82022194089632
 30
0.0
 40
940.68612380981915
 50
176.76392470776139
 51
183.2360752922385
  0
LINE
  5
2FF1
  8
AM_0
 10
65.448670379774597
 20
525.922089812276
 30
0.0
 11
65.448670379774455
 21
419.71835406951692
 31
0.0
  0
LINE
  5
2FF2
  8
AM_0
 10
105.9486703797745
 20
416.52942896142753
 30
0.0
 11
105.9486703797745
 21
403.67062600820162
 31
0.0
  0
LINE
  5
2FF3
  8
AM_0
 10
89.948670379774484
 20
416.52942896142753
 30
0.0
 11
89.948670379774484
 21
403.67062600820162
 31
0.0
  0
LINE
  5
2FF4
  8
AM_0
 10
101.9486703797745
 20
412.97764466970858
 30
0.0
 11
101.9486703797745
 21
403.67062600820162
 31
0.0
  0
LINE
  5
2FF5
  8
AM_0
 10
93.948670379774441
 20
412.97764466970858
 30
0.0
 11
93.948670379774441
 21
403.67062600820162
 31
0.0
  0
ARC
  5
2FF6
  8
AM_0
 10
71.948670379774583
 20
409.22022194089652
 30
0.0
 40
2.0
 50
180.0
 51
270.0
1001
GENIUS_GENOBJ-N-FIL_13
1002
{
1000
OWNER
1000
GEN
1002
}
1001
GENIUS_GENODEF_13
1002
{
1000
HIER
1070
     0
1002
}
1002
{
1000
MANEDIT
1070
     0
1002
}
1002
{
1000
NOSEL
1070
     0
1002
}
1002
{
1000
BEHIND
1070
     0
1002
}
1002
{
1000
OTHER
1070
     0
1002
}
1002
{
1000
REACTOR
1002
}
  0
LINE
  5
2FF7
  8
AM_0
 10
75.448670379774484
 20
410.56124896771752
 30
0.0
 11
75.448670379774484
 21
393.76022271195831
 31
0.0
  0
ARC
  5
2FF8
  8
AM_0
 10
77.448670379774484
 20
397.16782371066512
 30
0.0
 40
2.0
 50
180.0
 51
270.0
1001
GENIUS_GENODEF_13
1002
{
1000
HIER
1070
     0
1002
}
1002
{
1000
MANEDIT
1070
     0
1002
}
1002
{
1000
NOSEL
1070
     0
1002
}
1002
{
1000
BEHIND
1070
     0
1002
}
1002
{
1000
OTHER
1070
     0
1002
}
1002
{
1000
REACTOR
1002
}
1001
GENIUS_GENOBJ-N-FIL_13
1002
{
1000
OWNER
1000
GEN
1002
}
  0
ARC
  5
2FF9
  8
AM_0
 10
77.448670379774484
 20
393.76022271195831
 30
0.0
 40
2.0
 50
180.0
 51
270.0
1001
GENIUS_GENOBJ-N-FIL_13
1002
{
1000
OWNER
1000
GEN
1002
}
1001
GENIUS_GENODEF_13
1002
{
1000
HIER
1070
     0
1002
}
1002
{
1000
MANEDIT
1070
     0
1002
}
1002
{
1000
NOSEL
1070
     0
1002
}
1002
{
1000
BEHIND
1070
     0
1002
}
1002
{
1000
OTHER
1070
     0
1002
}
1002
{
1000
REACTOR
1002
}
  0
LINE
  5
2FFA
  8
AM_0
 10
105.9486703797745
 20
403.67062600820162
 30
0.0
 11
101.9486703797745
 21
403.67062600820162
 31
0.0
  0
LINE
  5
2FFB
  8
AM_0
 10
93.948670379774441
 20
403.67062600820162
 30
0.0
 11
89.948670379774484
 21
403.67062600820162
 31
0.0
  0
LINE
  5
2FFC
  8
AM_0
 10
89.948670379774484
 20
412.56124896771752
 30
0.0
 11
77.448670379774484
 21
412.56124896771752
 31
0.0
  0
LINE
  5
2FFD
  8
AM_0
 10
69.277398057434397
 20
415.41690844964342
 30
0.0
 11
66.119942702114685
 21
418.22353543214962
 31
0.0
  0
ARC
  5
2FFE
  8
AM_0
 10
67.948670379774597
 20
413.922089812276
 30
0.0
 40
2.0
 50
0.0
 51
48.366460663430352
1001
GENIUS_GENOBJ-N-FIL_13
1002
{
1000
OWNER
1000
GEN
1002
}
1001
GENIUS_GENODEF_13
1002
{
1000
HIER
1070
     0
1002
}
1002
{
1000
MANEDIT
1070
     0
1002
}
1002
{
1000
NOSEL
1070
     0
1002
}
1002
{
1000
BEHIND
1070
     0
1002
}
1002
{
1000
OTHER
1070
     0
1002
}
1002
{
1000
REACTOR
1002
}
  0
ARC
  5
2FFF
  8
AM_0
 10
67.44867037977447
 20
419.71835406951692
 30
0.0
 40
2.0
 50
180.0
 51
228.3664606634303
1001
GENIUS_GENODEF_13
1002
{
1000
HIER
1070
     0
1002
}
1002
{
1000
MANEDIT
1070
     0
1002
}
1002
{
1000
NOSEL
1070
     0
1002
}
1002
{
1000
BEHIND
1070
     0
1002
}
1002
{
1000
OTHER
1070
     0
1002
}
1002
{
1000
REACTOR
1002
}
1001
GENIUS_GENOBJ-N-FIL_13
1002
{
1000
OWNER
1000
GEN
1002
}
  0
LINE
  5
3000
  8
AM_0
 10
71.948670379774583
 20
407.22022194089652
 30
0.0
 11
75.448670379774484
 21
407.22022194089652
 31
0.0
  0
ARC
  5
3001
  8
AM_0
 10
77.448670379774484
 20
410.56124896771752
 30
0.0
 40
2.0
 50
90.0
 51
180.0
1001
GENIUS_GENOBJ-N-FIL_13
1002
{
1000
OWNER
1000
GEN
1002
}
1001
GENIUS_GENODEF_13
1002
{
1000
HIER
1070
     0
1002
}
1002
{
1000
MANEDIT
1070
     0
1002
}
1002
{
1000
NOSEL
1070
     0
1002
}
1002
{
1000
BEHIND
1070
     0
1002
}
1002
{
1000
OTHER
1070
     0
1002
}
1002
{
1000
REACTOR
1002
}
  0
LINE
  5
3002
  8
AM_0
 10
105.9486703797745
 20
416.52942896142753
 30
0.0
 11
89.948670379774484
 21
416.52942896142753
 31
0.0
1001
GENIUS_GENOREF_13
1005
3024
  0
LINE
  5
3003
  8
AM_0N
 10
89.948670379774484
 20
412.97764466970858
 30
0.0
 11
105.9486703797745
 21
412.97764466970858
 31
0.0
1001
GENIUS_GENOREF_13
1005
0
  0
ARC
  5
3004
  8
AM_0N
 10
96.430557462784265
 20
412.09406415947672
 30
0.0
 40
1.1999999999999991
 50
184.99999999999969
 51
246.4528627629231
1001
GENIUS_GENOREF_13
1005
0
  0
LINE
  5
3005
  8
AM_0
 10
101.9486703797745
 20
408.94668880671082
 30
0.0
 11
93.948670379774441
 21
408.94668880671082
 31
0.0
  0
LINE
  5
3006
  8
AM_0N
 10
95.235123825074183
 20
411.9894772681796
 30
0.0
 11
95.148670379774472
 21
412.97764466970858
 31
0.0
1001
GENIUS_GENOREF_13
1005
0
  0
ARC
  5
3007
  8
AM_0N
 10
99.466783296764774
 20
412.09406415947672
 30
0.0
 40
1.1999999999999991
 50
293.54713723707698
 51
355.00000000000023
1001
GENIUS_GENOREF_13
1005
0
  0
LINE
  5
3008
  8
AM_3N
  6
AM_ISO02W050X2
 10
96.448670379774484
 20
410.8079486626238
 30
0.0
 11
97.948670379774455
 21
412.69535869118272
 31
0.0
1001
GENIUS_GENOREF_13
1005
0
  0
LINE
  5
3009
  8
AM_3N
  6
AM_ISO02W050X2
 10
98.201170379774481
 20
410.58402436475961
 30
0.0
 11
98.201170379774481
 21
412.37764466970839
 31
0.0
1001
GENIUS_GENOREF_13
1005
0
  0
LINE
  5
300A
  8
AM_3N
  6
AM_ISO02W050X2
 10
97.696170379774472
 20
410.58402436475961
 30
0.0
 11
97.696170379774472
 21
412.37764466970839
 31
0.0
1001
GENIUS_GENOREF_13
1005
0
  0
LINE
  5
300B
  8
AM_3N
  6
AM_ISO02W050X2
 10
99.44867037977447
 20
410.8079486626238
 30
0.0
 11
97.948670379774455
 21
412.69535869118272
 31
0.0
1001
GENIUS_GENOREF_13
1005
0
  0
ARC
  5
300C
  8
AM_0N
 10
97.948670379774455
 20
415.57764466970872
 30
0.0
 40
5.0
 50
246.4528627629231
 51
293.54713723707698
1001
GENIUS_GENOREF_13
1005
0
  0
LINE
  5
300D
  8
AM_3N
  6
AM_ISO02W050X2
 10
98.201170379774481
 20
412.37764466970839
 30
0.0
 11
97.696170379774472
 21
412.37764466970839
 31
0.0
1001
GENIUS_GENOREF_13
1005
0
  0
LINE
  5
300E
  8
AM_0N
 10
100.6622169344748
 20
411.9894772681796
 30
0.0
 11
100.7486703797745
 21
412.97764466970858
 31
0.0
1001
GENIUS_GENOREF_13
1005
0
  0
ARC
  5
300F
  8
AM_0
 10
71.948670379774583
 20
536.42022194089679
 30
0.0
 40
2.0
 50
90.0
 51
180.0
1001
GENIUS_GENOBJ-N-FIL_13
1002
{
1000
OWNER
1000
GEN
1002
}
1001
GENIUS_GENODEF_13
1002
{
1000
HIER
1070
     0
1002
}
1002
{
1000
MANEDIT
1070
     0
1002
}
1002
{
1000
NOSEL
1070
     0
1002
}
1002
{
1000
BEHIND
1070
     0
1002
}
1002
{
1000
OTHER
1070
     0
1002
}
1002
{
1000
REACTOR
1002
}
  0
LINE
  5
3010
  8
AM_0
 10
54.44867037977459
 20
489.8202219408966
 30
0.0
 11
54.448670379774491
 21
455.8202219408966
 31
0.0
  0
LINE
  5
3011
  8
AM_0
 10
57.448670379774477
 20
452.82022194089649
 30
0.0
 11
64.161305180816683
 21
452.82022194089649
 31
0.0
  0
ARC
  5
3012
  8
AM_0
 10
57.448670379774477
 20
455.8202219408966
 30
0.0
 40
3.0
 50
180.0
 51
270.0
1001
GENIUS_GENODEF_13
1002
{
1000
HIER
1070
     0
1002
}
1002
{
1000
MANEDIT
1070
     0
1002
}
1002
{
1000
NOSEL
1070
     0
1002
}
1002
{
1000
BEHIND
1070
     0
1002
}
1002
{
1000
OTHER
1070
     0
1002
}
1002
{
1000
REACTOR
1002
}
1001
GENIUS_GENOBJ-N-FIL_13
1002
{
1000
OWNER
1000
GEN
1002
}
  0
LINE
  5
3013
  8
AM_0
 10
57.448670379774597
 20
492.8202219408966
 30
0.0
 11
64.161305180816683
 21
492.8202219408966
 31
0.0
  0
ARC
  5
3014
  8
AM_0
 10
57.448670379774597
 20
489.8202219408966
 30
0.0
 40
3.0
 50
90.0
 51
180.0
1001
GENIUS_GENOBJ-N-FIL_13
1002
{
1000
OWNER
1000
GEN
1002
}
1001
GENIUS_GENODEF_13
1002
{
1000
HIER
1070
     0
1002
}
1002
{
1000
MANEDIT
1070
     0
1002
}
1002
{
1000
NOSEL
1070
     0
1002
}
1002
{
1000
BEHIND
1070
     0
1002
}
1002
{
1000
OTHER
1070
     0
1002
}
1002
{
1000
REACTOR
1002
}
  0
ARC
  5
3015
  8
AM_0
 10
67.448670379774597
 20
525.922089812276
 30
0.0
 40
2.0
 50
131.63353933656961
 51
180.0
1001
GENIUS_GENODEF_13
1002
{
1000
HIER
1070
     0
1002
}
1002
{
1000
MANEDIT
1070
     0
1002
}
1002
{
1000
NOSEL
1070
     0
1002
}
1002
{
1000
BEHIND
1070
     0
1002
}
1002
{
1000
OTHER
1070
     0
1002
}
1002
{
1000
REACTOR
1002
}
1001
GENIUS_GENOBJ-N-FIL_13
1002
{
1000
OWNER
1000
GEN
1002
}
  0
ARC
  5
3016
  8
AM_0
 10
67.948670379774597
 20
531.71835406951709
 30
0.0
 40
2.0
 50
311.63353933656958
 51
0.0
1001
GENIUS_GENOBJ-N-FIL_13
1002
{
1000
OWNER
1000
GEN
1002
}
1001
GENIUS_GENODEF_13
1002
{
1000
HIER
1070
     0
1002
}
1002
{
1000
MANEDIT
1070
     0
1002
}
1002
{
1000
NOSEL
1070
     0
1002
}
1002
{
1000
BEHIND
1070
     0
1002
}
1002
{
1000
OTHER
1070
     0
1002
}
1002
{
1000
REACTOR
1002
}
  0
LINE
  5
3017
  8
AM_0
 10
69.277398057434397
 20
530.22353543214967
 30
0.0
 11
66.119942702114685
 21
527.41690844964342
 31
0.0
  0
LINE
  5
3018
  8
AM_0
 10
226.9486703797746
 20
538.82022194089654
 30
0.0
 11
226.9486703797746
 21
406.82022194089649
 31
0.0
  0
LINE
  5
3019
  8
AM_0
 10
215.4486703797746
 20
538.82022194089654
 30
0.0
 11
215.4486703797746
 21
406.82022194089649
 31
0.0
  0
LINE
  5
301A
  8
AM_0
 10
133.44867037977451
 20
407.22022194089652
 30
0.0
 11
215.4486703797746
 21
407.22022194089652
 31
0.0
  0
LINE
  5
301B
  8
AM_0
 10
133.44867037977451
 20
410.56124896771752
 30
0.0
 11
133.4486703797744
 21
393.76022271195831
 31
0.0
  0
ARC
  5
301C
  8
AM_0
 10
131.44867037977451
 20
397.16782371066512
 30
0.0
 40
2.0
 50
270.0
 51
0.0
1001
GENIUS_GENOBJ-N-FIL_13
1002
{
1000
OWNER
1000
GEN
1002
}
1001
GENIUS_GENODEF_13
1002
{
1000
HIER
1070
     0
1002
}
1002
{
1000
MANEDIT
1070
     0
1002
}
1002
{
1000
NOSEL
1070
     0
1002
}
1002
{
1000
BEHIND
1070
     0
1002
}
1002
{
1000
OTHER
1070
     0
1002
}
1002
{
1000
REACTOR
1002
}
  0
ARC
  5
301D
  8
AM_0
 10
131.4486703797744
 20
393.76022271195831
 30
0.0
 40
2.0
 50
270.0
 51
0.0
1001
GENIUS_GENOBJ-N-FIL_13
1002
{
1000
OWNER
1000
GEN
1002
}
1001
GENIUS_GENODEF_13
1002
{
1000
HIER
1070
     0
1002
}
1002
{
1000
MANEDIT
1070
     0
1002
}
1002
{
1000
NOSEL
1070
     0
1002
}
1002
{
1000
BEHIND
1070
     0
1002
}
1002
{
1000
OTHER
1070
     0
1002
}
1002
{
1000
REACTOR
1002
}
  0
ARC
  5
301E
  8
AM_0
 10
131.44867037977451
 20
410.56124896771752
 30
0.0
 40
2.0
 50
0.0
 51
90.0
1001
GENIUS_GENODEF_13
1002
{
1000
HIER
1070
     0
1002
}
1002
{
1000
MANEDIT
1070
     0
1002
}
1002
{
1000
NOSEL
1070
     0
1002
}
1002
{
1000
BEHIND
1070
     0
1002
}
1002
{
1000
OTHER
1070
     0
1002
}
1002
{
1000
REACTOR
1002
}
1001
GENIUS_GENOBJ-N-FIL_13
1002
{
1000
OWNER
1000
GEN
1002
}
  0
LINE
  5
301F
  8
AM_0
 10
233.9486703797746
 20
409.8202219408966
 30
0.0
 11
226.9486703797746
 21
406.82022194089649
 31
0.0
  0
LINE
  5
3020
  8
AM_0
 10
215.4486703797746
 20
406.82022194089649
 30
0.0
 11
226.9486703797746
 21
406.82022194089649
 31
0.0
  0
LINE
  5
3021
  8
AM_0
 10
226.9486703797746
 20
538.82022194089654
 30
0.0
 11
233.9486703797746
 21
535.82022194089654
 31
0.0
  0
LINE
  5
3022
  8
AM_0
 10
215.4486703797746
 20
538.82022194089654
 30
0.0
 11
226.9486703797746
 21
538.82022194089654
 31
0.0
  0
LINE
  5
3023
  8
AM_0
 10
233.9486703797746
 20
535.82022194089654
 30
0.0
 11
233.9486703797746
 21
409.8202219408966
 31
0.0
  0
POINT
  5
3024
  8
0
 10
-51.925568221533851
 20
-38.920839426133632
 30
0.0
1001
GENIUS_GENOLIS_13
1002
{
1000
ENT
1005
0
1005
0
1005
0
1005
3002
1002
}
1001
GENIUS_GENOENT_13
1002
{
1000
MYREF
1005
3024
1002
}
1002
{
1000
GRP
1005
0
1002
}
1001
GENIUS_GENOBJ-NBEHI-BHB_13
1002
{
1000
OWNER
1000
genbehi
1002
}
1001
GENIUS_GENBH_13
1002
{
1000
FGO
1005
0
1002
}
1001
GENIUS_GENODEF_13
1002
{
1000
HIER
1070
     1
1002
}
1002
{
1000
MANEDIT
1070
     1
1002
}
1002
{
1000
NOSEL
1070
     1
1002
}
1002
{
1000
BEHIND
1070
     0
1002
}
1002
{
1000
OTHER
1070
     1
1002
}
1002
{
1000
REACTOR
1002
}
  0
LINE
  5
32E4
  8
AM_0
 10
346.94860037977452
 20
262.07190451306502
 30
0.0
 11
378.94864037977447
 21
262.07190451306502
 31
0.0
  0
LINE
  5
32E5
  8
AM_0
 10
338.94859037977449
 20
259.07190451306502
 30
0.0
 11
378.94864037977447
 21
259.07190451306502
 31
0.0
  0
LINE
  5
32E6
  8
AM_0
 10
338.94859037977449
 20
235.07190451306499
 30
0.0
 11
378.94864037977447
 21
235.07190451306499
 31
0.0
  0
LINE
  5
32E7
  8
ﾁｭｳｼﾝｾﾝ1
 10
382.66111037977453
 20
247.07190451306499
 30
0.0
 11
250.9989776830802
 21
247.07190451306499
 31
0.0
  0
ARC
  5
32E8
  8
AM_0
 10
1004.6347741895941
 20
227.07192601306471
 30
0.0
 40
940.68612380981915
 50
176.76392470776159
 51
183.2360752922383
  0
LINE
  5
32E9
  8
AM_0
 10
65.448650379774435
 20
280.17379388444442
 30
0.0
 11
65.448650379774435
 21
173.97005814168551
 31
0.0
  0
LINE
  5
32EA
  8
AM_0
 10
69.948650379774563
 20
290.6719260130651
 30
0.0
 11
69.948650379774449
 21
163.47192601306489
 31
0.0
  0
LINE
  5
32EB
  8
AM_0
 10
72.448650379774449
 20
292.67192601306488
 30
0.0
 11
72.448650379774449
 21
161.47192601306489
 31
0.0
  0
LINE
  5
32EC
  8
AM_0
 10
226.94865037977439
 20
293.07192601306508
 30
0.0
 11
226.94865037977439
 21
161.07192601306491
 31
0.0
  0
LINE
  5
32ED
  8
AM_0
 10
215.44865037977451
 20
293.07192601306508
 30
0.0
 11
215.44865037977439
 21
161.07192601306491
 31
0.0
  0
ARC
  5
32F1
  8
AM_0
 10
262.94860037977452
 20
280.73905051306502
 30
0.0
 40
2.00000007
 50
270.0
 51
0.0
  0
ARC
  5
32F2
  8
AM_0
 10
261.9486703797744
 20
276.7390185130651
 30
0.0
 40
2.00000007
 50
90.00000299999769
 51
180.00000999999941
  0
LINE
  5
32F3
  8
AM_0
 10
325.94860037977452
 20
182.790529513065
 30
0.0
 11
325.94860037977452
 21
313.85322151306508
 31
0.0
  0
LINE
  5
32F4
  8
AM_0
 10
303.94864037977459
 20
311.145871513065
 30
0.0
 11
303.94864037977459
 21
265.91675551306503
 31
0.0
  0
LINE
  5
32F5
  8
AM_0
 10
331.94860037977452
 20
164.571856513065
 30
0.0
 11
331.94860037977452
 21
332.071891513065
 31
0.0
  0
LINE
  5
32F6
  8
AM_0
 10
332.66086037977448
 20
279.302527513065
 30
0.0
 11
335.94862037977452
 21
275.38431451306502
 31
0.0
  0
LINE
  5
32F7
  8
AM_0
 10
271.94860037977452
 20
298.07190751306501
 30
0.0
 11
271.94860037977452
 21
153.57187051306499
 31
0.0
  0
LINE
  5
32F8
  8
AM_0
 10
233.94865037977439
 20
164.07192601306491
 30
0.0
 11
233.94865037977439
 21
290.07192601306491
 31
0.0
  0
LINE
  5
32F9
  8
AM_0
 10
91.948650379774477
 20
261.07192601306502
 30
0.0
 11
103.94865037977451
 21
261.07192601306502
 31
0.0
1001
GENIUS_GENOREF_13
1005
34C4
  0
LINE
  5
32FA
  8
AM_0
 10
76.448650379774449
 20
253.071926013065
 30
0.0
 11
132.44865037977451
 21
253.071926013065
 31
0.0
1001
GENIUS_GENOREF_13
1005
34C4
  0
LINE
  5
32FB
  8
AM_0
 10
91.948650379774477
 20
199.07192601306491
 30
0.0
 11
103.94865037977451
 21
199.07192601306491
 31
0.0
  0
LINE
  5
32FC
  8
AM_0
 10
98.448650379774406
 20
187.57192601306491
 30
0.0
 11
119.44865037977451
 21
187.57192601306491
 31
0.0
  0
LINE
  5
32FD
  8
AM_0
 10
98.448650379774406
 20
193.071926013065
 30
0.0
 11
119.44865037977451
 21
193.071926013065
 31
0.0
  0
LINE
  5
32FE
  8
AM_0
 10
98.448650379774406
 20
167.37192601306489
 30
0.0
 11
119.44865037977451
 21
167.37192601306489
 31
0.0
  0
LINE
  5
32FF
  8
AM_0
 10
98.448650379774406
 20
164.77192601306501
 30
0.0
 11
119.44865037977451
 21
164.77192601306501
 31
0.0
  0
LINE
  5
3300
  8
AM_0
 10
98.448650379774406
 20
170.87192601306489
 30
0.0
 11
119.44865037977451
 21
170.87192601306489
 31
0.0
  0
LINE
  5
3301
  8
AM_0
 10
98.448650379774406
 20
175.17192601306499
 30
0.0
 11
119.44865037977451
 21
175.17192601306499
 31
0.0
  0
LINE
  5
3302
  8
AM_0
 10
98.448650379774406
 20
183.87192601306489
 30
0.0
 11
119.44865037977451
 21
183.87192601306501
 31
0.0
  0
LINE
  5
3303
  8
AM_0
 10
98.448650379774406
 20
178.67192601306499
 30
0.0
 11
119.44865037977451
 21
178.67192601306499
 31
0.0
  0
LINE
  5
3304
  8
AM_0
 10
71.948650379774449
 20
161.47192601306489
 30
0.0
 11
119.44865037977451
 21
161.47192601306489
 31
0.0
  0
LINE
  5
3305
  8
AM_0
 10
76.448650379774449
 20
207.071926013065
 30
0.0
 11
132.44865037977451
 21
207.071926013065
 31
0.0
  0
LINE
  5
3306
  8
ﾁｭｳｼﾝｾﾝ1
 10
50.320532023922972
 20
227.07188851306501
 30
0.0
 11
258.52160151722899
 21
227.07188851306501
 31
0.0
  0
LINE
  5
3307
  8
AM_0
 10
97.448650379774406
 20
192.07192601306491
 30
0.0
 11
97.448650379774406
 21
188.57192601306491
 31
0.0
  0
LINE
  5
3308
  8
AM_0
 10
69.277378057434362
 20
169.66861252181181
 30
0.0
 11
66.11992270211465
 21
172.4752395043181
 31
0.0
  0
ARC
  5
3309
  8
AM_0
 10
67.448650379774449
 20
173.97005814168551
 30
0.0
 40
2.0
 50
180.0
 51
228.36646066343141
1001
GENIUS_GENODEF_13
1002
{
1000
HIER
1070
     0
1002
}
1002
{
1000
MANEDIT
1070
     0
1002
}
1002
{
1000
NOSEL
1070
     0
1002
}
1002
{
1000
BEHIND
1070
     0
1002
}
1002
{
1000
OTHER
1070
     0
1002
}
1002
{
1000
REACTOR
1002
}
1001
GENIUS_GENOBJ-N-FIL_13
1002
{
1000
OWNER
1000
GEN
1002
}
  0
ARC
  5
330A
  8
AM_0
 10
67.948650379774435
 20
168.17379388444439
 30
0.0
 40
2.0
 50
0.0
 51
48.366460663431418
1001
GENIUS_GENOBJ-N-FIL_13
1002
{
1000
OWNER
1000
GEN
1002
}
1001
GENIUS_GENODEF_13
1002
{
1000
HIER
1070
     0
1002
}
1002
{
1000
MANEDIT
1070
     0
1002
}
1002
{
1000
NOSEL
1070
     0
1002
}
1002
{
1000
BEHIND
1070
     0
1002
}
1002
{
1000
OTHER
1070
     0
1002
}
1002
{
1000
REACTOR
1002
}
  0
ARC
  5
330B
  8
AM_0
 10
71.948650379774449
 20
163.47192601306489
 30
0.0
 40
2.0
 50
180.0
 51
270.0
1001
GENIUS_GENOBJ-N-FIL_13
1002
{
1000
OWNER
1000
GEN
1002
}
1001
GENIUS_GENODEF_13
1002
{
1000
HIER
1070
     0
1002
}
1002
{
1000
MANEDIT
1070
     0
1002
}
1002
{
1000
NOSEL
1070
     0
1002
}
1002
{
1000
BEHIND
1070
     0
1002
}
1002
{
1000
OTHER
1070
     0
1002
}
1002
{
1000
REACTOR
1002
}
  0
ARC
  5
330C
  8
AM_0
 10
98.448650379774406
 20
166.37192601306489
 30
0.0
 40
1.0
 50
90.0
 51
180.0
1001
GENIUS_GENOBJ-N-FIL_13
1002
{
1000
OWNER
1000
GEN
1002
}
1001
GENIUS_GENODEF_13
1002
{
1000
HIER
1070
     0
1002
}
1002
{
1000
MANEDIT
1070
     0
1002
}
1002
{
1000
NOSEL
1070
     0
1002
}
1002
{
1000
BEHIND
1070
     0
1002
}
1002
{
1000
OTHER
1070
     0
1002
}
1002
{
1000
REACTOR
1002
}
  0
LINE
  5
330D
  8
AM_0
 10
97.448650379774435
 20
166.37192601306489
 30
0.0
 11
97.448650379774406
 21
165.77192601306501
 31
0.0
  0
ARC
  5
330E
  8
AM_0
 10
98.448650379774406
 20
165.77192601306501
 30
0.0
 40
1.0
 50
180.0
 51
270.0
1001
GENIUS_GENODEF_13
1002
{
1000
HIER
1070
     0
1002
}
1002
{
1000
MANEDIT
1070
     0
1002
}
1002
{
1000
NOSEL
1070
     0
1002
}
1002
{
1000
BEHIND
1070
     0
1002
}
1002
{
1000
OTHER
1070
     0
1002
}
1002
{
1000
REACTOR
1002
}
1001
GENIUS_GENOBJ-N-FIL_13
1002
{
1000
OWNER
1000
GEN
1002
}
  0
LINE
  5
330F
  8
AM_0
 10
97.448650379774406
 20
182.87192601306489
 30
0.0
 11
97.448650379774406
 21
179.67192601306499
 31
0.0
  0
ARC
  5
3310
  8
AM_0
 10
98.448650379774406
 20
179.67192601306499
 30
0.0
 40
1.0
 50
180.0
 51
270.0
1001
GENIUS_GENOBJ-N-FIL_13
1002
{
1000
OWNER
1000
GEN
1002
}
1001
GENIUS_GENODEF_13
1002
{
1000
HIER
1070
     0
1002
}
1002
{
1000
MANEDIT
1070
     0
1002
}
1002
{
1000
NOSEL
1070
     0
1002
}
1002
{
1000
BEHIND
1070
     0
1002
}
1002
{
1000
OTHER
1070
     0
1002
}
1002
{
1000
REACTOR
1002
}
  0
ARC
  5
3311
  8
AM_0
 10
98.448650379774406
 20
171.87192601306489
 30
0.0
 40
1.0
 50
180.0
 51
270.0
1001
GENIUS_GENOBJ-N-FIL_13
1002
{
1000
OWNER
1000
GEN
1002
}
1001
GENIUS_GENODEF_13
1002
{
1000
HIER
1070
     0
1002
}
1002
{
1000
MANEDIT
1070
     0
1002
}
1002
{
1000
NOSEL
1070
     0
1002
}
1002
{
1000
BEHIND
1070
     0
1002
}
1002
{
1000
OTHER
1070
     0
1002
}
1002
{
1000
REACTOR
1002
}
  0
ARC
  5
3312
  8
AM_0
 10
98.448650379774406
 20
174.17192601306499
 30
0.0
 40
1.0
 50
90.0
 51
180.0
1001
GENIUS_GENODEF_13
1002
{
1000
HIER
1070
     0
1002
}
1002
{
1000
MANEDIT
1070
     0
1002
}
1002
{
1000
NOSEL
1070
     0
1002
}
1002
{
1000
BEHIND
1070
     0
1002
}
1002
{
1000
OTHER
1070
     0
1002
}
1002
{
1000
REACTOR
1002
}
1001
GENIUS_GENOBJ-N-FIL_13
1002
{
1000
OWNER
1000
GEN
1002
}
  0
LINE
  5
3313
  8
AM_0
 10
97.448650379774406
 20
174.17192601306499
 30
0.0
 11
97.448650379774406
 21
171.87192601306489
 31
0.0
  0
ARC
  5
3314
  8
AM_0
 10
98.448650379774406
 20
188.57192601306491
 30
0.0
 40
1.0
 50
180.0
 51
270.0
1001
GENIUS_GENODEF_13
1002
{
1000
HIER
1070
     0
1002
}
1002
{
1000
MANEDIT
1070
     0
1002
}
1002
{
1000
NOSEL
1070
     0
1002
}
1002
{
1000
BEHIND
1070
     0
1002
}
1002
{
1000
OTHER
1070
     0
1002
}
1002
{
1000
REACTOR
1002
}
1001
GENIUS_GENOBJ-N-FIL_13
1002
{
1000
OWNER
1000
GEN
1002
}
  0
ARC
  5
3315
  8
AM_0
 10
98.448650379774406
 20
182.87192601306489
 30
0.0
 40
1.0
 50
90.0
 51
180.0
1001
GENIUS_GENODEF_13
1002
{
1000
HIER
1070
     0
1002
}
1002
{
1000
MANEDIT
1070
     0
1002
}
1002
{
1000
NOSEL
1070
     0
1002
}
1002
{
1000
BEHIND
1070
     0
1002
}
1002
{
1000
OTHER
1070
     0
1002
}
1002
{
1000
REACTOR
1002
}
1001
GENIUS_GENOBJ-N-FIL_13
1002
{
1000
OWNER
1000
GEN
1002
}
  0
LINE
  5
3316
  8
AM_0
 10
54.44865037977447
 20
244.07192601306491
 30
0.0
 11
54.44865037977447
 21
210.071926013065
 31
0.0
  0
LINE
  5
3317
  8
AM_0
 10
75.448650379774435
 20
252.071926013065
 30
0.0
 11
75.448650379774435
 21
208.071926013065
 31
0.0
  0
LINE
  5
3318
  8
AM_0
 10
57.448650379774449
 20
207.071926013065
 30
0.0
 11
64.161285180816662
 21
207.071926013065
 31
0.0
  0
ARC
  5
3319
  8
AM_0
 10
57.448650379774449
 20
210.071926013065
 30
0.0
 40
3.0
 50
180.0
 51
270.0
1001
GENIUS_GENODEF_13
1002
{
1000
HIER
1070
     0
1002
}
1002
{
1000
MANEDIT
1070
     0
1002
}
1002
{
1000
NOSEL
1070
     0
1002
}
1002
{
1000
BEHIND
1070
     0
1002
}
1002
{
1000
OTHER
1070
     0
1002
}
1002
{
1000
REACTOR
1002
}
1001
GENIUS_GENOBJ-N-FIL_13
1002
{
1000
OWNER
1000
GEN
1002
}
  0
ARC
  5
331A
  8
AM_0
 10
76.448650379774449
 20
208.071926013065
 30
0.0
 40
1.0
 50
180.0
 51
270.0
1001
GENIUS_GENOBJ-N-FIL_13
1002
{
1000
OWNER
1000
GEN
1002
}
1001
GENIUS_GENODEF_13
1002
{
1000
HIER
1070
     0
1002
}
1002
{
1000
MANEDIT
1070
     0
1002
}
1002
{
1000
NOSEL
1070
     0
1002
}
1002
{
1000
BEHIND
1070
     0
1002
}
1002
{
1000
OTHER
1070
     0
1002
}
1002
{
1000
REACTOR
1002
}
  0
LINE
  5
331B
  8
AM_0N
 10
97.696150379774522
 20
201.59333081829391
 30
0.0
 11
97.696150379774522
 21
202.81942601306491
 31
0.0
  0
LINE
  5
331C
  8
AM_0N
 10
98.201150379774504
 20
201.59333081829391
 30
0.0
 11
98.201150379774504
 21
202.81942601306491
 31
0.0
  0
LINE
  5
331D
  8
AM_0
 10
89.948650379774492
 20
201.071926013065
 30
0.0
 11
89.948650379774492
 21
207.071926013065
 31
0.0
  0
LINE
  5
331E
  8
AM_0
 10
93.948650379774477
 20
199.07192601306491
 30
0.0
 11
93.948650379774477
 21
207.071926013065
 31
0.0
  0
CIRCLE
  5
331F
  8
AM_0N
 10
97.94865037977452
 20
203.071926013065
 30
0.0
 40
2.799999999999998
  0
ARC
  5
3320
  8
AM_0
 10
91.948650379774477
 20
201.071926013065
 30
0.0
 40
2.0
 50
180.0
 51
270.0
1001
GENIUS_GENOBJ-N-FIL_13
1002
{
1000
OWNER
1000
GEN
1002
}
1001
GENIUS_GENODEF_13
1002
{
1000
HIER
1070
     0
1002
}
1002
{
1000
MANEDIT
1070
     0
1002
}
1002
{
1000
NOSEL
1070
     0
1002
}
1002
{
1000
BEHIND
1070
     0
1002
}
1002
{
1000
OTHER
1070
     0
1002
}
1002
{
1000
REACTOR
1002
}
  0
LINE
  5
3321
  8
AM_0N
 10
97.696150379774522
 20
201.59333081829391
 30
0.0
 11
98.201150379774504
 21
201.59333081829391
 31
0.0
  0
ARC
  5
3322
  8
AM_0
 10
98.448650379774406
 20
192.07192601306491
 30
0.0
 40
1.0
 50
90.0
 51
180.0
1001
GENIUS_GENODEF_13
1002
{
1000
HIER
1070
     0
1002
}
1002
{
1000
MANEDIT
1070
     0
1002
}
1002
{
1000
NOSEL
1070
     0
1002
}
1002
{
1000
BEHIND
1070
     0
1002
}
1002
{
1000
OTHER
1070
     0
1002
}
1002
{
1000
REACTOR
1002
}
1001
GENIUS_GENOBJ-N-FIL_13
1002
{
1000
OWNER
1000
GEN
1002
}
  0
LINE
  5
3323
  8
AM_0N
 10
97.696150379774522
 20
203.32442601306499
 30
0.0
 11
96.470055185003432
 21
203.32442601306499
 31
0.0
  0
LINE
  5
3324
  8
AM_0N
 10
97.696150379774522
 20
202.81942601306491
 30
0.0
 11
96.470055185003432
 21
202.81942601306491
 31
0.0
  0
LINE
  5
3325
  8
AM_0N
 10
96.470055185003432
 20
203.32442601306499
 30
0.0
 11
96.470055185003432
 21
202.81942601306491
 31
0.0
  0
LINE
  5
3326
  8
AM_0N
 10
98.201150379774504
 20
203.32442601306499
 30
0.0
 11
98.201150379774504
 21
204.550521207836
 31
0.0
  0
LINE
  5
3327
  8
AM_0N
 10
97.696150379774522
 20
203.32442601306499
 30
0.0
 11
97.696150379774522
 21
204.550521207836
 31
0.0
  0
LINE
  5
3328
  8
AM_0N
 10
99.427245574545552
 20
203.32442601306499
 30
0.0
 11
99.427245574545552
 21
202.81942601306491
 31
0.0
  0
LINE
  5
3329
  8
AM_0N
 10
99.427245574545552
 20
203.32442601306499
 30
0.0
 11
98.201150379774504
 21
203.32442601306499
 31
0.0
  0
LINE
  5
332A
  8
AM_0N
 10
99.427245574545552
 20
202.81942601306491
 30
0.0
 11
98.201150379774504
 21
202.81942601306491
 31
0.0
  0
LINE
  5
332B
  8
AM_0N
 10
97.696150379774522
 20
204.550521207836
 30
0.0
 11
98.201150379774504
 21
204.550521207836
 31
0.0
  0
ARC
  5
332C
  8
AM_0
 10
57.448650379774449
 20
244.07192601306491
 30
0.0
 40
3.0
 50
90.0
 51
180.0
1001
GENIUS_GENOBJ-N-FIL_13
1002
{
1000
OWNER
1000
GEN
1002
}
1001
GENIUS_GENODEF_13
1002
{
1000
HIER
1070
     0
1002
}
1002
{
1000
MANEDIT
1070
     0
1002
}
1002
{
1000
NOSEL
1070
     0
1002
}
1002
{
1000
BEHIND
1070
     0
1002
}
1002
{
1000
OTHER
1070
     0
1002
}
1002
{
1000
REACTOR
1002
}
  0
LINE
  5
332D
  8
AM_0
 10
57.448650379774449
 20
247.071926013065
 30
0.0
 11
64.161285180816662
 21
247.071926013065
 31
0.0
  0
LINE
  5
332E
  8
AM_0N
 10
96.470055185003432
 20
256.81942601306491
 30
0.0
 11
96.470055185003432
 21
257.32442601306502
 31
0.0
1001
GENIUS_GENOREF_13
1005
0
  0
LINE
  5
332F
  8
AM_0N
 10
99.427245574545552
 20
256.81942601306491
 30
0.0
 11
99.427245574545552
 21
257.32442601306502
 31
0.0
1001
GENIUS_GENOREF_13
1005
0
  0
LINE
  5
3330
  8
AM_0
 10
93.948650379774477
 20
261.07192601306502
 30
0.0
 11
93.948650379774477
 21
253.071926013065
 31
0.0
  0
LINE
  5
3331
  8
AM_0
 10
89.948650379774492
 20
259.07192601306502
 30
0.0
 11
89.948650379774492
 21
253.071926013065
 31
0.0
  0
CIRCLE
  5
3332
  8
AM_0N
 10
97.94865037977452
 20
257.07192601306502
 30
0.0
 40
2.799999999999998
1001
GENIUS_GENOREF_13
1005
0
  0
ARC
  5
3333
  8
AM_0
 10
76.448650379774449
 20
252.071926013065
 30
0.0
 40
1.0
 50
90.0
 51
180.0
1001
GENIUS_GENODEF_13
1002
{
1000
HIER
1070
     0
1002
}
1002
{
1000
MANEDIT
1070
     0
1002
}
1002
{
1000
NOSEL
1070
     0
1002
}
1002
{
1000
BEHIND
1070
     0
1002
}
1002
{
1000
OTHER
1070
     0
1002
}
1002
{
1000
REACTOR
1002
}
1001
GENIUS_GENOBJ-N-FIL_13
1002
{
1000
OWNER
1000
GEN
1002
}
  0
LINE
  5
3334
  8
AM_0N
 10
97.696150379774522
 20
256.81942601306491
 30
0.0
 11
96.470055185003432
 21
256.81942601306491
 31
0.0
1001
GENIUS_GENOREF_13
1005
0
  0
LINE
  5
3335
  8
AM_0N
 10
97.696150379774522
 20
256.81942601306491
 30
0.0
 11
97.696150379774522
 21
255.59333081829391
 31
0.0
1001
GENIUS_GENOREF_13
1005
0
  0
LINE
  5
3336
  8
AM_0N
 10
98.201150379774504
 20
256.81942601306491
 30
0.0
 11
98.201150379774504
 21
255.59333081829391
 31
0.0
1001
GENIUS_GENOREF_13
1005
0
  0
LINE
  5
3337
  8
AM_0N
 10
97.696150379774522
 20
255.59333081829391
 30
0.0
 11
98.201150379774504
 21
255.59333081829391
 31
0.0
1001
GENIUS_GENOREF_13
1005
0
  0
LINE
  5
3338
  8
AM_0N
 10
99.427245574545552
 20
256.81942601306491
 30
0.0
 11
98.201150379774504
 21
256.81942601306491
 31
0.0
1001
GENIUS_GENOREF_13
1005
0
  0
ARC
  5
3339
  8
AM_0
 10
91.948650379774477
 20
259.07192601306502
 30
0.0
 40
2.0
 50
90.0
 51
180.0
1001
GENIUS_GENOBJ-N-FIL_13
1002
{
1000
OWNER
1000
GEN
1002
}
1001
GENIUS_GENODEF_13
1002
{
1000
HIER
1070
     0
1002
}
1002
{
1000
MANEDIT
1070
     0
1002
}
1002
{
1000
NOSEL
1070
     0
1002
}
1002
{
1000
BEHIND
1070
     0
1002
}
1002
{
1000
OTHER
1070
     0
1002
}
1002
{
1000
REACTOR
1002
}
  0
LINE
  5
333A
  8
AM_0N
 10
97.696150379774522
 20
257.32442601306502
 30
0.0
 11
96.470055185003432
 21
257.32442601306502
 31
0.0
1001
GENIUS_GENOREF_13
1005
0
  0
LINE
  5
333B
  8
AM_0N
 10
98.201150379774504
 20
258.55052120783603
 30
0.0
 11
98.201150379774504
 21
257.32442601306502
 31
0.0
1001
GENIUS_GENOREF_13
1005
0
  0
LINE
  5
333C
  8
AM_0N
 10
97.696150379774522
 20
258.55052120783603
 30
0.0
 11
97.696150379774522
 21
257.32442601306502
 31
0.0
1001
GENIUS_GENOREF_13
1005
0
  0
LINE
  5
333D
  8
AM_0N
 10
99.427245574545552
 20
257.32442601306502
 30
0.0
 11
98.201150379774504
 21
257.32442601306502
 31
0.0
1001
GENIUS_GENOREF_13
1005
0
  0
LINE
  5
333E
  8
AM_0N
 10
97.696150379774522
 20
258.55052120783603
 30
0.0
 11
98.201150379774504
 21
258.55052120783603
 31
0.0
1001
GENIUS_GENOREF_13
1005
0
  0
LINE
  5
333F
  8
AM_0
 10
233.94865037977439
 20
181.07188651306501
 30
0.0
 11
264.9486703797744
 21
181.07188651306501
 31
0.0
  0
LINE
  5
3340
  8
AM_0
 10
233.94865037977439
 20
195.13486051306501
 30
0.0
 11
264.9486703797744
 21
195.13486051306501
 31
0.0
  0
LINE
  5
3341
  8
AM_0
 10
233.94865037977439
 20
259.00888651306502
 30
0.0
 11
259.9486003797744
 21
259.00888651306502
 31
0.0
  0
LINE
  5
3342
  8
AM_0
 10
233.94865037977439
 20
273.07187551306498
 30
0.0
 11
259.9486003797744
 21
273.07187551306498
 31
0.0
  0
LINE
  5
3343
  8
AM_0
 10
233.94865037977439
 20
171.07187251306499
 30
0.0
 11
257.02714037977438
 21
170.467546513065
 31
0.0
  0
LINE
  5
3344
  8
AM_0
 10
205.44865037977439
 20
192.07192601306491
 30
0.0
 11
205.44865037977439
 21
188.57192601306491
 31
0.0
  0
LINE
  5
3345
  8
AM_0
 10
180.44865037977439
 20
192.07192601306491
 30
0.0
 11
180.44865037977439
 21
188.57192601306491
 31
0.0
  0
LINE
  5
3347
  8
ﾁｭｳｼﾝｾﾝ
 10
123.44865037977451
 20
208.3922972214319
 30
0.0
 11
123.44865037977451
 21
102.5036579702208
 31
0.0
  0
LINE
  5
3349
  8
AM_0
 10
125.6565172802067
 20
207.071926013065
 30
0.0
 11
125.4396623797744
 21
119.1530920128983
 31
0.0
  0
LINE
  5
334A
  8
AM_0
 10
121.44865037977451
 20
207.07192601306491
 30
0.0
 11
121.44865037977451
 21
119.1530920128983
 31
0.0
  0
LINE
  5
334B
  8
AM_0
 10
122.44865037977451
 20
207.07192601306491
 30
0.0
 11
122.44865037977451
 21
117.7767601755728
 31
0.0
  0
LINE
  5
334C
  8
AM_0
 10
124.44865037977441
 20
207.07192601306491
 30
0.0
 11
124.44865037977451
 21
117.7782470324919
 31
0.0
  0
LINE
  5
334D
  8
AM_0
 10
127.4396623797744
 20
207.071926013065
 30
0.0
 11
127.4396623797744
 21
119.15234246595089
 31
0.0
  0
LINE
  5
334E
  8
AM_0
 10
119.44865037977451
 20
207.07192601306491
 30
0.0
 11
119.44865037977451
 21
119.15234246595089
 31
0.0
  0
ARC
  5
334F
  8
AM_0
 10
120.4935903797746
 20
108.44778609891129
 30
0.0
 40
2.3091486599999991
 50
164.90527199999909
 51
290.87219614688911
  0
ARC
  5
3350
  8
ｽﾝﾎ_ｳｾﾝ
 10
126.4351683797744
 20
108.44772099891139
 30
0.0
 40
1.5050001119999981
 50
241.0912951394732
 51
145.9182257596149
  0
LINE
  5
3351
  8
AM_0
 10
122.29451137977451
 20
111.4783392130649
 30
0.0
 11
121.25965237977439
 21
107.6732946130648
 31
0.0
  0
LINE
  5
3352
  8
AM_0
 10
124.6060023797743
 20
111.4761909130649
 30
0.0
 11
125.7057723797746
 21
107.7187764130649
 31
0.0
  0
ARC
  5
3353
  8
AM_0
 10
123.48909637977459
 20
107.0719260130649
 30
0.0
 40
2.3091486599999991
 50
164.90527199999909
 51
16.267320000003402
  0
CIRCLE
  5
3354
  8
ｽﾝﾎ_ｳｾﾝ
 10
123.44865037977451
 20
107.071860913065
 30
0.0
 40
1.5050001119999981
  0
ARC
  5
3355
  8
ｽﾝﾎ_ｳｾﾝ
 10
120.4531443797745
 20
108.44772099891139
 30
0.0
 40
1.5050001119999981
 50
34.081774240385151
 51
298.90870486052597
  0
ARC
  5
3356
  8
AM_0
 10
126.39472237977419
 20
108.44778609891129
 30
0.0
 40
2.3091486599999991
 50
249.12780385311081
 51
15.094728000000879
  0
LINE
  5
3357
  8
AM_0
 10
128.1557403797745
 20
119.1520740989115
 30
0.0
 11
124.72366716718651
 21
119.15336034891141
 31
0.0
  0
LINE
  5
3358
  8
AM_0
 10
126.4335513797745
 20
112.8531093989114
 30
0.0
 11
125.15552102643331
 21
112.8519274350509
 31
0.0
  0
LINE
  5
3359
  8
AM_0
 10
121.7281203797744
 20
117.7762245130649
 30
0.0
 11
125.1601923797745
 21
117.7787760130649
 31
0.0
  0
LINE
  5
335A
  8
AM_0
 10
122.1646443797746
 20
119.1546360989114
 30
0.0
 11
122.1659542370076
 21
117.77655001121479
 31
0.0
  0
LINE
  5
335B
  8
AM_0
 10
124.7236683797743
 20
119.1546360989114
 30
0.0
 11
124.7223585225413
 21
117.77655001121479
 31
0.0
  0
LINE
  5
335C
  8
AM_0
 10
118.7325723797744
 20
119.1520740989115
 30
0.0
 11
122.1646455923624
 21
119.15336034891141
 31
0.0
  0
LINE
  5
335D
  8
AM_0
 10
123.4502673797744
 20
111.477249313065
 30
0.0
 11
124.6060443797745
 21
111.4761804130648
 31
0.0
  0
LINE
  5
335E
  8
AM_0
 10
122.0124088645325
 20
111.4788986143574
 30
0.0
 11
122.158715531922
 21
110.9790351942823
 31
0.0
  0
LINE
  5
335F
  8
AM_0
 10
120.4547613797744
 20
112.8531093989114
 30
0.0
 11
121.7327917331156
 21
112.8519274350509
 31
0.0
  0
LINE
  5
3360
  8
AM_0
 10
121.6104963797743
 20
112.85205099891139
 30
0.0
 11
121.7331928564959
 21
112.4328528750015
 31
0.0
  0
LINE
  5
3361
  8
AM_0
 10
122.29451137977451
 20
111.47831821306499
 30
0.0
 11
123.4502673797744
 21
111.477249313065
 31
0.0
  0
LINE
  5
3362
  8
AM_0
 10
122.29451137977451
 20
111.47831821306499
 30
0.0
 11
121.7341473797744
 21
111.4794711130649
 31
0.0
  0
LINE
  5
3363
  8
AM_0
 10
124.87590389501629
 20
111.4788986143574
 30
0.0
 11
124.7295972276269
 21
110.9790351942823
 31
0.0
  0
LINE
  5
3364
  8
AM_0
 10
125.27781637977461
 20
112.85205099891139
 30
0.0
 11
125.15511990305301
 21
112.4328528750015
 31
0.0
  0
LINE
  5
3365
  8
AM_0
 10
125.1661773797743
 20
111.48205621306489
 30
0.0
 11
124.6060443797745
 21
111.476214013065
 31
0.0
  0
LINE
  5
3366
  8
AM_0
 10
119.2990053797745
 20
112.85417829891141
 30
0.0
 11
118.73864137977451
 21
112.8553311989114
 31
0.0
  0
LINE
  5
3367
  8
AM_0
 10
119.2990053797745
 20
112.8541992989114
 30
0.0
 11
118.2641463797745
 21
109.0491546989112
 31
0.0
  0
LINE
  5
3368
  8
AM_0
 10
119.2990053797745
 20
112.85417829891141
 30
0.0
 11
120.4547613797744
 21
112.8531093989114
 31
0.0
  0
LINE
  5
3369
  8
AM_0
 10
118.7385993797744
 20
112.8553521989114
 30
0.0
 11
118.7325723797744
 21
119.1520740989115
 31
0.0
  0
LINE
  5
336A
  8
AM_0
 10
121.73410537977441
 20
111.47949211306479
 30
0.0
 11
121.7280783797743
 21
117.776214013065
 31
0.0
  0
LINE
  5
336B
  8
AM_0
 10
125.16015037977461
 20
117.7787760130649
 30
0.0
 11
125.1661353797744
 21
111.482024713065
 31
0.0
  0
LINE
  5
336C
  8
AM_0
 10
127.5893073797744
 20
112.85417829891141
 30
0.0
 11
126.4335513797745
 21
112.8531093989114
 31
0.0
  0
LINE
  5
336D
  8
AM_0
 10
127.5893073797744
 20
112.8541992989114
 30
0.0
 11
128.62416637977441
 21
109.0491546989112
 31
0.0
  0
LINE
  5
336E
  8
AM_0
 10
127.5893073797744
 20
112.85417829891141
 30
0.0
 11
128.1496713797745
 21
112.8553311989114
 31
0.0
  0
LINE
  5
336F
  8
AM_0
 10
128.14971337977451
 20
112.8553521989114
 30
0.0
 11
128.1557403797745
 21
119.1520740989115
 31
0.0
  0
LINE
  5
3389
  8
AM_0
 10
181.44865037977439
 20
187.57192601306491
 30
0.0
 11
204.44865037977451
 21
187.57192601306491
 31
0.0
  0
LINE
  5
338A
  8
AM_0
 10
181.44865037977439
 20
167.37192601306489
 30
0.0
 11
204.44865037977451
 21
167.37192601306489
 31
0.0
  0
LINE
  5
338B
  8
AM_0
 10
181.44865037977439
 20
170.87192601306489
 30
0.0
 11
204.44865037977451
 21
170.87192601306489
 31
0.0
  0
LINE
  5
338C
  8
AM_0
 10
181.44865037977439
 20
175.17192601306499
 30
0.0
 11
204.44865037977451
 21
175.17192601306499
 31
0.0
  0
LINE
  5
338D
  8
AM_0
 10
181.44865037977439
 20
178.67192601306499
 30
0.0
 11
204.44865037977451
 21
178.67192601306499
 31
0.0
  0
LINE
  5
338E
  8
AM_0
 10
181.44865037977439
 20
183.87192601306489
 30
0.0
 11
204.44865037977451
 21
183.87192601306501
 31
0.0
  0
LINE
  5
338F
  8
AM_0
 10
181.44865037977439
 20
164.77192601306501
 30
0.0
 11
204.44865037977451
 21
164.77192601306501
 31
0.0
  0
ARC
  5
3390
  8
AM_0
 10
181.44865037977439
 20
166.37192601306489
 30
0.0
 40
1.0
 50
90.0
 51
180.0
1001
GENIUS_GENOBJ-N-FIL_13
1002
{
1000
OWNER
1000
GEN
1002
}
1001
GENIUS_GENODEF_13
1002
{
1000
HIER
1070
     0
1002
}
1002
{
1000
MANEDIT
1070
     0
1002
}
1002
{
1000
NOSEL
1070
     0
1002
}
1002
{
1000
BEHIND
1070
     0
1002
}
1002
{
1000
OTHER
1070
     0
1002
}
1002
{
1000
REACTOR
1002
}
  0
LINE
  5
3391
  8
AM_0
 10
180.44865037977439
 20
166.37192601306489
 30
0.0
 11
180.44865037977439
 21
165.77192601306501
 31
0.0
  0
ARC
  5
3392
  8
AM_0
 10
181.44865037977439
 20
165.77192601306501
 30
0.0
 40
1.0
 50
180.0
 51
270.0
1001
GENIUS_GENODEF_13
1002
{
1000
HIER
1070
     0
1002
}
1002
{
1000
MANEDIT
1070
     0
1002
}
1002
{
1000
NOSEL
1070
     0
1002
}
1002
{
1000
BEHIND
1070
     0
1002
}
1002
{
1000
OTHER
1070
     0
1002
}
1002
{
1000
REACTOR
1002
}
1001
GENIUS_GENOBJ-N-FIL_13
1002
{
1000
OWNER
1000
GEN
1002
}
  0
LINE
  5
3393
  8
AM_0
 10
180.44865037977439
 20
182.87192601306489
 30
0.0
 11
180.44865037977439
 21
179.67192601306499
 31
0.0
  0
ARC
  5
3394
  8
AM_0
 10
181.44865037977439
 20
179.67192601306499
 30
0.0
 40
1.0
 50
180.0
 51
270.0
1001
GENIUS_GENOBJ-N-FIL_13
1002
{
1000
OWNER
1000
GEN
1002
}
1001
GENIUS_GENODEF_13
1002
{
1000
HIER
1070
     0
1002
}
1002
{
1000
MANEDIT
1070
     0
1002
}
1002
{
1000
NOSEL
1070
     0
1002
}
1002
{
1000
BEHIND
1070
     0
1002
}
1002
{
1000
OTHER
1070
     0
1002
}
1002
{
1000
REACTOR
1002
}
  0
ARC
  5
3395
  8
AM_0
 10
181.44865037977439
 20
171.87192601306489
 30
0.0
 40
1.0
 50
180.0
 51
270.0
1001
GENIUS_GENOBJ-N-FIL_13
1002
{
1000
OWNER
1000
GEN
1002
}
1001
GENIUS_GENODEF_13
1002
{
1000
HIER
1070
     0
1002
}
1002
{
1000
MANEDIT
1070
     0
1002
}
1002
{
1000
NOSEL
1070
     0
1002
}
1002
{
1000
BEHIND
1070
     0
1002
}
1002
{
1000
OTHER
1070
     0
1002
}
1002
{
1000
REACTOR
1002
}
  0
ARC
  5
3396
  8
AM_0
 10
181.44865037977439
 20
174.17192601306499
 30
0.0
 40
1.0
 50
90.0
 51
180.0
1001
GENIUS_GENODEF_13
1002
{
1000
HIER
1070
     0
1002
}
1002
{
1000
MANEDIT
1070
     0
1002
}
1002
{
1000
NOSEL
1070
     0
1002
}
1002
{
1000
BEHIND
1070
     0
1002
}
1002
{
1000
OTHER
1070
     0
1002
}
1002
{
1000
REACTOR
1002
}
1001
GENIUS_GENOBJ-N-FIL_13
1002
{
1000
OWNER
1000
GEN
1002
}
  0
LINE
  5
3397
  8
AM_0
 10
180.44865037977439
 20
174.17192601306499
 30
0.0
 11
180.44865037977439
 21
171.87192601306489
 31
0.0
  0
ARC
  5
3398
  8
AM_0
 10
181.44865037977439
 20
188.57192601306491
 30
0.0
 40
1.0
 50
180.0
 51
270.0
1001
GENIUS_GENODEF_13
1002
{
1000
HIER
1070
     0
1002
}
1002
{
1000
MANEDIT
1070
     0
1002
}
1002
{
1000
NOSEL
1070
     0
1002
}
1002
{
1000
BEHIND
1070
     0
1002
}
1002
{
1000
OTHER
1070
     0
1002
}
1002
{
1000
REACTOR
1002
}
1001
GENIUS_GENOBJ-N-FIL_13
1002
{
1000
OWNER
1000
GEN
1002
}
  0
ARC
  5
3399
  8
AM_0
 10
181.44865037977439
 20
182.87192601306489
 30
0.0
 40
1.0
 50
90.0
 51
180.0
1001
GENIUS_GENODEF_13
1002
{
1000
HIER
1070
     0
1002
}
1002
{
1000
MANEDIT
1070
     0
1002
}
1002
{
1000
NOSEL
1070
     0
1002
}
1002
{
1000
BEHIND
1070
     0
1002
}
1002
{
1000
OTHER
1070
     0
1002
}
1002
{
1000
REACTOR
1002
}
1001
GENIUS_GENOBJ-N-FIL_13
1002
{
1000
OWNER
1000
GEN
1002
}
  0
LINE
  5
339A
  8
AM_0
 10
215.44865037977451
 20
161.07192601306491
 30
0.0
 11
226.94865037977439
 21
161.07192601306491
 31
0.0
  0
LINE
  5
339B
  8
AM_0
 10
205.44865037977451
 20
166.37192601306489
 30
0.0
 11
205.44865037977451
 21
165.77192601306501
 31
0.0
  0
ARC
  5
339C
  8
AM_0
 10
204.44865037977451
 20
166.37192601306489
 30
0.0
 40
1.0
 50
0.0
 51
90.0
1001
GENIUS_GENODEF_13
1002
{
1000
HIER
1070
     0
1002
}
1002
{
1000
MANEDIT
1070
     0
1002
}
1002
{
1000
NOSEL
1070
     0
1002
}
1002
{
1000
BEHIND
1070
     0
1002
}
1002
{
1000
OTHER
1070
     0
1002
}
1002
{
1000
REACTOR
1002
}
1001
GENIUS_GENOBJ-N-FIL_13
1002
{
1000
OWNER
1000
GEN
1002
}
  0
ARC
  5
339D
  8
AM_0
 10
204.44865037977451
 20
165.77192601306501
 30
0.0
 40
1.0
 50
270.0
 51
0.0
1001
GENIUS_GENOBJ-N-FIL_13
1002
{
1000
OWNER
1000
GEN
1002
}
1001
GENIUS_GENODEF_13
1002
{
1000
HIER
1070
     0
1002
}
1002
{
1000
MANEDIT
1070
     0
1002
}
1002
{
1000
NOSEL
1070
     0
1002
}
1002
{
1000
BEHIND
1070
     0
1002
}
1002
{
1000
OTHER
1070
     0
1002
}
1002
{
1000
REACTOR
1002
}
  0
LINE
  5
339E
  8
AM_0
 10
233.94865037977439
 20
164.07192601306491
 30
0.0
 11
226.94865037977439
 21
161.07192601306491
 31
0.0
  0
LINE
  5
339F
  8
AM_0
 10
205.44865037977451
 20
182.87192601306501
 30
0.0
 11
205.44865037977451
 21
179.67192601306499
 31
0.0
  0
ARC
  5
33A0
  8
AM_0
 10
204.44865037977451
 20
179.67192601306499
 30
0.0
 40
1.0
 50
270.0
 51
0.0
1001
GENIUS_GENODEF_13
1002
{
1000
HIER
1070
     0
1002
}
1002
{
1000
MANEDIT
1070
     0
1002
}
1002
{
1000
NOSEL
1070
     0
1002
}
1002
{
1000
BEHIND
1070
     0
1002
}
1002
{
1000
OTHER
1070
     0
1002
}
1002
{
1000
REACTOR
1002
}
1001
GENIUS_GENOBJ-N-FIL_13
1002
{
1000
OWNER
1000
GEN
1002
}
  0
ARC
  5
33A1
  8
AM_0
 10
204.44865037977451
 20
171.87192601306489
 30
0.0
 40
1.0
 50
270.0
 51
0.0
1001
GENIUS_GENODEF_13
1002
{
1000
HIER
1070
     0
1002
}
1002
{
1000
MANEDIT
1070
     0
1002
}
1002
{
1000
NOSEL
1070
     0
1002
}
1002
{
1000
BEHIND
1070
     0
1002
}
1002
{
1000
OTHER
1070
     0
1002
}
1002
{
1000
REACTOR
1002
}
1001
GENIUS_GENOBJ-N-FIL_13
1002
{
1000
OWNER
1000
GEN
1002
}
  0
LINE
  5
33A2
  8
AM_0
 10
205.44865037977451
 20
174.17192601306499
 30
0.0
 11
205.44865037977451
 21
171.87192601306489
 31
0.0
  0
ARC
  5
33A3
  8
AM_0
 10
204.44865037977451
 20
174.17192601306499
 30
0.0
 40
1.0
 50
0.0
 51
90.0
1001
GENIUS_GENODEF_13
1002
{
1000
HIER
1070
     0
1002
}
1002
{
1000
MANEDIT
1070
     0
1002
}
1002
{
1000
NOSEL
1070
     0
1002
}
1002
{
1000
BEHIND
1070
     0
1002
}
1002
{
1000
OTHER
1070
     0
1002
}
1002
{
1000
REACTOR
1002
}
1001
GENIUS_GENOBJ-N-FIL_13
1002
{
1000
OWNER
1000
GEN
1002
}
  0
ARC
  5
33A4
  8
AM_0
 10
204.44865037977451
 20
188.57192601306491
 30
0.0
 40
1.0
 50
270.0
 51
0.0
1001
GENIUS_GENODEF_13
1002
{
1000
HIER
1070
     0
1002
}
1002
{
1000
MANEDIT
1070
     0
1002
}
1002
{
1000
NOSEL
1070
     0
1002
}
1002
{
1000
BEHIND
1070
     0
1002
}
1002
{
1000
OTHER
1070
     0
1002
}
1002
{
1000
REACTOR
1002
}
1001
GENIUS_GENOBJ-N-FIL_13
1002
{
1000
OWNER
1000
GEN
1002
}
  0
ARC
  5
33A5
  8
AM_0
 10
204.44865037977451
 20
182.87192601306501
 30
0.0
 40
1.0
 50
0.0
 51
90.0
1001
GENIUS_GENODEF_13
1002
{
1000
HIER
1070
     0
1002
}
1002
{
1000
MANEDIT
1070
     0
1002
}
1002
{
1000
NOSEL
1070
     0
1002
}
1002
{
1000
BEHIND
1070
     0
1002
}
1002
{
1000
OTHER
1070
     0
1002
}
1002
{
1000
REACTOR
1002
}
1001
GENIUS_GENOBJ-N-FIL_13
1002
{
1000
OWNER
1000
GEN
1002
}
  0
LINE
  5
33A6
  8
AM_0
 10
133.44865037977451
 20
252.071926013065
 30
0.0
 11
133.44865037977451
 21
208.071926013065
 31
0.0
  0
LINE
  5
33A7
  8
AM_0
 10
105.94865037977451
 20
201.071926013065
 30
0.0
 11
105.94865037977451
 21
207.071926013065
 31
0.0
  0
LINE
  5
33A8
  8
AM_0
 10
101.94865037977451
 20
199.07192601306491
 30
0.0
 11
101.94865037977451
 21
207.071926013065
 31
0.0
  0
ARC
  5
33A9
  8
AM_0
 10
103.94865037977451
 20
201.071926013065
 30
0.0
 40
2.0
 50
270.0
 51
0.0
1001
GENIUS_GENOBJ-N-FIL_13
1002
{
1000
OWNER
1000
GEN
1002
}
1001
GENIUS_GENODEF_13
1002
{
1000
HIER
1070
     0
1002
}
1002
{
1000
MANEDIT
1070
     0
1002
}
1002
{
1000
NOSEL
1070
     0
1002
}
1002
{
1000
BEHIND
1070
     0
1002
}
1002
{
1000
OTHER
1070
     0
1002
}
1002
{
1000
REACTOR
1002
}
  0
ARC
  5
33C0
  8
AM_0
 10
132.44865037977451
 20
208.071926013065
 30
0.0
 40
1.0
 50
270.0
 51
0.0
1001
GENIUS_GENOBJ-N-FIL_13
1002
{
1000
OWNER
1000
GEN
1002
}
1001
GENIUS_GENODEF_13
1002
{
1000
HIER
1070
     0
1002
}
1002
{
1000
MANEDIT
1070
     0
1002
}
1002
{
1000
NOSEL
1070
     0
1002
}
1002
{
1000
BEHIND
1070
     0
1002
}
1002
{
1000
OTHER
1070
     0
1002
}
1002
{
1000
REACTOR
1002
}
  0
LINE
  5
33C1
  8
AM_0
 10
105.94865037977451
 20
259.07192601306502
 30
0.0
 11
105.94865037977451
 21
253.071926013065
 31
0.0
  0
LINE
  5
33C2
  8
AM_0
 10
101.94865037977451
 20
261.07192601306502
 30
0.0
 11
101.94865037977451
 21
253.071926013065
 31
0.0
  0
ARC
  5
33C3
  8
AM_0
 10
132.44865037977451
 20
252.071926013065
 30
0.0
 40
1.0
 50
0.0
 51
90.0
1001
GENIUS_GENODEF_13
1002
{
1000
HIER
1070
     0
1002
}
1002
{
1000
MANEDIT
1070
     0
1002
}
1002
{
1000
NOSEL
1070
     0
1002
}
1002
{
1000
BEHIND
1070
     0
1002
}
1002
{
1000
OTHER
1070
     0
1002
}
1002
{
1000
REACTOR
1002
}
1001
GENIUS_GENOBJ-N-FIL_13
1002
{
1000
OWNER
1000
GEN
1002
}
  0
ARC
  5
33C4
  8
AM_0
 10
103.94865037977451
 20
259.07192601306502
 30
0.0
 40
2.0
 50
0.0
 51
90.0
1001
GENIUS_GENOBJ-N-FIL_13
1002
{
1000
OWNER
1000
GEN
1002
}
1001
GENIUS_GENODEF_13
1002
{
1000
HIER
1070
     0
1002
}
1002
{
1000
MANEDIT
1070
     0
1002
}
1002
{
1000
NOSEL
1070
     0
1002
}
1002
{
1000
BEHIND
1070
     0
1002
}
1002
{
1000
OTHER
1070
     0
1002
}
1002
{
1000
REACTOR
1002
}
  0
LINE
  5
33C5
  8
AM_0
 10
181.44865037977439
 20
193.071926013065
 30
0.0
 11
204.44865037977439
 21
193.071926013065
 31
0.0
  0
LINE
  5
33C6
  8
AM_0
 10
181.44865037977439
 20
198.57192601306491
 30
0.0
 11
204.44865037977439
 21
198.57192601306491
 31
0.0
  0
LINE
  5
33C7
  8
AM_0
 10
181.44865037977439
 20
205.071926013065
 30
0.0
 11
204.44865037977439
 21
205.071926013065
 31
0.0
  0
LINE
  5
33C8
  8
AM_0
 10
180.44865037977439
 20
204.071926013065
 30
0.0
 11
180.44865037977439
 21
199.5719260130648
 31
0.0
  0
ARC
  5
33C9
  8
AM_0
 10
181.44865037977439
 20
199.5719260130648
 30
0.0
 40
1.0
 50
180.0
 51
270.0
1001
GENIUS_GENODEF_13
1002
{
1000
HIER
1070
     0
1002
}
1002
{
1000
MANEDIT
1070
     0
1002
}
1002
{
1000
NOSEL
1070
     0
1002
}
1002
{
1000
BEHIND
1070
     0
1002
}
1002
{
1000
OTHER
1070
     0
1002
}
1002
{
1000
REACTOR
1002
}
1001
GENIUS_GENOBJ-N-FIL_13
1002
{
1000
OWNER
1000
GEN
1002
}
  0
ARC
  5
33CA
  8
AM_0
 10
181.44865037977439
 20
192.07192601306491
 30
0.0
 40
1.0
 50
90.0
 51
180.0
1001
GENIUS_GENODEF_13
1002
{
1000
HIER
1070
     0
1002
}
1002
{
1000
MANEDIT
1070
     0
1002
}
1002
{
1000
NOSEL
1070
     0
1002
}
1002
{
1000
BEHIND
1070
     0
1002
}
1002
{
1000
OTHER
1070
     0
1002
}
1002
{
1000
REACTOR
1002
}
1001
GENIUS_GENOBJ-N-FIL_13
1002
{
1000
OWNER
1000
GEN
1002
}
  0
ARC
  5
33CB
  8
AM_0
 10
181.44865037977439
 20
204.071926013065
 30
0.0
 40
1.0
 50
90.0
 51
180.0
1001
GENIUS_GENOBJ-N-FIL_13
1002
{
1000
OWNER
1000
GEN
1002
}
1001
GENIUS_GENODEF_13
1002
{
1000
HIER
1070
     0
1002
}
1002
{
1000
MANEDIT
1070
     0
1002
}
1002
{
1000
NOSEL
1070
     0
1002
}
1002
{
1000
BEHIND
1070
     0
1002
}
1002
{
1000
OTHER
1070
     0
1002
}
1002
{
1000
REACTOR
1002
}
  0
LINE
  5
33CC
  8
AM_0
 10
205.44865037977451
 20
204.071926013065
 30
0.0
 11
205.44865037977439
 21
199.5719260130648
 31
0.0
  0
ARC
  5
33CD
  8
AM_0
 10
204.44865037977439
 20
199.5719260130648
 30
0.0
 40
1.0
 50
270.0
 51
0.0
1001
GENIUS_GENODEF_13
1002
{
1000
HIER
1070
     0
1002
}
1002
{
1000
MANEDIT
1070
     0
1002
}
1002
{
1000
NOSEL
1070
     0
1002
}
1002
{
1000
BEHIND
1070
     0
1002
}
1002
{
1000
OTHER
1070
     0
1002
}
1002
{
1000
REACTOR
1002
}
1001
GENIUS_GENOBJ-N-FIL_13
1002
{
1000
OWNER
1000
GEN
1002
}
  0
ARC
  5
33CE
  8
AM_0
 10
204.44865037977439
 20
192.07192601306491
 30
0.0
 40
1.0
 50
0.0
 51
90.0
1001
GENIUS_GENOBJ-N-FIL_13
1002
{
1000
OWNER
1000
GEN
1002
}
1001
GENIUS_GENODEF_13
1002
{
1000
HIER
1070
     0
1002
}
1002
{
1000
MANEDIT
1070
     0
1002
}
1002
{
1000
NOSEL
1070
     0
1002
}
1002
{
1000
BEHIND
1070
     0
1002
}
1002
{
1000
OTHER
1070
     0
1002
}
1002
{
1000
REACTOR
1002
}
  0
ARC
  5
33CF
  8
AM_0
 10
204.44865037977439
 20
204.071926013065
 30
0.0
 40
1.0
 50
0.0
 51
90.0
1001
GENIUS_GENOBJ-N-FIL_13
1002
{
1000
OWNER
1000
GEN
1002
}
1001
GENIUS_GENODEF_13
1002
{
1000
HIER
1070
     0
1002
}
1002
{
1000
MANEDIT
1070
     0
1002
}
1002
{
1000
NOSEL
1070
     0
1002
}
1002
{
1000
BEHIND
1070
     0
1002
}
1002
{
1000
OTHER
1070
     0
1002
}
1002
{
1000
REACTOR
1002
}
  0
LINE
  5
33D0
  8
AM_0
 10
335.94862037977452
 20
247.07190451306499
 30
0.0
 11
335.94862037977452
 21
177.07187251306499
 31
0.0
  0
LINE
  5
33D1
  8
AM_0
 10
321.94864037977447
 20
166.85245051306501
 30
0.0
 11
321.94864037977447
 21
199.917544513065
 31
0.0
  0
LINE
  5
33D2
  8
AM_0
 10
264.9486703797744
 20
268.56622951306503
 30
0.0
 11
264.9486703797744
 21
158.07187051306499
 31
0.0
  0
LINE
  5
33D3
  8
AM_0
 10
271.94860037977452
 20
164.201800513065
 30
0.0
 11
307.9486003797744
 21
164.201800513065
 31
0.0
  0
LINE
  5
33D4
  8
AM_0
 10
271.94860037977452
 20
153.57187051306499
 30
0.0
 11
307.94866037977448
 21
152.07187051306499
 31
0.0
  0
LINE
  5
33D5
  8
AM_0
 10
261.9486703797744
 20
153.57187051306499
 30
0.0
 11
271.94860037977452
 21
153.57187051306499
 31
0.0
  0
LINE
  5
33D6
  8
AM_0
 10
266.94865037977439
 20
156.07187251306499
 30
0.0
 11
271.94860037977452
 21
156.07187251306499
 31
0.0
  0
ARC
  5
33D7
  8
AM_0
 10
256.94860037977452
 20
167.46856951306501
 30
0.0
 40
3.0
 50
0.0
 51
88.499997000000747
  0
LINE
  5
33D8
  8
AM_0
 10
259.9486003797744
 20
175.85612851306499
 30
0.0
 11
259.9486003797744
 21
155.57187151306499
 31
0.0
  0
ARC
  5
33D9
  8
AM_0
 10
261.9486703797744
 20
155.57187151306499
 30
0.0
 40
2.00000007
 50
179.99999000000059
 51
270.0
  0
ARC
  5
33DA
  8
AM_0
 10
266.94865037977439
 20
158.07187051306499
 30
0.0
 40
2.00000007
 50
179.99999000000059
 51
270.0
  0
ARC
  5
33DB
  8
AM_0
 10
257.94865037977451
 20
175.85612851306499
 30
0.0
 40
2.00000007
 50
0.0
 51
90.00000299999769
  0
LINE
  5
33DC
  8
AM_0
 10
259.9486003797744
 20
177.85612951306501
 30
0.0
 11
264.9486703797744
 21
177.85612951306501
 31
0.0
  0
LINE
  5
33DD
  8
AM_0
 10
331.94860037977452
 20
177.07187251306499
 30
0.0
 11
335.94862037977452
 21
177.07187251306499
 31
0.0
  0
LINE
  5
33DE
  8
AM_0
 10
308.92246037977418
 20
168.482011513065
 30
0.0
 11
321.94864037977447
 21
168.82310851306499
 31
0.0
  0
LINE
  5
33DF
  8
AM_0
 10
307.9486003797744
 20
167.48234851306501
 30
0.0
 11
307.9486003797744
 21
152.07187051306499
 31
0.0
  0
ARC
  5
33E0
  8
AM_0
 10
308.94862037977452
 20
167.48234851306501
 30
0.0
 40
1.0000000199999981
 50
91.500001000001546
 51
180.00000999999941
  0
LINE
  5
33E1
  8
AM_0
 10
323.87884037977437
 20
164.853670513065
 30
0.0
 11
331.94863037977439
 21
164.57187151306499
 31
0.0
  0
ARC
  5
33E2
  8
AM_0
 10
323.94862037977452
 20
166.85245051306501
 30
0.0
 40
2.00000007
 50
179.99999000000059
 51
268.00000999999872
  0
ARC
  5
33E3
  8
AM_0
 10
322.94860037977452
 20
182.790529513065
 30
0.0
 40
3.0
 50
270.0
 51
0.0
  0
LINE
  5
33E4
  8
AM_0
 10
271.94860037977452
 20
275.86893451306503
 30
0.0
 11
302.26690037977448
 21
275.86893451306503
 31
0.0
  0
ARC
  5
33E6
  8
AM_0
 10
257.94865037977451
 20
257.099920513065
 30
0.0
 40
2.00000007
 50
270.0
 51
0.0
  0
LINE
  5
33E7
  8
AM_0
 10
259.9486003797744
 20
255.09993451306499
 30
0.0
 11
264.9486703797744
 21
255.09993451306499
 31
0.0
  0
LINE
  5
33E8
  8
AM_0
 10
259.9486003797744
 20
276.7390185130651
 30
0.0
 11
259.9486003797744
 21
257.099920513065
 31
0.0
  0
ARC
  5
33E9
  8
AM_0
 10
261.9486703797744
 20
272.56622851306503
 30
0.0
 40
2.00000007
 50
179.99999000000059
 51
270.0
  0
ARC
  5
33EA
  8
AM_0
 10
262.94860037977452
 20
268.56622951306503
 30
0.0
 40
2.00000007
 50
0.0
 51
90.00000299999769
  0
LINE
  5
33EB
  8
AM_0
 10
261.9486703797744
 20
270.56623051306502
 30
0.0
 11
262.94860037977452
 21
270.56623051306502
 31
0.0
  0
LINE
  5
33EC
  8
AM_0
 10
336.94864037977447
 20
221.12256451306499
 30
0.0
 11
336.94864037977447
 21
273.10062151306499
 31
0.0
  0
LINE
  5
33ED
  8
AM_0
 10
338.94859037977449
 20
259.57189051306511
 30
0.0
 11
338.94859037977449
 21
234.571903513065
 31
0.0
  0
ARC
  5
33EE
  8
AM_0
 10
324.94864037977459
 20
199.917544513065
 30
0.0
 40
3.0
 50
90.00000299999769
 51
180.00000999999941
  0
ARC
  5
33EF
  8
AM_0
 10
333.94864037977447
 20
221.12256451306499
 30
0.0
 40
3.0
 50
311.81031000000007
 51
0.0
  0
LINE
  5
33F0
  8
AM_0
 10
336.94864037977447
 20
234.571903513065
 30
0.0
 11
338.94859037977449
 21
234.571903513065
 31
0.0
  0
LINE
  5
33F1
  8
AM_0
 10
331.94860037977452
 20
258.87485251306498
 30
0.0
 11
335.94862037977452
 21
258.87485251306498
 31
0.0
  0
LINE
  5
33F2
  8
AM_0
 10
308.94862037977452
 20
260.91673951306501
 30
0.0
 11
323.17939037977442
 21
260.91673951306501
 31
0.0
  0
ARC
  5
33F3
  8
AM_0
 10
308.94862037977452
 20
265.91675551306503
 30
0.0
 40
5.0000001000000003
 50
179.99999000000059
 51
270.0
  0
LINE
  5
33F4
  8
AM_0
 10
335.94862037977452
 20
247.07190451306499
 30
0.0
 11
335.94862037977452
 21
258.87485251306498
 31
0.0
  0
LINE
  5
33F5
  8
AM_0
 10
336.94864037977447
 20
259.57189051306511
 30
0.0
 11
338.94859037977449
 21
259.57189051306511
 31
0.0
  0
LINE
  5
33F6
  8
AM_0
 10
346.94860037977452
 20
262.07190451306502
 30
0.0
 11
346.94860037977452
 21
259.07190451306502
 31
0.0
  0
ARC
  5
33F7
  8
AM_0
 10
333.94864037977447
 20
273.10062151306499
 30
0.0
 40
3.0
 50
0.0
 51
39.99999900000239
  0
LINE
  5
33F8
  8
AM_0
 10
335.94862037977452
 20
275.38431451306502
 30
0.0
 11
336.24676037977451
 21
275.02899751306501
 31
0.0
  0
LINE
  5
33F9
  8
AM_0
 10
71.948650379774563
 20
292.6719260130651
 30
0.0
 11
215.44865037977451
 21
292.67192601306488
 31
0.0
  0
LINE
  5
33FA
  8
AM_0
 10
69.277378057434362
 20
284.4752395043181
 30
0.0
 11
66.11992270211465
 21
281.66861252181172
 31
0.0
  0
ARC
  5
33FB
  8
AM_0
 10
67.448650379774449
 20
280.17379388444442
 30
0.0
 40
2.0
 50
131.6335393365685
 51
180.0
1001
GENIUS_GENODEF_13
1002
{
1000
HIER
1070
     0
1002
}
1002
{
1000
MANEDIT
1070
     0
1002
}
1002
{
1000
NOSEL
1070
     0
1002
}
1002
{
1000
BEHIND
1070
     0
1002
}
1002
{
1000
OTHER
1070
     0
1002
}
1002
{
1000
REACTOR
1002
}
1001
GENIUS_GENOBJ-N-FIL_13
1002
{
1000
OWNER
1000
GEN
1002
}
  0
ARC
  5
33FC
  8
AM_0
 10
67.948650379774435
 20
285.97005814168551
 30
0.0
 40
2.0
 50
311.63353933656862
 51
0.0
1001
GENIUS_GENOBJ-N-FIL_13
1002
{
1000
OWNER
1000
GEN
1002
}
1001
GENIUS_GENODEF_13
1002
{
1000
HIER
1070
     0
1002
}
1002
{
1000
MANEDIT
1070
     0
1002
}
1002
{
1000
NOSEL
1070
     0
1002
}
1002
{
1000
BEHIND
1070
     0
1002
}
1002
{
1000
OTHER
1070
     0
1002
}
1002
{
1000
REACTOR
1002
}
  0
ARC
  5
33FD
  8
AM_0
 10
71.948650379774563
 20
290.6719260130651
 30
0.0
 40
2.0
 50
90.0
 51
180.0
1001
GENIUS_GENOBJ-N-FIL_13
1002
{
1000
OWNER
1000
GEN
1002
}
1001
GENIUS_GENODEF_13
1002
{
1000
HIER
1070
     0
1002
}
1002
{
1000
MANEDIT
1070
     0
1002
}
1002
{
1000
NOSEL
1070
     0
1002
}
1002
{
1000
BEHIND
1070
     0
1002
}
1002
{
1000
OTHER
1070
     0
1002
}
1002
{
1000
REACTOR
1002
}
  0
LINE
  5
33FF
  8
AM_0
 10
233.94865037977439
 20
283.0718745130651
 30
0.0
 11
260.07952037977441
 21
283.75614151306507
 31
0.0
  0
LINE
  5
3400
  8
AM_0
 10
215.44865037977439
 20
293.07192601306508
 30
0.0
 11
226.94865037977439
 21
293.07192601306508
 31
0.0
  0
LINE
  5
3401
  8
AM_0
 10
226.94865037977439
 20
293.07192601306508
 30
0.0
 11
233.94865037977439
 21
290.07192601306491
 31
0.0
  0
ARC
  5
3402
  8
AM_0
 10
300.94867037977423
 20
301.83231151306501
 30
0.0
 40
3.0
 50
271.50000000000267
 51
0.0
  0
LINE
  5
3403
  8
AM_0
 10
266.94865037977439
 20
298.07190751306501
 30
0.0
 11
271.94860037977452
 21
298.07190751306501
 31
0.0
  0
LINE
  5
3404
  8
AM_0
 10
264.9486703797744
 20
296.07187651306481
 30
0.0
 11
264.9486703797744
 21
280.73905051306502
 31
0.0
  0
ARC
  5
3405
  8
AM_0
 10
259.9486003797744
 20
288.75443251306518
 30
0.0
 40
5.0000001000000003
 50
271.50000000000267
 51
0.0
  0
LINE
  5
3406
  8
AM_0
 10
261.9486703797744
 20
278.73904951306503
 30
0.0
 11
262.94860037977452
 21
278.73904951306503
 31
0.0
  0
ARC
  5
3407
  8
AM_0
 10
266.94865037977439
 20
296.07187651306481
 30
0.0
 40
2.00000007
 50
90.00000299999769
 51
180.00000999999941
  0
LINE
  5
3408
  8
AM_0
 10
271.94866037977448
 20
298.07187451306493
 30
0.0
 11
301.02715037977453
 21
298.83331951306508
 31
0.0
  0
LINE
  5
340A
  8
AM_0
 10
321.94864037977447
 20
289.02356551306508
 30
0.0
 11
321.94864037977447
 21
329.791291513065
 31
0.0
  0
LINE
  5
340B
  8
AM_0
 10
331.94860037977452
 20
285.696508513065
 30
0.0
 11
335.94862037977452
 21
285.696508513065
 31
0.0
  0
LINE
  5
340C
  8
AM_0
 10
331.94860037977452
 20
317.07186151306507
 30
0.0
 11
335.94862037977452
 21
317.07186151306507
 31
0.0
  0
LINE
  5
340D
  8
AM_0
 10
303.94864037977459
 20
293.3055495130651
 30
0.0
 11
320.27776037977452
 21
301.37537251306492
 31
0.0
  0
LINE
  5
340E
  8
AM_0
 10
305.94862037977452
 20
289.729042513065
 30
0.0
 11
319.40470037977451
 21
289.729042513065
 31
0.0
  0
LINE
  5
340F
  8
AM_0
 10
305.3968003797745
 20
286.8005745130651
 30
0.0
 11
322.43407037977443
 21
286.8005745130651
 31
0.0
  0
ARC
  5
3410
  8
AM_0
 10
305.94862037977452
 20
291.72904051306512
 30
0.0
 40
2.00000007
 50
179.99999000000059
 51
270.0
  0
ARC
  5
3411
  8
AM_0
 10
319.40470037977451
 20
286.729042513065
 30
0.0
 40
3.0
 50
22.483536000002641
 51
90.00000299999769
  0
ARC
  5
3412
  8
AM_0
 10
324.94864037977459
 20
289.02356551306508
 30
0.0
 40
3.0
 50
179.99999000000059
 51
270.0
  0
ARC
  5
3413
  8
AM_0
 10
330.36274037977438
 20
277.37415151306487
 30
0.0
 40
3.0
 50
39.99999900000239
 51
58.086796999996537
  0
LINE
  5
3414
  8
AM_0
 10
309.2741203797745
 20
316.14282151306492
 30
0.0
 11
319.05334037977423
 21
316.48431151306511
 31
0.0
  0
ARC
  5
3415
  8
AM_0
 10
308.94862037977452
 20
311.145871513065
 30
0.0
 40
5.0000001000000003
 50
91.999998000000545
 51
180.00000999999941
  0
ARC
  5
3416
  8
AM_0
 10
318.94864037977447
 20
304.06485751306508
 30
0.0
 40
3.0
 50
296.29843000000238
 51
0.0
  0
ARC
  5
3417
  8
AM_0
 10
322.94860037977452
 20
313.85322151306508
 30
0.0
 40
3.0
 50
0.0
 51
90.00000299999769
  0
ARC
  5
3418
  8
AM_0
 10
318.94864037977447
 20
319.48248151306501
 30
0.0
 40
3.0
 50
271.9999999999971
 51
0.0
  0
LINE
  5
3419
  8
AM_0
 10
335.94862037977452
 20
285.696508513065
 30
0.0
 11
335.94862037977452
 21
317.07186151306507
 31
0.0
  0
LINE
  5
341B
  8
AM_0
 10
323.87881037977451
 20
331.79007151306507
 30
0.0
 11
331.94860037977452
 21
332.071891513065
 31
0.0
  0
ARC
  5
341C
  8
AM_0
 10
323.94862037977452
 20
329.791291513065
 30
0.0
 40
2.00000007
 50
91.999998000000545
 51
180.00000999999941
  0
ARC
  5
3421
  8
AM_0
 10
546.29910670366223
 20
247.07190451306499
 30
0.0
 40
33.0
 50
0.0
 51
180.00000999999941
  0
ARC
  5
3422
  8
AM_0
 10
546.29910670366223
 20
247.07190451306499
 30
0.0
 40
70.000001999999995
 50
164.54750999999871
 51
0.000010017912262
  0
ARC
  5
3423
  8
AM_0
 10
546.29910670366223
 20
247.07190451306499
 30
0.0
 40
66.000003000000007
 50
168.12283999999951
 51
0.000010017912262
  0
ARC
  5
3424
  8
AM_0
 10
546.29910670366223
 20
247.07190451306499
 30
0.0
 40
52.000007999999987
 50
5.2159077000001091
 51
42.244334000002823
  0
ARC
  5
3425
  8
AM_0
 10
546.29910670366223
 20
247.07190451306499
 30
0.0
 40
52.000007999999987
 50
137.75567000000299
 51
174.78408999999999
  0
ARC
  5
3426
  8
AM_0
 10
487.98767170366222
 20
271.81589251306502
 30
0.0
 40
11.000000399999999
 50
85.156818000000143
 51
228.8560599999972
  0
ARC
  5
3427
  8
AM_0
 10
604.61056870366235
 20
271.81589251306502
 30
0.0
 40
11.000000399999999
 50
311.14394000000277
 51
94.843180000001595
  0
LINE
  5
3428
  8
AM_0
 10
631.29910870366223
 20
277.07187451306498
 30
0.0
 11
629.03145370366224
 21
320.34129151306507
 31
0.0
  0
LINE
  5
3429
  8
AM_0
 10
500.15371870366232
 20
289.681738513065
 30
0.0
 11
519.37433170366239
 21
270.46112551306493
 31
0.0
  0
LINE
  5
342A
  8
AM_0
 10
503.68923970366228
 20
293.21729251306488
 30
0.0
 11
522.90986770366203
 21
273.99667951306509
 31
0.0
  0
LINE
  5
342B
  8
AM_0
 10
592.44452170366208
 20
289.68176851306492
 30
0.0
 11
573.22389670366215
 21
270.46112551306493
 31
0.0
  0
LINE
  5
342C
  8
AM_0
 10
588.90898570366232
 20
293.21729251306488
 30
0.0
 11
569.68834270366222
 21
273.99664951306511
 31
0.0
  0
LINE
  5
342D
  8
AM_0
 10
461.29913470366222
 20
277.07187451306498
 30
0.0
 11
463.5667747036623
 21
320.34129151306507
 31
0.0
  0
LINE
  5
342E
  8
ﾁｭｳｼﾝｾﾝ1
 10
546.29910670366223
 20
336.57726220193229
 30
0.0
 11
546.29910670366223
 21
147.53803194187699
 31
0.0
  0
LINE
  5
3430
  8
AM_0
 10
584.29912270366208
 20
222.07188751306501
 30
0.0
 11
605.33301070366235
 21
222.07188751306501
 31
0.0
  0
LINE
  5
3431
  8
AM_0
 10
589.84839370366228
 20
164.57187151306499
 30
0.0
 11
619.05806470366224
 21
164.57187151306499
 31
0.0
  0
LINE
  5
3432
  8
ﾁｭｳｼﾝｾﾝ1
 10
459.62760717888841
 20
247.07190451306499
 30
0.0
 11
634.45022000724316
 21
247.07190451306499
 31
0.0
  0
LINE
  5
3434
  8
AM_0
 10
378.94864037977447
 20
262.07190451306502
 30
0.0
 11
378.94864037977447
 21
235.07190451306499
 31
0.0
  0
LINE
  5
3438
  8
AM_0
 10
461.2991047036619
 20
217.07187451306501
 30
0.0
 11
463.55387470366219
 21
174.04851151306499
 31
0.0
  0
LINE
  5
3439
  8
AM_0
 10
505.34790070366228
 20
169.07188651306501
 30
0.0
 11
587.25032470366239
 21
169.07188651306501
 31
0.0
  0
LINE
  5
343A
  8
AM_0
 10
518.17182970366218
 20
152.16675151306501
 30
0.0
 11
574.42639570366225
 21
152.16675151306501
 31
0.0
  0
LINE
  5
343B
  8
AM_0
 10
473.54016070366242
 20
164.57187151306499
 30
0.0
 11
502.74981670366242
 21
164.57187151306499
 31
0.0
  0
ARC
  5
343C
  8
AM_0
 10
473.54016070366242
 20
174.5718735130649
 30
0.0
 40
10.000000200000001
 50
183.00000999999969
 51
270.0
  0
ARC
  5
343D
  8
ﾁｭｳｼﾝｾﾝ1
 10
546.29910670366223
 20
247.07190451306499
 30
0.0
 40
100.000011
 50
217.75738000000089
 51
232.6399200000026
  0
LINE
  5
343E
  8
ﾁｭｳｼﾝｾﾝ1
 10
466.59977470366232
 20
167.37253051306499
 30
0.0
 11
485.29501270366228
 21
186.067768513065
 31
0.0
  0
CIRCLE
  5
343F
  8
AM_0
 10
475.58844070366229
 20
176.36119351306499
 30
0.0
 40
6.0000002999999991
  0
ARC
  5
3440
  8
AM_0
 10
546.29910670366223
 20
227.07188851306501
 30
0.0
 40
71.000000999999983
 50
234.7757900000008
 51
238.4932699999986
  0
LINE
  5
3441
  8
AM_0
 10
502.74981670366242
 20
164.57188651306501
 30
0.0
 11
505.34790070366228
 21
169.07188651306501
 31
0.0
  0
CIRCLE
  5
3442
  8
AM_0
 10
518.17182970366218
 20
159.166765513065
 30
0.0
 40
4.9796462999999971
  0
ARC
  5
3443
  8
AM_0
 10
518.17182970366218
 20
159.166765513065
 30
0.0
 40
7.0000007999999987
 50
164.9194399999995
 51
270.0
  0
LINE
  5
3444
  8
AM_0
 10
523.92183070366218
 20
159.16675051306501
 30
0.0
 11
521.04683170366229
 21
164.146411513065
 31
0.0
  0
LINE
  5
3445
  8
AM_0
 10
512.42181670366233
 20
159.166765513065
 30
0.0
 11
515.29681570366222
 21
164.146411513065
 31
0.0
  0
LINE
  5
3446
  8
AM_0
 10
521.04681670366233
 20
154.18712251306499
 30
0.0
 11
515.29684570366237
 21
154.18712251306499
 31
0.0
  0
LINE
  5
3447
  8
AM_0
 10
515.29684570366237
 20
154.18710451306501
 30
0.0
 11
512.42184670366225
 21
159.166765513065
 31
0.0
  0
LINE
  5
3448
  8
AM_0
 10
523.92184570366226
 20
159.16675051306501
 30
0.0
 11
521.04684670366237
 21
154.18710451306501
 31
0.0
  0
LINE
  5
3449
  8
AM_0
 10
521.04681670366233
 20
164.146411513065
 30
0.0
 11
515.29684570366237
 21
164.146411513065
 31
0.0
  0
ARC
  5
344A
  8
AM_0
 10
506.58160570366221
 20
162.275881513065
 30
0.0
 40
5.0000001000000003
 50
344.9836399999993
 51
56.872543000003567
  0
CIRCLE
  5
344B
  8
AM_0
 10
574.42639570366225
 20
159.166765513065
 30
0.0
 40
4.9796462999999971
  0
ARC
  5
344C
  8
AM_0
 10
574.42639570366225
 20
159.166765513065
 30
0.0
 40
7.0000007999999987
 50
270.000020000002
 51
15.080558999999271
  0
LINE
  5
344D
  8
AM_0
 10
577.30139470366225
 20
154.18712251306499
 30
0.0
 11
571.55140870366233
 21
154.18712251306499
 31
0.0
  0
LINE
  5
344E
  8
AM_0
 10
577.30139470366225
 20
164.146411513065
 30
0.0
 11
571.55140870366233
 21
164.146411513065
 31
0.0
  0
LINE
  5
344F
  8
AM_0
 10
568.67639470366225
 20
159.166765513065
 30
0.0
 11
571.55139370366226
 21
164.146411513065
 31
0.0
  0
LINE
  5
3450
  8
AM_0
 10
571.55140870366233
 20
154.18708951306499
 30
0.0
 11
568.67639470366225
 21
159.16675051306501
 31
0.0
  0
LINE
  5
3451
  8
AM_0
 10
580.17641170366221
 20
159.16675051306501
 30
0.0
 11
577.30139470366225
 21
164.14639651306501
 31
0.0
  0
LINE
  5
3452
  8
AM_0
 10
580.17641170366221
 20
159.16675051306501
 30
0.0
 11
577.30140970366222
 21
154.18710451306501
 31
0.0
  0
ARC
  5
3453
  8
AM_0
 10
586.01661970366229
 20
162.275881513065
 30
0.0
 40
5.0000001000000003
 50
121.5067300000014
 51
195.0163500000007
  0
ARC
  5
3454
  8
AM_0
 10
546.29910670366223
 20
227.07188851306501
 30
0.0
 40
71.000000999999983
 50
301.50671999999992
 51
305.22421000000008
  0
LINE
  5
3455
  8
AM_0
 10
589.84840870366224
 20
164.57187151306499
 30
0.0
 11
587.25032470366239
 21
169.07188651306501
 31
0.0
  0
ARC
  5
3456
  8
AM_0
 10
546.29910670366223
 20
247.07190451306499
 30
0.0
 40
26.500002599999998
 50
90.00000299999769
 51
270.0
  0
ARC
  5
3457
  8
AM_0
 10
546.29910670366223
 20
247.07190451306499
 30
0.0
 40
26.500002599999998
 50
270.0
 51
90.00000299999769
  0
ARC
  5
3458
  8
AM_0
 10
525.03119170366233
 20
276.11798851306497
 30
0.0
 40
3.0
 50
225.0
 51
306.212060000002
  0
LINE
  5
3459
  8
ﾁｭｳｼﾝｾﾝ1
 10
581.95616324954699
 20
227.06687701794721
 30
0.0
 11
510.64205015777731
 21
227.10602280035761
 31
0.0
  0
LINE
  5
345A
  8
AM_0
 10
513.29910370366224
 20
247.07190451306499
 30
0.0
 11
513.29910370366224
 21
227.07188851306501
 31
0.0
  0
LINE
  5
345B
  8
AM_0
 10
494.29910470366201
 20
242.07188851306501
 30
0.0
 11
494.29910470366201
 21
225.07188751306501
 31
0.0
  0
LINE
  5
345C
  8
AM_0
 10
461.29913470366222
 20
217.07190451306491
 30
0.0
 11
461.29913470366222
 21
247.07190451306499
 31
0.0
  0
ARC
  5
345D
  8
AM_0
 10
491.2991047036619
 20
225.07188751306501
 30
0.0
 40
3.0
 50
270.0
 51
0.0
  0
LINE
  5
345E
  8
AM_0
 10
508.2991027036619
 20
222.07188751306501
 30
0.0
 11
487.26522970366221
 21
222.07188751306501
 31
0.0
  0
ARC
  5
345F
  8
AM_0
 10
487.26522970366221
 20
225.07188751306501
 30
0.0
 40
3.0
 50
200.4387800000014
 51
270.0
  0
ARC
  5
3460
  8
AM_0
 10
508.2991027036619
 20
227.07188851306501
 30
0.0
 40
5.0000001000000003
 50
270.0
 51
0.0
  0
CIRCLE
  5
3461
  8
AM_0
 10
487.98767170366222
 20
271.81589251306502
 30
0.0
 40
4.9796462999999971
  0
ARC
  5
3462
  8
AM_0
 10
491.2991047036619
 20
242.07188851306501
 30
0.0
 40
3.0
 50
0.0
 51
90.00000299999769
  0
LINE
  5
3463
  8
AM_0
 10
493.73770270366242
 20
271.8158625130651
 30
0.0
 11
490.86267070366222
 21
276.79553851306503
 31
0.0
  0
LINE
  5
3464
  8
AM_0
 10
493.73767270366221
 20
271.81589251306502
 30
0.0
 11
490.86267070366222
 21
266.83624951306513
 31
0.0
  0
LINE
  5
3465
  8
AM_0
 10
483.49783270366231
 20
249.07189051306511
 30
0.0
 11
491.52685570366219
 21
249.07189051306511
 31
0.0
  0
ARC
  5
3466
  8
AM_0
 10
479.0138557036621
 20
256.90523251306507
 30
0.0
 40
2.00000007
 50
351.68540999999948
 51
79.999998000000815
  0
LINE
  5
3467
  8
AM_0
 10
461.29913470366222
 20
277.07190451306502
 30
0.0
 11
461.29913470366222
 21
247.07190451306499
 31
0.0
  0
ARC
  5
3468
  8
AM_0
 10
483.49783270366231
 20
242.07188851306501
 30
0.0
 40
3.0
 50
90.00000299999769
 51
184.55207000000041
  0
LINE
  5
3469
  8
AM_0
 10
483.49783270366231
 20
245.07188851306501
 30
0.0
 11
491.2991047036619
 21
245.07188851306501
 31
0.0
  0
ARC
  5
346A
  8
AM_0
 10
483.49783270366231
 20
252.071890513065
 30
0.0
 40
3.0
 50
175.4479299999995
 51
270.0
  0
LINE
  5
346B
  8
AM_0
 10
485.11267270366221
 20
266.83621951306498
 30
0.0
 11
482.23767070366227
 21
271.8158625130651
 31
0.0
  0
ARC
  5
346C
  8
AM_0
 10
479.0138557036621
 20
256.90523251306507
 30
0.0
 40
2.00000007
 50
79.999998000000815
 51
171.68540999999939
  0
ARC
  5
346D
  8
AM_0
 10
478.77633670366242
 20
261.27306151306487
 30
0.0
 40
3.0
 50
348.1228399999996
 51
48.856062999999523
  0
LINE
  5
346E
  8
AM_0
 10
479.3611747036623
 20
258.87483751306502
 30
0.0
 11
479.3611747036623
 21
258.87483751306502
 31
0.0
  0
LINE
  5
346F
  8
AM_0
 10
490.86267070366222
 20
266.83624951306513
 30
0.0
 11
485.11267270366221
 21
266.83624951306513
 31
0.0
  0
LINE
  5
3470
  8
AM_0
 10
482.23764070366229
 20
271.81589251306502
 30
0.0
 11
485.11267270366221
 21
276.79553851306503
 31
0.0
  0
LINE
  5
3471
  8
AM_0
 10
490.86267070366222
 20
276.79553851306503
 30
0.0
 11
485.11267270366221
 21
276.79553851306503
 31
0.0
  0
ARC
  5
3472
  8
AM_0
 10
491.52685570366219
 20
252.071890513065
 30
0.0
 40
3.0
 50
270.0
 51
354.78408999999999
  0
ARC
  5
3473
  8
AM_0
 10
517.25300770366232
 20
268.339789513065
 30
0.0
 40
3.0
 50
323.78793999999692
 51
45.000001000002641
  0
ARC
  5
3474
  8
AM_0
 10
546.29910670366223
 20
247.07190451306499
 30
0.0
 40
12.0000003
 50
109.4712200000001
 51
70.528788999999293
  0
LINE
  5
3475
  8
AM_0
 10
579.29910670366223
 20
247.07190451306499
 30
0.0
 11
579.29910670366223
 21
227.07188851306501
 31
0.0
  0
ARC
  5
3476
  8
AM_0
 10
584.29912270366208
 20
227.07188851306501
 30
0.0
 40
5.0000001000000003
 50
179.99999000000059
 51
270.0
  0
LINE
  5
3477
  8
AM_0
 10
550.29909070366239
 20
262.07190451306502
 30
0.0
 11
550.29909070366239
 21
255.07189051306511
 31
0.0
  0
LINE
  5
3478
  8
AM_0
 10
542.29908970366239
 20
262.07190451306502
 30
0.0
 11
542.29908970366239
 21
255.07189051306511
 31
0.0
  0
CIRCLE
  5
3479
  8
AM_5
 10
546.29910670366223
 20
247.07190451306499
 30
0.0
 40
4.000000199999997
  0
CIRCLE
  5
347A
  8
AM_0
 10
546.29910670366223
 20
247.07190451306499
 30
0.0
 40
3.0
  0
LINE
  5
347B
  8
AM_0
 10
542.29908970366239
 20
255.07189051306511
 30
0.0
 11
550.29909070366239
 21
255.07189051306511
 31
0.0
  0
LINE
  5
347C
  8
AM_0
 10
542.29908970366239
 20
262.07190451306502
 30
0.0
 11
550.29909070366239
 21
262.07190451306502
 31
0.0
  0
ARC
  5
347D
  8
AM_0
 10
575.34521770366234
 20
268.339789513065
 30
0.0
 40
3.0
 50
135.0
 51
216.21206000000311
  0
ARC
  5
347E
  8
AM_0
 10
567.56703370366233
 20
276.11798851306497
 30
0.0
 40
3.0
 50
233.7879399999978
 51
315.0
  0
LINE
  5
347F
  8
AM_0
 10
631.2991237036623
 20
217.07187451306501
 30
0.0
 11
629.04436270366239
 21
174.04851151306499
 31
0.0
  0
ARC
  5
3480
  8
AM_0
 10
619.05806470366224
 20
174.5718735130649
 30
0.0
 40
10.000000200000001
 50
270.0
 51
356.99999999999949
  0
ARC
  5
3481
  8
ﾁｭｳｼﾝｾﾝ1
 10
546.29910670366223
 20
247.07190451306499
 30
0.0
 40
100.000011
 50
304.41150999999923
 51
322.63991999999888
  0
LINE
  5
3482
  8
ﾁｭｳｼﾝｾﾝ1
 10
608.94099970366221
 20
184.42999651306499
 30
0.0
 11
625.9984627036622
 21
167.37253051306499
 31
0.0
  0
CIRCLE
  5
3483
  8
AM_0
 10
617.00978470366215
 20
176.36119351306499
 30
0.0
 40
6.0000002999999991
  0
LINE
  5
3484
  8
AM_0
 10
631.29910870366223
 20
217.07190451306491
 30
0.0
 11
631.29910870366223
 21
247.07190451306499
 31
0.0
  0
LINE
  5
3485
  8
AM_0
 10
598.29912070366231
 20
242.07188851306501
 30
0.0
 11
598.29912070366231
 21
225.07188751306501
 31
0.0
  0
ARC
  5
3486
  8
AM_0
 10
605.33301070366235
 20
225.07188751306501
 30
0.0
 40
3.0
 50
270.0
 51
339.56121999999863
  0
ARC
  5
3487
  8
AM_0
 10
601.2991207036622
 20
225.07188751306501
 30
0.0
 40
3.0
 50
179.99999000000059
 51
270.0
  0
ARC
  5
3488
  8
AM_0
 10
546.29910670366223
 20
247.07190451306499
 30
0.0
 40
70.000001999999995
 50
0.0
 51
15.45248699999985
  0
ARC
  5
3489
  8
AM_0
 10
546.29910670366223
 20
247.07190451306499
 30
0.0
 40
66.000003000000007
 50
0.0
 51
11.877162000000441
  0
ARC
  5
348A
  8
AM_0
 10
613.58436970366222
 20
256.90523251306507
 30
0.0
 40
2.00000007
 50
99.999999999998593
 51
188.31459000000061
  0
LINE
  5
348B
  8
AM_0
 10
609.10039270366224
 20
245.07188851306501
 30
0.0
 11
601.2991207036622
 21
245.07188851306501
 31
0.0
  0
LINE
  5
348C
  8
AM_0
 10
609.10039270366224
 20
249.07189051306511
 30
0.0
 11
601.0713697036623
 21
249.07189051306511
 31
0.0
  0
ARC
  5
348D
  8
AM_0
 10
601.2991207036622
 20
242.07188851306501
 30
0.0
 40
3.0
 50
90.00000299999769
 51
180.00000999999941
  0
ARC
  5
348E
  8
AM_0
 10
601.0713697036623
 20
252.071890513065
 30
0.0
 40
3.0
 50
185.21590999999989
 51
270.0
  0
ARC
  5
348F
  8
AM_0
 10
609.10039270366224
 20
242.07188851306501
 30
0.0
 40
3.0
 50
355.44792999999947
 51
90.00000299999769
  0
ARC
  5
3490
  8
AM_0
 10
609.10039270366224
 20
252.071890513065
 30
0.0
 40
3.0
 50
270.0
 51
4.5520713999997291
  0
CIRCLE
  5
3491
  8
AM_0
 10
604.61061370366235
 20
271.815832513065
 30
0.0
 40
4.9796462999999971
  0
LINE
  5
3492
  8
AM_0
 10
610.36061470366224
 20
271.81580251306502
 30
0.0
 11
607.48561570366235
 21
276.79547851306501
 31
0.0
  0
LINE
  5
3493
  8
AM_0
 10
610.36061470366224
 20
271.815832513065
 30
0.0
 11
607.48561570366235
 21
266.83615651306502
 31
0.0
  0
LINE
  5
3494
  8
AM_0
 10
601.73561470366224
 20
266.83615651306502
 30
0.0
 11
598.86061570366235
 21
271.815832513065
 31
0.0
  0
LINE
  5
3495
  8
AM_0
 10
607.48561570366235
 20
266.836186513065
 30
0.0
 11
601.73561470366224
 21
266.836186513065
 31
0.0
  0
LINE
  5
3496
  8
AM_0
 10
598.86061570366235
 20
271.81580251306502
 30
0.0
 11
601.73561470366224
 21
276.79547851306501
 31
0.0
  0
LINE
  5
3497
  8
AM_0
 10
607.48561570366235
 20
276.79547851306501
 30
0.0
 11
601.73561470366224
 21
276.79547851306501
 31
0.0
  0
ARC
  5
3498
  8
AM_0
 10
613.8219037036622
 20
261.27306151306487
 30
0.0
 40
3.0
 50
131.1439400000028
 51
191.8771600000004
  0
ARC
  5
3499
  8
AM_0
 10
613.58436970366222
 20
256.90523251306507
 30
0.0
 40
2.00000007
 50
8.3145874000007272
 51
99.999999999998593
  0
LINE
  5
349A
  8
AM_0
 10
613.23708070366229
 20
258.87483751306502
 30
0.0
 11
613.23708070366229
 21
258.87483751306502
 31
0.0
  0
LINE
  5
349B
  8
AM_0
 10
631.29910870366223
 20
277.07190451306502
 30
0.0
 11
631.29910870366223
 21
247.07190451306499
 31
0.0
  0
ARC
  5
349C
  8
AM_0
 10
546.29910670366223
 20
247.07190451306499
 30
0.0
 40
70.000001999999995
 50
30.534626999999471
 51
149.4653700000006
  0
ARC
  5
349D
  8
AM_0
 10
546.29910670366223
 20
247.07190451306499
 30
0.0
 40
66.000003000000007
 50
34.109953999997551
 51
145.89004000000139
  0
LINE
  5
349E
  8
AM_0
 10
576.29912170366208
 20
332.071891513065
 30
0.0
 11
619.56853270366207
 21
329.80425151306508
 31
0.0
  0
LINE
  5
34A0
  8
AM_0
 10
516.29910370366224
 20
332.071891513065
 30
0.0
 11
546.29910670366223
 21
332.071891513065
 31
0.0
  0
ARC
  5
34A1
  8
AM_0
 10
473.55306970366229
 20
319.81794151306508
 30
0.0
 40
10.000000200000001
 50
92.999999000001623
 51
176.9999900000002
  0
CIRCLE
  5
34A2
  8
AM_0
 10
475.58844070366229
 20
317.78256151306488
 30
0.0
 40
6.0000002999999991
  0
ARC
  5
34A3
  8
ﾁｭｳｼﾝｾﾝ1
 10
546.29910670366223
 20
247.07190451306499
 30
0.0
 40
100.000011
 50
123.1702499999994
 51
142.63991999999899
  0
LINE
  5
34A4
  8
ﾁｭｳｼﾝｾﾝ1
 10
466.48199470366222
 20
326.88897151306492
 30
0.0
 11
485.3046577036622
 21
308.06634151306508
 31
0.0
  0
ARC
  5
34A5
  8
AM_0
 10
491.76803770366229
 20
287.696509513065
 30
0.0
 40
2.00000007
 50
235.00000000000259
 51
323.31459000000092
  0
ARC
  5
34A6
  8
AM_0
 10
489.16967770366227
 20
285.76590751306492
 30
0.0
 40
3.0
 50
265.15681999999839
 51
325.89004999999969
  0
ARC
  5
34A7
  8
AM_0
 10
491.76803770366229
 20
287.696509513065
 30
0.0
 40
2.00000007
 50
143.31457999999751
 51
235.00000999999719
  0
LINE
  5
34A8
  8
AM_0
 10
490.6208797036623
 20
286.058203513065
 30
0.0
 11
490.6208797036623
 21
286.058203513065
 31
0.0
  0
ARC
  5
34A9
  8
AM_0
 10
498.032379703662
 20
287.56046251306481
 30
0.0
 40
3.0
 50
45.000001000002641
 51
140.00838999999721
  0
ARC
  5
34AA
  8
AM_0
 10
505.81054870366199
 20
295.33859851306511
 30
0.0
 40
3.0
 50
129.99160999999941
 51
225.0
  0
ARC
  5
34AB
  8
AM_0
 10
546.29909160339696
 20
247.07190451306499
 30
0.0
 40
52.000007999999987
 50
95.215910999999622
 51
132.24432999999581
  0
LINE
  5
34AD
  8
AM_0
 10
516.2991187036622
 20
332.071891513065
 30
0.0
 11
473.02969270366191
 21
329.80422151306487
 31
0.0
  0
ARC
  5
34AF
  8
AM_0
 10
546.29910670366223
 20
247.07190451306499
 30
0.0
 40
52.000007999999987
 50
47.755664999999908
 51
84.784093999997509
  0
ARC
  5
34B0
  8
AM_0
 10
541.29910570366224
 20
301.84415251306501
 30
0.0
 40
3.0
 50
275.21591000000001
 51
0.0
  0
ARC
  5
34B1
  8
AM_0
 10
551.2991197036622
 20
301.84415251306501
 30
0.0
 40
3.0
 50
179.99999000000059
 51
264.78408999999988
  0
ARC
  5
34B3
  8
AM_0
 10
541.29910570366224
 20
309.87315151306501
 30
0.0
 40
3.0
 50
0.0
 51
94.552071000002115
  0
ARC
  5
34B4
  8
AM_0
 10
551.2991197036622
 20
309.87315151306501
 30
0.0
 40
3.0
 50
85.44792699999806
 51
180.00000999999941
  0
LINE
  5
34B5
  8
AM_0
 10
544.29910570366224
 20
309.87315151306501
 30
0.0
 11
544.29910570366224
 21
301.84415251306501
 31
0.0
  0
LINE
  5
34B6
  8
AM_0
 10
548.29911970366231
 20
309.87315151306501
 30
0.0
 11
548.29911970366231
 21
301.84415251306501
 31
0.0
  0
ARC
  5
34B7
  8
AM_0
 10
586.78767670366221
 20
295.33859851306511
 30
0.0
 40
3.0
 50
315.0
 51
50.008388000002853
  0
LINE
  5
34B8
  8
AM_0
 10
576.29910670366223
 20
332.071891513065
 30
0.0
 11
546.29910670366223
 21
332.071891513065
 31
0.0
  0
ARC
  5
34BB
  8
AM_0
 10
619.04517070366205
 20
319.81794151306508
 30
0.0
 40
10.000000200000001
 50
3.0000001000004741
 51
86.999998999996933
  0
CIRCLE
  5
34BC
  8
AM_0
 10
617.00978470366215
 20
317.78256151306488
 30
0.0
 40
6.0000002999999991
  0
ARC
  5
34BD
  8
ﾁｭｳｼﾝｾﾝ1
 10
546.29910670366223
 20
247.07190451306499
 30
0.0
 40
100.000011
 50
37.757374999997211
 51
52.639915999998472
  0
LINE
  5
34BE
  8
ﾁｭｳｼﾝｾﾝ1
 10
626.11623070366215
 20
326.88900151306501
 30
0.0
 11
607.26285070366237
 21
308.03562151306511
 31
0.0
  0
ARC
  5
34BF
  8
AM_0
 10
600.83020570366227
 20
287.696509513065
 30
0.0
 40
2.00000007
 50
216.68542000000249
 51
304.99999999999739
  0
ARC
  5
34C0
  8
AM_0
 10
603.42856270366235
 20
285.76590751306492
 30
0.0
 40
3.0
 50
214.10995999999861
 51
274.84318000000161
  0
ARC
  5
34C1
  8
AM_0
 10
600.83020570366227
 20
287.696509513065
 30
0.0
 40
2.00000007
 50
304.99999999999739
 51
36.685413999998168
  0
LINE
  5
34C2
  8
AM_0
 10
601.97736070366204
 20
286.058203513065
 30
0.0
 11
601.97736070366204
 21
286.058203513065
 31
0.0
  0
ARC
  5
34C3
  8
AM_0
 10
594.56584570366215
 20
287.56046251306481
 30
0.0
 40
3.0
 50
39.991611000002862
 51
135.0
  0
POINT
  5
34C4
  8
0
 10
8.6720274401889128
 20
503.78000887196879
 30
0.0
1001
GENIUS_GENOLIS_13
1002
{
1000
ENT
1005
0
1005
32FA
1005
32F9
1002
}
1001
GENIUS_GENOENT_13
1002
{
1000
MYREF
1005
34C4
1002
}
1002
{
1000
GRP
1005
0
1002
}
1001
GENIUS_GENOBJ-NBEHI-BHB_13
1002
{
1000
OWNER
1000
genbehi
1002
}
1001
GENIUS_GENBH_13
1002
{
1000
FGO
1005
0
1002
}
1001
GENIUS_GENODEF_13
1002
{
1000
HIER
1070
     1
1002
}
1002
{
1000
MANEDIT
1070
     1
1002
}
1002
{
1000
NOSEL
1070
     1
1002
}
1002
{
1000
BEHIND
1070
     0
1002
}
1002
{
1000
OTHER
1070
     1
1002
}
1002
{
1000
REACTOR
1002
}
  0
LINE
  5
364C
  8
AM_0
 10
127.4396623797744
 20
161.47192601306489
 30
0.0
 11
215.44865037977439
 21
161.47192601306489
 31
0.0
  0
TEXT
  5
39CB
  8
AM_0
 10
448.89024595208002
 20
495.43901968484192
 30
0.0
 40
10.0
  1
VX02-040SF~VX02-060SF
  0
ENDSEC
  0
EOF
