  0
SECTION
  2
HEADER
  9
$ACADVER
  1
AC1009
  9
$INSBASE
 10
0.0
 20
0.0
 30
0.0
  9
$EXTMIN
 10
50.00665205849964
 20
100.4521016476849
 30
-0.0015258207003583
  9
$EXTMAX
 10
638.69353312774888
 20
555.08327054268602
 30
0.0000000349246037
  9
$LIMMIN
 10
0.0
 20
0.0
  9
$LIMMAX
 10
853.5
 20
555.00000000000011
  9
$ORTHOMODE
 70
     0
  9
$REGENMODE
 70
     1
  9
$FILLMODE
 70
     1
  9
$QTEXTMODE
 70
     0
  9
$MIRRTEXT
 70
     1
  9
$DRAGMODE
 70
     2
  9
$LTSCALE
 40
3.0
  9
$OSMODE
 70
   551
  9
$ATTMODE
 70
     1
  9
$TEXTSIZE
 40
2.5
  9
$TRACEWID
 40
1.0
  9
$TEXTSTYLE
  7
STANDARD
  9
$CLAYER
  8
AM_0
  9
$CELTYPE
  6
BYLAYER
  9
$CECOLOR
 62
   256
  9
$DIMSCALE
 40
1.0
  9
$DIMASZ
 40
2.5
  9
$DIMEXO
 40
1.0
  9
$DIMDLI
 40
8.0
  9
$DIMRND
 40
0.0
  9
$DIMDLE
 40
0.0
  9
$DIMEXE
 40
0.6
  9
$DIMTP
 40
0.1
  9
$DIMTM
 40
0.1
  9
$DIMTXT
 40
2.5
  9
$DIMCEN
 40
0.0
  9
$DIMTSZ
 40
0.0
  9
$DIMTOL
 70
     0
  9
$DIMLIM
 70
     0
  9
$DIMTIH
 70
     0
  9
$DIMTOH
 70
     0
  9
$DIMSE1
 70
     0
  9
$DIMSE2
 70
     0
  9
$DIMTAD
 70
     1
  9
$DIMZIN
 70
     8
  9
$DIMBLK
  1

  9
$DIMASO
 70
     1
  9
$DIMSHO
 70
     1
  9
$DIMPOST
  1

  9
$DIMAPOST
  1
"
  9
$DIMALT
 70
     0
  9
$DIMALTD
 70
     2
  9
$DIMALTF
 40
0.0393701
  9
$DIMLFAC
 40
1.0
  9
$DIMTOFL
 70
     1
  9
$DIMTVP
 40
0.0
  9
$DIMTIX
 70
     0
  9
$DIMSOXD
 70
     0
  9
$DIMSAH
 70
     0
  9
$DIMBLK1
  1

  9
$DIMBLK2
  1

  9
$DIMSTYLE
  2
AM_ISO
  9
$DIMCLRD
 70
   256
  9
$DIMCLRE
 70
   256
  9
$DIMCLRT
 70
     4
  9
$DIMTFAC
 40
0.71
  9
$DIMGAP
 40
0.8
  9
$LUNITS
 70
     2
  9
$LUPREC
 70
     2
  9
$SKETCHINC
 40
1.0
  9
$FILLETRAD
 40
15.0
  9
$AUNITS
 70
     0
  9
$AUPREC
 70
     0
  9
$MENU
  1
.
  9
$ELEVATION
 40
0.0
  9
$PELEVATION
 40
0.0
  9
$THICKNESS
 40
0.0
  9
$LIMCHECK
 70
     0
  9
$BLIPMODE
 70
     0
  9
$CHAMFERA
 40
6.0
  9
$CHAMFERB
 40
3.0
  9
$SKPOLY
 70
     0
  9
$TDCREATE
 40
2452065.7447439241
  9
$TDUPDATE
 40
2458541.588290636
  9
$TDINDWG
 40
0.18220875
  9
$TDUSRTIMER
 40
0.1822083796
  9
$USRTIMER
 70
     1
  9
$ANGBASE
 50
0.0
  9
$ANGDIR
 70
     0
  9
$PDMODE
 70
     0
  9
$PDSIZE
 40
0.0
  9
$PLINEWID
 40
0.0
  9
$COORDS
 70
     1
  9
$SPLFRAME
 70
     0
  9
$SPLINETYPE
 70
     6
  9
$SPLINESEGS
 70
     8
  9
$ATTDIA
 70
     1
  9
$ATTREQ
 70
     1
  9
$HANDLING
 70
     1
  9
$HANDSEED
  5
3DE9
  9
$SURFTAB1
 70
     6
  9
$SURFTAB2
 70
     6
  9
$SURFTYPE
 70
     6
  9
$SURFU
 70
     6
  9
$SURFV
 70
     6
  9
$UCSNAME
  2

  9
$UCSORG
 10
0.0
 20
0.0
 30
0.0
  9
$UCSXDIR
 10
1.0
 20
0.0
 30
0.0
  9
$UCSYDIR
 10
0.0
 20
1.0
 30
0.0
  9
$PUCSNAME
  2

  9
$PUCSORG
 10
0.0
 20
0.0
 30
0.0
  9
$PUCSXDIR
 10
1.0
 20
0.0
 30
0.0
  9
$PUCSYDIR
 10
0.0
 20
1.0
 30
0.0
  9
$USERI1
 70
     0
  9
$USERI2
 70
     0
  9
$USERI3
 70
     0
  9
$USERI4
 70
     0
  9
$USERI5
 70
     0
  9
$USERR1
 40
0.0
  9
$USERR2
 40
0.0
  9
$USERR3
 40
0.0
  9
$USERR4
 40
0.0
  9
$USERR5
 40
0.0
  9
$WORLDVIEW
 70
     1
  9
$SHADEDGE
 70
     3
  9
$SHADEDIF
 70
    70
  9
$TILEMODE
 70
     1
  9
$MAXACTVP
 70
    64
  9
$PLIMCHECK
 70
     0
  9
$PEXTMIN
 10
1.0000000000000000E+020
 20
1.0000000000000000E+020
 30
1.0000000000000000E+020
  9
$PEXTMAX
 10
-1.0000000000000000E+020
 20
-1.0000000000000000E+020
 30
-1.0000000000000000E+020
  9
$PLIMMIN
 10
0.0
 20
0.0
  9
$PLIMMAX
 10
420.0
 20
297.0
  9
$UNITMODE
 70
     0
  9
$VISRETAIN
 70
     1
  9
$PLINEGEN
 70
     0
  9
$PSLTSCALE
 70
     1
  0
ENDSEC
  0
SECTION
  2
TABLES
  0
TABLE
  2
VPORT
 70
     1
  0
VPORT
  2
*ACTIVE
 70
     0
 10
0.0
 20
0.0
 11
1.0
 21
1.0
 12
344.35009259312432
 22
327.76768609518552
 13
0.0
 23
0.0
 14
7.5
 24
7.5
 15
30.0
 25
30.0
 16
0.0
 26
0.0
 36
1.0
 17
0.0
 27
0.0
 37
0.0
 40
457.75220666773572
 41
1.7571592210767459
 42
50.0
 43
0.0
 44
0.0
 50
0.0
 51
0.0
 71
     0
 72
   100
 73
     1
 74
     3
 75
     0
 76
     0
 77
     0
 78
     0
  0
ENDTAB
  0
TABLE
  2
LTYPE
 70
    19
  0
LTYPE
  2
CONTINUOUS
 70
     0
  3
Solid line
 72
    65
 73
     0
 40
0.0
  0
LTYPE
  2
AM_ISO02W050
 70
     0
  3
__ __ __ __ __ __ __ __ __ __ __ __ __ __ __
 72
    65
 73
     2
 40
7.5
 49
6.0
 49
-1.5
  0
LTYPE
  2
AM_ISO08W050
 70
     0
  3
____ . ____ . ____ . ____ . ____ . ____ . ____
 72
    65
 73
     4
 40
18.0
 49
12.0
 49
-1.5
 49
3.0
 49
-1.5
  0
LTYPE
  2
AM_ISO09W050
 70
     0
  3
_____ . . _____ . . _____ . . ____ .. ____
 72
    65
 73
     6
 40
22.5
 49
12.0
 49
-1.5
 49
3.0
 49
-1.5
 49
3.0
 49
-1.5
  0
LTYPE
  2
AMCONSTR
 70
     0
  3
_______________________
 72
    65
 73
     2
 40
9999.0
 49
9999.0
 49
0.0
  0
LTYPE
  2
AM_ISO08W050X2
 70
     0
  3
__ . __ . __ . __ . __ . __
 72
    65
 73
     4
 40
9.0
 49
6.0
 49
-0.75
 49
1.5
 49
-0.75
  0
LTYPE
  2
AM_ISO02W050X2
 70
     0
  3
 _ _ _ _ _ _ _ _ _ _ _ _
 72
    65
 73
     2
 40
3.75
 49
3.0
 49
-0.75
  0
LTYPE
  2
AMZIGZAG
 70
     0
  3
/\/-/\/-/\/-/\/-/\/-/\/
 72
    65
 73
     2
 40
11.0001
 49
0.0001
 49
-11.0
  0
LTYPE
  2
CENTER
 70
     0
  3
__ . __
 72
    65
 73
     4
 40
7.0
 49
4.0
 49
-1.0
 49
1.0
 49
-1.0
  0
LTYPE
  2
PHANTOM2
 70
     0
  3
Phantom (.5x) ___ _ _ ___ _ _ ___ _ _ ___ _ _
 72
    65
 73
     6
 40
31.75
 49
15.875
 49
-3.174999999999998
 49
3.174999999999998
 49
-3.174999999999998
 49
3.174999999999998
 49
-3.174999999999998
  0
LTYPE
  2
GEN7
 70
     0
  3
____ . ____ . ____ . ____ . ____ . ____ . ____
 72
    65
 73
     4
 40
14.25
 49
9.75
 49
-1.5
 49
1.5
 49
-1.5
  0
LTYPE
  2
GEN7A
 70
     0
  3
__ . __ . __
 72
    65
 73
     4
 40
7.375
 49
4.75
 49
-0.875
 49
0.875
 49
-0.875
  0
LTYPE
  2
HIDDEN
 70
     0
  3
Hidden __ __ __ __ __ __ __ __ __ __ __ __ __ _
 72
    65
 73
     2
 40
9.5249999999999986
 49
6.349999999999997
 49
-3.174999999999998
  0
LTYPE
  2
CENTER2
 70
     0
  3
Center (.5x) ___ _ ___ _ ___ _ ___ _ ___ _ ___
 72
    65
 73
     4
 40
1.125
 49
0.75
 49
-0.125
 49
0.125
 49
-0.125
  0
LTYPE
  2
HIDDEN2
 70
     0
  3
Hidden (.5x) _ _ _ _ _ _ _ _ _ _ _ _ _ _ _ _ _
 72
    65
 73
     2
 40
0.1875
 49
0.125
 49
-0.0625
  0
LTYPE
  2
AMZIGZAG2
 70
     0
  3
/\/-/\/-/\/-/\/-/\/-/\/
 72
    65
 73
     2
 40
0.4401
 49
0.0001
 49
-0.4400000000000001
  0
LTYPE
  2
ACANSTGB
 70
     0
  3
__ . . __ . .
 72
    65
 73
     6
 40
0.35433070866
 49
0.15748031496
 49
-0.03937007874
 49
0.03937007874
 49
-0.03937007874
 49
0.03937007874
 49
-0.03937007874
  0
LTYPE
  2
ACANSTGL
 70
     0
  3
_ _ _ _ _
 72
    65
 73
     2
 40
0.11811023622
 49
0.07874015748
 49
-0.03937007874
  0
ENDTAB
  0
TABLE
  2
LAYER
 70
     9
  0
LAYER
  2
0
 70
     0
 62
     7
  6
CONTINUOUS
  0
LAYER
  2
AM_0
 70
     0
 62
     7
  6
CONTINUOUS
  0
LAYER
  2
AM_5
 70
     0
 62
     2
  6
CONTINUOUS
  0
LAYER
  2
DEFPOINTS
 70
     0
 62
     7
  6
CONTINUOUS
  0
LAYER
  2
ﾁｭｳｼﾝｾﾝ
 70
     0
 62
     1
  6
GEN7
  0
LAYER
  2
ﾁｭｳｼﾝｾﾝ1
 70
     0
 62
     1
  6
GEN7A
  0
LAYER
  2
AM_0N
 70
     0
 62
     7
  6
CONTINUOUS
  0
LAYER
  2
AM_3N
 70
     0
 62
     3
  6
AM_ISO02W050
  0
LAYER
  2
ｽﾝﾎ_ｳｾﾝ
 70
     0
 62
     2
  6
CONTINUOUS
  0
ENDTAB
  0
TABLE
  2
STYLE
 70
     5
  0
STYLE
  2
STANDARD
 70
     0
 40
0.0
 41
0.8299999999999999
 50
0.0
 71
     0
 42
2.5
  3
txt.shx
  4
bigfont.shx
  0
STYLE
  2
ANNOTATIVE
 70
     0
 40
0.0
 41
1.0
 50
0.0
 71
     0
 42
0.2
  3
txt
  4

  0
STYLE
  2

 70
     1
 40
0.0
 41
1.0
 50
0.0
 71
     0
 42
2.5
  3
genltshp.shx
  4

  0
STYLE
  2
ACANSTS
 70
     0
 40
0.0
 41
1.0
 50
0.0
 71
     0
 42
2.5
  3
romans.shx
  4
extfont.shx
  0
STYLE
  2
ACANSGDT
 70
     0
 40
0.0
 41
1.0
 50
0.0
 71
     0
 42
2.5
  3
amgdt.shx
  4

  0
ENDTAB
  0
TABLE
  2
VIEW
 70
     6
  0
VIEW
  2
AM_VIEW1
 70
     0
 40
277.50000000000011
 10
249.64779005524869
 20
416.24999999999989
 41
499.2955801104971
 11
0.0
 21
0.0
 31
1.0
 12
0.0
 22
0.0
 32
0.0
 42
50.0
 43
0.0
 44
0.0
 50
0.0
 71
     0
  0
VIEW
  2
AM_VIEW2
 70
     0
 40
277.50000000000011
 10
603.85220994475117
 20
416.24999999999989
 41
499.2955801104971
 11
0.0
 21
0.0
 31
1.0
 12
0.0
 22
0.0
 32
0.0
 42
50.0
 43
0.0
 44
0.0
 50
0.0
 71
     0
  0
VIEW
  2
AM_VIEW3
 70
     0
 40
277.50000000000011
 10
249.64779005524869
 20
138.75
 41
499.2955801104971
 11
0.0
 21
0.0
 31
1.0
 12
0.0
 22
0.0
 32
0.0
 42
50.0
 43
0.0
 44
0.0
 50
0.0
 71
     0
  0
VIEW
  2
AM_VIEW4
 70
     0
 40
277.50000000000011
 10
603.85220994475117
 20
138.75
 41
499.2955801104971
 11
0.0
 21
0.0
 31
1.0
 12
0.0
 22
0.0
 32
0.0
 42
50.0
 43
0.0
 44
0.0
 50
0.0
 71
     0
  0
VIEW
  2
AM_VIEW5
 70
     0
 40
277.50000000000011
 10
426.75
 20
277.50000000000011
 41
499.2955801104971
 11
0.0
 21
0.0
 31
1.0
 12
0.0
 22
0.0
 32
0.0
 42
50.0
 43
0.0
 44
0.0
 50
0.0
 71
     0
  0
VIEW
  2
AM_VIEW6
 70
     0
 40
554.99445000000014
 10
426.75
 20
277.5
 41
998.5811743093924
 11
0.0
 21
0.0
 31
1.0
 12
0.0
 22
0.0
 32
0.0
 42
50.0
 43
0.0
 44
0.0
 50
0.0
 71
     0
  0
ENDTAB
  0
TABLE
  2
UCS
 70
     0
  0
ENDTAB
  0
TABLE
  2
APPID
 70
    97
  0
APPID
  2
ACAD
 70
     0
  0
APPID
  2
ACADANNOTATIVE
 70
     0
  0
APPID
  2
MCAD_NO_VIS
 70
     0
  0
APPID
  2
ACAD_TEMP_GRAPHIC
 70
     0
  0
APPID
  2
ACATTRIBSERVICES
 70
     0
  0
APPID
  2
GENIUS_GENREC_14
 70
     0
  0
APPID
  2
GENIUS_GENOBJ-N-REC_13
 70
     0
  0
APPID
  2
GENIUS_GENODEF_13
 70
     0
  0
APPID
  2
GENIUS_GENOLIS_13
 70
     0
  0
APPID
  2
GENIUS_GENOBJ-N-TIT_13
 70
     0
  0
APPID
  2
GENIUS_GENOENT_13
 70
     0
  0
APPID
  2
GENIUS_GENTITLE_13
 70
     0
  0
APPID
  2
GENIUS_GENOREF_13
 70
     0
  0
APPID
  2
GENIUS_GENSCREG_15
 70
     0
  0
APPID
  2
GENIUS_GENOBJ-N-SDF_13
 70
     0
  0
APPID
  2
GENIUS_GENFIL_13
 70
     0
  0
APPID
  2
GENIUS_GENOBJ-N-CHA_13
 70
     0
  0
APPID
  2
GENIUS_GENDTOL_13
 70
     0
  0
APPID
  2
GENIUS_GENOBJ-N-FIL_13
 70
     0
  0
APPID
  2
AD_DRAW
 70
     0
  0
APPID
  2
DESIGNERASSEMBLIES
 70
     0
  0
APPID
  2
ASURF_PCURVE_APPNAME
 70
     0
  0
APPID
  2
GENIUS_GE3SECT_13
 70
     0
  0
APPID
  2
GENIUS_GENCFG_13
 70
     0
  0
APPID
  2
GENIUS_GE3CFG0_13
 70
     0
  0
APPID
  2
GENIUS_GENCFG0_13
 70
     0
  0
APPID
  2
GENIUS_GENCFG1_13
 70
     0
  0
APPID
  2
GENIUS_GENCFG2_13
 70
     0
  0
APPID
  2
GENIUS_GENCFG3_13
 70
     0
  0
APPID
  2
GENIUS_GENCFG4_13
 70
     0
  0
APPID
  2
GENIUS_GEVCFG0_13
 70
     0
  0
APPID
  2
GENIUS_GENHINW_13
 70
     0
  0
APPID
  2
GENIUS_FIRSTVISTXT_14
 70
     0
  0
APPID
  2
GENIUS_GENOBJ-N-LEADER_13
 70
     0
  0
APPID
  2
GEV_VCCNULL_SWITCH_OFF
 70
     0
  0
APPID
  2
GENIUS_GEFCFG0_13
 70
     0
  0
APPID
  2
GENIUS_GENZVEED_13
 70
     0
  0
APPID
  2
GENIUS_GENSCREG_13
 70
     0
  0
APPID
  2
GENIUS_DUMCFG0_13
 70
     0
  0
APPID
  2
GEVID936201362
 70
     0
  0
APPID
  2
GEVDC
 70
     0
  0
APPID
  2
GEVCON
 70
     0
  0
APPID
  2
VCC
 70
     0
  0
APPID
  2
GEVPT
 70
     0
  0
APPID
  2
GEVIT
 70
     0
  0
APPID
  2
GENBH
 70
     0
  0
APPID
  2
GEVMK
 70
     0
  0
APPID
  2
GENIUS_GENBH_13
 70
     0
  0
APPID
  2
GENIUS_GENOBJ-NBEHI-BHF_13
 70
     0
  0
APPID
  2
GENIUS_GENOBJ-NBEHI-BHB_13
 70
     0
  0
APPID
  2
GENIUS_GENOBJ-F-DESC_13
 70
     0
  0
APPID
  2
GENIUS_GEFDESC_14
 70
     0
  0
APPID
  2
GENIUS_GENOBJ-F-PART_13
 70
     0
  0
APPID
  2
GENIUS_GEFSTDP_13
 70
     0
  0
APPID
  2
GENIUS_GEFPARTINS_13
 70
     0
  0
APPID
  2
GENIUS_GENTRA_14
 70
     0
  0
APPID
  2
GENIUS_GENINF13_13
 70
     0
  0
APPID
  2
GENIUS_GENOBJ-N-INFOPT_13
 70
     0
  0
APPID
  2
GENIUS_GENOBJ-N-RSSYM_13
 70
     0
  0
APPID
  2
GENIUS_GENSYMENT_13
 70
     0
  0
APPID
  2
GENIUS_GENSCSYM_13
 70
     0
  0
APPID
  2
GENIUS_GEFINFNAM_13
 70
     0
  0
APPID
  2
GENIUS_GENOBJ-N-CEN_13
 70
     0
  0
APPID
  2
GENIUS_GENOBJ-N-CRS_13
 70
     0
  0
APPID
  2
GENIUS_GENOBJ-N-CRC_13
 70
     0
  0
APPID
  2
GENIUS_GENCRC_14
 70
     0
  0
APPID
  2
GEVID942827039
 70
     0
  0
APPID
  2
GEVID942827040
 70
     0
  0
APPID
  2
GEVID942827041
 70
     0
  0
APPID
  2
GENIUS_GENOBJ-F-SCPASSM_13
 70
     0
  0
APPID
  2
GENIUS_GENDIMSH_14
 70
     0
  0
APPID
  2
GEVID942827042
 70
     0
  0
APPID
  2
GEVID946020473
 70
     0
  0
APPID
  2
GEVID946020474
 70
     0
  0
APPID
  2
GEVID946020475
 70
     0
  0
APPID
  2
GENIUS_GENOBJ-N-HTC_13
 70
     0
  0
APPID
  2
GENIUS_GENHATCH_13
 70
     0
  0
APPID
  2
GEVID948854295
 70
     0
  0
APPID
  2
GEVID939402019
 70
     0
  0
APPID
  2
GEVID952919491
 70
     0
  0
APPID
  2
GEVID952919492
 70
     0
  0
APPID
  2
GENIUS_GEFWELD_13
 70
     0
  0
APPID
  2
GENIUS_GENOBJ-F-WELS_13
 70
     0
  0
APPID
  2
GEVID952919493
 70
     0
  0
APPID
  2
GENIUS_GENOBJ-N-RSBK_13
 70
     0
  0
APPID
  2
GENIUS_GENOBJ-N-LIB_13
 70
     0
  0
APPID
  2
GENIUS_GENSCALE_13
 70
     0
  0
APPID
  2
GEVID986376691
 70
     0
  0
APPID
  2
DCO15
 70
     0
  0
APPID
  2
ACADM_DIM_EDIT
 70
     0
  0
APPID
  2
AMDT_DM_ADJ
 70
     0
  0
APPID
  2
ACAD_DSTYLE_DIMJAG
 70
     0
  0
APPID
  2
ACAD_DSTYLE_DIMBREAK
 70
     0
  0
APPID
  2
ACAD_NAV_VCDISPLAY
 70
     0
  0
APPID
  2
ACADANNOPO
 70
     0
  0
APPID
  2
ACAD_EXEMPT_FROM_CAD_STANDARDS
 70
     0
  0
APPID
  2
ACAD_MLEADERVER
 70
     0
  0
ENDTAB
  0
TABLE
  2
DIMSTYLE
 70
     9
  0
DIMSTYLE
  2
STANDARD
 70
     0
  3

  4

  5

  6

  7

 40
1.0
 41
0.18
 42
0.0625
 43
0.38
 44
0.18
 45
0.0
 46
0.0
 47
0.0
 48
0.0
140
0.18
141
0.09
142
0.0
143
25.399999999999999
144
1.0
145
0.0
146
1.0
147
0.09
 71
     0
 72
     0
 73
     1
 74
     1
 75
     0
 76
     0
 77
     0
 78
     0
170
     0
171
     2
172
     0
173
     0
174
     0
175
     0
176
     0
177
     0
178
     0
  0
DIMSTYLE
  2
ANNOTATIVE
 70
     0
  3

  4

  5

  6

  7

 40
1.0
 41
0.18
 42
0.0625
 43
0.38
 44
0.18
 45
0.0
 46
0.0
 47
0.0
 48
0.0
140
0.18
141
0.09
142
0.0
143
25.399999999999999
144
1.0
145
0.0
146
1.0
147
0.09
 71
     0
 72
     0
 73
     1
 74
     1
 75
     0
 76
     0
 77
     0
 78
     0
170
     0
171
     2
172
     0
173
     0
174
     0
175
     0
176
     0
177
     0
178
     0
  0
DIMSTYLE
  2
AM_ISO
 70
     0
  3

  4
"
  5

  6

  7

 40
1.0
 41
2.5
 42
1.0
 43
8.0
 44
0.6
 45
0.0
 46
0.0
 47
0.1
 48
0.1
140
2.5
141
0.0
142
0.0
143
0.0393701
144
1.0
145
0.0
146
0.71
147
0.8
 71
     0
 72
     0
 73
     0
 74
     0
 75
     0
 76
     0
 77
     1
 78
     8
170
     0
171
     2
172
     1
173
     0
174
     0
175
     0
176
   256
177
   256
178
     4
  0
DIMSTYLE
  2
AM_ANSI
 70
     0
  3

  4
mm
  5

  6

  7

 40
1.0
 41
0.12
 42
0.05
 43
0.5
 44
0.1
 45
0.0
 46
0.0
 47
0.1
 48
0.1
140
0.12
141
0.0
142
0.0
143
25.399999999999999
144
1.0
145
0.0
146
0.71
147
0.06
 71
     0
 72
     0
 73
     1
 74
     1
 75
     0
 76
     0
 77
     0
 78
     7
170
     0
171
     2
172
     0
173
     0
174
     0
175
     0
176
   256
177
   256
178
     2
  0
DIMSTYLE
  2
AM_ANSI$3
 70
     0
  3

  4
mm
  5

  6

  7

 40
1.0
 41
0.12
 42
0.05
 43
0.5
 44
0.1
 45
0.0
 46
0.0
 47
0.1
 48
0.1
140
0.12
141
0.0
142
0.0
143
25.399999999999999
144
1.0
145
0.0
146
0.71
147
0.06
 71
     0
 72
     0
 73
     1
 74
     1
 75
     0
 76
     0
 77
     0
 78
     7
170
     0
171
     2
172
     0
173
     0
174
     0
175
     0
176
   256
177
   256
178
     2
  0
DIMSTYLE
  2
AM_ANSI$4
 70
     0
  3

  4
mm
  5

  6

  7

 40
1.0
 41
0.12
 42
0.05
 43
0.5
 44
0.1
 45
0.0
 46
0.0
 47
0.1
 48
0.1
140
0.12
141
0.0
142
0.0
143
25.399999999999999
144
1.0
145
0.0
146
0.71
147
0.06
 71
     0
 72
     0
 73
     1
 74
     1
 75
     0
 76
     0
 77
     0
 78
     7
170
     0
171
     2
172
     0
173
     0
174
     0
175
     0
176
   256
177
   256
178
     2
  0
DIMSTYLE
  2
AM_ANSI$7
 70
     0
  3

  4
mm
  5

  6

  7

 40
1.0
 41
0.12
 42
0.05
 43
0.5
 44
0.1
 45
0.0
 46
0.0
 47
0.1
 48
0.1
140
0.12
141
0.0
142
0.0
143
25.399999999999999
144
1.0
145
0.0
146
0.71
147
0.06
 71
     0
 72
     0
 73
     1
 74
     1
 75
     0
 76
     0
 77
     0
 78
     7
170
     0
171
     2
172
     0
173
     0
174
     0
175
     0
176
   256
177
   256
178
     2
  0
DIMSTYLE
  2
AM_ANSI$SF
 70
     0
  3

  4
mm
  5

  6

  7

 40
1.0
 41
0.12
 42
0.05
 43
0.5
 44
0.1
 45
0.0
 46
0.0
 47
0.1
 48
0.1
140
0.12
141
0.0
142
0.0
143
25.399999999999999
144
1.0
145
0.0
146
0.71
147
0.06
 71
     0
 72
     0
 73
     1
 74
     1
 75
     1
 76
     1
 77
     0
 78
     7
170
     0
171
     2
172
     0
173
     0
174
     0
175
     0
176
   256
177
   256
178
     2
  0
DIMSTYLE
  2
AM_ANSI$SH
 70
     0
  3

  4
mm
  5

  6
GENAXEH
  7

 40
1.0
 41
0.12
 42
0.05
 43
0.5
 44
0.1
 45
0.0
 46
0.0
 47
0.1
 48
0.1
140
0.12
141
0.0
142
0.0
143
25.399999999999999
144
1.0
145
0.0
146
0.71
147
0.06
 71
     0
 72
     0
 73
     1
 74
     1
 75
     1
 76
     1
 77
     0
 78
     7
170
     0
171
     2
172
     0
173
     1
174
     0
175
     0
176
   256
177
   256
178
     2
  0
ENDTAB
  0
ENDSEC
  0
SECTION
  2
BLOCKS
  0
BLOCK
  8
0
  2
$MODEL_SPACE
 70
     0
 10
0.0
 20
0.0
 30
0.0
  3
$MODEL_SPACE
  1

  0
ENDBLK
  5
3C80
  8
0
  0
BLOCK
 67
     1
  8
0
  2
$PAPER_SPACE
 70
     0
 10
0.0
 20
0.0
 30
0.0
  3
$PAPER_SPACE
  1

  0
ENDBLK
  5
3C7C
 67
     1
  8
0
  0
BLOCK
  8
0
  2
*U2
 70
     1
 10
0.0
 20
0.0
 30
0.0
  3
*U2
  1

  0
TEXT
  5
3AD1
  8
AM_0
 10
498.4116790120566
 20
109.4731502083973
 30
0.0
 40
12.0
  1
VX02-100SF
 41
0.8299999999999999
  0
ENDBLK
  5
3AD3
  8
0
  0
BLOCK
  8
0
  2
GENAXEH
 70
     0
 10
0.0
 20
0.0
 30
0.0
  3
GENAXEH
  1

  0
LINE
  5
3D4E
  8
0
 10
-1.0
 20
0.0
 30
0.0
 11
1.0
 21
0.0
 31
0.0
  0
ENDBLK
  5
3D50
  8
0
  0
BLOCK
  8
0
  2
_ACMFILLEDHALF
 70
     0
 10
0.0
 20
0.0
 30
0.0
  3
_ACMFILLEDHALF
  1

  0
TRACE
  5
3D5E
  8
AM_0
 62
     0
 10
-0.8
 20
0.0
 30
0.0
 11
-1.0
 21
0.166666666
 31
0.0
 12
0.0
 22
0.0
 32
0.0
 13
0.0
 23
0.0
 33
0.0
  0
LINE
  5
3D5F
  8
AM_0
 62
     0
 10
-1.0
 20
0.0
 30
0.0
 11
-0.8
 21
0.0
 31
0.0
  0
ENDBLK
  5
3D5D
  8
0
  0
ENDSEC
  0
SECTION
  2
ENTITIES
  0
LINE
  5
28C1
  8
ﾁｭｳｼﾝｾﾝ
 10
50.01710030760222
 20
470.04802906901813
 30
0.0
 11
385.1683303797746
 21
470.04802906901813
 31
0.0
  0
LINE
  5
2A4C
  8
AM_0
 10
338.94867037977463
 20
485.04802906901818
 30
0.0
 11
338.94867037977463
 21
455.04802906901801
 31
0.0
  0
LINE
  5
2A4D
  8
AM_0
 10
378.94864037977459
 20
484.0480290690179
 30
0.0
 11
378.94864037977459
 21
456.04802906901818
 31
0.0
  0
LINE
  5
2A4E
  8
AM_0
 10
336.94864037977447
 20
444.51368906901803
 30
0.0
 11
336.94864037977447
 21
495.58232906901799
 31
0.0
  0
LINE
  5
2A4F
  8
AM_0
 10
303.94864037977459
 20
540.43699906901816
 30
0.0
 11
303.94864037977459
 21
399.65904906901812
 31
0.0
  0
LINE
  5
2A50
  8
AM_0
 10
331.94864037977447
 20
385.04802906901818
 30
0.0
 11
331.94864037977447
 21
555.04805906901811
 31
0.0
  0
LINE
  5
2A51
  8
AM_0
 10
325.94864037977447
 20
403.26667906901798
 30
0.0
 11
325.94864037977447
 21
536.82936906901807
 31
0.0
  0
LINE
  5
2A52
  8
AM_0
 10
335.94867037977463
 20
540.04802906901818
 30
0.0
 11
335.94867037977463
 21
400.0480290690179
 31
0.0
  0
LINE
  5
2A54
  8
AM_0
 10
264.94867037977463
 20
401.17964906901801
 30
0.0
 11
264.94867037977463
 21
538.9163990690181
 31
0.0
  0
LINE
  5
2A57
  8
AM_0
 10
271.94864037977447
 20
541.04802906901796
 30
0.0
 11
271.94864037977447
 21
399.04802906901818
 31
0.0
  0
LINE
  5
2A58
  8
AM_0
 10
306.8701503797746
 20
396.66008906901823
 30
0.0
 11
319.02719037977459
 21
396.34175906901822
 31
0.0
  0
LINE
  5
2A59
  8
AM_0
 10
319.49145037977462
 20
411.37016906901817
 30
0.0
 11
306.40585037977462
 21
419.09919906901803
 31
0.0
  0
LINE
  5
2A5A
  8
AM_0
 10
304.94864037977447
 20
422.34990906901811
 30
0.0
 11
319.94864037977447
 21
422.34990906901811
 31
0.0
  0
LINE
  5
2A5B
  8
AM_0
 10
319.4914803797746
 20
407.88594906901812
 30
0.0
 11
306.4057903797746
 21
415.61500906901801
 31
0.0
  0
LINE
  5
2A5C
  8
AM_0
 10
233.9486703797746
 20
438.10808906901809
 30
0.0
 11
264.94867037977463
 21
438.10808906901809
 31
0.0
  0
LINE
  5
2A5D
  8
AM_0
 10
261.94864037977447
 20
404.83674906901803
 30
0.0
 11
262.94867037977463
 21
404.83674906901803
 31
0.0
  0
LINE
  5
2A5E
  8
AM_0
 10
233.9486703797746
 20
424.04771906901823
 30
0.0
 11
264.94867037977463
 21
424.04771906901823
 31
0.0
  0
LINE
  5
2A60
  8
AM_0
 10
259.94867037977463
 20
413.36717906901811
 30
0.0
 11
233.94870037977461
 21
414.04802906901818
 31
0.0
  0
LINE
  5
2A67
  8
AM_0
 10
259.94864037977447
 20
406.83674906901808
 30
0.0
 11
259.94864037977447
 21
422.04771906901789
 31
0.0
  0
ARC
  5
2A68
  8
AM_0
 10
261.94864037977447
 20
406.83674906901808
 30
0.0
 40
2.0
 50
180.00001000000091
 51
270.0
  0
ARC
  5
2A69
  8
AM_0
 10
257.94864037977447
 20
422.04771906901789
 30
0.0
 40
2.0
 50
0.0
 51
90.000003000000945
  0
LINE
  5
2A70
  8
AM_0
 10
302.97226037977453
 20
398.23561906901813
 30
0.0
 11
271.94864037977447
 21
399.04799906901809
 31
0.0
  0
ARC
  5
2A71
  8
AM_0
 10
266.94867037977463
 20
401.17964906901801
 30
0.0
 40
2.0
 50
180.00001000000091
 51
268.5000000000004
  0
LINE
  5
2A72
  8
AM_0
 10
271.94867037977463
 20
399.04802906901818
 30
0.0
 11
266.89633037977461
 21
399.18031906901808
 31
0.0
  0
ARC
  5
2A73
  8
AM_0
 10
262.94867037977463
 20
402.83674906901808
 30
0.0
 40
2.0
 50
0.0
 51
90.000003000000945
  0
ARC
  5
2A74
  8
AM_0
 10
306.94864037977447
 20
399.65904906901812
 30
0.0
 40
3.0
 50
179.999989999999
 51
268.50000999999878
  0
ARC
  5
2A75
  8
AM_0
 10
302.89371037977457
 20
395.23665906901812
 30
0.0
 40
3.0
 50
47.481952000001627
 51
88.499997000000747
  0
ARC
  5
2A76
  8
AM_0
 10
308.94864037977447
 20
419.92009906901791
 30
0.0
 40
5.0
 50
179.999989999999
 51
239.431710000001
  0
ARC
  5
2A77
  8
AM_0
 10
304.94864037977447
 20
423.34990906901788
 30
0.0
 40
1.0
 50
179.999989999999
 51
270.0
  0
ARC
  5
2A78
  8
AM_0
 10
308.94864037977447
 20
423.40434906901811
 30
0.0
 40
5.0
 50
179.999989999999
 51
239.431710000001
  0
LINE
  5
2A79
  8
AM_0
 10
321.94864037977447
 20
428.09636906901812
 30
0.0
 11
321.94864037977447
 21
387.32863906901832
 31
0.0
  0
ARC
  5
2A7A
  8
AM_0
 10
323.94867037977463
 20
387.32863906901832
 30
0.0
 40
2.0
 50
179.999989999999
 51
268.00000999999861
  0
LINE
  5
2A7B
  8
AM_0
 10
323.87881037977451
 20
385.32982906901827
 30
0.0
 11
331.94861037977449
 21
385.04802906901818
 31
0.0
  0
LINE
  5
2A7C
  8
AM_0
 10
338.94867037977463
 20
456.04802906901818
 30
0.0
 11
378.94864037977459
 21
456.04802906901818
 31
0.0
  0
LINE
  5
2A7D
  8
AM_0
 10
331.94864037977447
 20
400.0480290690179
 30
0.0
 11
335.94867037977463
 21
400.0480290690179
 31
0.0
  0
ARC
  5
2A7E
  8
AM_0
 10
316.94864037977447
 20
407.06505906901799
 30
0.0
 40
5.0
 50
0.0
 51
59.431709000000481
  0
ARC
  5
2A7F
  8
AM_0
 10
322.94864037977447
 20
403.26667906901798
 30
0.0
 40
3.0
 50
270.0
 51
0.0
  0
ARC
  5
2A80
  8
AM_0
 10
318.94864037977447
 20
393.34276906901817
 30
0.0
 40
3.0
 50
0.0
 51
88.499997000000747
  0
ARC
  5
2A81
  8
AM_0
 10
316.94864037977447
 20
403.58079906901798
 30
0.0
 40
5.0
 50
0.0
 51
59.431709000000481
  0
ARC
  5
2A82
  8
AM_0
 10
319.94864037977447
 20
420.34990906901811
 30
0.0
 40
2.0
 50
0.0
 51
90.000003000000945
  0
ARC
  5
2A83
  8
AM_0
 10
324.94864037977459
 20
428.09636906901812
 30
0.0
 40
3.0
 50
90.000003000000945
 51
180.00001000000091
  0
ARC
  5
2A84
  8
AM_0
 10
335.94864037977447
 20
444.51368906901803
 30
0.0
 40
1.0
 50
272.0000000000004
 51
0.0
  0
LINE
  5
2A85
  8
AM_0
 10
335.94867037977463
 20
443.5131090690179
 30
0.0
 11
335.98355037977461
 21
443.51433906901798
 31
0.0
  0
LINE
  5
2A86
  8
AM_0
 10
336.94864037977447
 20
455.04802906901801
 30
0.0
 11
338.94867037977463
 21
455.04802906901801
 31
0.0
  0
LINE
  5
2A87
  8
AM_0
 10
304.94864037977447
 20
517.74614906901809
 30
0.0
 11
319.94864037977447
 21
517.74614906901809
 31
0.0
  0
LINE
  5
2A88
  8
AM_0
 10
306.87012037977462
 20
543.43596906901814
 30
0.0
 11
319.02716037977461
 21
543.75432906901813
 31
0.0
  0
LINE
  5
2A89
  8
AM_0
 10
319.4914803797746
 20
528.72587906901811
 30
0.0
 11
306.40582037977453
 21
520.99681906901799
 31
0.0
  0
LINE
  5
2A8A
  8
AM_0
 10
319.4914803797746
 20
532.21010906901824
 30
0.0
 11
306.40582037977453
 21
524.48103906901815
 31
0.0
  0
ARC
  5
2A8B
  8
AM_0
 10
266.94867037977463
 20
538.9163990690181
 30
0.0
 40
2.0
 50
91.500001000001546
 51
180.00001000000091
  0
LINE
  5
2A8C
  8
AM_0
 10
233.9486703797746
 20
501.98796906901811
 30
0.0
 11
264.94867037977463
 21
501.98796906901811
 31
0.0
  0
LINE
  5
2A8D
  8
AM_0
 10
261.94864037977447
 20
535.25932906901801
 30
0.0
 11
262.94867037977463
 21
535.25932906901801
 31
0.0
  0
LINE
  5
2A8E
  8
AM_0
 10
233.9486703797746
 20
516.04832906901811
 30
0.0
 11
264.94867037977463
 21
516.04832906901811
 31
0.0
  0
LINE
  5
2A92
  8
AM_0
 10
259.94867037977463
 20
526.72883906901825
 30
0.0
 11
233.94870037977461
 21
526.04802906901796
 31
0.0
  0
LINE
  5
2AA4
  8
AM_0
 10
259.94864037977447
 20
533.25932906901812
 30
0.0
 11
259.94864037977447
 21
518.048329069018
 31
0.0
  0
ARC
  5
2AA5
  8
AM_0
 10
257.94864037977447
 20
518.048329069018
 30
0.0
 40
2.0
 50
270.0
 51
0.0
  0
ARC
  5
2AA6
  8
AM_0
 10
261.94864037977447
 20
533.25932906901812
 30
0.0
 40
2.0
 50
90.000003000000945
 51
180.00001000000091
  0
ARC
  5
2AA7
  8
AM_0
 10
262.94867037977463
 20
537.25932906901812
 30
0.0
 40
2.0
 50
270.0
 51
0.0
  0
ARC
  5
2AA8
  8
AM_0
 10
308.94864037977447
 20
516.69169906901811
 30
0.0
 40
5.0
 50
120.5682899999989
 51
180.00001000000091
  0
ARC
  5
2AA9
  8
AM_0
 10
308.94864037977447
 20
520.17595906901818
 30
0.0
 40
5.0
 50
120.5682899999989
 51
180.00001000000091
  0
ARC
  5
2AAA
  8
AM_0
 10
304.94864037977447
 20
516.7461490690182
 30
0.0
 40
1.0
 50
90.000003000000945
 51
180.00001000000091
  0
LINE
  5
2AAB
  8
AM_0
 10
302.9722303797746
 20
541.86039906901794
 30
0.0
 11
271.94864037977447
 21
541.04802906901796
 31
0.0
  0
LINE
  5
2AAC
  8
AM_0
 10
271.94864037977447
 20
541.04802906901796
 30
0.0
 11
266.89633037977461
 21
540.91572906901774
 31
0.0
  0
ARC
  5
2AAD
  8
AM_0
 10
302.89371037977457
 20
544.85936906901804
 30
0.0
 40
3.0
 50
271.49999999999949
 51
312.51811999999887
  0
ARC
  5
2AAE
  8
AM_0
 10
306.94864037977447
 20
540.43699906901816
 30
0.0
 40
3.0
 50
91.500001000001546
 51
180.00001000000091
  0
ARC
  5
2AAF
  8
AM_0
 10
322.94864037977447
 20
536.82936906901807
 30
0.0
 40
3.0
 50
0.0
 51
90.000003000000945
  0
LINE
  5
2AB0
  8
AM_0
 10
321.94864037977447
 20
511.99968906901802
 30
0.0
 11
321.94864037977447
 21
552.76741906901816
 31
0.0
  0
LINE
  5
2AB1
  8
AM_0
 10
338.94867037977463
 20
484.0480290690179
 30
0.0
 11
378.94864037977459
 21
484.0480290690179
 31
0.0
  0
LINE
  5
2AB2
  8
AM_0
 10
346.94864037977447
 20
474.04799906901809
 30
0.0
 11
378.94864037977459
 21
474.04799906901809
 31
0.0
  0
LINE
  5
2AB3
  8
AM_0
 10
346.94864037977447
 20
466.04802906901801
 30
0.0
 11
378.94864037977459
 21
466.04802906901801
 31
0.0
  0
ARC
  5
2AB4
  8
AM_0
 10
346.94864037977447
 20
470.04799906901809
 30
0.0
 40
3.9999962
 50
90.000003000000945
 51
270.0
  0
LINE
  5
2AB5
  8
AM_0
 10
346.94864037977447
 20
474.04799906901809
 30
0.0
 11
346.94864037977447
 21
466.04802906901801
 31
0.0
  0
LINE
  5
2AB6
  8
AM_0
 10
336.94864037977447
 20
485.04802906901818
 30
0.0
 11
338.94867037977463
 21
485.04802906901818
 31
0.0
  0
ARC
  5
2AB7
  8
AM_0
 10
335.94864037977447
 20
495.58232906901799
 30
0.0
 40
1.0
 50
0.0
 51
87.999999999999659
  0
LINE
  5
2AB8
  8
AM_0
 10
335.94867037977463
 20
496.58293906901798
 30
0.0
 11
335.98352037977457
 21
496.58171906901811
 31
0.0
  0
LINE
  5
2AB9
  8
AM_0
 10
331.94864037977447
 20
540.04802906901818
 30
0.0
 11
335.94867037977463
 21
540.04802906901818
 31
0.0
  0
ARC
  5
2ABA
  8
AM_0
 10
324.94864037977459
 20
511.99968906901802
 30
0.0
 40
3.0
 50
179.999989999999
 51
270.0
  0
ARC
  5
2ABB
  8
AM_0
 10
319.94864037977447
 20
519.7461490690182
 30
0.0
 40
2.0
 50
270.0
 51
0.0
  0
ARC
  5
2ABC
  8
AM_0
 10
316.94864037977447
 20
533.03099906901821
 30
0.0
 40
5.0
 50
300.56828999999891
 51
0.0
  0
ARC
  5
2ABD
  8
AM_0
 10
316.94864037977447
 20
536.51524906901807
 30
0.0
 40
5.0
 50
300.56828999999891
 51
0.0
  0
ARC
  5
2ABE
  8
AM_0
 10
323.94867037977463
 20
552.76741906901816
 30
0.0
 40
2.0
 50
91.999998000000545
 51
180.00001000000091
  0
ARC
  5
2ABF
  8
AM_0
 10
318.94864037977447
 20
546.75328906901814
 30
0.0
 40
3.0
 50
271.49999999999949
 51
0.0
  0
LINE
  5
2AC0
  8
AM_0
 10
323.87881037977451
 20
554.76625906901813
 30
0.0
 11
331.94864037977447
 21
555.04805906901811
 31
0.0
  0
LINE
  5
30EC
  8
AM_0
 10
133.44867037977451
 20
404.44806356901802
 30
0.0
 11
215.4486703797746
 21
404.44806356901802
 31
0.0
  0
LINE
  5
30ED
  8
AM_0
 10
71.948670379774583
 20
535.64806356901795
 30
0.0
 11
215.44867037977471
 21
535.64806356901795
 31
0.0
  0
ARC
  5
30EE
  8
AM_0
 10
57.448670379774477
 20
453.04806356901798
 30
0.0
 40
3.0
 50
180.0
 51
270.0
1001
GENIUS_GENODEF_13
1002
{
1000
HIER
1070
     0
1002
}
1002
{
1000
MANEDIT
1070
     0
1002
}
1002
{
1000
NOSEL
1070
     0
1002
}
1002
{
1000
BEHIND
1070
     0
1002
}
1002
{
1000
OTHER
1070
     0
1002
}
1002
{
1000
REACTOR
1002
}
1001
GENIUS_GENOBJ-N-FIL_13
1002
{
1000
OWNER
1000
GEN
1002
}
  0
LINE
  5
30EF
  8
AM_0
 10
65.448670379774597
 20
523.14993144039749
 30
0.0
 11
65.448670379774455
 21
416.94619569763842
 31
0.0
  0
ARC
  5
30F0
  8
AM_0
 10
1004.634794189594
 20
470.04806356901759
 30
0.0
 40
940.68612380981915
 50
176.76392470776139
 51
183.2360752922385
  0
LINE
  5
30F1
  8
AM_0
 10
72.448670379774583
 20
535.64806356901795
 30
0.0
 11
72.448670379774484
 21
404.44806356901802
 31
0.0
  0
LINE
  5
30F2
  8
AM_0
 10
69.948670379774597
 20
533.64806356901818
 30
0.0
 11
69.948670379774597
 21
406.44806356901802
 31
0.0
  0
LINE
  5
30F3
  8
AM_0N
 10
89.948670379774484
 20
410.20548629782991
 30
0.0
 11
105.9486703797745
 21
410.20548629782991
 31
0.0
1001
GENIUS_GENOREF_13
1005
0
  0
LINE
  5
30F4
  8
AM_0
 10
105.9486703797745
 20
413.75727058954902
 30
0.0
 11
89.948670379774484
 21
413.75727058954902
 31
0.0
1001
GENIUS_GENOREF_13
1005
3126
  0
LINE
  5
30F5
  8
AM_0
 10
93.948670379774441
 20
400.89846763632312
 30
0.0
 11
89.948670379774484
 21
400.89846763632312
 31
0.0
  0
LINE
  5
30F6
  8
AM_0
 10
131.4486703797744
 20
388.9880643400798
 30
0.0
 11
77.448670379774484
 21
388.98806434007997
 31
0.0
  0
LINE
  5
30F7
  8
AM_0
 10
131.44867037977451
 20
392.39566533878661
 30
0.0
 11
77.448670379774484
 21
392.3956653387865
 31
0.0
  0
LINE
  5
30F8
  8
AM_0
 10
75.448670379774484
 20
407.78909059583879
 30
0.0
 11
75.448670379774484
 21
390.98806434007997
 31
0.0
  0
LINE
  5
30F9
  8
AM_0
 10
89.948670379774484
 20
413.75727058954902
 30
0.0
 11
89.948670379774484
 21
400.89846763632312
 31
0.0
  0
ARC
  5
30FA
  8
AM_0
 10
77.448670379774484
 20
390.98806434007997
 30
0.0
 40
2.0
 50
180.0
 51
270.0
1001
GENIUS_GENOBJ-N-FIL_13
1002
{
1000
OWNER
1000
GEN
1002
}
1001
GENIUS_GENODEF_13
1002
{
1000
HIER
1070
     0
1002
}
1002
{
1000
MANEDIT
1070
     0
1002
}
1002
{
1000
NOSEL
1070
     0
1002
}
1002
{
1000
BEHIND
1070
     0
1002
}
1002
{
1000
OTHER
1070
     0
1002
}
1002
{
1000
REACTOR
1002
}
  0
ARC
  5
30FB
  8
AM_0
 10
77.448670379774484
 20
394.3956653387865
 30
0.0
 40
2.0
 50
180.0
 51
270.0
1001
GENIUS_GENODEF_13
1002
{
1000
HIER
1070
     0
1002
}
1002
{
1000
MANEDIT
1070
     0
1002
}
1002
{
1000
NOSEL
1070
     0
1002
}
1002
{
1000
BEHIND
1070
     0
1002
}
1002
{
1000
OTHER
1070
     0
1002
}
1002
{
1000
REACTOR
1002
}
1001
GENIUS_GENOBJ-N-FIL_13
1002
{
1000
OWNER
1000
GEN
1002
}
  0
LINE
  5
30FC
  8
AM_0
 10
71.948670379774583
 20
404.44806356901802
 30
0.0
 11
75.448670379774484
 21
404.44806356901768
 31
0.0
  0
ARC
  5
30FD
  8
AM_0
 10
71.948670379774583
 20
406.44806356901802
 30
0.0
 40
2.0
 50
180.0
 51
270.0
1001
GENIUS_GENOBJ-N-FIL_13
1002
{
1000
OWNER
1000
GEN
1002
}
1001
GENIUS_GENODEF_13
1002
{
1000
HIER
1070
     0
1002
}
1002
{
1000
MANEDIT
1070
     0
1002
}
1002
{
1000
NOSEL
1070
     0
1002
}
1002
{
1000
BEHIND
1070
     0
1002
}
1002
{
1000
OTHER
1070
     0
1002
}
1002
{
1000
REACTOR
1002
}
  0
LINE
  5
30FE
  8
AM_0
 10
57.448670379774477
 20
450.04806356901798
 30
0.0
 11
64.161305180816683
 21
450.04806356901798
 31
0.0
  0
ARC
  5
30FF
  8
AM_0
 10
77.448670379774484
 20
407.78909059583879
 30
0.0
 40
2.0
 50
90.0
 51
180.0
1001
GENIUS_GENOBJ-N-FIL_13
1002
{
1000
OWNER
1000
GEN
1002
}
1001
GENIUS_GENODEF_13
1002
{
1000
HIER
1070
     0
1002
}
1002
{
1000
MANEDIT
1070
     0
1002
}
1002
{
1000
NOSEL
1070
     0
1002
}
1002
{
1000
BEHIND
1070
     0
1002
}
1002
{
1000
OTHER
1070
     0
1002
}
1002
{
1000
REACTOR
1002
}
  0
LINE
  5
3100
  8
AM_0
 10
69.277398057434397
 20
412.64475007776491
 30
0.0
 11
66.119942702114685
 21
415.45137706027111
 31
0.0
  0
ARC
  5
3101
  8
AM_0
 10
67.44867037977447
 20
416.94619569763842
 30
0.0
 40
2.0
 50
180.0
 51
228.3664606634303
1001
GENIUS_GENODEF_13
1002
{
1000
HIER
1070
     0
1002
}
1002
{
1000
MANEDIT
1070
     0
1002
}
1002
{
1000
NOSEL
1070
     0
1002
}
1002
{
1000
BEHIND
1070
     0
1002
}
1002
{
1000
OTHER
1070
     0
1002
}
1002
{
1000
REACTOR
1002
}
1001
GENIUS_GENOBJ-N-FIL_13
1002
{
1000
OWNER
1000
GEN
1002
}
  0
ARC
  5
3102
  8
AM_0
 10
67.948670379774597
 20
411.14993144039749
 30
0.0
 40
2.0
 50
0.0
 51
48.366460663430352
1001
GENIUS_GENOBJ-N-FIL_13
1002
{
1000
OWNER
1000
GEN
1002
}
1001
GENIUS_GENODEF_13
1002
{
1000
HIER
1070
     0
1002
}
1002
{
1000
MANEDIT
1070
     0
1002
}
1002
{
1000
NOSEL
1070
     0
1002
}
1002
{
1000
BEHIND
1070
     0
1002
}
1002
{
1000
OTHER
1070
     0
1002
}
1002
{
1000
REACTOR
1002
}
  0
LINE
  5
3103
  8
AM_0
 10
89.948670379774484
 20
409.78909059583901
 30
0.0
 11
77.448670379774484
 21
409.78909059583867
 31
0.0
  0
LINE
  5
3104
  8
AM_0
 10
133.44867037977451
 20
407.78909059583879
 30
0.0
 11
133.4486703797744
 21
390.9880643400798
 31
0.0
  0
LINE
  5
3105
  8
AM_0
 10
93.948670379774441
 20
410.20548629782991
 30
0.0
 11
93.948670379774441
 21
400.89846763632312
 31
0.0
  0
LINE
  5
3106
  8
AM_0
 10
101.9486703797745
 20
410.20548629783019
 30
0.0
 11
101.9486703797745
 21
400.89846763632312
 31
0.0
  0
LINE
  5
3107
  8
AM_0
 10
105.9486703797745
 20
413.75727058954902
 30
0.0
 11
105.9486703797745
 21
400.89846763632312
 31
0.0
  0
LINE
  5
3108
  8
AM_0
 10
101.9486703797745
 20
406.17453043483232
 30
0.0
 11
93.948670379774441
 21
406.17453043483232
 31
0.0
  0
LINE
  5
3109
  8
AM_0
 10
105.9486703797745
 20
400.89846763632312
 30
0.0
 11
101.9486703797745
 21
400.89846763632312
 31
0.0
  0
ARC
  5
310A
  8
AM_0
 10
131.4486703797744
 20
390.9880643400798
 30
0.0
 40
2.0
 50
270.0
 51
0.0
1001
GENIUS_GENOBJ-N-FIL_13
1002
{
1000
OWNER
1000
GEN
1002
}
1001
GENIUS_GENODEF_13
1002
{
1000
HIER
1070
     0
1002
}
1002
{
1000
MANEDIT
1070
     0
1002
}
1002
{
1000
NOSEL
1070
     0
1002
}
1002
{
1000
BEHIND
1070
     0
1002
}
1002
{
1000
OTHER
1070
     0
1002
}
1002
{
1000
REACTOR
1002
}
  0
ARC
  5
310B
  8
AM_0
 10
131.44867037977451
 20
394.39566533878661
 30
0.0
 40
2.0
 50
270.0
 51
0.0
1001
GENIUS_GENOBJ-N-FIL_13
1002
{
1000
OWNER
1000
GEN
1002
}
1001
GENIUS_GENODEF_13
1002
{
1000
HIER
1070
     0
1002
}
1002
{
1000
MANEDIT
1070
     0
1002
}
1002
{
1000
NOSEL
1070
     0
1002
}
1002
{
1000
BEHIND
1070
     0
1002
}
1002
{
1000
OTHER
1070
     0
1002
}
1002
{
1000
REACTOR
1002
}
  0
LINE
  5
310C
  8
AM_0
 10
131.44867037977451
 20
409.78909059583867
 30
0.0
 11
105.9486703797745
 21
409.78909059583867
 31
0.0
  0
LINE
  5
310D
  8
AM_0N
 10
100.6622169344748
 20
409.21731889630092
 30
0.0
 11
100.7486703797745
 21
410.20548629782991
 31
0.0
1001
GENIUS_GENOREF_13
1005
0
  0
LINE
  5
310E
  8
AM_3N
  6
AM_ISO02W050X2
 10
98.201170379774481
 20
409.60548629783
 30
0.0
 11
97.696170379774472
 21
409.60548629783
 31
0.0
1001
GENIUS_GENOREF_13
1005
0
  0
ARC
  5
310F
  8
AM_0N
 10
97.948670379774455
 20
412.80548629782999
 30
0.0
 40
5.0
 50
246.4528627629231
 51
293.54713723707698
1001
GENIUS_GENOREF_13
1005
0
  0
LINE
  5
3110
  8
AM_3N
  6
AM_ISO02W050X2
 10
99.44867037977447
 20
408.0357902907453
 30
0.0
 11
97.948670379774455
 21
409.92320031930421
 31
0.0
1001
GENIUS_GENOREF_13
1005
0
  0
LINE
  5
3111
  8
AM_3N
  6
AM_ISO02W050X2
 10
97.696170379774472
 20
407.811865992881
 30
0.0
 11
97.696170379774472
 21
409.60548629783
 31
0.0
1001
GENIUS_GENOREF_13
1005
0
  0
LINE
  5
3112
  8
AM_3N
  6
AM_ISO02W050X2
 10
98.201170379774481
 20
407.811865992881
 30
0.0
 11
98.201170379774481
 21
409.60548629783
 31
0.0
1001
GENIUS_GENOREF_13
1005
0
  0
LINE
  5
3113
  8
AM_3N
  6
AM_ISO02W050X2
 10
96.448670379774484
 20
408.0357902907453
 30
0.0
 11
97.948670379774455
 21
409.92320031930421
 31
0.0
1001
GENIUS_GENOREF_13
1005
0
  0
ARC
  5
3114
  8
AM_0N
 10
99.466783296764774
 20
409.32190578759821
 30
0.0
 40
1.1999999999999991
 50
293.54713723707698
 51
355.00000000000023
1001
GENIUS_GENOREF_13
1005
0
  0
LINE
  5
3115
  8
AM_0N
 10
95.235123825074183
 20
409.21731889630092
 30
0.0
 11
95.148670379774472
 21
410.20548629782991
 31
0.0
1001
GENIUS_GENOREF_13
1005
0
  0
ARC
  5
3116
  8
AM_0N
 10
96.430557462784265
 20
409.32190578759821
 30
0.0
 40
1.1999999999999991
 50
184.99999999999969
 51
246.4528627629231
1001
GENIUS_GENOREF_13
1005
0
  0
ARC
  5
3117
  8
AM_0
 10
131.44867037977451
 20
407.78909059583879
 30
0.0
 40
2.0
 50
0.0
 51
90.0
1001
GENIUS_GENODEF_13
1002
{
1000
HIER
1070
     0
1002
}
1002
{
1000
MANEDIT
1070
     0
1002
}
1002
{
1000
NOSEL
1070
     0
1002
}
1002
{
1000
BEHIND
1070
     0
1002
}
1002
{
1000
OTHER
1070
     0
1002
}
1002
{
1000
REACTOR
1002
}
1001
GENIUS_GENOBJ-N-FIL_13
1002
{
1000
OWNER
1000
GEN
1002
}
  0
LINE
  5
3118
  8
AM_0
 10
57.448670379774597
 20
490.04806356901798
 30
0.0
 11
64.161305180816683
 21
490.04806356901798
 31
0.0
  0
LINE
  5
3119
  8
AM_0
 10
54.44867037977459
 20
487.04806356901798
 30
0.0
 11
54.448670379774491
 21
453.04806356901798
 31
0.0
  0
ARC
  5
311A
  8
AM_0
 10
57.448670379774597
 20
487.04806356901798
 30
0.0
 40
3.0
 50
90.0
 51
180.0
1001
GENIUS_GENOBJ-N-FIL_13
1002
{
1000
OWNER
1000
GEN
1002
}
1001
GENIUS_GENODEF_13
1002
{
1000
HIER
1070
     0
1002
}
1002
{
1000
MANEDIT
1070
     0
1002
}
1002
{
1000
NOSEL
1070
     0
1002
}
1002
{
1000
BEHIND
1070
     0
1002
}
1002
{
1000
OTHER
1070
     0
1002
}
1002
{
1000
REACTOR
1002
}
  0
LINE
  5
311B
  8
AM_0
 10
69.277398057434397
 20
527.45137706027117
 30
0.0
 11
66.119942702114685
 21
524.64475007776491
 31
0.0
  0
ARC
  5
311C
  8
AM_0
 10
67.448670379774597
 20
523.14993144039749
 30
0.0
 40
2.0
 50
131.63353933656961
 51
180.0
1001
GENIUS_GENODEF_13
1002
{
1000
HIER
1070
     0
1002
}
1002
{
1000
MANEDIT
1070
     0
1002
}
1002
{
1000
NOSEL
1070
     0
1002
}
1002
{
1000
BEHIND
1070
     0
1002
}
1002
{
1000
OTHER
1070
     0
1002
}
1002
{
1000
REACTOR
1002
}
1001
GENIUS_GENOBJ-N-FIL_13
1002
{
1000
OWNER
1000
GEN
1002
}
  0
ARC
  5
311D
  8
AM_0
 10
67.948670379774597
 20
528.94619569763859
 30
0.0
 40
2.0
 50
311.63353933656958
 51
0.0
1001
GENIUS_GENOBJ-N-FIL_13
1002
{
1000
OWNER
1000
GEN
1002
}
1001
GENIUS_GENODEF_13
1002
{
1000
HIER
1070
     0
1002
}
1002
{
1000
MANEDIT
1070
     0
1002
}
1002
{
1000
NOSEL
1070
     0
1002
}
1002
{
1000
BEHIND
1070
     0
1002
}
1002
{
1000
OTHER
1070
     0
1002
}
1002
{
1000
REACTOR
1002
}
  0
ARC
  5
311E
  8
AM_0
 10
71.948670379774583
 20
533.64806356901818
 30
0.0
 40
2.0
 50
90.0
 51
180.0
1001
GENIUS_GENOBJ-N-FIL_13
1002
{
1000
OWNER
1000
GEN
1002
}
1001
GENIUS_GENODEF_13
1002
{
1000
HIER
1070
     0
1002
}
1002
{
1000
MANEDIT
1070
     0
1002
}
1002
{
1000
NOSEL
1070
     0
1002
}
1002
{
1000
BEHIND
1070
     0
1002
}
1002
{
1000
OTHER
1070
     0
1002
}
1002
{
1000
REACTOR
1002
}
  0
LINE
  5
311F
  8
AM_0
 10
215.4486703797746
 20
536.04806356901804
 30
0.0
 11
215.4486703797746
 21
404.0480635690181
 31
0.0
  0
LINE
  5
3120
  8
AM_0
 10
226.9486703797746
 20
536.04806356901804
 30
0.0
 11
226.9486703797746
 21
404.0480635690181
 31
0.0
  0
LINE
  5
3121
  8
AM_0
 10
215.4486703797746
 20
404.0480635690181
 30
0.0
 11
226.9486703797746
 21
404.0480635690181
 31
0.0
  0
LINE
  5
3122
  8
AM_0
 10
233.9486703797746
 20
407.0480635690181
 30
0.0
 11
226.9486703797746
 21
404.0480635690181
 31
0.0
  0
LINE
  5
3123
  8
AM_0
 10
215.4486703797746
 20
536.04806356901804
 30
0.0
 11
226.9486703797746
 21
536.04806356901804
 31
0.0
  0
LINE
  5
3124
  8
AM_0
 10
226.9486703797746
 20
536.04806356901804
 30
0.0
 11
233.9486703797746
 21
533.04806356901804
 31
0.0
  0
LINE
  5
3125
  8
AM_0
 10
233.9486703797746
 20
533.04806356901804
 30
0.0
 11
233.9486703797746
 21
407.0480635690181
 31
0.0
  0
POINT
  5
3126
  8
0
 10
-51.925568221533851
 20
-41.692997798012172
 30
0.0
1001
GENIUS_GENOLIS_13
1002
{
1000
ENT
1005
0
1005
0
1005
0
1005
30F4
1002
}
1001
GENIUS_GENOENT_13
1002
{
1000
MYREF
1005
3126
1002
}
1002
{
1000
GRP
1005
0
1002
}
1001
GENIUS_GENOBJ-NBEHI-BHB_13
1002
{
1000
OWNER
1000
genbehi
1002
}
1001
GENIUS_GENBH_13
1002
{
1000
FGO
1005
0
1002
}
1001
GENIUS_GENODEF_13
1002
{
1000
HIER
1070
     1
1002
}
1002
{
1000
MANEDIT
1070
     1
1002
}
1002
{
1000
NOSEL
1070
     1
1002
}
1002
{
1000
BEHIND
1070
     0
1002
}
1002
{
1000
OTHER
1070
     1
1002
}
1002
{
1000
REACTOR
1002
}
  0
LINE
  5
33E5
  8
AM_0
 10
338.94862037977452
 20
258.00807484597362
 30
0.0
 11
378.94864037977459
 21
258.00807484597362
 31
0.0
  0
LINE
  5
33E6
  8
AM_0
 10
338.94862037977452
 20
230.0080608459734
 30
0.0
 11
378.94864037977459
 21
230.0080608459734
 31
0.0
  0
LINE
  5
33E7
  8
AM_0
 10
346.94860037977452
 20
261.00807484597362
 30
0.0
 11
378.94864037977459
 21
261.00807484597362
 31
0.0
  0
LINE
  5
33E8
  8
ﾁｭｳｼﾝｾﾝ1
 10
381.40957037977449
 20
244.00805884597349
 30
0.0
 11
253.59773720419821
 21
244.00805884597349
 31
0.0
  0
ARC
  5
33E9
  8
AM_0
 10
1004.6347741895941
 20
224.0080953459732
 30
0.0
 40
940.68612380981915
 50
176.76392470776159
 51
183.2360752922383
  0
LINE
  5
33EA
  8
AM_0
 10
65.448650379774506
 20
277.10996321735291
 30
0.0
 11
65.448650379774506
 21
170.906227474594
 31
0.0
  0
LINE
  5
33EB
  8
AM_0
 10
69.948650379774605
 20
287.6080953459736
 30
0.0
 11
69.948650379774563
 21
160.40809534597341
 31
0.0
  0
LINE
  5
33EC
  8
AM_0
 10
72.448650379774563
 20
289.60809534597348
 30
0.0
 11
72.448650379774563
 21
158.40809534597341
 31
0.0
  0
LINE
  5
33ED
  8
AM_0
 10
226.94865037977451
 20
290.00809534597352
 30
0.0
 11
226.94865037977451
 21
158.0080953459734
 31
0.0
  0
LINE
  5
33EE
  8
AM_0
 10
215.44865037977451
 20
290.00809534597352
 30
0.0
 11
215.44865037977451
 21
158.0080953459734
 31
0.0
  0
LINE
  5
33F2
  8
AM_0
 10
336.94864037977447
 20
218.05873384597351
 30
0.0
 11
336.94864037977447
 21
270.03682384597357
 31
0.0
  0
LINE
  5
33F3
  8
AM_0
 10
325.94860037977452
 20
179.72670184597351
 30
0.0
 11
325.94860037977452
 21
310.78938184597348
 31
0.0
  0
LINE
  5
33F4
  8
AM_0
 10
303.94864037977459
 20
308.08201984597349
 30
0.0
 11
303.94864037977459
 21
262.8529098459735
 31
0.0
  0
LINE
  5
33F5
  8
AM_0
 10
331.94860037977452
 20
161.50804084597351
 30
0.0
 11
331.94860037977452
 21
329.00805184597351
 31
0.0
  0
LINE
  5
33F6
  8
AM_0
 10
264.9486703797744
 20
265.50239884597357
 30
0.0
 11
264.9486703797744
 21
155.00804284597351
 31
0.0
  0
LINE
  5
33F7
  8
AM_0
 10
271.94860037977452
 20
295.00804684597352
 30
0.0
 11
271.94860037977452
 21
150.50804284597351
 31
0.0
  0
LINE
  5
33F8
  8
AM_0
 10
233.94865037977451
 20
161.0080953459734
 30
0.0
 11
233.94865037977451
 21
287.0080953459734
 31
0.0
  0
LINE
  5
33F9
  8
AM_0
 10
259.9486003797744
 20
273.67522084597363
 30
0.0
 11
259.9486003797744
 21
254.0361048459736
 31
0.0
  0
LINE
  5
33FA
  8
AM_0
 10
91.948650379774577
 20
258.0080953459734
 30
0.0
 11
103.94865037977451
 21
258.0080953459734
 31
0.0
1001
GENIUS_GENOREF_13
1005
35C4
  0
LINE
  5
33FB
  8
AM_0
 10
76.448650379774563
 20
250.00809534597349
 30
0.0
 11
132.44865037977451
 21
250.00809534597349
 31
0.0
1001
GENIUS_GENOREF_13
1005
35C4
  0
LINE
  5
33FC
  8
AM_0
 10
91.948650379774577
 20
196.0080953459734
 30
0.0
 11
103.94865037977451
 21
196.0080953459734
 31
0.0
  0
LINE
  5
33FD
  8
AM_0
 10
98.448650379774435
 20
184.5080953459734
 30
0.0
 11
119.4082043797745
 21
184.5080953459734
 31
0.0
  0
LINE
  5
33FE
  8
AM_0
 10
98.448650379774435
 20
190.0080953459734
 30
0.0
 11
119.4082043797745
 21
190.0080953459734
 31
0.0
  0
LINE
  5
33FF
  8
AM_0
 10
98.448650379774435
 20
164.30809534597341
 30
0.0
 11
119.4082043797745
 21
164.30809534597341
 31
0.0
  0
LINE
  5
3400
  8
AM_0
 10
98.448650379774435
 20
161.7080953459735
 30
0.0
 11
119.4082043797745
 21
161.7080953459735
 31
0.0
  0
LINE
  5
3401
  8
AM_0
 10
98.448650379774435
 20
167.80809534597341
 30
0.0
 11
119.4082043797745
 21
167.80809534597341
 31
0.0
  0
LINE
  5
3402
  8
AM_0
 10
98.448650379774435
 20
172.10809534597351
 30
0.0
 11
119.4082043797745
 21
172.10809534597351
 31
0.0
  0
LINE
  5
3403
  8
AM_0
 10
98.448650379774435
 20
180.80809534597341
 30
0.0
 11
119.4082043797745
 21
180.80809534597361
 31
0.0
  0
LINE
  5
3404
  8
AM_0
 10
98.448650379774435
 20
175.60809534597351
 30
0.0
 11
119.4082043797745
 21
175.60809534597351
 31
0.0
  0
LINE
  5
3405
  8
AM_0
 10
71.948650379774563
 20
158.40809534597341
 30
0.0
 11
119.4082043797745
 21
158.40809534597341
 31
0.0
  0
LINE
  5
3406
  8
AM_0
 10
76.448650379774563
 20
204.00809534597349
 30
0.0
 11
132.44865037977451
 21
204.00809534597349
 31
0.0
  0
LINE
  5
3407
  8
ﾁｭｳｼﾝｾﾝ1
 10
50.01710030760222
 20
224.0080578459735
 30
0.0
 11
259.6953355250684
 21
224.0080578459735
 31
0.0
  0
LINE
  5
3408
  8
AM_0
 10
97.448650379774435
 20
179.80809534597341
 30
0.0
 11
97.448650379774435
 21
176.6080953459734
 31
0.0
  0
LINE
  5
3409
  8
AM_0
 10
69.277378057434419
 20
166.6047818547203
 30
0.0
 11
66.119922702114721
 21
169.41140883722659
 31
0.0
  0
ARC
  5
340A
  8
AM_0
 10
67.448650379774506
 20
170.906227474594
 30
0.0
 40
2.0
 50
180.0
 51
228.36646066343141
1001
GENIUS_GENODEF_13
1002
{
1000
HIER
1070
     0
1002
}
1002
{
1000
MANEDIT
1070
     0
1002
}
1002
{
1000
NOSEL
1070
     0
1002
}
1002
{
1000
BEHIND
1070
     0
1002
}
1002
{
1000
OTHER
1070
     0
1002
}
1002
{
1000
REACTOR
1002
}
1001
GENIUS_GENOBJ-N-FIL_13
1002
{
1000
OWNER
1000
GEN
1002
}
  0
ARC
  5
340B
  8
AM_0
 10
67.948650379774506
 20
165.10996321735291
 30
0.0
 40
2.0
 50
0.0
 51
48.366460663431418
1001
GENIUS_GENOBJ-N-FIL_13
1002
{
1000
OWNER
1000
GEN
1002
}
1001
GENIUS_GENODEF_13
1002
{
1000
HIER
1070
     0
1002
}
1002
{
1000
MANEDIT
1070
     0
1002
}
1002
{
1000
NOSEL
1070
     0
1002
}
1002
{
1000
BEHIND
1070
     0
1002
}
1002
{
1000
OTHER
1070
     0
1002
}
1002
{
1000
REACTOR
1002
}
  0
ARC
  5
340C
  8
AM_0
 10
71.948650379774563
 20
160.40809534597341
 30
0.0
 40
2.0
 50
180.0
 51
270.0
1001
GENIUS_GENOBJ-N-FIL_13
1002
{
1000
OWNER
1000
GEN
1002
}
1001
GENIUS_GENODEF_13
1002
{
1000
HIER
1070
     0
1002
}
1002
{
1000
MANEDIT
1070
     0
1002
}
1002
{
1000
NOSEL
1070
     0
1002
}
1002
{
1000
BEHIND
1070
     0
1002
}
1002
{
1000
OTHER
1070
     0
1002
}
1002
{
1000
REACTOR
1002
}
  0
ARC
  5
340D
  8
AM_0
 10
98.448650379774435
 20
163.30809534597341
 30
0.0
 40
1.0
 50
90.0
 51
180.0
1001
GENIUS_GENOBJ-N-FIL_13
1002
{
1000
OWNER
1000
GEN
1002
}
1001
GENIUS_GENODEF_13
1002
{
1000
HIER
1070
     0
1002
}
1002
{
1000
MANEDIT
1070
     0
1002
}
1002
{
1000
NOSEL
1070
     0
1002
}
1002
{
1000
BEHIND
1070
     0
1002
}
1002
{
1000
OTHER
1070
     0
1002
}
1002
{
1000
REACTOR
1002
}
  0
LINE
  5
340E
  8
AM_0
 10
97.448650379774463
 20
163.30809534597341
 30
0.0
 11
97.448650379774435
 21
162.7080953459735
 31
0.0
  0
ARC
  5
340F
  8
AM_0
 10
98.448650379774435
 20
162.7080953459735
 30
0.0
 40
1.0
 50
180.0
 51
270.0
1001
GENIUS_GENODEF_13
1002
{
1000
HIER
1070
     0
1002
}
1002
{
1000
MANEDIT
1070
     0
1002
}
1002
{
1000
NOSEL
1070
     0
1002
}
1002
{
1000
BEHIND
1070
     0
1002
}
1002
{
1000
OTHER
1070
     0
1002
}
1002
{
1000
REACTOR
1002
}
1001
GENIUS_GENOBJ-N-FIL_13
1002
{
1000
OWNER
1000
GEN
1002
}
  0
ARC
  5
3410
  8
AM_0
 10
98.448650379774435
 20
176.6080953459734
 30
0.0
 40
1.0
 50
180.0
 51
270.0
1001
GENIUS_GENOBJ-N-FIL_13
1002
{
1000
OWNER
1000
GEN
1002
}
1001
GENIUS_GENODEF_13
1002
{
1000
HIER
1070
     0
1002
}
1002
{
1000
MANEDIT
1070
     0
1002
}
1002
{
1000
NOSEL
1070
     0
1002
}
1002
{
1000
BEHIND
1070
     0
1002
}
1002
{
1000
OTHER
1070
     0
1002
}
1002
{
1000
REACTOR
1002
}
  0
ARC
  5
3411
  8
AM_0
 10
98.448650379774435
 20
168.80809534597341
 30
0.0
 40
1.0
 50
180.0
 51
270.0
1001
GENIUS_GENOBJ-N-FIL_13
1002
{
1000
OWNER
1000
GEN
1002
}
1001
GENIUS_GENODEF_13
1002
{
1000
HIER
1070
     0
1002
}
1002
{
1000
MANEDIT
1070
     0
1002
}
1002
{
1000
NOSEL
1070
     0
1002
}
1002
{
1000
BEHIND
1070
     0
1002
}
1002
{
1000
OTHER
1070
     0
1002
}
1002
{
1000
REACTOR
1002
}
  0
ARC
  5
3412
  8
AM_0
 10
98.448650379774435
 20
171.10809534597351
 30
0.0
 40
1.0
 50
90.0
 51
180.0
1001
GENIUS_GENODEF_13
1002
{
1000
HIER
1070
     0
1002
}
1002
{
1000
MANEDIT
1070
     0
1002
}
1002
{
1000
NOSEL
1070
     0
1002
}
1002
{
1000
BEHIND
1070
     0
1002
}
1002
{
1000
OTHER
1070
     0
1002
}
1002
{
1000
REACTOR
1002
}
1001
GENIUS_GENOBJ-N-FIL_13
1002
{
1000
OWNER
1000
GEN
1002
}
  0
LINE
  5
3413
  8
AM_0
 10
97.448650379774435
 20
171.10809534597351
 30
0.0
 11
97.448650379774435
 21
168.80809534597341
 31
0.0
  0
LINE
  5
3414
  8
AM_0
 10
54.448650379774499
 20
241.0080953459734
 30
0.0
 11
54.448650379774499
 21
207.00809534597349
 31
0.0
  0
LINE
  5
3415
  8
AM_0
 10
75.448650379774563
 20
249.00809534597349
 30
0.0
 11
75.448650379774563
 21
205.00809534597349
 31
0.0
  0
LINE
  5
3416
  8
AM_0
 10
57.448650379774513
 20
204.00809534597349
 30
0.0
 11
64.161285180816719
 21
204.00809534597349
 31
0.0
  0
ARC
  5
3417
  8
AM_0
 10
57.448650379774513
 20
207.00809534597349
 30
0.0
 40
3.0
 50
180.0
 51
270.0
1001
GENIUS_GENODEF_13
1002
{
1000
HIER
1070
     0
1002
}
1002
{
1000
MANEDIT
1070
     0
1002
}
1002
{
1000
NOSEL
1070
     0
1002
}
1002
{
1000
BEHIND
1070
     0
1002
}
1002
{
1000
OTHER
1070
     0
1002
}
1002
{
1000
REACTOR
1002
}
1001
GENIUS_GENOBJ-N-FIL_13
1002
{
1000
OWNER
1000
GEN
1002
}
  0
LINE
  5
3418
  8
AM_0N
 10
96.470055185003503
 20
200.2605953459736
 30
0.0
 11
96.470055185003503
 21
199.7555953459734
 31
0.0
  0
LINE
  5
3419
  8
AM_0N
 10
99.427245574545637
 20
200.2605953459736
 30
0.0
 11
99.427245574545637
 21
199.7555953459734
 31
0.0
  0
LINE
  5
341A
  8
AM_0
 10
89.948650379774577
 20
198.0080953459734
 30
0.0
 11
89.948650379774577
 21
204.00809534597349
 31
0.0
  0
LINE
  5
341B
  8
AM_0
 10
93.948650379774577
 20
196.0080953459734
 30
0.0
 11
93.948650379774577
 21
204.00809534597349
 31
0.0
  0
CIRCLE
  5
341C
  8
AM_0N
 10
97.948650379774591
 20
200.00809534597349
 30
0.0
 40
2.799999999999998
  0
LINE
  5
341D
  8
AM_0
 10
97.448650379774435
 20
189.00809534597349
 30
0.0
 11
97.448650379774435
 21
185.5080953459734
 31
0.0
  0
ARC
  5
341E
  8
AM_0
 10
98.448650379774435
 20
185.5080953459734
 30
0.0
 40
1.0
 50
180.0
 51
270.0
1001
GENIUS_GENODEF_13
1002
{
1000
HIER
1070
     0
1002
}
1002
{
1000
MANEDIT
1070
     0
1002
}
1002
{
1000
NOSEL
1070
     0
1002
}
1002
{
1000
BEHIND
1070
     0
1002
}
1002
{
1000
OTHER
1070
     0
1002
}
1002
{
1000
REACTOR
1002
}
1001
GENIUS_GENOBJ-N-FIL_13
1002
{
1000
OWNER
1000
GEN
1002
}
  0
ARC
  5
341F
  8
AM_0
 10
98.448650379774435
 20
179.80809534597341
 30
0.0
 40
1.0
 50
90.0
 51
180.0
1001
GENIUS_GENODEF_13
1002
{
1000
HIER
1070
     0
1002
}
1002
{
1000
MANEDIT
1070
     0
1002
}
1002
{
1000
NOSEL
1070
     0
1002
}
1002
{
1000
BEHIND
1070
     0
1002
}
1002
{
1000
OTHER
1070
     0
1002
}
1002
{
1000
REACTOR
1002
}
1001
GENIUS_GENOBJ-N-FIL_13
1002
{
1000
OWNER
1000
GEN
1002
}
  0
ARC
  5
3420
  8
AM_0
 10
91.948650379774577
 20
198.0080953459734
 30
0.0
 40
2.0
 50
180.0
 51
270.0
1001
GENIUS_GENOBJ-N-FIL_13
1002
{
1000
OWNER
1000
GEN
1002
}
1001
GENIUS_GENODEF_13
1002
{
1000
HIER
1070
     0
1002
}
1002
{
1000
MANEDIT
1070
     0
1002
}
1002
{
1000
NOSEL
1070
     0
1002
}
1002
{
1000
BEHIND
1070
     0
1002
}
1002
{
1000
OTHER
1070
     0
1002
}
1002
{
1000
REACTOR
1002
}
  0
LINE
  5
3421
  8
AM_0N
 10
97.696150379774565
 20
199.7555953459734
 30
0.0
 11
96.470055185003503
 21
199.7555953459734
 31
0.0
  0
LINE
  5
3422
  8
AM_0N
 10
97.696150379774565
 20
198.5295001512024
 30
0.0
 11
98.201150379774575
 21
198.5295001512024
 31
0.0
  0
LINE
  5
3423
  8
AM_0N
 10
99.427245574545637
 20
199.7555953459734
 30
0.0
 11
98.201150379774575
 21
199.7555953459734
 31
0.0
  0
LINE
  5
3424
  8
AM_0N
 10
97.696150379774565
 20
198.5295001512024
 30
0.0
 11
97.696150379774565
 21
199.7555953459734
 31
0.0
  0
LINE
  5
3425
  8
AM_0N
 10
98.201150379774575
 20
198.5295001512024
 30
0.0
 11
98.201150379774575
 21
199.7555953459734
 31
0.0
  0
ARC
  5
3426
  8
AM_0
 10
98.448650379774435
 20
189.00809534597349
 30
0.0
 40
1.0
 50
90.0
 51
180.0
1001
GENIUS_GENODEF_13
1002
{
1000
HIER
1070
     0
1002
}
1002
{
1000
MANEDIT
1070
     0
1002
}
1002
{
1000
NOSEL
1070
     0
1002
}
1002
{
1000
BEHIND
1070
     0
1002
}
1002
{
1000
OTHER
1070
     0
1002
}
1002
{
1000
REACTOR
1002
}
1001
GENIUS_GENOBJ-N-FIL_13
1002
{
1000
OWNER
1000
GEN
1002
}
  0
ARC
  5
3427
  8
AM_0
 10
76.448650379774563
 20
205.00809534597349
 30
0.0
 40
1.0
 50
180.0
 51
270.0
1001
GENIUS_GENOBJ-N-FIL_13
1002
{
1000
OWNER
1000
GEN
1002
}
1001
GENIUS_GENODEF_13
1002
{
1000
HIER
1070
     0
1002
}
1002
{
1000
MANEDIT
1070
     0
1002
}
1002
{
1000
NOSEL
1070
     0
1002
}
1002
{
1000
BEHIND
1070
     0
1002
}
1002
{
1000
OTHER
1070
     0
1002
}
1002
{
1000
REACTOR
1002
}
  0
LINE
  5
3428
  8
AM_0N
 10
97.696150379774565
 20
200.2605953459736
 30
0.0
 11
96.470055185003503
 21
200.2605953459736
 31
0.0
  0
LINE
  5
3429
  8
AM_0N
 10
98.201150379774575
 20
200.2605953459736
 30
0.0
 11
98.201150379774575
 21
201.48669054074449
 31
0.0
  0
LINE
  5
342A
  8
AM_0N
 10
97.696150379774565
 20
200.2605953459736
 30
0.0
 11
97.696150379774565
 21
201.48669054074449
 31
0.0
  0
LINE
  5
342B
  8
AM_0N
 10
99.427245574545637
 20
200.2605953459736
 30
0.0
 11
98.201150379774575
 21
200.2605953459736
 31
0.0
  0
LINE
  5
342C
  8
AM_0N
 10
97.696150379774565
 20
201.48669054074449
 30
0.0
 11
98.201150379774575
 21
201.48669054074449
 31
0.0
  0
ARC
  5
342D
  8
AM_0
 10
57.448650379774513
 20
241.0080953459734
 30
0.0
 40
3.0
 50
90.0
 51
180.0
1001
GENIUS_GENOBJ-N-FIL_13
1002
{
1000
OWNER
1000
GEN
1002
}
1001
GENIUS_GENODEF_13
1002
{
1000
HIER
1070
     0
1002
}
1002
{
1000
MANEDIT
1070
     0
1002
}
1002
{
1000
NOSEL
1070
     0
1002
}
1002
{
1000
BEHIND
1070
     0
1002
}
1002
{
1000
OTHER
1070
     0
1002
}
1002
{
1000
REACTOR
1002
}
  0
LINE
  5
342E
  8
AM_0
 10
57.448650379774513
 20
244.00809534597349
 30
0.0
 11
64.161285180816719
 21
244.00809534597349
 31
0.0
  0
ARC
  5
342F
  8
AM_0
 10
76.448650379774563
 20
249.00809534597349
 30
0.0
 40
1.0
 50
90.0
 51
180.0
1001
GENIUS_GENODEF_13
1002
{
1000
HIER
1070
     0
1002
}
1002
{
1000
MANEDIT
1070
     0
1002
}
1002
{
1000
NOSEL
1070
     0
1002
}
1002
{
1000
BEHIND
1070
     0
1002
}
1002
{
1000
OTHER
1070
     0
1002
}
1002
{
1000
REACTOR
1002
}
1001
GENIUS_GENOBJ-N-FIL_13
1002
{
1000
OWNER
1000
GEN
1002
}
  0
LINE
  5
3430
  8
AM_0N
 10
96.470055185003503
 20
253.7555953459734
 30
0.0
 11
96.470055185003503
 21
254.2605953459736
 31
0.0
1001
GENIUS_GENOREF_13
1005
0
  0
LINE
  5
3431
  8
AM_0N
 10
99.427245574545637
 20
253.7555953459734
 30
0.0
 11
99.427245574545637
 21
254.2605953459736
 31
0.0
1001
GENIUS_GENOREF_13
1005
0
  0
LINE
  5
3432
  8
AM_0
 10
93.948650379774577
 20
258.0080953459734
 30
0.0
 11
93.948650379774577
 21
250.00809534597349
 31
0.0
  0
LINE
  5
3433
  8
AM_0
 10
89.948650379774577
 20
256.00809534597357
 30
0.0
 11
89.948650379774577
 21
250.00809534597349
 31
0.0
  0
CIRCLE
  5
3434
  8
AM_0N
 10
97.948650379774591
 20
254.00809534597349
 30
0.0
 40
2.799999999999998
1001
GENIUS_GENOREF_13
1005
0
  0
LINE
  5
3435
  8
AM_0N
 10
97.696150379774565
 20
253.7555953459734
 30
0.0
 11
96.470055185003503
 21
253.7555953459734
 31
0.0
1001
GENIUS_GENOREF_13
1005
0
  0
LINE
  5
3436
  8
AM_0N
 10
97.696150379774565
 20
253.7555953459734
 30
0.0
 11
97.696150379774565
 21
252.5295001512024
 31
0.0
1001
GENIUS_GENOREF_13
1005
0
  0
LINE
  5
3437
  8
AM_0N
 10
98.201150379774575
 20
253.7555953459734
 30
0.0
 11
98.201150379774575
 21
252.5295001512024
 31
0.0
1001
GENIUS_GENOREF_13
1005
0
  0
LINE
  5
3438
  8
AM_0N
 10
97.696150379774565
 20
252.5295001512024
 30
0.0
 11
98.201150379774575
 21
252.5295001512024
 31
0.0
1001
GENIUS_GENOREF_13
1005
0
  0
LINE
  5
3439
  8
AM_0N
 10
99.427245574545637
 20
253.7555953459734
 30
0.0
 11
98.201150379774575
 21
253.7555953459734
 31
0.0
1001
GENIUS_GENOREF_13
1005
0
  0
ARC
  5
343A
  8
AM_0
 10
91.948650379774577
 20
256.00809534597357
 30
0.0
 40
2.0
 50
90.0
 51
180.0
1001
GENIUS_GENOBJ-N-FIL_13
1002
{
1000
OWNER
1000
GEN
1002
}
1001
GENIUS_GENODEF_13
1002
{
1000
HIER
1070
     0
1002
}
1002
{
1000
MANEDIT
1070
     0
1002
}
1002
{
1000
NOSEL
1070
     0
1002
}
1002
{
1000
BEHIND
1070
     0
1002
}
1002
{
1000
OTHER
1070
     0
1002
}
1002
{
1000
REACTOR
1002
}
  0
LINE
  5
343B
  8
AM_0N
 10
97.696150379774565
 20
254.2605953459736
 30
0.0
 11
96.470055185003503
 21
254.2605953459736
 31
0.0
1001
GENIUS_GENOREF_13
1005
0
  0
LINE
  5
343C
  8
AM_0N
 10
98.201150379774575
 20
255.48669054074449
 30
0.0
 11
98.201150379774575
 21
254.2605953459736
 31
0.0
1001
GENIUS_GENOREF_13
1005
0
  0
LINE
  5
343D
  8
AM_0N
 10
97.696150379774565
 20
255.48669054074449
 30
0.0
 11
97.696150379774565
 21
254.2605953459736
 31
0.0
1001
GENIUS_GENOREF_13
1005
0
  0
LINE
  5
343E
  8
AM_0N
 10
99.427245574545637
 20
254.2605953459736
 30
0.0
 11
98.201150379774575
 21
254.2605953459736
 31
0.0
1001
GENIUS_GENOREF_13
1005
0
  0
LINE
  5
343F
  8
AM_0N
 10
97.696150379774565
 20
255.48669054074449
 30
0.0
 11
98.201150379774575
 21
255.48669054074449
 31
0.0
1001
GENIUS_GENOREF_13
1005
0
  0
LINE
  5
3440
  8
AM_0
 10
233.94865037977451
 20
178.00805884597341
 30
0.0
 11
264.9486703797744
 21
178.00805884597341
 31
0.0
  0
LINE
  5
3441
  8
AM_0
 10
233.94865037977451
 20
192.0710298459735
 30
0.0
 11
264.9486703797744
 21
192.0710298459735
 31
0.0
  0
LINE
  5
3442
  8
AM_0
 10
233.94865037977451
 20
255.9450708459735
 30
0.0
 11
259.9486003797744
 21
255.9450708459735
 31
0.0
  0
LINE
  5
3443
  8
AM_0
 10
233.94859037977449
 20
168.00804184597351
 30
0.0
 11
257.02714037977449
 21
167.40371884597349
 31
0.0
  0
LINE
  5
3444
  8
AM_0
 10
205.44865037977451
 20
179.8080953459735
 30
0.0
 11
205.44865037977451
 21
176.6080953459734
 31
0.0
  0
LINE
  5
3445
  8
AM_0
 10
180.44865037977439
 20
179.80809534597341
 30
0.0
 11
180.44865037977439
 21
176.6080953459734
 31
0.0
  0
LINE
  5
3447
  8
ﾁｭｳｼﾝｾﾝ
 10
123.44865037977451
 20
205.32846655434039
 30
0.0
 11
123.44865037977451
 21
100.4616310699987
 31
0.0
  0
ARC
  5
3449
  8
ｽﾝﾎ_ｳｾﾝ
 10
126.39472237977439
 20
105.3838903318199
 30
0.0
 40
1.5050001119999981
 50
241.0912951394732
 51
145.9182257596149
  0
LINE
  5
344A
  8
AM_0
 10
122.2540653797745
 20
108.4145085459734
 30
0.0
 11
121.21920637977441
 21
104.6094639459733
 31
0.0
  0
LINE
  5
344B
  8
AM_0
 10
124.56555637977431
 20
108.4123602459734
 30
0.0
 11
125.6653263797745
 21
104.65494574597339
 31
0.0
  0
ARC
  5
344C
  8
AM_0
 10
123.44865037977451
 20
104.0080953459734
 30
0.0
 40
2.3091486599999991
 50
164.90527199999909
 51
16.267320000003402
  0
ARC
  5
344D
  8
ｽﾝﾎ_ｳｾﾝ
 10
120.4126983797745
 20
105.3838903318199
 30
0.0
 40
1.5050001119999981
 50
34.081774240385151
 51
298.90870486052597
  0
ARC
  5
344E
  8
AM_0
 10
120.4531443797746
 20
105.3839554318198
 30
0.0
 40
2.3091486599999991
 50
164.90527199999909
 51
290.87219614688911
  0
ARC
  5
344F
  8
AM_0
 10
126.3542763797743
 20
105.3839554318198
 30
0.0
 40
2.3091486599999991
 50
249.12780385311081
 51
15.094728000000879
  0
CIRCLE
  5
3450
  8
ｽﾝﾎ_ｳｾﾝ
 10
123.4082043797744
 20
104.0080302459735
 30
0.0
 40
1.5050001119999981
  0
LINE
  5
3451
  8
AM_0
 10
125.6160712802067
 20
204.00809534597349
 30
0.0
 11
125.3992163797744
 21
116.0892613458068
 31
0.0
  0
LINE
  5
3452
  8
AM_0
 10
121.4082043797744
 20
204.00809534597349
 30
0.0
 11
121.4082043797745
 21
116.0892613458068
 31
0.0
  0
LINE
  5
3453
  8
AM_0
 10
122.4082043797745
 20
204.00809534597349
 30
0.0
 11
122.4082043797745
 21
114.7129295084813
 31
0.0
  0
LINE
  5
3454
  8
AM_0
 10
124.4082043797744
 20
204.00809534597349
 30
0.0
 11
124.4082043797744
 21
114.7144163654004
 31
0.0
  0
LINE
  5
3455
  8
AM_0
 10
127.3992163797744
 20
204.00809534597349
 30
0.0
 11
127.3992163797744
 21
116.0885117988594
 31
0.0
  0
LINE
  5
3456
  8
AM_0
 10
119.4082043797745
 20
204.00809534597349
 30
0.0
 11
119.4082043797745
 21
116.0885117988594
 31
0.0
  0
LINE
  5
3457
  8
AM_0
 10
128.1152943797745
 20
116.08824343182
 30
0.0
 11
124.6832211671865
 21
116.0895296818199
 31
0.0
  0
LINE
  5
3458
  8
AM_0
 10
126.3931053797745
 20
109.78927873181991
 30
0.0
 11
125.1150750264333
 21
109.7880967679594
 31
0.0
  0
LINE
  5
3459
  8
AM_0
 10
121.68767437977441
 20
114.71239384597339
 30
0.0
 11
125.1197463797744
 21
114.71494534597331
 31
0.0
  0
LINE
  5
345A
  8
AM_0
 10
122.1241983797746
 20
116.0908054318199
 30
0.0
 11
122.12550823700759
 21
114.7127193441234
 31
0.0
  0
LINE
  5
345B
  8
AM_0
 10
124.68322237977431
 20
116.0908054318199
 30
0.0
 11
124.6819125225413
 21
114.7127193441234
 31
0.0
  0
LINE
  5
345C
  8
AM_0
 10
118.69212637977429
 20
116.08824343182
 30
0.0
 11
122.1241995923624
 21
116.0895296818199
 31
0.0
  0
LINE
  5
345D
  8
AM_0
 10
123.4098213797743
 20
108.41341864597349
 30
0.0
 11
124.5655983797745
 21
108.4123497459733
 31
0.0
  0
LINE
  5
345E
  8
AM_0
 10
121.9719628645325
 20
108.4150679472658
 30
0.0
 11
122.118269531922
 21
107.9152045271908
 31
0.0
  0
LINE
  5
345F
  8
AM_0
 10
120.41431537977439
 20
109.78927873181991
 30
0.0
 11
121.6923457331156
 21
109.7880967679594
 31
0.0
  0
LINE
  5
3460
  8
AM_0
 10
121.5700503797743
 20
109.7882203318199
 30
0.0
 11
121.6927468564959
 21
109.36902220791001
 31
0.0
  0
LINE
  5
3461
  8
AM_0
 10
122.2540653797745
 20
108.4144875459735
 30
0.0
 11
123.4098213797743
 21
108.41341864597349
 31
0.0
  0
LINE
  5
3462
  8
AM_0
 10
122.2540653797745
 20
108.4144875459735
 30
0.0
 11
121.6937013797744
 21
108.41564044597339
 31
0.0
  0
LINE
  5
3463
  8
AM_0
 10
124.8354578950163
 20
108.4150679472658
 30
0.0
 11
124.68915122762689
 21
107.9152045271908
 31
0.0
  0
LINE
  5
3464
  8
AM_0
 10
125.2373703797746
 20
109.7882203318199
 30
0.0
 11
125.114673903053
 21
109.36902220791001
 31
0.0
  0
LINE
  5
3465
  8
AM_0
 10
125.12573137977419
 20
108.4182255459734
 30
0.0
 11
124.5655983797745
 21
108.4123833459735
 31
0.0
  0
LINE
  5
3466
  8
AM_0
 10
119.2585593797745
 20
109.7903476318199
 30
0.0
 11
118.6981953797744
 21
109.79150053181991
 31
0.0
  0
LINE
  5
3467
  8
AM_0
 10
119.2585593797745
 20
109.7903686318199
 30
0.0
 11
118.2237003797744
 21
105.9853240318198
 31
0.0
  0
LINE
  5
3468
  8
AM_0
 10
119.2585593797745
 20
109.7903476318199
 30
0.0
 11
120.41431537977439
 21
109.78927873181991
 31
0.0
  0
LINE
  5
3469
  8
AM_0
 10
118.6981533797744
 20
109.7915215318199
 30
0.0
 11
118.69212637977429
 21
116.08824343182
 31
0.0
  0
LINE
  5
346A
  8
AM_0
 10
121.6936593797744
 20
108.4156614459734
 30
0.0
 11
121.6876323797743
 21
114.71238334597351
 31
0.0
  0
LINE
  5
346B
  8
AM_0
 10
125.1197043797746
 20
114.71494534597331
 30
0.0
 11
125.1256893797744
 21
108.41819404597349
 31
0.0
  0
LINE
  5
346C
  8
AM_0
 10
127.54886137977439
 20
109.7903476318199
 30
0.0
 11
126.3931053797745
 21
109.78927873181991
 31
0.0
  0
LINE
  5
346D
  8
AM_0
 10
127.54886137977439
 20
109.7903686318199
 30
0.0
 11
128.58372037977441
 21
105.9853240318198
 31
0.0
  0
LINE
  5
346E
  8
AM_0
 10
127.54886137977439
 20
109.7903476318199
 30
0.0
 11
128.10922537977439
 21
109.79150053181991
 31
0.0
  0
LINE
  5
346F
  8
AM_0
 10
128.10926737977439
 20
109.7915215318199
 30
0.0
 11
128.1152943797745
 21
116.08824343182
 31
0.0
  0
LINE
  5
3486
  8
AM_0
 10
181.44865037977439
 20
164.30809534597341
 30
0.0
 11
204.44865037977459
 21
164.30809534597341
 31
0.0
  0
LINE
  5
3487
  8
AM_0
 10
181.44865037977439
 20
167.80809534597341
 30
0.0
 11
204.44865037977459
 21
167.80809534597341
 31
0.0
  0
LINE
  5
3488
  8
AM_0
 10
181.44865037977439
 20
172.10809534597351
 30
0.0
 11
204.44865037977459
 21
172.10809534597351
 31
0.0
  0
LINE
  5
3489
  8
AM_0
 10
181.44865037977439
 20
175.60809534597351
 30
0.0
 11
204.44865037977459
 21
175.60809534597351
 31
0.0
  0
LINE
  5
348A
  8
AM_0
 10
181.44865037977439
 20
161.7080953459735
 30
0.0
 11
204.44865037977459
 21
161.7080953459735
 31
0.0
  0
ARC
  5
348B
  8
AM_0
 10
181.44865037977439
 20
163.30809534597341
 30
0.0
 40
1.0
 50
90.0
 51
180.0
1001
GENIUS_GENOBJ-N-FIL_13
1002
{
1000
OWNER
1000
GEN
1002
}
1001
GENIUS_GENODEF_13
1002
{
1000
HIER
1070
     0
1002
}
1002
{
1000
MANEDIT
1070
     0
1002
}
1002
{
1000
NOSEL
1070
     0
1002
}
1002
{
1000
BEHIND
1070
     0
1002
}
1002
{
1000
OTHER
1070
     0
1002
}
1002
{
1000
REACTOR
1002
}
  0
LINE
  5
348C
  8
AM_0
 10
180.44865037977451
 20
163.30809534597341
 30
0.0
 11
180.44865037977439
 21
162.7080953459735
 31
0.0
  0
ARC
  5
348D
  8
AM_0
 10
181.44865037977439
 20
162.7080953459735
 30
0.0
 40
1.0
 50
180.0
 51
270.0
1001
GENIUS_GENODEF_13
1002
{
1000
HIER
1070
     0
1002
}
1002
{
1000
MANEDIT
1070
     0
1002
}
1002
{
1000
NOSEL
1070
     0
1002
}
1002
{
1000
BEHIND
1070
     0
1002
}
1002
{
1000
OTHER
1070
     0
1002
}
1002
{
1000
REACTOR
1002
}
1001
GENIUS_GENOBJ-N-FIL_13
1002
{
1000
OWNER
1000
GEN
1002
}
  0
ARC
  5
348E
  8
AM_0
 10
181.44865037977439
 20
176.6080953459734
 30
0.0
 40
1.0
 50
180.0
 51
270.0
1001
GENIUS_GENOBJ-N-FIL_13
1002
{
1000
OWNER
1000
GEN
1002
}
1001
GENIUS_GENODEF_13
1002
{
1000
HIER
1070
     0
1002
}
1002
{
1000
MANEDIT
1070
     0
1002
}
1002
{
1000
NOSEL
1070
     0
1002
}
1002
{
1000
BEHIND
1070
     0
1002
}
1002
{
1000
OTHER
1070
     0
1002
}
1002
{
1000
REACTOR
1002
}
  0
ARC
  5
348F
  8
AM_0
 10
181.44865037977439
 20
168.80809534597341
 30
0.0
 40
1.0
 50
180.0
 51
270.0
1001
GENIUS_GENOBJ-N-FIL_13
1002
{
1000
OWNER
1000
GEN
1002
}
1001
GENIUS_GENODEF_13
1002
{
1000
HIER
1070
     0
1002
}
1002
{
1000
MANEDIT
1070
     0
1002
}
1002
{
1000
NOSEL
1070
     0
1002
}
1002
{
1000
BEHIND
1070
     0
1002
}
1002
{
1000
OTHER
1070
     0
1002
}
1002
{
1000
REACTOR
1002
}
  0
ARC
  5
3490
  8
AM_0
 10
181.44865037977439
 20
171.10809534597351
 30
0.0
 40
1.0
 50
90.0
 51
180.0
1001
GENIUS_GENODEF_13
1002
{
1000
HIER
1070
     0
1002
}
1002
{
1000
MANEDIT
1070
     0
1002
}
1002
{
1000
NOSEL
1070
     0
1002
}
1002
{
1000
BEHIND
1070
     0
1002
}
1002
{
1000
OTHER
1070
     0
1002
}
1002
{
1000
REACTOR
1002
}
1001
GENIUS_GENOBJ-N-FIL_13
1002
{
1000
OWNER
1000
GEN
1002
}
  0
LINE
  5
3491
  8
AM_0
 10
180.44865037977439
 20
171.10809534597351
 30
0.0
 11
180.44865037977439
 21
168.80809534597341
 31
0.0
  0
LINE
  5
3492
  8
AM_0
 10
215.44865037977451
 20
158.0080953459734
 30
0.0
 11
226.94865037977451
 21
158.0080953459734
 31
0.0
  0
LINE
  5
3493
  8
AM_0
 10
205.44865037977451
 20
163.30809534597341
 30
0.0
 11
205.44865037977451
 21
162.7080953459735
 31
0.0
  0
ARC
  5
3494
  8
AM_0
 10
204.44865037977459
 20
163.30809534597341
 30
0.0
 40
1.0
 50
0.0
 51
90.0
1001
GENIUS_GENODEF_13
1002
{
1000
HIER
1070
     0
1002
}
1002
{
1000
MANEDIT
1070
     0
1002
}
1002
{
1000
NOSEL
1070
     0
1002
}
1002
{
1000
BEHIND
1070
     0
1002
}
1002
{
1000
OTHER
1070
     0
1002
}
1002
{
1000
REACTOR
1002
}
1001
GENIUS_GENOBJ-N-FIL_13
1002
{
1000
OWNER
1000
GEN
1002
}
  0
ARC
  5
3495
  8
AM_0
 10
204.44865037977459
 20
162.7080953459735
 30
0.0
 40
1.0
 50
270.0
 51
0.0
1001
GENIUS_GENOBJ-N-FIL_13
1002
{
1000
OWNER
1000
GEN
1002
}
1001
GENIUS_GENODEF_13
1002
{
1000
HIER
1070
     0
1002
}
1002
{
1000
MANEDIT
1070
     0
1002
}
1002
{
1000
NOSEL
1070
     0
1002
}
1002
{
1000
BEHIND
1070
     0
1002
}
1002
{
1000
OTHER
1070
     0
1002
}
1002
{
1000
REACTOR
1002
}
  0
ARC
  5
3496
  8
AM_0
 10
204.44865037977459
 20
176.6080953459734
 30
0.0
 40
1.0
 50
270.0
 51
0.0
1001
GENIUS_GENODEF_13
1002
{
1000
HIER
1070
     0
1002
}
1002
{
1000
MANEDIT
1070
     0
1002
}
1002
{
1000
NOSEL
1070
     0
1002
}
1002
{
1000
BEHIND
1070
     0
1002
}
1002
{
1000
OTHER
1070
     0
1002
}
1002
{
1000
REACTOR
1002
}
1001
GENIUS_GENOBJ-N-FIL_13
1002
{
1000
OWNER
1000
GEN
1002
}
  0
ARC
  5
3497
  8
AM_0
 10
204.44865037977459
 20
168.80809534597341
 30
0.0
 40
1.0
 50
270.0
 51
0.0
1001
GENIUS_GENODEF_13
1002
{
1000
HIER
1070
     0
1002
}
1002
{
1000
MANEDIT
1070
     0
1002
}
1002
{
1000
NOSEL
1070
     0
1002
}
1002
{
1000
BEHIND
1070
     0
1002
}
1002
{
1000
OTHER
1070
     0
1002
}
1002
{
1000
REACTOR
1002
}
1001
GENIUS_GENOBJ-N-FIL_13
1002
{
1000
OWNER
1000
GEN
1002
}
  0
LINE
  5
3498
  8
AM_0
 10
205.44865037977451
 20
171.10809534597351
 30
0.0
 11
205.44865037977451
 21
168.80809534597341
 31
0.0
  0
ARC
  5
3499
  8
AM_0
 10
204.44865037977459
 20
171.10809534597351
 30
0.0
 40
1.0
 50
0.0
 51
90.0
1001
GENIUS_GENODEF_13
1002
{
1000
HIER
1070
     0
1002
}
1002
{
1000
MANEDIT
1070
     0
1002
}
1002
{
1000
NOSEL
1070
     0
1002
}
1002
{
1000
BEHIND
1070
     0
1002
}
1002
{
1000
OTHER
1070
     0
1002
}
1002
{
1000
REACTOR
1002
}
1001
GENIUS_GENOBJ-N-FIL_13
1002
{
1000
OWNER
1000
GEN
1002
}
  0
LINE
  5
349A
  8
AM_0
 10
233.94865037977451
 20
161.0080953459734
 30
0.0
 11
226.94865037977451
 21
158.0080953459734
 31
0.0
  0
LINE
  5
349B
  8
AM_0
 10
133.44865037977451
 20
249.00809534597349
 30
0.0
 11
133.44865037977451
 21
205.00809534597349
 31
0.0
  0
LINE
  5
34A2
  8
AM_0
 10
105.94865037977451
 20
198.0080953459734
 30
0.0
 11
105.94865037977451
 21
204.00809534597349
 31
0.0
  0
LINE
  5
34A3
  8
AM_0
 10
101.94865037977451
 20
196.0080953459734
 30
0.0
 11
101.94865037977451
 21
204.00809534597349
 31
0.0
  0
ARC
  5
34A4
  8
AM_0
 10
103.94865037977451
 20
198.0080953459734
 30
0.0
 40
2.0
 50
270.0
 51
0.0
1001
GENIUS_GENOBJ-N-FIL_13
1002
{
1000
OWNER
1000
GEN
1002
}
1001
GENIUS_GENODEF_13
1002
{
1000
HIER
1070
     0
1002
}
1002
{
1000
MANEDIT
1070
     0
1002
}
1002
{
1000
NOSEL
1070
     0
1002
}
1002
{
1000
BEHIND
1070
     0
1002
}
1002
{
1000
OTHER
1070
     0
1002
}
1002
{
1000
REACTOR
1002
}
  0
ARC
  5
34B8
  8
AM_0
 10
132.44865037977451
 20
205.00809534597349
 30
0.0
 40
1.0
 50
270.0
 51
0.0
1001
GENIUS_GENOBJ-N-FIL_13
1002
{
1000
OWNER
1000
GEN
1002
}
1001
GENIUS_GENODEF_13
1002
{
1000
HIER
1070
     0
1002
}
1002
{
1000
MANEDIT
1070
     0
1002
}
1002
{
1000
NOSEL
1070
     0
1002
}
1002
{
1000
BEHIND
1070
     0
1002
}
1002
{
1000
OTHER
1070
     0
1002
}
1002
{
1000
REACTOR
1002
}
  0
LINE
  5
34B9
  8
AM_0
 10
105.94865037977451
 20
256.00809534597357
 30
0.0
 11
105.94865037977451
 21
250.00809534597349
 31
0.0
  0
LINE
  5
34BA
  8
AM_0
 10
101.94865037977451
 20
258.0080953459734
 30
0.0
 11
101.94865037977451
 21
250.00809534597349
 31
0.0
  0
ARC
  5
34BB
  8
AM_0
 10
103.94865037977451
 20
256.00809534597357
 30
0.0
 40
2.0
 50
0.0
 51
90.0
1001
GENIUS_GENOBJ-N-FIL_13
1002
{
1000
OWNER
1000
GEN
1002
}
1001
GENIUS_GENODEF_13
1002
{
1000
HIER
1070
     0
1002
}
1002
{
1000
MANEDIT
1070
     0
1002
}
1002
{
1000
NOSEL
1070
     0
1002
}
1002
{
1000
BEHIND
1070
     0
1002
}
1002
{
1000
OTHER
1070
     0
1002
}
1002
{
1000
REACTOR
1002
}
  0
ARC
  5
34BC
  8
AM_0
 10
132.44865037977451
 20
249.00809534597349
 30
0.0
 40
1.0
 50
0.0
 51
90.0
1001
GENIUS_GENODEF_13
1002
{
1000
HIER
1070
     0
1002
}
1002
{
1000
MANEDIT
1070
     0
1002
}
1002
{
1000
NOSEL
1070
     0
1002
}
1002
{
1000
BEHIND
1070
     0
1002
}
1002
{
1000
OTHER
1070
     0
1002
}
1002
{
1000
REACTOR
1002
}
1001
GENIUS_GENOBJ-N-FIL_13
1002
{
1000
OWNER
1000
GEN
1002
}
  0
LINE
  5
34BD
  8
AM_0
 10
181.44865037977439
 20
184.5080953459734
 30
0.0
 11
204.44865037977459
 21
184.5080953459734
 31
0.0
  0
LINE
  5
34BE
  8
AM_0
 10
181.44865037977439
 20
190.0080953459734
 30
0.0
 11
204.44865037977439
 21
190.0080953459734
 31
0.0
  0
LINE
  5
34BF
  8
AM_0
 10
181.44865037977439
 20
195.5080953459734
 30
0.0
 11
204.44865037977439
 21
195.5080953459734
 31
0.0
  0
LINE
  5
34C0
  8
AM_0
 10
181.44865037977439
 20
202.00809534597349
 30
0.0
 11
204.44865037977451
 21
202.00809534597349
 31
0.0
  0
LINE
  5
34C1
  8
AM_0
 10
181.44865037977439
 20
180.80809534597341
 30
0.0
 11
204.44865037977459
 21
180.8080953459735
 31
0.0
  0
LINE
  5
34C2
  8
AM_0
 10
180.44865037977439
 20
201.00809534597349
 30
0.0
 11
180.44865037977439
 21
196.5080953459734
 31
0.0
  0
LINE
  5
34C3
  8
AM_0
 10
180.44865037977439
 20
189.00809534597349
 30
0.0
 11
180.44865037977439
 21
185.5080953459734
 31
0.0
  0
ARC
  5
34C4
  8
AM_0
 10
181.44865037977439
 20
185.5080953459734
 30
0.0
 40
1.0
 50
180.0
 51
270.0
1001
GENIUS_GENODEF_13
1002
{
1000
HIER
1070
     0
1002
}
1002
{
1000
MANEDIT
1070
     0
1002
}
1002
{
1000
NOSEL
1070
     0
1002
}
1002
{
1000
BEHIND
1070
     0
1002
}
1002
{
1000
OTHER
1070
     0
1002
}
1002
{
1000
REACTOR
1002
}
1001
GENIUS_GENOBJ-N-FIL_13
1002
{
1000
OWNER
1000
GEN
1002
}
  0
ARC
  5
34C5
  8
AM_0
 10
181.44865037977439
 20
179.80809534597341
 30
0.0
 40
1.0
 50
90.0
 51
180.0
1001
GENIUS_GENODEF_13
1002
{
1000
HIER
1070
     0
1002
}
1002
{
1000
MANEDIT
1070
     0
1002
}
1002
{
1000
NOSEL
1070
     0
1002
}
1002
{
1000
BEHIND
1070
     0
1002
}
1002
{
1000
OTHER
1070
     0
1002
}
1002
{
1000
REACTOR
1002
}
1001
GENIUS_GENOBJ-N-FIL_13
1002
{
1000
OWNER
1000
GEN
1002
}
  0
ARC
  5
34C6
  8
AM_0
 10
181.44865037977439
 20
196.5080953459734
 30
0.0
 40
1.0
 50
180.0
 51
270.0
1001
GENIUS_GENODEF_13
1002
{
1000
HIER
1070
     0
1002
}
1002
{
1000
MANEDIT
1070
     0
1002
}
1002
{
1000
NOSEL
1070
     0
1002
}
1002
{
1000
BEHIND
1070
     0
1002
}
1002
{
1000
OTHER
1070
     0
1002
}
1002
{
1000
REACTOR
1002
}
1001
GENIUS_GENOBJ-N-FIL_13
1002
{
1000
OWNER
1000
GEN
1002
}
  0
ARC
  5
34C7
  8
AM_0
 10
181.44865037977439
 20
189.00809534597349
 30
0.0
 40
1.0
 50
90.0
 51
180.0
1001
GENIUS_GENODEF_13
1002
{
1000
HIER
1070
     0
1002
}
1002
{
1000
MANEDIT
1070
     0
1002
}
1002
{
1000
NOSEL
1070
     0
1002
}
1002
{
1000
BEHIND
1070
     0
1002
}
1002
{
1000
OTHER
1070
     0
1002
}
1002
{
1000
REACTOR
1002
}
1001
GENIUS_GENOBJ-N-FIL_13
1002
{
1000
OWNER
1000
GEN
1002
}
  0
ARC
  5
34C8
  8
AM_0
 10
181.44865037977439
 20
201.00809534597349
 30
0.0
 40
1.0
 50
90.0
 51
180.0
1001
GENIUS_GENOBJ-N-FIL_13
1002
{
1000
OWNER
1000
GEN
1002
}
1001
GENIUS_GENODEF_13
1002
{
1000
HIER
1070
     0
1002
}
1002
{
1000
MANEDIT
1070
     0
1002
}
1002
{
1000
NOSEL
1070
     0
1002
}
1002
{
1000
BEHIND
1070
     0
1002
}
1002
{
1000
OTHER
1070
     0
1002
}
1002
{
1000
REACTOR
1002
}
  0
LINE
  5
34C9
  8
AM_0
 10
205.44865037977451
 20
201.00809534597349
 30
0.0
 11
205.44865037977451
 21
196.5080953459734
 31
0.0
  0
LINE
  5
34CA
  8
AM_0
 10
205.44865037977451
 20
189.00809534597349
 30
0.0
 11
205.44865037977451
 21
185.5080953459734
 31
0.0
  0
ARC
  5
34CB
  8
AM_0
 10
204.44865037977459
 20
185.5080953459734
 30
0.0
 40
1.0
 50
270.0
 51
0.0
1001
GENIUS_GENODEF_13
1002
{
1000
HIER
1070
     0
1002
}
1002
{
1000
MANEDIT
1070
     0
1002
}
1002
{
1000
NOSEL
1070
     0
1002
}
1002
{
1000
BEHIND
1070
     0
1002
}
1002
{
1000
OTHER
1070
     0
1002
}
1002
{
1000
REACTOR
1002
}
1001
GENIUS_GENOBJ-N-FIL_13
1002
{
1000
OWNER
1000
GEN
1002
}
  0
ARC
  5
34CC
  8
AM_0
 10
204.44865037977459
 20
179.8080953459735
 30
0.0
 40
1.0
 50
0.0
 51
90.0
1001
GENIUS_GENODEF_13
1002
{
1000
HIER
1070
     0
1002
}
1002
{
1000
MANEDIT
1070
     0
1002
}
1002
{
1000
NOSEL
1070
     0
1002
}
1002
{
1000
BEHIND
1070
     0
1002
}
1002
{
1000
OTHER
1070
     0
1002
}
1002
{
1000
REACTOR
1002
}
1001
GENIUS_GENOBJ-N-FIL_13
1002
{
1000
OWNER
1000
GEN
1002
}
  0
ARC
  5
34CD
  8
AM_0
 10
204.44865037977439
 20
196.5080953459734
 30
0.0
 40
1.0
 50
270.0
 51
0.0
1001
GENIUS_GENODEF_13
1002
{
1000
HIER
1070
     0
1002
}
1002
{
1000
MANEDIT
1070
     0
1002
}
1002
{
1000
NOSEL
1070
     0
1002
}
1002
{
1000
BEHIND
1070
     0
1002
}
1002
{
1000
OTHER
1070
     0
1002
}
1002
{
1000
REACTOR
1002
}
1001
GENIUS_GENOBJ-N-FIL_13
1002
{
1000
OWNER
1000
GEN
1002
}
  0
ARC
  5
34CE
  8
AM_0
 10
204.44865037977439
 20
189.00809534597349
 30
0.0
 40
1.0
 50
0.0
 51
90.0
1001
GENIUS_GENOBJ-N-FIL_13
1002
{
1000
OWNER
1000
GEN
1002
}
1001
GENIUS_GENODEF_13
1002
{
1000
HIER
1070
     0
1002
}
1002
{
1000
MANEDIT
1070
     0
1002
}
1002
{
1000
NOSEL
1070
     0
1002
}
1002
{
1000
BEHIND
1070
     0
1002
}
1002
{
1000
OTHER
1070
     0
1002
}
1002
{
1000
REACTOR
1002
}
  0
ARC
  5
34CF
  8
AM_0
 10
204.44865037977451
 20
201.00809534597349
 30
0.0
 40
1.0
 50
0.0
 51
90.0
1001
GENIUS_GENOBJ-N-FIL_13
1002
{
1000
OWNER
1000
GEN
1002
}
1001
GENIUS_GENODEF_13
1002
{
1000
HIER
1070
     0
1002
}
1002
{
1000
MANEDIT
1070
     0
1002
}
1002
{
1000
NOSEL
1070
     0
1002
}
1002
{
1000
BEHIND
1070
     0
1002
}
1002
{
1000
OTHER
1070
     0
1002
}
1002
{
1000
REACTOR
1002
}
  0
ARC
  5
34D0
  8
AM_0
 10
322.94860037977452
 20
179.72670184597351
 30
0.0
 40
3.0
 50
270.0
 51
0.0
  0
LINE
  5
34D1
  8
AM_0
 10
335.94862037977452
 20
244.00805884597349
 30
0.0
 11
335.94862037977452
 21
174.0080718459734
 31
0.0
  0
LINE
  5
34D2
  8
AM_0
 10
321.94864037977447
 20
163.78863484597341
 30
0.0
 11
321.94864037977447
 21
196.8537018459734
 31
0.0
  0
LINE
  5
34D3
  8
AM_0
 10
271.94860037977452
 20
161.1379698459734
 30
0.0
 11
307.94860037977452
 21
161.1379698459734
 31
0.0
  0
LINE
  5
34D4
  8
AM_0
 10
271.94860037977452
 20
150.5080578459735
 30
0.0
 11
307.94866037977448
 21
149.0080578459735
 31
0.0
  0
LINE
  5
34D5
  8
AM_0
 10
261.94867037977451
 20
150.50804284597351
 30
0.0
 11
271.94860037977452
 21
150.50804284597351
 31
0.0
  0
LINE
  5
34D6
  8
AM_0
 10
266.94865037977439
 20
153.00804184597351
 30
0.0
 11
271.94860037977452
 21
153.00804184597351
 31
0.0
  0
LINE
  5
34D7
  8
AM_0
 10
259.9486003797744
 20
172.79229784597351
 30
0.0
 11
259.9486003797744
 21
152.5080558459735
 31
0.0
  0
ARC
  5
34D8
  8
AM_0
 10
261.94867037977451
 20
152.5080558459735
 30
0.0
 40
2.00000007
 50
179.99999000000059
 51
270.0
  0
ARC
  5
34D9
  8
AM_0
 10
266.94865037977439
 20
155.00804284597351
 30
0.0
 40
2.00000007
 50
179.99999000000059
 51
270.0
  0
ARC
  5
34DA
  8
AM_0
 10
256.94860037977452
 20
164.4047388459735
 30
0.0
 40
3.0
 50
0.0
 51
88.499997000000747
  0
ARC
  5
34DB
  8
AM_0
 10
257.94865037977451
 20
172.79229784597351
 30
0.0
 40
2.00000007
 50
0.0
 51
90.00000299999769
  0
LINE
  5
34DC
  8
AM_0
 10
259.9486003797744
 20
174.7923138459735
 30
0.0
 11
264.9486703797744
 21
174.7923138459735
 31
0.0
  0
LINE
  5
34DD
  8
AM_0
 10
331.94860037977452
 20
174.0080718459734
 30
0.0
 11
335.94862037977452
 21
174.0080718459734
 31
0.0
  0
LINE
  5
34DE
  8
AM_0
 10
307.94860037977452
 20
164.4185178459735
 30
0.0
 11
307.94860037977452
 21
149.00804284597351
 31
0.0
  0
LINE
  5
34DF
  8
AM_0
 10
308.92246037977452
 20
165.4181688459735
 30
0.0
 11
321.94864037977447
 21
165.7592628459735
 31
0.0
  0
ARC
  5
34E0
  8
AM_0
 10
308.94862037977452
 20
164.4185178459735
 30
0.0
 40
1.0000000199999981
 50
91.500001000001546
 51
180.00000999999941
  0
LINE
  5
34E1
  8
AM_0
 10
323.87884037977449
 20
161.78984284597351
 30
0.0
 11
331.9486303797745
 21
161.50804084597351
 31
0.0
  0
ARC
  5
34E2
  8
AM_0
 10
323.94862037977452
 20
163.78863484597341
 30
0.0
 40
2.00000007
 50
179.99999000000059
 51
268.00000999999872
  0
ARC
  5
34E4
  8
AM_0
 10
257.94865037977451
 20
254.0361048459736
 30
0.0
 40
2.00000007
 50
270.0
 51
0.0
  0
LINE
  5
34E5
  8
AM_0
 10
259.9486003797744
 20
252.03609184597349
 30
0.0
 11
264.9486703797744
 21
252.03609184597349
 31
0.0
  0
ARC
  5
34E6
  8
AM_0
 10
324.94864037977459
 20
196.8537018459734
 30
0.0
 40
3.0
 50
90.00000299999769
 51
180.00000999999941
  0
ARC
  5
34E7
  8
AM_0
 10
333.94864037977447
 20
218.05873384597351
 30
0.0
 40
3.0
 50
311.81031000000007
 51
0.0
  0
LINE
  5
34E8
  8
AM_0
 10
331.94860037977452
 20
255.81100684597351
 30
0.0
 11
335.94862037977452
 21
255.81100684597351
 31
0.0
  0
LINE
  5
34E9
  8
AM_0
 10
308.94862037977452
 20
257.8529088459735
 30
0.0
 11
323.17939037977447
 21
257.8529088459735
 31
0.0
  0
ARC
  5
34EA
  8
AM_0
 10
308.94862037977452
 20
262.8529098459735
 30
0.0
 40
5.0000001000000003
 50
179.99999000000059
 51
270.0
  0
LINE
  5
34EB
  8
AM_0
 10
338.94862037977452
 20
259.00805884597349
 30
0.0
 11
338.94862037977452
 21
229.00805884597349
 31
0.0
  0
LINE
  5
34EC
  8
AM_0
 10
336.94864037977447
 20
229.00805884597349
 30
0.0
 11
338.94862037977452
 21
229.00805884597349
 31
0.0
  0
LINE
  5
34ED
  8
AM_0
 10
335.94862037977452
 20
244.00805884597349
 30
0.0
 11
335.94862037977452
 21
255.81100684597351
 31
0.0
  0
LINE
  5
34EE
  8
AM_0
 10
336.94864037977447
 20
259.00805884597349
 30
0.0
 11
338.94862037977452
 21
259.00805884597349
 31
0.0
  0
LINE
  5
34EF
  8
AM_0
 10
346.94860037977452
 20
261.00807484597362
 30
0.0
 11
346.94860037977452
 21
258.00807484597362
 31
0.0
  0
LINE
  5
34F0
  8
AM_0
 10
71.948650379774634
 20
289.60809534597371
 30
0.0
 11
215.44865037977459
 21
289.60809534597348
 31
0.0
  0
LINE
  5
34F1
  8
AM_0
 10
69.277378057434419
 20
281.41140883722659
 30
0.0
 11
66.119922702114721
 21
278.60478185472027
 31
0.0
  0
ARC
  5
34F2
  8
AM_0
 10
67.448650379774506
 20
277.10996321735291
 30
0.0
 40
2.0
 50
131.6335393365685
 51
180.0
1001
GENIUS_GENODEF_13
1002
{
1000
HIER
1070
     0
1002
}
1002
{
1000
MANEDIT
1070
     0
1002
}
1002
{
1000
NOSEL
1070
     0
1002
}
1002
{
1000
BEHIND
1070
     0
1002
}
1002
{
1000
OTHER
1070
     0
1002
}
1002
{
1000
REACTOR
1002
}
1001
GENIUS_GENOBJ-N-FIL_13
1002
{
1000
OWNER
1000
GEN
1002
}
  0
ARC
  5
34F3
  8
AM_0
 10
67.948650379774506
 20
282.906227474594
 30
0.0
 40
2.0
 50
311.63353933656862
 51
0.0
1001
GENIUS_GENOBJ-N-FIL_13
1002
{
1000
OWNER
1000
GEN
1002
}
1001
GENIUS_GENODEF_13
1002
{
1000
HIER
1070
     0
1002
}
1002
{
1000
MANEDIT
1070
     0
1002
}
1002
{
1000
NOSEL
1070
     0
1002
}
1002
{
1000
BEHIND
1070
     0
1002
}
1002
{
1000
OTHER
1070
     0
1002
}
1002
{
1000
REACTOR
1002
}
  0
ARC
  5
34F4
  8
AM_0
 10
71.948650379774634
 20
287.6080953459736
 30
0.0
 40
2.0
 50
90.0
 51
180.0
1001
GENIUS_GENOBJ-N-FIL_13
1002
{
1000
OWNER
1000
GEN
1002
}
1001
GENIUS_GENODEF_13
1002
{
1000
HIER
1070
     0
1002
}
1002
{
1000
MANEDIT
1070
     0
1002
}
1002
{
1000
NOSEL
1070
     0
1002
}
1002
{
1000
BEHIND
1070
     0
1002
}
1002
{
1000
OTHER
1070
     0
1002
}
1002
{
1000
REACTOR
1002
}
  0
LINE
  5
34F6
  8
AM_0
 10
233.94865037977451
 20
270.00804484597347
 30
0.0
 11
259.9486003797744
 21
270.00804484597347
 31
0.0
  0
LINE
  5
34F7
  8
AM_0
 10
233.94865037977451
 20
280.00804684597352
 30
0.0
 11
260.07952037977452
 21
280.69231084597362
 31
0.0
  0
LINE
  5
34F8
  8
AM_0
 10
215.44865037977451
 20
290.00809534597352
 30
0.0
 11
226.94865037977451
 21
290.00809534597352
 31
0.0
  0
LINE
  5
34F9
  8
AM_0
 10
226.94865037977451
 20
290.00809534597352
 30
0.0
 11
233.94865037977451
 21
287.0080953459734
 31
0.0
  0
ARC
  5
34FC
  8
AM_0
 10
300.94867037977423
 20
298.76845384597351
 30
0.0
 40
3.0
 50
271.50000000000267
 51
0.0
  0
LINE
  5
34FD
  8
AM_0
 10
271.94860037977452
 20
272.80510384597358
 30
0.0
 11
302.26690037977448
 21
272.80510384597358
 31
0.0
  0
LINE
  5
34FE
  8
AM_0
 10
266.94865037977439
 20
295.00804684597352
 30
0.0
 11
271.94860037977452
 21
295.00804684597352
 31
0.0
  0
LINE
  5
34FF
  8
AM_0
 10
264.9486703797744
 20
293.00804584597353
 30
0.0
 11
264.9486703797744
 21
277.67518984597348
 31
0.0
  0
ARC
  5
3500
  8
AM_0
 10
262.94860037977452
 20
277.67518984597348
 30
0.0
 40
2.00000007
 50
270.0
 51
0.0
  0
ARC
  5
3501
  8
AM_0
 10
261.94867037977451
 20
273.67522084597363
 30
0.0
 40
2.00000007
 50
90.00000299999769
 51
180.00000999999941
  0
ARC
  5
3502
  8
AM_0
 10
262.94860037977452
 20
265.50239884597357
 30
0.0
 40
2.00000007
 50
0.0
 51
90.00000299999769
  0
ARC
  5
3503
  8
AM_0
 10
261.94867037977451
 20
269.50240084597363
 30
0.0
 40
2.00000007
 50
179.99999000000059
 51
270.0
  0
LINE
  5
3504
  8
AM_0
 10
261.94867037977451
 20
267.50236984597348
 30
0.0
 11
262.94860037977452
 21
267.50236984597348
 31
0.0
  0
LINE
  5
3505
  8
AM_0
 10
261.94867037977451
 20
275.67518884597348
 30
0.0
 11
262.94860037977452
 21
275.67518884597348
 31
0.0
  0
ARC
  5
3506
  8
AM_0
 10
259.9486003797744
 20
285.6906018459735
 30
0.0
 40
5.0000001000000003
 50
271.50000000000267
 51
0.0
  0
ARC
  5
3507
  8
AM_0
 10
266.94865037977439
 20
293.00804584597353
 30
0.0
 40
2.00000007
 50
90.00000299999769
 51
180.00000999999941
  0
LINE
  5
3508
  8
AM_0
 10
271.94866037977448
 20
295.00804684597352
 30
0.0
 11
301.0272103797746
 21
295.76948884597351
 31
0.0
  0
ARC
  5
3509
  8
AM_0
 10
308.94862037977452
 20
308.08201984597349
 30
0.0
 40
5.0000001000000003
 50
91.999998000000545
 51
180.00000999999941
  0
LINE
  5
350A
  8
AM_0
 10
335.94862037977452
 20
282.63264784597322
 30
0.0
 11
335.94862037977452
 21
314.00805184597351
 31
0.0
  0
LINE
  5
350B
  8
AM_0
 10
321.94864037977447
 20
285.95970484597348
 30
0.0
 11
321.94864037977447
 21
326.7274818459735
 31
0.0
  0
LINE
  5
350C
  8
AM_0
 10
331.94860037977452
 20
282.63264784597322
 30
0.0
 11
335.94862037977452
 21
282.63264784597322
 31
0.0
  0
LINE
  5
350D
  8
AM_0
 10
332.66086037977448
 20
276.23866684597363
 30
0.0
 11
335.94862037977452
 21
272.32045384597347
 31
0.0
  0
ARC
  5
350E
  8
AM_0
 10
305.94862037977452
 20
288.66521284597349
 30
0.0
 40
2.00000007
 50
179.99999000000059
 51
270.0
  0
ARC
  5
350F
  8
AM_0
 10
319.40470037977451
 20
283.66518184597351
 30
0.0
 40
3.0
 50
22.483536000002641
 51
90.00000299999769
  0
LINE
  5
3510
  8
AM_0
 10
305.3968003797745
 20
283.7367138459735
 30
0.0
 11
322.4340703797746
 21
283.7367138459735
 31
0.0
  0
ARC
  5
3511
  8
AM_0
 10
324.94864037977459
 20
285.95970484597348
 30
0.0
 40
3.0
 50
179.99999000000059
 51
270.0
  0
ARC
  5
3512
  8
AM_0
 10
330.36274037977449
 20
274.31032084597348
 30
0.0
 40
3.0
 50
39.99999900000239
 51
58.086796999996537
  0
LINE
  5
3513
  8
AM_0
 10
305.94862037977452
 20
286.66518184597351
 30
0.0
 11
319.40470037977451
 21
286.66518184597351
 31
0.0
  0
LINE
  5
3514
  8
AM_0
 10
303.94864037977459
 20
290.24171884597359
 30
0.0
 11
320.27776037977452
 21
298.31151184597348
 31
0.0
  0
ARC
  5
3515
  8
AM_0
 10
318.94864037977447
 20
301.00102684597351
 30
0.0
 40
3.0
 50
296.29843000000238
 51
0.0
  0
ARC
  5
3516
  8
AM_0
 10
333.94864037977447
 20
270.03682384597357
 30
0.0
 40
3.0
 50
0.0
 51
39.99999900000239
  0
LINE
  5
3517
  8
AM_0
 10
335.94862037977452
 20
272.32045384597347
 30
0.0
 11
336.24676037977451
 21
271.9651368459734
 31
0.0
  0
LINE
  5
3518
  8
AM_0
 10
331.94860037977452
 20
314.00805184597351
 30
0.0
 11
335.94862037977452
 21
314.00805184597351
 31
0.0
  0
LINE
  5
3519
  8
AM_0
 10
309.2741203797745
 20
313.07898184597349
 30
0.0
 11
319.05334037977451
 21
313.4205018459736
 31
0.0
  0
ARC
  5
351A
  8
AM_0
 10
322.94860037977452
 20
310.78938184597348
 30
0.0
 40
3.0
 50
0.0
 51
90.00000299999769
  0
ARC
  5
351B
  8
AM_0
 10
318.94864037977447
 20
316.41867184597351
 30
0.0
 40
3.0
 50
271.9999999999971
 51
0.0
  0
LINE
  5
351C
  8
AM_0
 10
323.87881037977451
 20
328.72623184597347
 30
0.0
 11
331.94860037977452
 21
329.00802184597347
 31
0.0
  0
ARC
  5
351D
  8
AM_0
 10
323.94862037977452
 20
326.7274818459735
 30
0.0
 40
2.00000007
 50
91.999998000000545
 51
180.00000999999941
  0
CIRCLE
  5
3523
  8
AM_0
 10
603.6059565752455
 20
268.75197184597363
 30
0.0
 40
4.9796462999999971
  0
CIRCLE
  5
3524
  8
AM_0
 10
486.98301457524531
 20
268.75206484597362
 30
0.0
 40
4.9796462999999971
  0
ARC
  5
3525
  8
AM_0
 10
545.29444957524515
 20
244.00805884597349
 30
0.0
 40
26.500002599999998
 50
90.00000299999769
 51
270.0
  0
ARC
  5
3526
  8
AM_0
 10
545.29444957524515
 20
244.00805884597349
 30
0.0
 40
26.500002599999998
 50
270.0
 51
90.00000299999769
  0
ARC
  5
3527
  8
AM_0
 10
516.24835057524535
 20
265.27598884597347
 30
0.0
 40
3.0
 50
323.78793999999692
 51
45.000001000002641
  0
ARC
  5
3528
  8
AM_0
 10
574.34056057524549
 20
265.27598884597347
 30
0.0
 40
3.0
 50
135.0
 51
216.21206000000311
  0
ARC
  5
3529
  8
AM_0
 10
545.29444957524515
 20
244.00805884597349
 30
0.0
 40
33.0
 50
0.0
 51
180.00000999999941
  0
ARC
  5
352A
  8
AM_0
 10
545.29444957524515
 20
244.00805884597349
 30
0.0
 40
70.000001999999995
 50
164.54750999999871
 51
0.000010017912262
  0
ARC
  5
352B
  8
AM_0
 10
545.29444957524515
 20
244.00805884597349
 30
0.0
 40
66.000003000000007
 50
168.12283999999951
 51
0.000010017912262
  0
ARC
  5
352C
  8
AM_0
 10
545.29444957524515
 20
244.00805884597349
 30
0.0
 40
52.000007999999987
 50
5.2159077000001091
 51
42.244334000002823
  0
ARC
  5
352D
  8
AM_0
 10
545.29444957524515
 20
244.00805884597349
 30
0.0
 40
52.000007999999987
 50
137.75567000000299
 51
174.78408999999999
  0
ARC
  5
352E
  8
AM_0
 10
486.98301457524531
 20
268.75206484597362
 30
0.0
 40
11.000000399999999
 50
85.156818000000143
 51
228.8560599999972
  0
ARC
  5
352F
  8
AM_0
 10
603.6059115752455
 20
268.75206484597362
 30
0.0
 40
11.000000399999999
 50
311.14394000000277
 51
94.843180000001595
  0
LINE
  5
3530
  8
AM_0
 10
600.73095757524527
 20
263.77232584597363
 30
0.0
 11
597.85594357524553
 21
268.7520018459735
 31
0.0
  0
LINE
  5
3531
  8
AM_0
 10
609.35595757524516
 20
268.75197184597363
 30
0.0
 11
606.48095857524527
 21
263.77232584597363
 31
0.0
  0
LINE
  5
3532
  8
AM_0
 10
484.10801557524542
 20
263.77238884597352
 30
0.0
 11
481.23301357524531
 21
268.75203184597359
 31
0.0
  0
LINE
  5
3533
  8
AM_0
 10
492.73301557524542
 20
268.75206484597362
 30
0.0
 11
489.85801357524542
 21
263.77240384597349
 31
0.0
  0
LINE
  5
3534
  8
AM_0
 10
630.29445157524538
 20
274.00804684597352
 30
0.0
 11
630.29445157524538
 21
244.00805884597349
 31
0.0
  0
LINE
  5
3535
  8
AM_0
 10
460.29447757524542
 20
274.00804684597352
 30
0.0
 11
460.29447757524542
 21
244.00805884597349
 31
0.0
  0
LINE
  5
3536
  8
ﾁｭｳｼﾝｾﾝ1
 10
545.29444957524515
 20
333.08902870713678
 30
0.0
 11
545.29444957524515
 21
142.14475984597351
 31
0.0
  0
ARC
  5
3538
  8
AM_0
 10
600.06671257524545
 20
249.0080448459735
 30
0.0
 40
3.0
 50
185.21590999999989
 51
270.0
  0
ARC
  5
3539
  8
AM_0
 10
600.29446357524535
 20
239.0080608459736
 30
0.0
 40
3.0
 50
90.00000299999769
 51
180.00000999999941
  0
ARC
  5
353A
  8
AM_0
 10
600.29446357524535
 20
222.0080448459735
 30
0.0
 40
3.0
 50
179.99999000000059
 51
270.0
  0
LINE
  5
353B
  8
AM_0
 10
583.29446557524534
 20
219.0080448459735
 30
0.0
 11
604.3283535752455
 21
219.0080448459735
 31
0.0
  0
LINE
  5
353C
  8
AM_0
 10
588.84373657524554
 20
161.5080558459735
 30
0.0
 11
618.05340757524516
 21
161.5080558459735
 31
0.0
  0
LINE
  5
353D
  8
ﾁｭｳｼﾝｾﾝ1
 10
453.95637757524531
 20
244.00805884597349
 30
0.0
 11
633.90803857524554
 21
244.00805884597349
 31
0.0
  0
ARC
  5
353E
  8
AM_0
 10
472.53550357524517
 20
171.5080578459735
 30
0.0
 40
10.000000200000001
 50
183.00000999999969
 51
270.0
  0
ARC
  5
353F
  8
ﾁｭｳｼﾝｾﾝ1
 10
545.29444957524515
 20
244.00805884597349
 30
0.0
 40
100.000011
 50
217.75738000000089
 51
232.6399200000026
  0
LINE
  5
3540
  8
ﾁｭｳｼﾝｾﾝ1
 10
465.59511757524552
 20
164.30869984597351
 30
0.0
 11
484.29035557524548
 21
183.0039378459735
 31
0.0
  0
LINE
  5
3541
  8
AM_0
 10
460.29444757524539
 20
214.0080438459735
 30
0.0
 11
462.54921757524522
 21
170.9846958459735
 31
0.0
  0
LINE
  5
3543
  8
AM_0
 10
378.94864037977459
 20
261.00807484597362
 30
0.0
 11
378.94864037977459
 21
230.0080608459734
 31
0.0
  0
LINE
  5
3545
  8
AM_0
 10
460.29447757524542
 20
214.00805884597349
 30
0.0
 11
460.29447757524542
 21
244.00805884597349
 31
0.0
  0
CIRCLE
  5
3546
  8
AM_0
 10
474.58378357524521
 20
173.29736284597351
 30
0.0
 40
6.0000002999999991
  0
LINE
  5
3547
  8
AM_0
 10
504.34324357524542
 20
166.00805884597341
 30
0.0
 11
586.24566757524519
 21
166.00805884597341
 31
0.0
  0
LINE
  5
3548
  8
AM_0
 10
517.16717257524544
 20
149.10293584597341
 30
0.0
 11
573.4217385752454
 21
149.10293584597341
 31
0.0
  0
LINE
  5
3549
  8
AM_0
 10
472.53550357524517
 20
161.5080558459735
 30
0.0
 11
501.74515957524528
 21
161.5080558459735
 31
0.0
  0
CIRCLE
  5
354A
  8
AM_0
 10
517.16717257524544
 20
156.1029198459735
 30
0.0
 40
4.9796462999999971
  0
ARC
  5
354B
  8
AM_0
 10
517.16717257524544
 20
156.1029198459735
 30
0.0
 40
7.0000007999999987
 50
164.9194399999995
 51
270.0
  0
LINE
  5
354C
  8
AM_0
 10
522.9171885752454
 20
156.1029198459735
 30
0.0
 11
520.04217457524544
 21
161.0825808459735
 31
0.0
  0
LINE
  5
354D
  8
AM_0
 10
511.41715957524548
 20
156.10293484597341
 30
0.0
 11
514.29215857524525
 21
161.0825808459735
 31
0.0
  0
LINE
  5
354E
  8
AM_0
 10
520.04215957524525
 20
151.12327684597341
 30
0.0
 11
514.29218857524529
 21
151.12327684597341
 31
0.0
  0
LINE
  5
354F
  8
AM_0
 10
514.29218857524529
 20
151.12327684597341
 30
0.0
 11
511.41715957524548
 21
156.10293484597341
 31
0.0
  0
LINE
  5
3550
  8
AM_0
 10
522.91717357524544
 20
156.10293484597341
 30
0.0
 11
520.04217457524544
 21
151.12329184597351
 31
0.0
  0
LINE
  5
3551
  8
AM_0
 10
520.04215957524525
 20
161.0825808459735
 30
0.0
 11
514.29218857524529
 21
161.0825808459735
 31
0.0
  0
ARC
  5
3552
  8
AM_0
 10
545.29444957524515
 20
224.0080578459735
 30
0.0
 40
71.000000999999983
 50
234.7757900000008
 51
238.4932699999986
  0
LINE
  5
3553
  8
AM_0
 10
501.74519257524543
 20
161.50804084597351
 30
0.0
 11
504.34327357524518
 21
166.00805884597341
 31
0.0
  0
ARC
  5
3554
  8
AM_0
 10
505.5769485752453
 20
159.21205084597349
 30
0.0
 40
5.0000001000000003
 50
344.9836399999993
 51
56.872543000003567
  0
CIRCLE
  5
3555
  8
AM_0
 10
573.4217385752454
 20
156.1029198459735
 30
0.0
 40
4.9796462999999971
  0
ARC
  5
3556
  8
AM_0
 10
573.4217385752454
 20
156.1029198459735
 30
0.0
 40
7.0000007999999987
 50
270.000020000002
 51
15.080558999999271
  0
LINE
  5
3557
  8
AM_0
 10
567.6717375752454
 20
156.1029198459735
 30
0.0
 11
570.54673657524518
 21
161.0825808459735
 31
0.0
  0
LINE
  5
3558
  8
AM_0
 10
579.1717365752454
 20
156.10293484597341
 30
0.0
 11
576.29673757524517
 21
161.0825808459735
 31
0.0
  0
LINE
  5
3559
  8
AM_0
 10
576.29673757524517
 20
151.12327684597341
 30
0.0
 11
570.54675157524525
 21
151.12327684597341
 31
0.0
  0
LINE
  5
355A
  8
AM_0
 10
570.54673657524518
 20
151.12329184597351
 30
0.0
 11
567.6717375752454
 21
156.10293484597341
 31
0.0
  0
LINE
  5
355B
  8
AM_0
 10
579.1717365752454
 20
156.10293484597341
 30
0.0
 11
576.29673757524517
 21
151.12327684597341
 31
0.0
  0
ARC
  5
355C
  8
AM_0
 10
545.29444957524515
 20
224.0080578459735
 30
0.0
 40
71.000000999999983
 50
301.50671999999992
 51
305.22421000000008
  0
LINE
  5
355D
  8
AM_0
 10
576.29673757524517
 20
161.0825808459735
 30
0.0
 11
570.54675157524525
 21
161.0825808459735
 31
0.0
  0
ARC
  5
355E
  8
AM_0
 10
585.01196257524555
 20
159.21205084597349
 30
0.0
 40
5.0000001000000003
 50
121.5067300000014
 51
195.0163500000007
  0
LINE
  5
355F
  8
AM_0
 10
588.84373657524554
 20
161.50804084597351
 30
0.0
 11
586.24565257524523
 21
166.00805884597341
 31
0.0
  0
ARC
  5
3560
  8
AM_0
 10
545.29444957524515
 20
244.00805884597349
 30
0.0
 40
14.000001299999999
 50
106.60154000000171
 51
73.39845199999823
  0
LINE
  5
3561
  8
ﾁｭｳｼﾝｾﾝ1
 10
582.17663758281435
 20
223.9862464942704
 30
0.0
 11
508.41226156767601
 21
224.00536671405411
 31
0.0
  0
ARC
  5
3562
  8
AM_0
 10
507.29444557524528
 20
224.0080578459735
 30
0.0
 40
5.0000001000000003
 50
270.0
 51
0.0
  0
ARC
  5
3563
  8
AM_0
 10
490.29444757524539
 20
222.0080448459735
 30
0.0
 40
3.0
 50
270.0
 51
0.0
  0
LINE
  5
3564
  8
AM_0
 10
507.29444557524528
 20
219.0080448459735
 30
0.0
 11
486.26057257524531
 21
219.0080448459735
 31
0.0
  0
ARC
  5
3565
  8
AM_0
 10
486.26057257524531
 20
222.0080448459735
 30
0.0
 40
3.0
 50
200.4387800000014
 51
270.0
  0
LINE
  5
3566
  8
AM_0
 10
482.49317557524517
 20
242.00806084597349
 30
0.0
 11
490.29444757524539
 21
242.00806084597349
 31
0.0
  0
ARC
  5
3567
  8
AM_0
 10
482.49317557524517
 20
239.0080608459736
 30
0.0
 40
3.0
 50
90.00000299999769
 51
184.55207000000041
  0
LINE
  5
3568
  8
AM_0
 10
493.29444757524539
 20
239.0080608459736
 30
0.0
 11
493.29444757524539
 21
222.0080448459735
 31
0.0
  0
ARC
  5
3569
  8
AM_0
 10
490.29444757524539
 20
239.0080608459736
 30
0.0
 40
3.0
 50
0.0
 51
90.00000299999769
  0
LINE
  5
356A
  8
AM_0
 10
482.49317557524517
 20
246.0080448459735
 30
0.0
 11
490.52219857524528
 21
246.0080448459735
 31
0.0
  0
ARC
  5
356B
  8
AM_0
 10
478.00919857524531
 20
253.84141984597349
 30
0.0
 40
2.00000007
 50
351.68540999999948
 51
79.999998000000815
  0
ARC
  5
356C
  8
AM_0
 10
482.49317557524517
 20
249.0080448459735
 30
0.0
 40
3.0
 50
175.4479299999995
 51
270.0
  0
ARC
  5
356D
  8
AM_0
 10
478.00919857524531
 20
253.84141984597349
 30
0.0
 40
2.00000007
 50
79.999998000000815
 51
171.68540999999939
  0
ARC
  5
356E
  8
AM_0
 10
477.77167957524529
 20
258.20923084597348
 30
0.0
 40
3.0
 50
348.1228399999996
 51
48.856062999999523
  0
LINE
  5
356F
  8
AM_0
 10
478.35651757524522
 20
255.81102484597349
 30
0.0
 11
478.35651757524522
 21
255.81102484597349
 31
0.0
  0
ARC
  5
3570
  8
AM_0
 10
490.52219857524528
 20
249.0080448459735
 30
0.0
 40
3.0
 50
270.0
 51
354.78408999999999
  0
LINE
  5
3571
  8
AM_0
 10
489.85801357524542
 20
263.7724188459735
 30
0.0
 11
484.10801557524542
 21
263.7724188459735
 31
0.0
  0
LINE
  5
3572
  8
AM_0
 10
512.29444657524516
 20
244.00805884597349
 30
0.0
 11
512.29444657524516
 21
224.0080578459735
 31
0.0
  0
ARC
  5
3573
  8
AM_0
 10
583.29446557524534
 20
224.0080578459735
 30
0.0
 40
5.0000001000000003
 50
179.99999000000059
 51
270.0
  0
CIRCLE
  5
3574
  8
AM_0
 10
545.29444957524515
 20
244.00805884597349
 30
0.0
 40
3.0
  0
CIRCLE
  5
3575
  8
AM_5
 10
545.29444957524515
 20
244.00805884597349
 30
0.0
 40
4.000000199999997
  0
LINE
  5
3576
  8
AM_0
 10
541.29443257524542
 20
254.0080608459736
 30
0.0
 11
541.29443257524542
 21
261.00807484597362
 31
0.0
  0
LINE
  5
3577
  8
AM_0
 10
549.29443357524531
 20
254.0080608459736
 30
0.0
 11
549.29443357524531
 21
261.00807484597362
 31
0.0
  0
LINE
  5
3578
  8
AM_0
 10
541.29443257524542
 20
254.0080608459736
 30
0.0
 11
549.29443357524531
 21
254.0080608459736
 31
0.0
  0
LINE
  5
3579
  8
AM_0
 10
541.29443257524542
 20
261.00807484597362
 30
0.0
 11
549.29443357524531
 21
261.00807484597362
 31
0.0
  0
LINE
  5
357A
  8
AM_0
 10
578.29444957524515
 20
244.00805884597349
 30
0.0
 11
578.29444957524515
 21
224.0080578459735
 31
0.0
  0
LINE
  5
357B
  8
AM_0
 10
597.29446357524535
 20
239.0080608459736
 30
0.0
 11
597.29446357524535
 21
222.0080448459735
 31
0.0
  0
CIRCLE
  5
357C
  8
AM_0
 10
616.0051275752453
 20
173.29736284597351
 30
0.0
 40
6.0000002999999991
  0
ARC
  5
357D
  8
ﾁｭｳｼﾝｾﾝ1
 10
545.29444957524515
 20
244.00805884597349
 30
0.0
 40
100.000011
 50
304.41150999999923
 51
322.63991999999888
  0
LINE
  5
357E
  8
AM_0
 10
630.29446657524545
 20
214.0080438459735
 30
0.0
 11
628.03970557524531
 21
170.9846958459735
 31
0.0
  0
LINE
  5
357F
  8
ﾁｭｳｼﾝｾﾝ1
 10
607.93634257524525
 20
181.36616584597351
 30
0.0
 11
624.99382057524554
 21
164.3086848459734
 31
0.0
  0
ARC
  5
3580
  8
AM_0
 10
618.05340757524516
 20
171.5080578459735
 30
0.0
 40
10.000000200000001
 50
270.0
 51
356.99999999999949
  0
LINE
  5
3581
  8
AM_0
 10
630.29445157524538
 20
214.00805884597349
 30
0.0
 11
630.29445157524538
 21
244.00805884597349
 31
0.0
  0
ARC
  5
3582
  8
AM_0
 10
604.3283535752455
 20
222.0080448459735
 30
0.0
 40
3.0
 50
270.0
 51
339.56121999999863
  0
LINE
  5
3583
  8
AM_0
 10
608.09573557524516
 20
242.00806084597349
 30
0.0
 11
600.29446357524535
 21
242.00806084597349
 31
0.0
  0
ARC
  5
3584
  8
AM_0
 10
608.09573557524516
 20
239.0080608459736
 30
0.0
 40
3.0
 50
355.44792999999947
 51
90.00000299999769
  0
ARC
  5
3585
  8
AM_0
 10
545.29444957524515
 20
244.00805884597349
 30
0.0
 40
70.000001999999995
 50
0.0
 51
15.45248699999985
  0
ARC
  5
3586
  8
AM_0
 10
545.29444957524515
 20
244.00805884597349
 30
0.0
 40
66.000003000000007
 50
0.0
 51
11.877162000000441
  0
ARC
  5
3587
  8
AM_0
 10
612.57971257524537
 20
253.84141984597349
 30
0.0
 40
2.00000007
 50
99.999999999998593
 51
188.31459000000061
  0
LINE
  5
3588
  8
AM_0
 10
608.09573557524516
 20
246.0080448459735
 30
0.0
 11
600.06671257524545
 21
246.0080448459735
 31
0.0
  0
ARC
  5
3589
  8
AM_0
 10
608.09573557524516
 20
249.0080448459735
 30
0.0
 40
3.0
 50
270.0
 51
4.5520713999997291
  0
LINE
  5
358A
  8
AM_0
 10
606.48095857524527
 20
263.77234384597352
 30
0.0
 11
600.73095757524527
 21
263.77234384597352
 31
0.0
  0
ARC
  5
358B
  8
AM_0
 10
612.81724657524535
 20
258.20923084597348
 30
0.0
 40
3.0
 50
131.1439400000028
 51
191.8771600000004
  0
ARC
  5
358C
  8
AM_0
 10
612.57971257524537
 20
253.84141984597349
 30
0.0
 40
2.00000007
 50
8.3145874000007272
 51
99.999999999998593
  0
LINE
  5
358D
  8
AM_0
 10
612.23240857524524
 20
255.81102484597349
 30
0.0
 11
612.23240857524524
 21
255.81102484597349
 31
0.0
  0
ARC
  5
358F
  8
AM_0
 10
599.82554857524553
 20
284.63267884597349
 30
0.0
 40
2.00000007
 50
216.68542000000249
 51
304.99999999999739
  0
ARC
  5
3590
  8
AM_0
 10
545.29444957524515
 20
244.00805884597349
 30
0.0
 40
70.000001999999995
 50
30.534626999999471
 51
149.4653700000006
  0
ARC
  5
3591
  8
AM_0
 10
545.29444957524515
 20
244.00805884597349
 30
0.0
 40
66.000003000000007
 50
34.109953999997551
 51
145.89004000000139
  0
LINE
  5
3592
  8
AM_0
 10
597.85594357524553
 20
268.75197184597363
 30
0.0
 11
600.73094257524531
 21
273.7316478459735
 31
0.0
  0
LINE
  5
3593
  8
AM_0
 10
575.29446457524557
 20
329.00805184597351
 30
0.0
 11
618.56387557524556
 21
326.74041184597348
 31
0.0
  0
ARC
  5
3595
  8
AM_0
 10
472.54841257524549
 20
316.75410184597348
 30
0.0
 40
10.000000200000001
 50
92.999999000001623
 51
176.9999900000002
  0
ARC
  5
3596
  8
ﾁｭｳｼﾝｾﾝ1
 10
545.29444957524515
 20
244.00805884597349
 30
0.0
 40
100.000011
 50
123.1702499999994
 51
142.63991999999899
  0
LINE
  5
3597
  8
ﾁｭｳｼﾝｾﾝ1
 10
465.4773375752452
 20
323.82516184597353
 30
0.0
 11
484.30000057524541
 21
305.00252284597349
 31
0.0
  0
LINE
  5
3598
  8
AM_0
 10
460.29447757524542
 20
274.00804684597352
 30
0.0
 11
462.56211757524551
 21
317.27745184597359
 31
0.0
  0
LINE
  5
359A
  8
AM_0
 10
515.29444657524539
 20
329.00805184597351
 30
0.0
 11
545.29444957524515
 21
329.00805184597351
 31
0.0
  0
LINE
  5
359B
  8
AM_0
 10
499.14906157524553
 20
286.61790784597349
 30
0.0
 11
518.36968957524516
 21
267.39729784597353
 31
0.0
  0
ARC
  5
359C
  8
AM_0
 10
497.02772257524521
 20
284.49660184597349
 30
0.0
 40
3.0
 50
45.000001000002641
 51
140.00838999999721
  0
LINE
  5
359D
  8
AM_0
 10
481.23301357524531
 20
268.75206484597362
 30
0.0
 11
484.10801557524542
 21
273.73170784597357
 31
0.0
  0
LINE
  5
359E
  8
AM_0
 10
492.73301557524542
 20
268.75203184597359
 30
0.0
 11
489.85801357524542
 21
273.73167784597348
 31
0.0
  0
LINE
  5
359F
  8
AM_0
 10
489.85801357524542
 20
273.73170784597357
 30
0.0
 11
484.10801557524542
 21
273.73170784597357
 31
0.0
  0
ARC
  5
35A0
  8
AM_0
 10
490.76338057524521
 20
284.63267884597349
 30
0.0
 40
2.00000007
 50
235.00000000000259
 51
323.31459000000092
  0
ARC
  5
35A1
  8
AM_0
 10
490.76338057524521
 20
284.63267884597349
 30
0.0
 40
2.00000007
 50
143.31457999999751
 51
235.00000999999719
  0
ARC
  5
35A2
  8
AM_0
 10
488.16502057524542
 20
282.70204684597348
 30
0.0
 40
3.0
 50
265.15681999999839
 51
325.89004999999969
  0
LINE
  5
35A3
  8
AM_0
 10
489.6162225752455
 20
282.99437284597349
 30
0.0
 11
489.6162225752455
 21
282.99437284597349
 31
0.0
  0
ARC
  5
35A4
  8
AM_0
 10
545.29443447498011
 20
244.00805884597349
 30
0.0
 40
52.000007999999987
 50
95.215910999999622
 51
132.24432999999581
  0
LINE
  5
35A5
  8
AM_0
 10
502.6845825752452
 20
290.15346184597348
 30
0.0
 11
521.90522557524548
 21
270.93281884597349
 31
0.0
  0
ARC
  5
35A6
  8
AM_0
 10
524.02653457524548
 20
273.05412784597348
 30
0.0
 40
3.0
 50
225.0
 51
306.212060000002
  0
ARC
  5
35A7
  8
AM_0
 10
504.80589157524531
 20
292.27480084597352
 30
0.0
 40
3.0
 50
129.99160999999941
 51
225.0
  0
LINE
  5
35A8
  8
AM_0
 10
515.29446157524535
 20
329.00805184597351
 30
0.0
 11
472.02503557524528
 21
326.7403818459735
 31
0.0
  0
CIRCLE
  5
35A9
  8
AM_0
 10
474.58378357524521
 20
314.71875184597349
 30
0.0
 40
6.0000002999999991
  0
ARC
  5
35AB
  8
AM_0
 10
540.29444857524538
 20
306.80934784597349
 30
0.0
 40
3.0
 50
0.0
 51
94.552071000002115
  0
ARC
  5
35AC
  8
AM_0
 10
550.29446257524535
 20
306.80934784597349
 30
0.0
 40
3.0
 50
85.44792699999806
 51
180.00000999999941
  0
ARC
  5
35AD
  8
AM_0
 10
566.56237657524548
 20
273.05412784597348
 30
0.0
 40
3.0
 50
233.7879399999978
 51
315.0
  0
ARC
  5
35AE
  8
AM_0
 10
545.29444957524515
 20
244.00805884597349
 30
0.0
 40
52.000007999999987
 50
47.755664999999908
 51
84.784093999997509
  0
ARC
  5
35AF
  8
AM_0
 10
550.29446257524535
 20
298.7803248459735
 30
0.0
 40
3.0
 50
179.99999000000059
 51
264.78408999999988
  0
ARC
  5
35B0
  8
AM_0
 10
540.29444857524538
 20
298.7803248459735
 30
0.0
 40
3.0
 50
275.21591000000001
 51
0.0
  0
LINE
  5
35B2
  8
AM_0
 10
543.29444857524538
 20
306.80934784597349
 30
0.0
 11
543.29444857524538
 21
298.7803248459735
 31
0.0
  0
LINE
  5
35B3
  8
AM_0
 10
547.29446257524535
 20
306.80934784597349
 30
0.0
 11
547.29446257524535
 21
298.7803248459735
 31
0.0
  0
ARC
  5
35B4
  8
AM_0
 10
593.56118857524552
 20
284.49660184597349
 30
0.0
 40
3.0
 50
39.991611000002862
 51
135.0
  0
LINE
  5
35B5
  8
AM_0
 10
591.43986457524545
 20
286.61790784597349
 30
0.0
 11
572.21923957524552
 21
267.39729784597353
 31
0.0
  0
LINE
  5
35B6
  8
AM_0
 10
587.90432857524524
 20
290.15346184597348
 30
0.0
 11
568.68368557524525
 21
270.93281884597349
 31
0.0
  0
ARC
  5
35B7
  8
AM_0
 10
585.78301957524536
 20
292.27480084597352
 30
0.0
 40
3.0
 50
315.0
 51
50.008388000002853
  0
LINE
  5
35B8
  8
AM_0
 10
575.29444957524515
 20
329.00805184597351
 30
0.0
 11
545.29444957524515
 21
329.00805184597351
 31
0.0
  0
ARC
  5
35BA
  8
ﾁｭｳｼﾝｾﾝ1
 10
545.29444957524515
 20
244.00805884597349
 30
0.0
 40
100.000011
 50
37.757374999997211
 51
52.639915999998472
  0
LINE
  5
35BB
  8
AM_0
 10
630.29445157524538
 20
274.00804684597352
 30
0.0
 11
628.02679657524538
 21
317.27745184597359
 31
0.0
  0
LINE
  5
35BC
  8
ﾁｭｳｼﾝｾﾝ1
 10
625.11157357524553
 20
323.82519184597351
 30
0.0
 11
606.25819357524529
 21
304.9717908459736
 31
0.0
  0
LINE
  5
35BD
  8
AM_0
 10
609.35595757524516
 20
268.75197184597363
 30
0.0
 11
606.48095857524527
 21
273.7316478459735
 31
0.0
  0
LINE
  5
35BE
  8
AM_0
 10
606.48095857524527
 20
273.73161784597357
 30
0.0
 11
600.73095757524527
 21
273.73161784597357
 31
0.0
  0
ARC
  5
35BF
  8
AM_0
 10
602.42390557524516
 20
282.70204684597348
 30
0.0
 40
3.0
 50
214.10995999999861
 51
274.84318000000161
  0
ARC
  5
35C0
  8
AM_0
 10
599.82554857524553
 20
284.63267884597349
 30
0.0
 40
2.00000007
 50
304.99999999999739
 51
36.685413999998168
  0
LINE
  5
35C1
  8
AM_0
 10
600.97270357524553
 20
282.99437284597349
 30
0.0
 11
600.97270357524553
 21
282.99437284597349
 31
0.0
  0
CIRCLE
  5
35C2
  8
AM_0
 10
616.0051275752453
 20
314.71875184597349
 30
0.0
 40
6.0000002999999991
  0
ARC
  5
35C3
  8
AM_0
 10
618.04051357524554
 20
316.75410184597348
 30
0.0
 40
10.000000200000001
 50
3.0000001000004741
 51
86.999998999996933
  0
POINT
  5
35C4
  8
0
 10
30.421099871859379
 20
497.61631443528739
 30
0.0
1001
GENIUS_GENOLIS_13
1002
{
1000
ENT
1005
0
1005
33FB
1005
33FA
1002
}
1001
GENIUS_GENOENT_13
1002
{
1000
MYREF
1005
35C4
1002
}
1002
{
1000
GRP
1005
0
1002
}
1001
GENIUS_GENOBJ-NBEHI-BHB_13
1002
{
1000
OWNER
1000
genbehi
1002
}
1001
GENIUS_GENBH_13
1002
{
1000
FGO
1005
0
1002
}
1001
GENIUS_GENODEF_13
1002
{
1000
HIER
1070
     1
1002
}
1002
{
1000
MANEDIT
1070
     1
1002
}
1002
{
1000
NOSEL
1070
     1
1002
}
1002
{
1000
BEHIND
1070
     0
1002
}
1002
{
1000
OTHER
1070
     1
1002
}
1002
{
1000
REACTOR
1002
}
  0
LINE
  5
372C
  8
AM_0
 10
127.3992163797744
 20
158.40809534597341
 30
0.0
 11
215.44865037977451
 21
158.40809534597341
 31
0.0
  0
TEXT
  5
3D86
  8
AM_0
 10
448.69229201839647
 20
488.56740556393828
 30
0.0
 40
10.0
  1
VX0-080SF~VX02-100SF
  0
ENDSEC
  0
EOF
