  0
SECTION
  2
HEADER
  9
$ACADVER
  1
AC1009
  9
$INSBASE
 10
0.0
 20
0.0
 30
0.0
  9
$EXTMIN
 10
49.401371578989021
 20
110.8411075017563
 30
-0.0015258207003583
  9
$EXTMAX
 10
678.51638221372798
 20
611.47674876805081
 30
0.0000000349246037
  9
$LIMMIN
 10
0.0
 20
0.0
  9
$LIMMAX
 10
853.5
 20
555.00000000000011
  9
$ORTHOMODE
 70
     0
  9
$REGENMODE
 70
     1
  9
$FILLMODE
 70
     1
  9
$QTEXTMODE
 70
     0
  9
$MIRRTEXT
 70
     1
  9
$DRAGMODE
 70
     2
  9
$LTSCALE
 40
3.0
  9
$OSMODE
 70
   551
  9
$ATTMODE
 70
     1
  9
$TEXTSIZE
 40
2.5
  9
$TRACEWID
 40
1.0
  9
$TEXTSTYLE
  7
STANDARD
  9
$CLAYER
  8
AM_0
  9
$CELTYPE
  6
BYLAYER
  9
$CECOLOR
 62
   256
  9
$DIMSCALE
 40
1.0
  9
$DIMASZ
 40
2.5
  9
$DIMEXO
 40
1.0
  9
$DIMDLI
 40
8.0
  9
$DIMRND
 40
0.0
  9
$DIMDLE
 40
0.0
  9
$DIMEXE
 40
0.6
  9
$DIMTP
 40
0.1
  9
$DIMTM
 40
0.1
  9
$DIMTXT
 40
2.5
  9
$DIMCEN
 40
0.0
  9
$DIMTSZ
 40
0.0
  9
$DIMTOL
 70
     0
  9
$DIMLIM
 70
     0
  9
$DIMTIH
 70
     0
  9
$DIMTOH
 70
     0
  9
$DIMSE1
 70
     0
  9
$DIMSE2
 70
     0
  9
$DIMTAD
 70
     1
  9
$DIMZIN
 70
     8
  9
$DIMBLK
  1

  9
$DIMASO
 70
     1
  9
$DIMSHO
 70
     1
  9
$DIMPOST
  1

  9
$DIMAPOST
  1
"
  9
$DIMALT
 70
     0
  9
$DIMALTD
 70
     2
  9
$DIMALTF
 40
0.0393701
  9
$DIMLFAC
 40
1.0
  9
$DIMTOFL
 70
     1
  9
$DIMTVP
 40
0.0
  9
$DIMTIX
 70
     0
  9
$DIMSOXD
 70
     0
  9
$DIMSAH
 70
     0
  9
$DIMBLK1
  1

  9
$DIMBLK2
  1

  9
$DIMSTYLE
  2
AM_ISO
  9
$DIMCLRD
 70
   256
  9
$DIMCLRE
 70
   256
  9
$DIMCLRT
 70
     4
  9
$DIMTFAC
 40
0.71
  9
$DIMGAP
 40
0.8
  9
$LUNITS
 70
     2
  9
$LUPREC
 70
     2
  9
$SKETCHINC
 40
1.0
  9
$FILLETRAD
 40
15.0
  9
$AUNITS
 70
     0
  9
$AUPREC
 70
     0
  9
$MENU
  1
.
  9
$ELEVATION
 40
0.0
  9
$PELEVATION
 40
0.0
  9
$THICKNESS
 40
0.0
  9
$LIMCHECK
 70
     0
  9
$BLIPMODE
 70
     0
  9
$CHAMFERA
 40
6.0
  9
$CHAMFERB
 40
3.0
  9
$SKPOLY
 70
     0
  9
$TDCREATE
 40
2452065.7561353361
  9
$TDUPDATE
 40
2458541.5886083911
  9
$TDINDWG
 40
0.1972768403
  9
$TDUSRTIMER
 40
0.1972766435
  9
$USRTIMER
 70
     1
  9
$ANGBASE
 50
0.0
  9
$ANGDIR
 70
     0
  9
$PDMODE
 70
     0
  9
$PDSIZE
 40
0.0
  9
$PLINEWID
 40
0.0
  9
$COORDS
 70
     1
  9
$SPLFRAME
 70
     0
  9
$SPLINETYPE
 70
     6
  9
$SPLINESEGS
 70
     8
  9
$ATTDIA
 70
     1
  9
$ATTREQ
 70
     1
  9
$HANDLING
 70
     1
  9
$HANDSEED
  5
3891
  9
$SURFTAB1
 70
     6
  9
$SURFTAB2
 70
     6
  9
$SURFTYPE
 70
     6
  9
$SURFU
 70
     6
  9
$SURFV
 70
     6
  9
$UCSNAME
  2

  9
$UCSORG
 10
0.0
 20
0.0
 30
0.0
  9
$UCSXDIR
 10
1.0
 20
0.0
 30
0.0
  9
$UCSYDIR
 10
0.0
 20
1.0
 30
0.0
  9
$PUCSNAME
  2

  9
$PUCSORG
 10
0.0
 20
0.0
 30
0.0
  9
$PUCSXDIR
 10
1.0
 20
0.0
 30
0.0
  9
$PUCSYDIR
 10
0.0
 20
1.0
 30
0.0
  9
$USERI1
 70
     0
  9
$USERI2
 70
     0
  9
$USERI3
 70
     0
  9
$USERI4
 70
     0
  9
$USERI5
 70
     0
  9
$USERR1
 40
0.0
  9
$USERR2
 40
0.0
  9
$USERR3
 40
0.0
  9
$USERR4
 40
0.0
  9
$USERR5
 40
0.0
  9
$WORLDVIEW
 70
     1
  9
$SHADEDGE
 70
     3
  9
$SHADEDIF
 70
    70
  9
$TILEMODE
 70
     1
  9
$MAXACTVP
 70
    64
  9
$PLIMCHECK
 70
     0
  9
$PEXTMIN
 10
1.0000000000000000E+020
 20
1.0000000000000000E+020
 30
1.0000000000000000E+020
  9
$PEXTMAX
 10
-1.0000000000000000E+020
 20
-1.0000000000000000E+020
 30
-1.0000000000000000E+020
  9
$PLIMMIN
 10
0.0
 20
0.0
  9
$PLIMMAX
 10
420.0
 20
297.0
  9
$UNITMODE
 70
     0
  9
$VISRETAIN
 70
     1
  9
$PLINEGEN
 70
     0
  9
$PSLTSCALE
 70
     1
  0
ENDSEC
  0
SECTION
  2
TABLES
  0
TABLE
  2
VPORT
 70
     1
  0
VPORT
  2
*ACTIVE
 70
     0
 10
0.0
 20
0.0
 11
1.0
 21
1.0
 12
363.9588768963585
 22
361.15892813490359
 13
0.0
 23
0.0
 14
7.5
 24
7.5
 15
30.0
 25
30.0
 16
0.0
 26
0.0
 36
1.0
 17
0.0
 27
0.0
 37
0.0
 40
504.07249921549101
 41
1.7571592210767459
 42
50.0
 43
0.0
 44
0.0
 50
0.0
 51
0.0
 71
     0
 72
   100
 73
     1
 74
     3
 75
     0
 76
     0
 77
     0
 78
     0
  0
ENDTAB
  0
TABLE
  2
LTYPE
 70
    19
  0
LTYPE
  2
CONTINUOUS
 70
     0
  3
Solid line
 72
    65
 73
     0
 40
0.0
  0
LTYPE
  2
AM_ISO02W050
 70
     0
  3
__ __ __ __ __ __ __ __ __ __ __ __ __ __ __
 72
    65
 73
     2
 40
7.5
 49
6.0
 49
-1.5
  0
LTYPE
  2
AM_ISO08W050
 70
     0
  3
____ . ____ . ____ . ____ . ____ . ____ . ____
 72
    65
 73
     4
 40
18.0
 49
12.0
 49
-1.5
 49
3.0
 49
-1.5
  0
LTYPE
  2
AM_ISO09W050
 70
     0
  3
_____ . . _____ . . _____ . . ____ .. ____
 72
    65
 73
     6
 40
22.5
 49
12.0
 49
-1.5
 49
3.0
 49
-1.5
 49
3.0
 49
-1.5
  0
LTYPE
  2
AMCONSTR
 70
     0
  3
_______________________
 72
    65
 73
     2
 40
9999.0
 49
9999.0
 49
0.0
  0
LTYPE
  2
AM_ISO08W050X2
 70
     0
  3
__ . __ . __ . __ . __ . __
 72
    65
 73
     4
 40
9.0
 49
6.0
 49
-0.75
 49
1.5
 49
-0.75
  0
LTYPE
  2
AM_ISO02W050X2
 70
     0
  3
 _ _ _ _ _ _ _ _ _ _ _ _
 72
    65
 73
     2
 40
3.75
 49
3.0
 49
-0.75
  0
LTYPE
  2
AMZIGZAG
 70
     0
  3
/\/-/\/-/\/-/\/-/\/-/\/
 72
    65
 73
     2
 40
11.0001
 49
0.0001
 49
-11.0
  0
LTYPE
  2
CENTER
 70
     0
  3
__ . __
 72
    65
 73
     4
 40
7.0
 49
4.0
 49
-1.0
 49
1.0
 49
-1.0
  0
LTYPE
  2
PHANTOM2
 70
     0
  3
Phantom (.5x) ___ _ _ ___ _ _ ___ _ _ ___ _ _
 72
    65
 73
     6
 40
31.75
 49
15.875
 49
-3.174999999999998
 49
3.174999999999998
 49
-3.174999999999998
 49
3.174999999999998
 49
-3.174999999999998
  0
LTYPE
  2
GEN7
 70
     0
  3
____ . ____ . ____ . ____ . ____ . ____ . ____
 72
    65
 73
     4
 40
14.25
 49
9.75
 49
-1.5
 49
1.5
 49
-1.5
  0
LTYPE
  2
GEN7A
 70
     0
  3
__ . __ . __
 72
    65
 73
     4
 40
7.375
 49
4.75
 49
-0.875
 49
0.875
 49
-0.875
  0
LTYPE
  2
HIDDEN
 70
     0
  3
Hidden __ __ __ __ __ __ __ __ __ __ __ __ __ _
 72
    65
 73
     2
 40
9.5249999999999986
 49
6.349999999999997
 49
-3.174999999999998
  0
LTYPE
  2
CENTER2
 70
     0
  3
Center (.5x) ___ _ ___ _ ___ _ ___ _ ___ _ ___
 72
    65
 73
     4
 40
1.125
 49
0.75
 49
-0.125
 49
0.125
 49
-0.125
  0
LTYPE
  2
HIDDEN2
 70
     0
  3
Hidden (.5x) _ _ _ _ _ _ _ _ _ _ _ _ _ _ _ _ _
 72
    65
 73
     2
 40
0.1875
 49
0.125
 49
-0.0625
  0
LTYPE
  2
AMZIGZAG2
 70
     0
  3
/\/-/\/-/\/-/\/-/\/-/\/
 72
    65
 73
     2
 40
0.4401
 49
0.0001
 49
-0.4400000000000001
  0
LTYPE
  2
ACANSTGB
 70
     0
  3
__ . . __ . .
 72
    65
 73
     6
 40
0.35433070866
 49
0.15748031496
 49
-0.03937007874
 49
0.03937007874
 49
-0.03937007874
 49
0.03937007874
 49
-0.03937007874
  0
LTYPE
  2
ACANSTGL
 70
     0
  3
_ _ _ _ _
 72
    65
 73
     2
 40
0.11811023622
 49
0.07874015748
 49
-0.03937007874
  0
ENDTAB
  0
TABLE
  2
LAYER
 70
     9
  0
LAYER
  2
0
 70
     0
 62
     7
  6
CONTINUOUS
  0
LAYER
  2
AM_0
 70
     0
 62
     7
  6
CONTINUOUS
  0
LAYER
  2
AM_5
 70
     0
 62
     2
  6
CONTINUOUS
  0
LAYER
  2
DEFPOINTS
 70
     0
 62
     7
  6
CONTINUOUS
  0
LAYER
  2
ﾁｭｳｼﾝｾﾝ
 70
     0
 62
     1
  6
GEN7
  0
LAYER
  2
ﾁｭｳｼﾝｾﾝ1
 70
     0
 62
     1
  6
GEN7A
  0
LAYER
  2
AM_0N
 70
     0
 62
     7
  6
CONTINUOUS
  0
LAYER
  2
AM_3N
 70
     0
 62
     3
  6
AM_ISO02W050
  0
LAYER
  2
ｽﾝﾎ_ｳｾﾝ
 70
     0
 62
     2
  6
CONTINUOUS
  0
ENDTAB
  0
TABLE
  2
STYLE
 70
     5
  0
STYLE
  2
STANDARD
 70
     0
 40
0.0
 41
0.8299999999999999
 50
0.0
 71
     0
 42
2.5
  3
txt.shx
  4
bigfont.shx
  0
STYLE
  2
ANNOTATIVE
 70
     0
 40
0.0
 41
1.0
 50
0.0
 71
     0
 42
0.2
  3
txt
  4

  0
STYLE
  2

 70
     1
 40
0.0
 41
1.0
 50
0.0
 71
     0
 42
2.5
  3
genltshp.shx
  4

  0
STYLE
  2
ACANSTS
 70
     0
 40
0.0
 41
1.0
 50
0.0
 71
     0
 42
2.5
  3
romans.shx
  4
extfont.shx
  0
STYLE
  2
ACANSGDT
 70
     0
 40
0.0
 41
1.0
 50
0.0
 71
     0
 42
2.5
  3
amgdt.shx
  4

  0
ENDTAB
  0
TABLE
  2
VIEW
 70
     6
  0
VIEW
  2
AM_VIEW1
 70
     0
 40
277.50000000000011
 10
249.64779005524869
 20
416.24999999999989
 41
499.2955801104971
 11
0.0
 21
0.0
 31
1.0
 12
0.0
 22
0.0
 32
0.0
 42
50.0
 43
0.0
 44
0.0
 50
0.0
 71
     0
  0
VIEW
  2
AM_VIEW2
 70
     0
 40
277.50000000000011
 10
603.85220994475117
 20
416.24999999999989
 41
499.2955801104971
 11
0.0
 21
0.0
 31
1.0
 12
0.0
 22
0.0
 32
0.0
 42
50.0
 43
0.0
 44
0.0
 50
0.0
 71
     0
  0
VIEW
  2
AM_VIEW3
 70
     0
 40
277.50000000000011
 10
249.64779005524869
 20
138.75
 41
499.2955801104971
 11
0.0
 21
0.0
 31
1.0
 12
0.0
 22
0.0
 32
0.0
 42
50.0
 43
0.0
 44
0.0
 50
0.0
 71
     0
  0
VIEW
  2
AM_VIEW4
 70
     0
 40
277.50000000000011
 10
603.85220994475117
 20
138.75
 41
499.2955801104971
 11
0.0
 21
0.0
 31
1.0
 12
0.0
 22
0.0
 32
0.0
 42
50.0
 43
0.0
 44
0.0
 50
0.0
 71
     0
  0
VIEW
  2
AM_VIEW5
 70
     0
 40
277.50000000000011
 10
426.75
 20
277.50000000000011
 41
499.2955801104971
 11
0.0
 21
0.0
 31
1.0
 12
0.0
 22
0.0
 32
0.0
 42
50.0
 43
0.0
 44
0.0
 50
0.0
 71
     0
  0
VIEW
  2
AM_VIEW6
 70
     0
 40
554.99445000000014
 10
426.75
 20
277.5
 41
998.5811743093924
 11
0.0
 21
0.0
 31
1.0
 12
0.0
 22
0.0
 32
0.0
 42
50.0
 43
0.0
 44
0.0
 50
0.0
 71
     0
  0
ENDTAB
  0
TABLE
  2
UCS
 70
     0
  0
ENDTAB
  0
TABLE
  2
APPID
 70
    97
  0
APPID
  2
ACAD
 70
     0
  0
APPID
  2
ACADANNOTATIVE
 70
     0
  0
APPID
  2
MCAD_NO_VIS
 70
     0
  0
APPID
  2
ACAD_TEMP_GRAPHIC
 70
     0
  0
APPID
  2
ACATTRIBSERVICES
 70
     0
  0
APPID
  2
GENIUS_GENREC_14
 70
     0
  0
APPID
  2
GENIUS_GENOBJ-N-REC_13
 70
     0
  0
APPID
  2
GENIUS_GENODEF_13
 70
     0
  0
APPID
  2
GENIUS_GENOLIS_13
 70
     0
  0
APPID
  2
GENIUS_GENOBJ-N-TIT_13
 70
     0
  0
APPID
  2
GENIUS_GENOENT_13
 70
     0
  0
APPID
  2
GENIUS_GENTITLE_13
 70
     0
  0
APPID
  2
GENIUS_GENOREF_13
 70
     0
  0
APPID
  2
GENIUS_GENSCREG_15
 70
     0
  0
APPID
  2
GENIUS_GENOBJ-N-SDF_13
 70
     0
  0
APPID
  2
GENIUS_GENFIL_13
 70
     0
  0
APPID
  2
GENIUS_GENOBJ-N-CHA_13
 70
     0
  0
APPID
  2
GENIUS_GENDTOL_13
 70
     0
  0
APPID
  2
GENIUS_GENOBJ-N-FIL_13
 70
     0
  0
APPID
  2
AD_DRAW
 70
     0
  0
APPID
  2
DESIGNERASSEMBLIES
 70
     0
  0
APPID
  2
ASURF_PCURVE_APPNAME
 70
     0
  0
APPID
  2
GENIUS_GE3SECT_13
 70
     0
  0
APPID
  2
GENIUS_GENCFG_13
 70
     0
  0
APPID
  2
GENIUS_GE3CFG0_13
 70
     0
  0
APPID
  2
GENIUS_GENCFG0_13
 70
     0
  0
APPID
  2
GENIUS_GENCFG1_13
 70
     0
  0
APPID
  2
GENIUS_GENCFG2_13
 70
     0
  0
APPID
  2
GENIUS_GENCFG3_13
 70
     0
  0
APPID
  2
GENIUS_GENCFG4_13
 70
     0
  0
APPID
  2
GENIUS_GEVCFG0_13
 70
     0
  0
APPID
  2
GENIUS_GENHINW_13
 70
     0
  0
APPID
  2
GENIUS_FIRSTVISTXT_14
 70
     0
  0
APPID
  2
GENIUS_GENOBJ-N-LEADER_13
 70
     0
  0
APPID
  2
GEV_VCCNULL_SWITCH_OFF
 70
     0
  0
APPID
  2
GENIUS_GEFCFG0_13
 70
     0
  0
APPID
  2
GENIUS_GENZVEED_13
 70
     0
  0
APPID
  2
GENIUS_GENSCREG_13
 70
     0
  0
APPID
  2
GENIUS_DUMCFG0_13
 70
     0
  0
APPID
  2
GEVID936201362
 70
     0
  0
APPID
  2
GEVDC
 70
     0
  0
APPID
  2
GEVCON
 70
     0
  0
APPID
  2
VCC
 70
     0
  0
APPID
  2
GEVPT
 70
     0
  0
APPID
  2
GEVIT
 70
     0
  0
APPID
  2
GENBH
 70
     0
  0
APPID
  2
GEVMK
 70
     0
  0
APPID
  2
GENIUS_GENBH_13
 70
     0
  0
APPID
  2
GENIUS_GENOBJ-NBEHI-BHF_13
 70
     0
  0
APPID
  2
GENIUS_GENOBJ-NBEHI-BHB_13
 70
     0
  0
APPID
  2
GENIUS_GENOBJ-F-DESC_13
 70
     0
  0
APPID
  2
GENIUS_GEFDESC_14
 70
     0
  0
APPID
  2
GENIUS_GENOBJ-F-PART_13
 70
     0
  0
APPID
  2
GENIUS_GEFSTDP_13
 70
     0
  0
APPID
  2
GENIUS_GEFPARTINS_13
 70
     0
  0
APPID
  2
GENIUS_GENTRA_14
 70
     0
  0
APPID
  2
GENIUS_GENINF13_13
 70
     0
  0
APPID
  2
GENIUS_GENOBJ-N-INFOPT_13
 70
     0
  0
APPID
  2
GENIUS_GENOBJ-N-RSSYM_13
 70
     0
  0
APPID
  2
GENIUS_GENSYMENT_13
 70
     0
  0
APPID
  2
GENIUS_GENSCSYM_13
 70
     0
  0
APPID
  2
GENIUS_GEFINFNAM_13
 70
     0
  0
APPID
  2
GENIUS_GENOBJ-N-CEN_13
 70
     0
  0
APPID
  2
GENIUS_GENOBJ-N-CRS_13
 70
     0
  0
APPID
  2
GENIUS_GENOBJ-N-CRC_13
 70
     0
  0
APPID
  2
GENIUS_GENCRC_14
 70
     0
  0
APPID
  2
GEVID942827039
 70
     0
  0
APPID
  2
GEVID942827040
 70
     0
  0
APPID
  2
GEVID942827041
 70
     0
  0
APPID
  2
GENIUS_GENOBJ-F-SCPASSM_13
 70
     0
  0
APPID
  2
GENIUS_GENDIMSH_14
 70
     0
  0
APPID
  2
GEVID942827042
 70
     0
  0
APPID
  2
GEVID946020473
 70
     0
  0
APPID
  2
GEVID946020474
 70
     0
  0
APPID
  2
GEVID946020475
 70
     0
  0
APPID
  2
GENIUS_GENOBJ-N-HTC_13
 70
     0
  0
APPID
  2
GENIUS_GENHATCH_13
 70
     0
  0
APPID
  2
GEVID948854295
 70
     0
  0
APPID
  2
GEVID939402019
 70
     0
  0
APPID
  2
GEVID952919491
 70
     0
  0
APPID
  2
GEVID952919492
 70
     0
  0
APPID
  2
GENIUS_GEFWELD_13
 70
     0
  0
APPID
  2
GENIUS_GENOBJ-F-WELS_13
 70
     0
  0
APPID
  2
GEVID952919493
 70
     0
  0
APPID
  2
GENIUS_GENOBJ-N-RSBK_13
 70
     0
  0
APPID
  2
GENIUS_GENOBJ-N-LIB_13
 70
     0
  0
APPID
  2
GENIUS_GENSCALE_13
 70
     0
  0
APPID
  2
GEVID986376691
 70
     0
  0
APPID
  2
DCO15
 70
     0
  0
APPID
  2
ACADM_DIM_EDIT
 70
     0
  0
APPID
  2
AMDT_DM_ADJ
 70
     0
  0
APPID
  2
ACAD_DSTYLE_DIMJAG
 70
     0
  0
APPID
  2
ACAD_DSTYLE_DIMBREAK
 70
     0
  0
APPID
  2
ACAD_NAV_VCDISPLAY
 70
     0
  0
APPID
  2
ACADANNOPO
 70
     0
  0
APPID
  2
ACAD_EXEMPT_FROM_CAD_STANDARDS
 70
     0
  0
APPID
  2
ACAD_MLEADERVER
 70
     0
  0
ENDTAB
  0
TABLE
  2
DIMSTYLE
 70
     9
  0
DIMSTYLE
  2
STANDARD
 70
     0
  3

  4

  5

  6

  7

 40
1.0
 41
0.18
 42
0.0625
 43
0.38
 44
0.18
 45
0.0
 46
0.0
 47
0.0
 48
0.0
140
0.18
141
0.09
142
0.0
143
25.399999999999999
144
1.0
145
0.0
146
1.0
147
0.09
 71
     0
 72
     0
 73
     1
 74
     1
 75
     0
 76
     0
 77
     0
 78
     0
170
     0
171
     2
172
     0
173
     0
174
     0
175
     0
176
     0
177
     0
178
     0
  0
DIMSTYLE
  2
ANNOTATIVE
 70
     0
  3

  4

  5

  6

  7

 40
1.0
 41
0.18
 42
0.0625
 43
0.38
 44
0.18
 45
0.0
 46
0.0
 47
0.0
 48
0.0
140
0.18
141
0.09
142
0.0
143
25.399999999999999
144
1.0
145
0.0
146
1.0
147
0.09
 71
     0
 72
     0
 73
     1
 74
     1
 75
     0
 76
     0
 77
     0
 78
     0
170
     0
171
     2
172
     0
173
     0
174
     0
175
     0
176
     0
177
     0
178
     0
  0
DIMSTYLE
  2
AM_ISO
 70
     0
  3

  4
"
  5

  6

  7

 40
1.0
 41
2.5
 42
1.0
 43
8.0
 44
0.6
 45
0.0
 46
0.0
 47
0.1
 48
0.1
140
2.5
141
0.0
142
0.0
143
0.0393701
144
1.0
145
0.0
146
0.71
147
0.8
 71
     0
 72
     0
 73
     0
 74
     0
 75
     0
 76
     0
 77
     1
 78
     8
170
     0
171
     2
172
     1
173
     0
174
     0
175
     0
176
   256
177
   256
178
     4
  0
DIMSTYLE
  2
AM_ANSI
 70
     0
  3

  4
mm
  5

  6

  7

 40
1.0
 41
0.12
 42
0.05
 43
0.5
 44
0.1
 45
0.0
 46
0.0
 47
0.1
 48
0.1
140
0.12
141
0.0
142
0.0
143
25.399999999999999
144
1.0
145
0.0
146
0.71
147
0.06
 71
     0
 72
     0
 73
     1
 74
     1
 75
     0
 76
     0
 77
     0
 78
     7
170
     0
171
     2
172
     0
173
     0
174
     0
175
     0
176
   256
177
   256
178
     2
  0
DIMSTYLE
  2
AM_ANSI$3
 70
     0
  3

  4
mm
  5

  6

  7

 40
1.0
 41
0.12
 42
0.05
 43
0.5
 44
0.1
 45
0.0
 46
0.0
 47
0.1
 48
0.1
140
0.12
141
0.0
142
0.0
143
25.399999999999999
144
1.0
145
0.0
146
0.71
147
0.06
 71
     0
 72
     0
 73
     1
 74
     1
 75
     0
 76
     0
 77
     0
 78
     7
170
     0
171
     2
172
     0
173
     0
174
     0
175
     0
176
   256
177
   256
178
     2
  0
DIMSTYLE
  2
AM_ANSI$4
 70
     0
  3

  4
mm
  5

  6

  7

 40
1.0
 41
0.12
 42
0.05
 43
0.5
 44
0.1
 45
0.0
 46
0.0
 47
0.1
 48
0.1
140
0.12
141
0.0
142
0.0
143
25.399999999999999
144
1.0
145
0.0
146
0.71
147
0.06
 71
     0
 72
     0
 73
     1
 74
     1
 75
     0
 76
     0
 77
     0
 78
     7
170
     0
171
     2
172
     0
173
     0
174
     0
175
     0
176
   256
177
   256
178
     2
  0
DIMSTYLE
  2
AM_ANSI$7
 70
     0
  3

  4
mm
  5

  6

  7

 40
1.0
 41
0.12
 42
0.05
 43
0.5
 44
0.1
 45
0.0
 46
0.0
 47
0.1
 48
0.1
140
0.12
141
0.0
142
0.0
143
25.399999999999999
144
1.0
145
0.0
146
0.71
147
0.06
 71
     0
 72
     0
 73
     1
 74
     1
 75
     0
 76
     0
 77
     0
 78
     7
170
     0
171
     2
172
     0
173
     0
174
     0
175
     0
176
   256
177
   256
178
     2
  0
DIMSTYLE
  2
AM_ANSI$SF
 70
     0
  3

  4
mm
  5

  6

  7

 40
1.0
 41
0.12
 42
0.05
 43
0.5
 44
0.1
 45
0.0
 46
0.0
 47
0.1
 48
0.1
140
0.12
141
0.0
142
0.0
143
25.399999999999999
144
1.0
145
0.0
146
0.71
147
0.06
 71
     0
 72
     0
 73
     1
 74
     1
 75
     1
 76
     1
 77
     0
 78
     7
170
     0
171
     2
172
     0
173
     0
174
     0
175
     0
176
   256
177
   256
178
     2
  0
DIMSTYLE
  2
AM_ANSI$SH
 70
     0
  3

  4
mm
  5

  6
GENAXEH
  7

 40
1.0
 41
0.12
 42
0.05
 43
0.5
 44
0.1
 45
0.0
 46
0.0
 47
0.1
 48
0.1
140
0.12
141
0.0
142
0.0
143
25.399999999999999
144
1.0
145
0.0
146
0.71
147
0.06
 71
     0
 72
     0
 73
     1
 74
     1
 75
     1
 76
     1
 77
     0
 78
     7
170
     0
171
     2
172
     0
173
     1
174
     0
175
     0
176
   256
177
   256
178
     2
  0
ENDTAB
  0
ENDSEC
  0
SECTION
  2
BLOCKS
  0
BLOCK
  8
0
  2
$MODEL_SPACE
 70
     0
 10
0.0
 20
0.0
 30
0.0
  3
$MODEL_SPACE
  1

  0
ENDBLK
  5
3728
  8
0
  0
BLOCK
 67
     1
  8
0
  2
$PAPER_SPACE
 70
     0
 10
0.0
 20
0.0
 30
0.0
  3
$PAPER_SPACE
  1

  0
ENDBLK
  5
3724
 67
     1
  8
0
  0
BLOCK
  8
0
  2
*U2
 70
     1
 10
0.0
 20
0.0
 30
0.0
  3
*U2
  1

  0
TEXT
  5
3579
  8
AM_0
 10
534.24601722895068
 20
111.9819601103902
 30
0.0
 40
12.0
  1
VX02-200SF
 41
0.8299999999999999
  0
ENDBLK
  5
357B
  8
0
  0
BLOCK
  8
0
  2
GENAXEH
 70
     0
 10
0.0
 20
0.0
 30
0.0
  3
GENAXEH
  1

  0
LINE
  5
37F6
  8
0
 10
-1.0
 20
0.0
 30
0.0
 11
1.0
 21
0.0
 31
0.0
  0
ENDBLK
  5
37F8
  8
0
  0
BLOCK
  8
0
  2
_ACMFILLEDHALF
 70
     0
 10
0.0
 20
0.0
 30
0.0
  3
_ACMFILLEDHALF
  1

  0
TRACE
  5
3806
  8
AM_0
 62
     0
 10
-0.8
 20
0.0
 30
0.0
 11
-1.0
 21
0.166666666
 31
0.0
 12
0.0
 22
0.0
 32
0.0
 13
0.0
 23
0.0
 33
0.0
  0
LINE
  5
3807
  8
AM_0
 62
     0
 10
-1.0
 20
0.0
 30
0.0
 11
-0.8
 21
0.0
 31
0.0
  0
ENDBLK
  5
3805
  8
0
  0
ENDSEC
  0
SECTION
  2
ENTITIES
  0
LINE
  5
27CE
  8
ﾁｭｳｼﾝｾﾝ
 10
49.43730813762437
 20
518.94482818129245
 30
0.0
 11
403.32969928797399
 21
518.94482818129234
 31
0.0
  0
POLYLINE
  5
2959
  8
AM_0
 66
     1
 10
0.0
 20
0.0
 30
0.0
  0
VERTEX
  5
295A
  8
AM_0
 10
339.53575928797409
 20
603.35781818129237
 30
0.0
 42
0.081985852
  0
VERTEX
  5
295B
  8
AM_0
 10
317.41986928797411
 20
548.44613818129233
 30
0.0
 42
0.10914194
  0
VERTEX
  5
295C
  8
AM_0
 10
317.41995928797411
 20
489.44312818129242
 30
0.0
 42
0.081985219
  0
VERTEX
  5
295D
  8
AM_0
 10
339.53575928797409
 20
434.53182818129233
 30
0.0
  0
SEQEND
  5
295E
  8
AM_0
  0
ARC
  5
295F
  8
AM_0
 10
366.62266928797408
 20
518.94479818129207
 30
0.0
 40
3.9999962
 50
90.000003000000945
 51
270.0
  0
LINE
  5
2960
  8
AM_0
 10
366.62266928797408
 20
522.94479818129219
 30
0.0
 11
366.62266928797408
 21
514.94482818129234
 31
0.0
  0
LINE
  5
2961
  8
AM_0
 10
398.62266928797408
 20
532.94485818129237
 30
0.0
 11
398.62266928797408
 21
504.94485818129232
 31
0.0
  0
LINE
  5
2962
  8
AM_0
 10
352.622699287974
 20
426.44482818129228
 30
0.0
 11
352.622699287974
 21
611.44482818129234
 31
0.0
  0
LINE
  5
2963
  8
AM_0
 10
346.622699287974
 20
448.44482818129211
 30
0.0
 11
346.622699287974
 21
589.11712818129229
 31
0.0
  0
LINE
  5
2964
  8
AM_0
 10
342.62269928797411
 20
428.7254381812923
 30
0.0
 11
342.62269928797411
 21
609.16421818129231
 31
0.0
  0
LINE
  5
2965
  8
AM_0
 10
356.62272928797398
 20
603.94482818129234
 30
0.0
 11
356.62272928797398
 21
433.94482818129228
 31
0.0
  0
LINE
  5
2969
  8
AM_0
 10
270.62266928797408
 20
447.8546481812923
 30
0.0
 11
270.62266928797408
 21
590.03500818129226
 31
0.0
  0
LINE
  5
296A
  8
AM_0
 10
263.62269928797411
 20
440.0798381812923
 30
0.0
 11
263.62269928797411
 21
597.80981818129226
 31
0.0
  0
LINE
  5
296B
  8
AM_0
 10
277.622699287974
 20
436.69387818129229
 30
0.0
 11
277.622699287974
 21
601.19577818129233
 31
0.0
  0
LINE
  5
296C
  8
AM_0
 10
253.712149287974
 20
487.00784818129227
 30
0.0
 11
253.712149287974
 21
550.88183818129232
 31
0.0
  0
LINE
  5
296D
  8
AM_0
 10
337.56739928797413
 20
434.60055818129229
 30
0.0
 11
277.622699287974
 21
436.69387818129229
 31
0.0
  0
ARC
  5
296E
  8
AM_0
 10
266.62269928797411
 20
440.0798381812923
 30
0.0
 40
3.0
 50
180.00001000000091
 51
267.99999999999972
  0
LINE
  5
296F
  8
AM_0
 10
277.622699287974
 20
436.69387818129229
 30
0.0
 11
266.5179892879741
 21
437.08166818129229
 31
0.0
  0
ARC
  5
2970
  8
AM_0
 10
258.62266928797408
 20
451.61328818129221
 30
0.0
 40
5.0
 50
0.0
 51
49.999999999999922
  0
ARC
  5
2971
  8
AM_0
 10
259.76649928797411
 20
474.9447981812923
 30
0.0
 40
2.0
 50
269.999989999999
 51
35.173260999998369
  0
LINE
  5
2973
  8
AM_0
 10
253.712149287974
 20
487.00778818129243
 30
0.0
 11
261.40132928797402
 21
476.09686818129222
 31
0.0
  0
LINE
  5
2974
  8
AM_0
 10
251.9915692879741
 20
462.32083818129212
 30
0.0
 11
234.122699287974
 21
462.94482818129228
 31
0.0
  0
LINE
  5
2975
  8
AM_0
 10
234.122699287974
 20
472.94482818129211
 30
0.0
 11
259.76649928797411
 21
472.94482818129211
 31
0.0
  0
LINE
  5
297C
  8
AM_0
 10
255.03098928797411
 20
461.15411818129212
 30
0.0
 11
261.83665928797399
 21
455.44348818129231
 31
0.0
  0
LINE
  5
297D
  8
AM_0
 10
253.712149287974
 20
461.95083818129228
 30
0.0
 11
253.712149287974
 21
472.94482818129211
 31
0.0
  0
ARC
  5
297E
  8
AM_0
 10
251.81706928797411
 20
457.32388818129232
 30
0.0
 40
5.0
 50
49.99999699999762
 51
87.999999999999659
  0
LINE
  5
297F
  8
AM_0
 10
234.122699287974
 20
487.00784818129227
 30
0.0
 11
253.712149287974
 21
487.00784818129227
 31
0.0
  0
LINE
  5
2986
  8
AM_0
 10
263.62269928797411
 20
459.6363281812923
 30
0.0
 11
270.62266928797408
 21
459.6363281812923
 31
0.0
  0
LINE
  5
2987
  8
AM_0
 10
344.55290928797399
 20
426.72662818129231
 30
0.0
 11
352.62266928797408
 21
426.44482818129228
 31
0.0
  0
ARC
  5
2988
  8
AM_0
 10
344.62272928797398
 20
428.7254381812923
 30
0.0
 40
2.0
 50
179.999989999999
 51
268.00000999999861
  0
LINE
  5
2989
  8
AM_0
 10
340.92845928797408
 20
433.13912818129228
 30
0.0
 11
342.62272928797398
 21
431.44485818129232
 31
0.0
  0
ARC
  5
298A
  8
AM_0
 10
337.39289928797399
 20
429.60360818129232
 30
0.0
 40
5.0
 50
45.000000999999187
 51
87.999999999999659
  0
LINE
  5
298B
  8
AM_0
 10
352.622699287974
 20
433.94482818129228
 30
0.0
 11
356.62272928797398
 21
433.94482818129228
 31
0.0
  0
LINE
  5
298C
  8
AM_0
 10
356.622699287974
 20
504.94485818129232
 30
0.0
 11
398.62266928797408
 21
504.94485818129232
 31
0.0
  0
ARC
  5
298E
  8
AM_0
 10
343.62269928797411
 20
448.77252818129222
 30
0.0
 40
3.0
 50
267.99999999999972
 51
0.0
  0
ARC
  5
298F
  8
AM_0
 10
345.62269928797411
 20
467.81958818129232
 30
0.0
 40
3.0
 50
90.000003000000945
 51
180.00001000000091
  0
LINE
  5
2990
  8
AM_0
 10
366.62266928797408
 20
514.94482818129234
 30
0.0
 11
398.62266928797408
 21
514.94482818129234
 31
0.0
  0
LINE
  5
2991
  8
AM_0
 10
337.56739928797413
 20
603.28906818129235
 30
0.0
 11
277.622699287974
 21
601.19577818129233
 31
0.0
  0
ARC
  5
2992
  8
AM_0
 10
258.62266928797408
 20
586.27636818129236
 30
0.0
 40
5.0
 50
310.0
 51
0.0
  0
ARC
  5
2993
  8
AM_0
 10
259.76649928797411
 20
562.94482818129234
 30
0.0
 40
2.0
 50
324.82673000000062
 51
90.000003000000945
  0
LINE
  5
2994
  8
AM_0
 10
261.40132928797402
 20
561.79272818129232
 30
0.0
 11
253.71217928797401
 21
550.88183818129232
 31
0.0
  0
LINE
  5
2995
  8
AM_0
 10
234.122699287974
 20
550.88183818129232
 30
0.0
 11
253.712149287974
 21
550.88183818129232
 31
0.0
  0
LINE
  5
299B
  8
AM_0
 10
251.99153928797409
 20
575.56881818129227
 30
0.0
 11
234.122699287974
 21
574.94482818129234
 31
0.0
  0
LINE
  5
299C
  8
AM_0
 10
234.122699287974
 20
564.94482818129234
 30
0.0
 11
259.76649928797411
 21
564.94482818129234
 31
0.0
  0
ARC
  5
29AC
  8
AM_0
 10
251.8170392879741
 20
580.56576818129236
 30
0.0
 40
5.0
 50
272.0000000000004
 51
310.0
  0
LINE
  5
29AD
  8
AM_0
 10
253.712149287974
 20
564.94482818129234
 30
0.0
 11
253.712149287974
 21
575.93881818129239
 31
0.0
  0
LINE
  5
29AE
  8
AM_0
 10
255.03102928797401
 20
576.73553818129244
 30
0.0
 11
261.83662928797412
 21
582.44610818129195
 31
0.0
  0
LINE
  5
29AF
  8
AM_0
 10
263.62269928797411
 20
578.25332818129232
 30
0.0
 11
270.62266928797408
 21
578.25332818129232
 31
0.0
  0
LINE
  5
29B0
  8
AM_0
 10
277.62266928797408
 20
601.19577818129233
 30
0.0
 11
266.5179892879741
 21
600.80798818129233
 31
0.0
  0
ARC
  5
29B1
  8
AM_0
 10
266.62269928797411
 20
597.80981818129226
 30
0.0
 40
3.0
 50
91.999998000000545
 51
180.00001000000091
  0
LINE
  5
29B2
  8
AM_0
 10
356.622699287974
 20
532.94485818129237
 30
0.0
 11
398.62266928797408
 21
532.94485818129237
 31
0.0
  0
ARC
  5
29B3
  8
AM_0
 10
345.62269928797411
 20
570.07006818129207
 30
0.0
 40
3.0
 50
179.999989999999
 51
270.0
  0
ARC
  5
29B5
  8
AM_0
 10
343.62269928797411
 20
589.11712818129229
 30
0.0
 40
3.0
 50
0.0
 51
91.999998000000545
  0
LINE
  5
29B6
  8
AM_0
 10
366.62266928797408
 20
522.94479818129219
 30
0.0
 11
398.62266928797408
 21
522.94479818129219
 31
0.0
  0
LINE
  5
29B7
  8
AM_0
 10
344.55293928797408
 20
611.16299818129232
 30
0.0
 11
352.622699287974
 21
611.44479818129196
 31
0.0
  0
LINE
  5
29B8
  8
AM_0
 10
340.92845928797408
 20
604.75048818129244
 30
0.0
 11
342.62272928797398
 21
606.44479818129207
 31
0.0
  0
ARC
  5
29B9
  8
AM_0
 10
337.39289928797399
 20
608.28604818129213
 30
0.0
 40
5.0
 50
272.0000000000004
 51
315.0
  0
ARC
  5
29BA
  8
AM_0
 10
344.62272928797398
 20
609.16421818129231
 30
0.0
 40
2.0
 50
91.999998000000545
 51
180.00001000000091
  0
LINE
  5
29BB
  8
AM_0
 10
352.622699287974
 20
603.94482818129234
 30
0.0
 11
356.62272928797398
 21
603.94482818129234
 31
0.0
  0
LINE
  5
2EDC
  8
AM_0
 10
72.122699287974044
 20
584.54482818129247
 30
0.0
 11
215.62269928797409
 21
584.54482818129225
 31
0.0
  0
LINE
  5
2EDD
  8
AM_0
 10
133.62269928797389
 20
453.34482818129243
 30
0.0
 11
215.62269928797409
 21
453.34482818129243
 31
0.0
  0
LINE
  5
2EDE
  8
AM_0
 10
70.122699287974044
 20
582.54482818129225
 30
0.0
 11
70.122699287974044
 21
455.34482818129231
 31
0.0
  0
LINE
  5
2EDF
  8
AM_0
 10
72.622699287974044
 20
584.54482818129247
 30
0.0
 11
72.622699287973944
 21
453.34482818129243
 31
0.0
  0
ARC
  5
2EE0
  8
AM_0
 10
1004.808823097793
 20
518.944828181292
 30
0.0
 40
940.68612380981915
 50
176.76392470776139
 51
183.2360752922385
  0
LINE
  5
2EE1
  8
AM_0
 10
65.622699287974044
 20
572.04669605267156
 30
0.0
 11
65.622699287973944
 21
465.84296030991271
 31
0.0
  0
ARC
  5
2EE2
  8
AM_0
 10
57.622699287973937
 20
501.94482818129222
 30
0.0
 40
3.0
 50
180.0
 51
270.0
1001
GENIUS_GENODEF_13
1002
{
1000
HIER
1070
     0
1002
}
1002
{
1000
MANEDIT
1070
     0
1002
}
1002
{
1000
NOSEL
1070
     0
1002
}
1002
{
1000
BEHIND
1070
     0
1002
}
1002
{
1000
OTHER
1070
     0
1002
}
1002
{
1000
REACTOR
1002
}
1001
GENIUS_GENOBJ-N-FIL_13
1002
{
1000
OWNER
1000
GEN
1002
}
  0
LINE
  5
2EE3
  8
AM_0
 10
131.62269928797389
 20
441.29242995106068
 30
0.0
 11
77.622699287973944
 21
441.29242995106068
 31
0.0
  0
LINE
  5
2EE4
  8
AM_0
 10
131.62269928797389
 20
437.88482895235393
 30
0.0
 11
77.622699287973944
 21
437.88482895235393
 31
0.0
  0
LINE
  5
2EE5
  8
AM_0
 10
94.122699287973944
 20
449.79523224859759
 30
0.0
 11
90.122699287973944
 21
449.79523224859742
 31
0.0
  0
LINE
  5
2EE6
  8
AM_0
 10
106.122699287974
 20
462.65403520182321
 30
0.0
 11
90.122699287973944
 21
462.65403520182321
 31
0.0
1001
GENIUS_GENOREF_13
1005
2F16
  0
LINE
  5
2EE7
  8
AM_0N
 10
90.122699287973944
 20
459.10225091010432
 30
0.0
 11
106.1226992879739
 21
459.10225091010432
 31
0.0
1001
GENIUS_GENOREF_13
1005
0
  0
LINE
  5
2EE8
  8
AM_0
 10
90.122699287973944
 20
462.65403520182321
 30
0.0
 11
90.122699287973944
 21
449.79523224859742
 31
0.0
  0
LINE
  5
2EE9
  8
AM_0
 10
75.622699287973944
 20
456.68585520811303
 30
0.0
 11
75.622699287973944
 21
439.8848289523541
 31
0.0
  0
ARC
  5
2EEA
  8
AM_0
 10
77.622699287973944
 20
443.2924299510608
 30
0.0
 40
2.0
 50
180.0
 51
270.0
1001
GENIUS_GENODEF_13
1002
{
1000
HIER
1070
     0
1002
}
1002
{
1000
MANEDIT
1070
     0
1002
}
1002
{
1000
NOSEL
1070
     0
1002
}
1002
{
1000
BEHIND
1070
     0
1002
}
1002
{
1000
OTHER
1070
     0
1002
}
1002
{
1000
REACTOR
1002
}
1001
GENIUS_GENOBJ-N-FIL_13
1002
{
1000
OWNER
1000
GEN
1002
}
  0
ARC
  5
2EEB
  8
AM_0
 10
77.622699287973944
 20
439.8848289523541
 30
0.0
 40
2.0
 50
180.0
 51
270.0
1001
GENIUS_GENOBJ-N-FIL_13
1002
{
1000
OWNER
1000
GEN
1002
}
1001
GENIUS_GENODEF_13
1002
{
1000
HIER
1070
     0
1002
}
1002
{
1000
MANEDIT
1070
     0
1002
}
1002
{
1000
NOSEL
1070
     0
1002
}
1002
{
1000
BEHIND
1070
     0
1002
}
1002
{
1000
OTHER
1070
     0
1002
}
1002
{
1000
REACTOR
1002
}
  0
ARC
  5
2EEC
  8
AM_0
 10
72.122699287974044
 20
455.34482818129231
 30
0.0
 40
2.0
 50
180.0
 51
270.0
1001
GENIUS_GENOBJ-N-FIL_13
1002
{
1000
OWNER
1000
GEN
1002
}
1001
GENIUS_GENODEF_13
1002
{
1000
HIER
1070
     0
1002
}
1002
{
1000
MANEDIT
1070
     0
1002
}
1002
{
1000
NOSEL
1070
     0
1002
}
1002
{
1000
BEHIND
1070
     0
1002
}
1002
{
1000
OTHER
1070
     0
1002
}
1002
{
1000
REACTOR
1002
}
  0
LINE
  5
2EED
  8
AM_0
 10
72.122699287974044
 20
453.34482818129243
 30
0.0
 11
75.622699287973944
 21
453.3448281812922
 31
0.0
  0
LINE
  5
2EEE
  8
AM_0
 10
57.622699287973937
 20
498.94482818129211
 30
0.0
 11
64.335334089016158
 21
498.94482818129211
 31
0.0
  0
ARC
  5
2EEF
  8
AM_0
 10
77.622699287973944
 20
456.68585520811303
 30
0.0
 40
2.0
 50
90.0
 51
180.0
1001
GENIUS_GENOBJ-N-FIL_13
1002
{
1000
OWNER
1000
GEN
1002
}
1001
GENIUS_GENODEF_13
1002
{
1000
HIER
1070
     0
1002
}
1002
{
1000
MANEDIT
1070
     0
1002
}
1002
{
1000
NOSEL
1070
     0
1002
}
1002
{
1000
BEHIND
1070
     0
1002
}
1002
{
1000
OTHER
1070
     0
1002
}
1002
{
1000
REACTOR
1002
}
  0
LINE
  5
2EF0
  8
AM_0
 10
69.451426965633857
 20
461.54151469003909
 30
0.0
 11
66.293971610314145
 21
464.34814167254541
 31
0.0
  0
ARC
  5
2EF1
  8
AM_0
 10
67.622699287973944
 20
465.84296030991271
 30
0.0
 40
2.0
 50
180.0
 51
228.3664606634303
1001
GENIUS_GENODEF_13
1002
{
1000
HIER
1070
     0
1002
}
1002
{
1000
MANEDIT
1070
     0
1002
}
1002
{
1000
NOSEL
1070
     0
1002
}
1002
{
1000
BEHIND
1070
     0
1002
}
1002
{
1000
OTHER
1070
     0
1002
}
1002
{
1000
REACTOR
1002
}
1001
GENIUS_GENOBJ-N-FIL_13
1002
{
1000
OWNER
1000
GEN
1002
}
  0
ARC
  5
2EF2
  8
AM_0
 10
68.122699287974044
 20
460.04669605267162
 30
0.0
 40
2.0
 50
0.0
 51
48.366460663430352
1001
GENIUS_GENOBJ-N-FIL_13
1002
{
1000
OWNER
1000
GEN
1002
}
1001
GENIUS_GENODEF_13
1002
{
1000
HIER
1070
     0
1002
}
1002
{
1000
MANEDIT
1070
     0
1002
}
1002
{
1000
NOSEL
1070
     0
1002
}
1002
{
1000
BEHIND
1070
     0
1002
}
1002
{
1000
OTHER
1070
     0
1002
}
1002
{
1000
REACTOR
1002
}
  0
LINE
  5
2EF3
  8
AM_0
 10
90.122699287973944
 20
458.6858552081132
 30
0.0
 11
77.622699287973944
 21
458.6858552081132
 31
0.0
  0
LINE
  5
2EF4
  8
AM_0
 10
106.1226992879739
 20
462.65403520182309
 30
0.0
 11
106.122699287974
 21
449.79523224859742
 31
0.0
  0
LINE
  5
2EF5
  8
AM_0
 10
102.122699287974
 20
459.10225091010432
 30
0.0
 11
102.122699287974
 21
449.79523224859759
 31
0.0
  0
LINE
  5
2EF6
  8
AM_0
 10
94.122699287973944
 20
459.10225091010432
 30
0.0
 11
94.122699287973944
 21
449.79523224859742
 31
0.0
  0
LINE
  5
2EF7
  8
AM_0
 10
133.62269928797389
 20
456.68585520811303
 30
0.0
 11
133.62269928797389
 21
439.8848289523541
 31
0.0
  0
LINE
  5
2EF8
  8
AM_0
 10
102.122699287974
 20
455.0712950471065
 30
0.0
 11
94.122699287973944
 21
455.0712950471065
 31
0.0
  0
LINE
  5
2EF9
  8
AM_0
 10
106.122699287974
 20
449.79523224859742
 30
0.0
 11
102.122699287974
 21
449.79523224859759
 31
0.0
  0
ARC
  5
2EFA
  8
AM_0
 10
131.62269928797389
 20
443.29242995106091
 30
0.0
 40
2.0
 50
270.0
 51
0.0
1001
GENIUS_GENOBJ-N-FIL_13
1002
{
1000
OWNER
1000
GEN
1002
}
1001
GENIUS_GENODEF_13
1002
{
1000
HIER
1070
     0
1002
}
1002
{
1000
MANEDIT
1070
     0
1002
}
1002
{
1000
NOSEL
1070
     0
1002
}
1002
{
1000
BEHIND
1070
     0
1002
}
1002
{
1000
OTHER
1070
     0
1002
}
1002
{
1000
REACTOR
1002
}
  0
ARC
  5
2EFB
  8
AM_0
 10
131.62269928797389
 20
439.8848289523541
 30
0.0
 40
2.0
 50
270.0
 51
0.0
1001
GENIUS_GENOBJ-N-FIL_13
1002
{
1000
OWNER
1000
GEN
1002
}
1001
GENIUS_GENODEF_13
1002
{
1000
HIER
1070
     0
1002
}
1002
{
1000
MANEDIT
1070
     0
1002
}
1002
{
1000
NOSEL
1070
     0
1002
}
1002
{
1000
BEHIND
1070
     0
1002
}
1002
{
1000
OTHER
1070
     0
1002
}
1002
{
1000
REACTOR
1002
}
  0
LINE
  5
2EFC
  8
AM_0
 10
131.62269928797389
 20
458.6858552081132
 30
0.0
 11
106.1226992879739
 21
458.6858552081132
 31
0.0
  0
ARC
  5
2EFD
  8
AM_0N
 10
96.604586370983725
 20
458.21867039987262
 30
0.0
 40
1.1999999999999991
 50
184.99999999999969
 51
246.4528627629231
1001
GENIUS_GENOREF_13
1005
0
  0
LINE
  5
2EFE
  8
AM_0N
 10
95.409152733273601
 20
458.11408350857522
 30
0.0
 11
95.322699287973933
 21
459.10225091010432
 31
0.0
1001
GENIUS_GENOREF_13
1005
0
  0
ARC
  5
2EFF
  8
AM_0N
 10
99.640812204964234
 20
458.21867039987262
 30
0.0
 40
1.1999999999999991
 50
293.54713723707698
 51
355.00000000000023
1001
GENIUS_GENOREF_13
1005
0
  0
LINE
  5
2F00
  8
AM_3N
  6
AM_ISO02W050X2
 10
96.622699287973944
 20
456.93255490301971
 30
0.0
 11
98.122699287973944
 21
458.81996493157851
 31
0.0
1001
GENIUS_GENOREF_13
1005
0
  0
LINE
  5
2F01
  8
AM_3N
  6
AM_ISO02W050X2
 10
98.375199287973942
 20
456.70863060515512
 30
0.0
 11
98.375199287973942
 21
458.50225091010418
 31
0.0
1001
GENIUS_GENOREF_13
1005
0
  0
LINE
  5
2F02
  8
AM_3N
  6
AM_ISO02W050X2
 10
97.870199287973904
 20
456.70863060515512
 30
0.0
 11
97.870199287973904
 21
458.50225091010418
 31
0.0
1001
GENIUS_GENOREF_13
1005
0
  0
LINE
  5
2F03
  8
AM_3N
  6
AM_ISO02W050X2
 10
99.622699287973944
 20
456.93255490301971
 30
0.0
 11
98.122699287973944
 21
458.81996493157851
 31
0.0
1001
GENIUS_GENOREF_13
1005
0
  0
ARC
  5
2F04
  8
AM_0N
 10
98.122699287973944
 20
461.7022509101044
 30
0.0
 40
5.0
 50
246.4528627629231
 51
293.54713723707698
1001
GENIUS_GENOREF_13
1005
0
  0
LINE
  5
2F05
  8
AM_3N
  6
AM_ISO02W050X2
 10
98.375199287973942
 20
458.50225091010418
 30
0.0
 11
97.870199287973904
 21
458.50225091010418
 31
0.0
1001
GENIUS_GENOREF_13
1005
0
  0
LINE
  5
2F06
  8
AM_0N
 10
100.8362458426743
 20
458.11408350857522
 30
0.0
 11
100.9226992879739
 21
459.10225091010432
 31
0.0
1001
GENIUS_GENOREF_13
1005
0
  0
ARC
  5
2F07
  8
AM_0
 10
131.62269928797389
 20
456.68585520811303
 30
0.0
 40
2.0
 50
0.0
 51
90.0
1001
GENIUS_GENODEF_13
1002
{
1000
HIER
1070
     0
1002
}
1002
{
1000
MANEDIT
1070
     0
1002
}
1002
{
1000
NOSEL
1070
     0
1002
}
1002
{
1000
BEHIND
1070
     0
1002
}
1002
{
1000
OTHER
1070
     0
1002
}
1002
{
1000
REACTOR
1002
}
1001
GENIUS_GENOBJ-N-FIL_13
1002
{
1000
OWNER
1000
GEN
1002
}
  0
LINE
  5
2F08
  8
AM_0
 10
57.622699287974051
 20
538.94482818129234
 30
0.0
 11
64.335334089016158
 21
538.94482818129234
 31
0.0
  0
LINE
  5
2F09
  8
AM_0
 10
54.622699287974072
 20
535.94482818129234
 30
0.0
 11
54.62269928797393
 21
501.94482818129222
 31
0.0
  0
ARC
  5
2F0A
  8
AM_0
 10
57.622699287974051
 20
535.94482818129234
 30
0.0
 40
3.0
 50
90.0
 51
180.0
1001
GENIUS_GENOBJ-N-FIL_13
1002
{
1000
OWNER
1000
GEN
1002
}
1001
GENIUS_GENODEF_13
1002
{
1000
HIER
1070
     0
1002
}
1002
{
1000
MANEDIT
1070
     0
1002
}
1002
{
1000
NOSEL
1070
     0
1002
}
1002
{
1000
BEHIND
1070
     0
1002
}
1002
{
1000
OTHER
1070
     0
1002
}
1002
{
1000
REACTOR
1002
}
  0
LINE
  5
2F0B
  8
AM_0
 10
69.451426965633857
 20
576.34814167254535
 30
0.0
 11
66.293971610314145
 21
573.54151469003921
 31
0.0
  0
ARC
  5
2F0C
  8
AM_0
 10
67.622699287974044
 20
572.04669605267156
 30
0.0
 40
2.0
 50
131.63353933656961
 51
180.0
1001
GENIUS_GENODEF_13
1002
{
1000
HIER
1070
     0
1002
}
1002
{
1000
MANEDIT
1070
     0
1002
}
1002
{
1000
NOSEL
1070
     0
1002
}
1002
{
1000
BEHIND
1070
     0
1002
}
1002
{
1000
OTHER
1070
     0
1002
}
1002
{
1000
REACTOR
1002
}
1001
GENIUS_GENOBJ-N-FIL_13
1002
{
1000
OWNER
1000
GEN
1002
}
  0
ARC
  5
2F0D
  8
AM_0
 10
72.122699287974044
 20
582.54482818129225
 30
0.0
 40
2.0
 50
90.0
 51
180.0
1001
GENIUS_GENOBJ-N-FIL_13
1002
{
1000
OWNER
1000
GEN
1002
}
1001
GENIUS_GENODEF_13
1002
{
1000
HIER
1070
     0
1002
}
1002
{
1000
MANEDIT
1070
     0
1002
}
1002
{
1000
NOSEL
1070
     0
1002
}
1002
{
1000
BEHIND
1070
     0
1002
}
1002
{
1000
OTHER
1070
     0
1002
}
1002
{
1000
REACTOR
1002
}
  0
ARC
  5
2F0E
  8
AM_0
 10
68.122699287974044
 20
577.84296030991277
 30
0.0
 40
2.0
 50
311.63353933656958
 51
0.0
1001
GENIUS_GENOBJ-N-FIL_13
1002
{
1000
OWNER
1000
GEN
1002
}
1001
GENIUS_GENODEF_13
1002
{
1000
HIER
1070
     0
1002
}
1002
{
1000
MANEDIT
1070
     0
1002
}
1002
{
1000
NOSEL
1070
     0
1002
}
1002
{
1000
BEHIND
1070
     0
1002
}
1002
{
1000
OTHER
1070
     0
1002
}
1002
{
1000
REACTOR
1002
}
  0
LINE
  5
2F0F
  8
AM_0
 10
215.62269928797409
 20
584.94482818129234
 30
0.0
 11
215.62269928797409
 21
452.94482818129222
 31
0.0
  0
LINE
  5
2F10
  8
AM_0
 10
215.62269928797409
 20
452.94482818129222
 30
0.0
 11
227.12269928797409
 21
452.94482818129222
 31
0.0
  0
LINE
  5
2F11
  8
AM_0
 10
234.122699287974
 20
455.94482818129222
 30
0.0
 11
227.12269928797409
 21
452.94482818129222
 31
0.0
  0
LINE
  5
2F12
  8
AM_0
 10
215.62269928797409
 20
584.94482818129234
 30
0.0
 11
227.12269928797409
 21
584.94482818129234
 31
0.0
  0
LINE
  5
2F13
  8
AM_0
 10
227.12269928797409
 20
584.94482818129234
 30
0.0
 11
234.122699287974
 21
581.94482818129234
 31
0.0
  0
LINE
  5
2F14
  8
AM_0
 10
234.122699287974
 20
581.94482818129234
 30
0.0
 11
234.122699287974
 21
455.94482818129222
 31
0.0
  0
LINE
  5
2F15
  8
AM_0
 10
227.12269928797409
 20
584.94482818129234
 30
0.0
 11
227.12269928797409
 21
452.94482818129222
 31
0.0
  0
POINT
  5
2F16
  8
0
 10
-51.751539313334362
 20
-12.50142311400276
 30
0.0
1001
GENIUS_GENOLIS_13
1002
{
1000
ENT
1005
0
1005
0
1005
0
1005
2EE6
1002
}
1001
GENIUS_GENOENT_13
1002
{
1000
MYREF
1005
2F16
1002
}
1002
{
1000
GRP
1005
0
1002
}
1001
GENIUS_GENOBJ-NBEHI-BHB_13
1002
{
1000
OWNER
1000
genbehi
1002
}
1001
GENIUS_GENBH_13
1002
{
1000
FGO
1005
0
1002
}
1001
GENIUS_GENODEF_13
1002
{
1000
HIER
1070
     1
1002
}
1002
{
1000
MANEDIT
1070
     1
1002
}
1002
{
1000
NOSEL
1070
     1
1002
}
1002
{
1000
BEHIND
1070
     0
1002
}
1002
{
1000
OTHER
1070
     1
1002
}
1002
{
1000
REACTOR
1002
}
  0
LINE
  5
3198
  8
AM_0
 10
366.62265928797382
 20
277.40849763569361
 30
0.0
 11
398.62266928797402
 21
277.40849763569361
 31
0.0
  0
LINE
  5
3199
  8
ﾁｭｳｼﾝｾﾝ
 10
247.7040860890304
 20
260.40848463569358
 30
0.0
 11
403.57044928797359
 21
260.40848463569358
 31
0.0
  0
LINE
  5
319A
  8
AM_0
 10
356.62266928797402
 20
246.4084986356936
 30
0.0
 11
398.62266928797402
 21
246.4084986356936
 31
0.0
  0
LINE
  5
319B
  8
AM_0
 10
356.62266928797402
 20
274.40849763569361
 30
0.0
 11
398.62266928797402
 21
274.40849763569361
 31
0.0
  0
ARC
  5
319C
  8
AM_0
 10
1004.8088630977931
 20
237.20855313569339
 30
0.0
 40
940.68612380981915
 50
176.76392470776159
 51
183.2360752922383
  0
LINE
  5
319D
  8
AM_0
 10
65.622739287974071
 20
290.31042100707322
 30
0.0
 11
65.622739287974071
 21
184.10668526431411
 31
0.0
  0
LINE
  5
319E
  8
AM_0
 10
70.122739287974071
 20
300.80855313569373
 30
0.0
 11
70.122739287974071
 21
173.60855313569351
 31
0.0
  0
LINE
  5
319F
  8
AM_0
 10
72.622739287974042
 20
302.80855313569361
 30
0.0
 11
72.622739287974042
 21
171.60855313569351
 31
0.0
  0
LINE
  5
31A0
  8
AM_0
 10
227.1227392879739
 20
303.20855313569371
 30
0.0
 11
227.1227392879739
 21
171.20855313569359
 31
0.0
  0
LINE
  5
31A1
  8
AM_0
 10
215.62273928797401
 20
303.20855313569371
 30
0.0
 11
215.6227392879739
 21
171.20855313569359
 31
0.0
  0
ARC
  5
31A5
  8
AM_0
 10
316.79046928797402
 20
283.45851663569363
 30
0.0
 40
24.832211399999998
 50
349.38167999999899
 51
47.544066000002253
  0
LINE
  5
31A6
  8
AM_0
 10
352.62270928797392
 20
260.40848463569358
 30
0.0
 11
352.62270928797392
 21
352.90849563569361
 31
0.0
  0
LINE
  5
31A7
  8
AM_0
 10
346.62270928797381
 20
189.90849663569361
 30
0.0
 11
346.62270928797381
 21
330.58081563569363
 31
0.0
  0
LINE
  5
31A8
  8
AM_0
 10
342.62265928797387
 20
236.49814263569371
 30
0.0
 11
342.62265928797387
 21
311.53372563569371
 31
0.0
  0
LINE
  5
31A9
  8
AM_0
 10
261.40134928797391
 20
280.05641763569361
 30
0.0
 11
253.71213928797391
 21
269.14552863569361
 31
0.0
  0
LINE
  5
31AA
  8
AM_0
 10
234.12273928797401
 20
174.20855313569359
 30
0.0
 11
234.12273928797401
 21
300.20855313569348
 31
0.0
  0
LINE
  5
31AB
  8
AM_0
 10
263.62266928797402
 20
310.06696563569369
 30
0.0
 11
263.62266928797402
 21
158.6287716356936
 31
0.0
  0
LINE
  5
31AC
  8
AM_0
 10
277.6227392879739
 20
318.20848563569371
 30
0.0
 11
277.6227392879739
 21
156.2084976356937
 31
0.0
  0
LINE
  5
31AD
  8
AM_0
 10
356.62266928797402
 20
345.40849563569361
 30
0.0
 11
356.62266928797402
 21
175.4085126356936
 31
0.0
  0
LINE
  5
31AE
  8
AM_0
 10
76.622739287974042
 20
263.20855313569359
 30
0.0
 11
132.62273928797401
 21
263.20855313569359
 31
0.0
1001
GENIUS_GENOREF_13
1005
333A
  0
LINE
  5
31AF
  8
AM_0
 10
98.622739287973914
 20
197.70855313569359
 30
0.0
 11
119.5822932879739
 21
197.70855313569359
 31
0.0
  0
LINE
  5
31B0
  8
AM_0
 10
98.622739287973914
 20
203.20855313569359
 30
0.0
 11
119.5822932879739
 21
203.20855313569359
 31
0.0
  0
LINE
  5
31B1
  8
AM_0
 10
98.622739287973914
 20
177.5085531356934
 30
0.0
 11
119.5822932879739
 21
177.5085531356934
 31
0.0
  0
LINE
  5
31B2
  8
AM_0
 10
98.622739287973914
 20
174.90855313569361
 30
0.0
 11
119.5822932879739
 21
174.90855313569361
 31
0.0
  0
LINE
  5
31B3
  8
AM_0
 10
98.622739287973914
 20
181.0085531356934
 30
0.0
 11
119.5822932879739
 21
181.0085531356934
 31
0.0
  0
LINE
  5
31B4
  8
AM_0
 10
98.622739287973914
 20
185.30855313569359
 30
0.0
 11
119.5822932879739
 21
185.30855313569359
 31
0.0
  0
LINE
  5
31B5
  8
AM_0
 10
98.622739287973914
 20
194.00855313569349
 30
0.0
 11
119.5822932879739
 21
194.0085531356936
 31
0.0
  0
LINE
  5
31B6
  8
AM_0
 10
98.622739287973914
 20
188.8085531356935
 30
0.0
 11
119.5822932879739
 21
188.8085531356935
 31
0.0
  0
LINE
  5
31B7
  8
AM_0
 10
72.122739287974042
 20
171.60855313569351
 30
0.0
 11
119.5822932879739
 21
171.60855313569351
 31
0.0
  0
LINE
  5
31B8
  8
AM_0
 10
76.622739287974042
 20
217.20855313569359
 30
0.0
 11
132.62273928797401
 21
217.20855313569359
 31
0.0
  0
LINE
  5
31B9
  8
ﾁｭｳｼﾝｾﾝ
 10
49.43730813762437
 20
237.20850063569361
 30
0.0
 11
251.53058404341689
 21
237.20850063569361
 31
0.0
  0
LINE
  5
31BA
  8
AM_0
 10
97.622739287973914
 20
193.00855313569349
 30
0.0
 11
97.622739287973914
 21
189.80855313569359
 31
0.0
  0
LINE
  5
31BB
  8
AM_0
 10
69.45146696563387
 20
179.80523964444041
 30
0.0
 11
66.294011610314271
 21
182.61186662694661
 31
0.0
  0
ARC
  5
31BC
  8
AM_0
 10
68.122739287974071
 20
178.31042100707299
 30
0.0
 40
2.0
 50
0.0
 51
48.366460663431418
1001
GENIUS_GENOBJ-N-FIL_13
1002
{
1000
OWNER
1000
GEN
1002
}
1001
GENIUS_GENODEF_13
1002
{
1000
HIER
1070
     0
1002
}
1002
{
1000
MANEDIT
1070
     0
1002
}
1002
{
1000
NOSEL
1070
     0
1002
}
1002
{
1000
BEHIND
1070
     0
1002
}
1002
{
1000
OTHER
1070
     0
1002
}
1002
{
1000
REACTOR
1002
}
  0
ARC
  5
31BD
  8
AM_0
 10
72.122739287974042
 20
173.60855313569351
 30
0.0
 40
2.0
 50
180.0
 51
270.0
1001
GENIUS_GENOBJ-N-FIL_13
1002
{
1000
OWNER
1000
GEN
1002
}
1001
GENIUS_GENODEF_13
1002
{
1000
HIER
1070
     0
1002
}
1002
{
1000
MANEDIT
1070
     0
1002
}
1002
{
1000
NOSEL
1070
     0
1002
}
1002
{
1000
BEHIND
1070
     0
1002
}
1002
{
1000
OTHER
1070
     0
1002
}
1002
{
1000
REACTOR
1002
}
  0
ARC
  5
31BE
  8
AM_0
 10
67.622739287974071
 20
184.10668526431411
 30
0.0
 40
2.0
 50
180.0
 51
228.36646066343141
1001
GENIUS_GENODEF_13
1002
{
1000
HIER
1070
     0
1002
}
1002
{
1000
MANEDIT
1070
     0
1002
}
1002
{
1000
NOSEL
1070
     0
1002
}
1002
{
1000
BEHIND
1070
     0
1002
}
1002
{
1000
OTHER
1070
     0
1002
}
1002
{
1000
REACTOR
1002
}
1001
GENIUS_GENOBJ-N-FIL_13
1002
{
1000
OWNER
1000
GEN
1002
}
  0
ARC
  5
31BF
  8
AM_0
 10
98.622739287973914
 20
189.80855313569359
 30
0.0
 40
1.0
 50
180.0
 51
270.0
1001
GENIUS_GENOBJ-N-FIL_13
1002
{
1000
OWNER
1000
GEN
1002
}
1001
GENIUS_GENODEF_13
1002
{
1000
HIER
1070
     0
1002
}
1002
{
1000
MANEDIT
1070
     0
1002
}
1002
{
1000
NOSEL
1070
     0
1002
}
1002
{
1000
BEHIND
1070
     0
1002
}
1002
{
1000
OTHER
1070
     0
1002
}
1002
{
1000
REACTOR
1002
}
  0
ARC
  5
31C0
  8
AM_0
 10
98.622739287973914
 20
182.0085531356934
 30
0.0
 40
1.0
 50
180.0
 51
270.0
1001
GENIUS_GENOBJ-N-FIL_13
1002
{
1000
OWNER
1000
GEN
1002
}
1001
GENIUS_GENODEF_13
1002
{
1000
HIER
1070
     0
1002
}
1002
{
1000
MANEDIT
1070
     0
1002
}
1002
{
1000
NOSEL
1070
     0
1002
}
1002
{
1000
BEHIND
1070
     0
1002
}
1002
{
1000
OTHER
1070
     0
1002
}
1002
{
1000
REACTOR
1002
}
  0
ARC
  5
31C1
  8
AM_0
 10
98.622739287973914
 20
176.5085531356934
 30
0.0
 40
1.0
 50
90.0
 51
180.0
1001
GENIUS_GENOBJ-N-FIL_13
1002
{
1000
OWNER
1000
GEN
1002
}
1001
GENIUS_GENODEF_13
1002
{
1000
HIER
1070
     0
1002
}
1002
{
1000
MANEDIT
1070
     0
1002
}
1002
{
1000
NOSEL
1070
     0
1002
}
1002
{
1000
BEHIND
1070
     0
1002
}
1002
{
1000
OTHER
1070
     0
1002
}
1002
{
1000
REACTOR
1002
}
  0
ARC
  5
31C2
  8
AM_0
 10
98.622739287973914
 20
184.30855313569359
 30
0.0
 40
1.0
 50
90.0
 51
180.0
1001
GENIUS_GENODEF_13
1002
{
1000
HIER
1070
     0
1002
}
1002
{
1000
MANEDIT
1070
     0
1002
}
1002
{
1000
NOSEL
1070
     0
1002
}
1002
{
1000
BEHIND
1070
     0
1002
}
1002
{
1000
OTHER
1070
     0
1002
}
1002
{
1000
REACTOR
1002
}
1001
GENIUS_GENOBJ-N-FIL_13
1002
{
1000
OWNER
1000
GEN
1002
}
  0
ARC
  5
31C3
  8
AM_0
 10
98.622739287973914
 20
175.90855313569361
 30
0.0
 40
1.0
 50
180.0
 51
270.0
1001
GENIUS_GENODEF_13
1002
{
1000
HIER
1070
     0
1002
}
1002
{
1000
MANEDIT
1070
     0
1002
}
1002
{
1000
NOSEL
1070
     0
1002
}
1002
{
1000
BEHIND
1070
     0
1002
}
1002
{
1000
OTHER
1070
     0
1002
}
1002
{
1000
REACTOR
1002
}
1001
GENIUS_GENOBJ-N-FIL_13
1002
{
1000
OWNER
1000
GEN
1002
}
  0
LINE
  5
31C4
  8
AM_0
 10
97.622739287973957
 20
176.5085531356934
 30
0.0
 11
97.622739287973914
 21
175.90855313569361
 31
0.0
  0
LINE
  5
31C5
  8
AM_0
 10
97.622739287973914
 20
184.30855313569359
 30
0.0
 11
97.622739287973914
 21
182.0085531356934
 31
0.0
  0
LINE
  5
31C6
  8
AM_0
 10
54.622739287974071
 20
254.20855313569359
 30
0.0
 11
54.622739287974071
 21
220.20855313569359
 31
0.0
  0
LINE
  5
31C7
  8
AM_0
 10
75.622739287974042
 20
262.20855313569359
 30
0.0
 11
75.622739287974042
 21
218.20855313569359
 31
0.0
  0
ARC
  5
31C8
  8
AM_0
 10
57.622739287974071
 20
220.20855313569359
 30
0.0
 40
3.0
 50
180.0
 51
270.0
1001
GENIUS_GENODEF_13
1002
{
1000
HIER
1070
     0
1002
}
1002
{
1000
MANEDIT
1070
     0
1002
}
1002
{
1000
NOSEL
1070
     0
1002
}
1002
{
1000
BEHIND
1070
     0
1002
}
1002
{
1000
OTHER
1070
     0
1002
}
1002
{
1000
REACTOR
1002
}
1001
GENIUS_GENOBJ-N-FIL_13
1002
{
1000
OWNER
1000
GEN
1002
}
  0
LINE
  5
31C9
  8
AM_0
 10
57.622739287974071
 20
217.20855313569359
 30
0.0
 11
64.33537408901617
 21
217.20855313569359
 31
0.0
  0
ARC
  5
31CA
  8
AM_0
 10
76.622739287974042
 20
218.20855313569359
 30
0.0
 40
1.0
 50
180.0
 51
270.0
1001
GENIUS_GENOBJ-N-FIL_13
1002
{
1000
OWNER
1000
GEN
1002
}
1001
GENIUS_GENODEF_13
1002
{
1000
HIER
1070
     0
1002
}
1002
{
1000
MANEDIT
1070
     0
1002
}
1002
{
1000
NOSEL
1070
     0
1002
}
1002
{
1000
BEHIND
1070
     0
1002
}
1002
{
1000
OTHER
1070
     0
1002
}
1002
{
1000
REACTOR
1002
}
  0
LINE
  5
31CB
  8
AM_0
 10
106.122739287974
 20
211.20855313569359
 30
0.0
 11
106.122739287974
 21
217.20855313569359
 31
0.0
  0
LINE
  5
31CC
  8
AM_0
 10
102.122739287974
 20
209.20855313569359
 30
0.0
 11
102.122739287974
 21
217.20855313569359
 31
0.0
  0
LINE
  5
31CD
  8
AM_0N
 10
98.375239287974026
 20
213.4610531356937
 30
0.0
 11
98.375239287974026
 21
214.68714833046459
 31
0.0
  0
LINE
  5
31CE
  8
AM_0N
 10
97.870239287974087
 20
213.4610531356937
 30
0.0
 11
97.870239287974087
 21
214.68714833046459
 31
0.0
  0
LINE
  5
31CF
  8
AM_0
 10
90.122739287974014
 20
211.20855313569359
 30
0.0
 11
90.122739287974014
 21
217.20855313569359
 31
0.0
  0
LINE
  5
31D0
  8
AM_0
 10
94.122739287974014
 20
209.20855313569359
 30
0.0
 11
94.122739287974014
 21
217.20855313569359
 31
0.0
  0
CIRCLE
  5
31D1
  8
AM_0N
 10
98.122739287974014
 20
213.20855313569359
 30
0.0
 40
2.799999999999998
  0
LINE
  5
31D2
  8
AM_0N
 10
99.601334482745074
 20
213.4610531356937
 30
0.0
 11
98.375239287974026
 21
213.4610531356937
 31
0.0
  0
LINE
  5
31D3
  8
AM_0N
 10
99.601334482745074
 20
212.95605313569351
 30
0.0
 11
98.375239287974026
 21
212.95605313569351
 31
0.0
  0
ARC
  5
31D4
  8
AM_0
 10
98.622739287973914
 20
202.20855313569359
 30
0.0
 40
1.0
 50
90.0
 51
180.0
1001
GENIUS_GENODEF_13
1002
{
1000
HIER
1070
     0
1002
}
1002
{
1000
MANEDIT
1070
     0
1002
}
1002
{
1000
NOSEL
1070
     0
1002
}
1002
{
1000
BEHIND
1070
     0
1002
}
1002
{
1000
OTHER
1070
     0
1002
}
1002
{
1000
REACTOR
1002
}
1001
GENIUS_GENOBJ-N-FIL_13
1002
{
1000
OWNER
1000
GEN
1002
}
  0
ARC
  5
31D5
  8
AM_0
 10
98.622739287973914
 20
198.70855313569359
 30
0.0
 40
1.0
 50
180.0
 51
270.0
1001
GENIUS_GENODEF_13
1002
{
1000
HIER
1070
     0
1002
}
1002
{
1000
MANEDIT
1070
     0
1002
}
1002
{
1000
NOSEL
1070
     0
1002
}
1002
{
1000
BEHIND
1070
     0
1002
}
1002
{
1000
OTHER
1070
     0
1002
}
1002
{
1000
REACTOR
1002
}
1001
GENIUS_GENOBJ-N-FIL_13
1002
{
1000
OWNER
1000
GEN
1002
}
  0
LINE
  5
31D6
  8
AM_0
 10
92.122739287973971
 20
209.20855313569359
 30
0.0
 11
104.122739287974
 21
209.20855313569359
 31
0.0
  0
ARC
  5
31D7
  8
AM_0
 10
98.622739287973914
 20
193.00855313569349
 30
0.0
 40
1.0
 50
90.0
 51
180.0
1001
GENIUS_GENODEF_13
1002
{
1000
HIER
1070
     0
1002
}
1002
{
1000
MANEDIT
1070
     0
1002
}
1002
{
1000
NOSEL
1070
     0
1002
}
1002
{
1000
BEHIND
1070
     0
1002
}
1002
{
1000
OTHER
1070
     0
1002
}
1002
{
1000
REACTOR
1002
}
1001
GENIUS_GENOBJ-N-FIL_13
1002
{
1000
OWNER
1000
GEN
1002
}
  0
LINE
  5
31D8
  8
AM_0
 10
97.622739287973914
 20
202.20855313569359
 30
0.0
 11
97.622739287973914
 21
198.70855313569359
 31
0.0
  0
ARC
  5
31D9
  8
AM_0
 10
92.122739287973971
 20
211.20855313569359
 30
0.0
 40
2.0
 50
180.0
 51
270.0
1001
GENIUS_GENOBJ-N-FIL_13
1002
{
1000
OWNER
1000
GEN
1002
}
1001
GENIUS_GENODEF_13
1002
{
1000
HIER
1070
     0
1002
}
1002
{
1000
MANEDIT
1070
     0
1002
}
1002
{
1000
NOSEL
1070
     0
1002
}
1002
{
1000
BEHIND
1070
     0
1002
}
1002
{
1000
OTHER
1070
     0
1002
}
1002
{
1000
REACTOR
1002
}
  0
LINE
  5
31DA
  8
AM_0N
 10
97.870239287974087
 20
213.4610531356937
 30
0.0
 11
96.644144093202954
 21
213.4610531356937
 31
0.0
  0
LINE
  5
31DB
  8
AM_0N
 10
97.870239287974087
 20
212.95605313569351
 30
0.0
 11
96.644144093202954
 21
212.95605313569351
 31
0.0
  0
LINE
  5
31DC
  8
AM_0N
 10
96.644144093202954
 20
213.4610531356937
 30
0.0
 11
96.644144093202954
 21
212.95605313569351
 31
0.0
  0
LINE
  5
31DD
  8
AM_0N
 10
97.870239287974087
 20
211.7299579409225
 30
0.0
 11
98.375239287974026
 21
211.7299579409225
 31
0.0
  0
LINE
  5
31DE
  8
AM_0N
 10
97.870239287974087
 20
211.7299579409225
 30
0.0
 11
97.870239287974087
 21
212.95605313569351
 31
0.0
  0
LINE
  5
31DF
  8
AM_0N
 10
98.375239287974026
 20
211.7299579409225
 30
0.0
 11
98.375239287974026
 21
212.95605313569351
 31
0.0
  0
ARC
  5
31E0
  8
AM_0
 10
104.122739287974
 20
211.20855313569359
 30
0.0
 40
2.0
 50
270.0
 51
0.0
1001
GENIUS_GENOBJ-N-FIL_13
1002
{
1000
OWNER
1000
GEN
1002
}
1001
GENIUS_GENODEF_13
1002
{
1000
HIER
1070
     0
1002
}
1002
{
1000
MANEDIT
1070
     0
1002
}
1002
{
1000
NOSEL
1070
     0
1002
}
1002
{
1000
BEHIND
1070
     0
1002
}
1002
{
1000
OTHER
1070
     0
1002
}
1002
{
1000
REACTOR
1002
}
  0
LINE
  5
31E1
  8
AM_0N
 10
99.601334482745074
 20
213.4610531356937
 30
0.0
 11
99.601334482745074
 21
212.95605313569351
 31
0.0
  0
LINE
  5
31E2
  8
AM_0N
 10
97.870239287974087
 20
214.68714833046459
 30
0.0
 11
98.375239287974026
 21
214.68714833046459
 31
0.0
  0
ARC
  5
31E3
  8
AM_0
 10
57.622739287974071
 20
254.20855313569359
 30
0.0
 40
3.0
 50
90.0
 51
180.0
1001
GENIUS_GENOBJ-N-FIL_13
1002
{
1000
OWNER
1000
GEN
1002
}
1001
GENIUS_GENODEF_13
1002
{
1000
HIER
1070
     0
1002
}
1002
{
1000
MANEDIT
1070
     0
1002
}
1002
{
1000
NOSEL
1070
     0
1002
}
1002
{
1000
BEHIND
1070
     0
1002
}
1002
{
1000
OTHER
1070
     0
1002
}
1002
{
1000
REACTOR
1002
}
  0
LINE
  5
31E4
  8
AM_0
 10
57.622739287974071
 20
257.20855313569359
 30
0.0
 11
64.33537408901617
 21
257.20855313569359
 31
0.0
  0
ARC
  5
31E5
  8
AM_0
 10
76.622739287974042
 20
262.20855313569359
 30
0.0
 40
1.0
 50
90.0
 51
180.0
1001
GENIUS_GENODEF_13
1002
{
1000
HIER
1070
     0
1002
}
1002
{
1000
MANEDIT
1070
     0
1002
}
1002
{
1000
NOSEL
1070
     0
1002
}
1002
{
1000
BEHIND
1070
     0
1002
}
1002
{
1000
OTHER
1070
     0
1002
}
1002
{
1000
REACTOR
1002
}
1001
GENIUS_GENOBJ-N-FIL_13
1002
{
1000
OWNER
1000
GEN
1002
}
  0
LINE
  5
31E6
  8
AM_0N
 10
99.601334482745074
 20
267.4610531356937
 30
0.0
 11
98.375239287974026
 21
267.4610531356937
 31
0.0
1001
GENIUS_GENOREF_13
1005
0
  0
LINE
  5
31E7
  8
AM_0N
 10
99.601334482745074
 20
266.95605313569348
 30
0.0
 11
98.375239287974026
 21
266.95605313569348
 31
0.0
1001
GENIUS_GENOREF_13
1005
0
  0
CIRCLE
  5
31E8
  8
AM_0N
 10
98.122739287974014
 20
267.20855313569359
 30
0.0
 40
2.799999999999998
1001
GENIUS_GENOREF_13
1005
0
  0
LINE
  5
31E9
  8
AM_0
 10
92.122739287973971
 20
271.20855313569359
 30
0.0
 11
104.122739287974
 21
271.20855313569359
 31
0.0
1001
GENIUS_GENOREF_13
1005
333A
  0
LINE
  5
31EA
  8
AM_0N
 10
98.375239287974026
 20
268.68714833046459
 30
0.0
 11
98.375239287974026
 21
267.4610531356937
 31
0.0
1001
GENIUS_GENOREF_13
1005
0
  0
LINE
  5
31EB
  8
AM_0N
 10
97.870239287974087
 20
268.68714833046459
 30
0.0
 11
97.870239287974087
 21
267.4610531356937
 31
0.0
1001
GENIUS_GENOREF_13
1005
0
  0
LINE
  5
31EC
  8
AM_0
 10
94.122739287974014
 20
271.20855313569359
 30
0.0
 11
94.122739287974014
 21
263.20855313569359
 31
0.0
  0
LINE
  5
31ED
  8
AM_0
 10
90.122739287974014
 20
269.20855313569359
 30
0.0
 11
90.122739287974014
 21
263.20855313569359
 31
0.0
  0
LINE
  5
31EE
  8
AM_0N
 10
97.870239287974087
 20
267.4610531356937
 30
0.0
 11
96.644144093202954
 21
267.4610531356937
 31
0.0
1001
GENIUS_GENOREF_13
1005
0
  0
LINE
  5
31EF
  8
AM_0N
 10
97.870239287974087
 20
266.95605313569348
 30
0.0
 11
96.644144093202954
 21
266.95605313569348
 31
0.0
1001
GENIUS_GENOREF_13
1005
0
  0
LINE
  5
31F0
  8
AM_0N
 10
96.644144093202954
 20
266.95605313569348
 30
0.0
 11
96.644144093202954
 21
267.4610531356937
 31
0.0
1001
GENIUS_GENOREF_13
1005
0
  0
LINE
  5
31F1
  8
AM_0N
 10
97.870239287974087
 20
266.95605313569348
 30
0.0
 11
97.870239287974087
 21
265.72995794092259
 31
0.0
1001
GENIUS_GENOREF_13
1005
0
  0
LINE
  5
31F2
  8
AM_0N
 10
98.375239287974026
 20
266.95605313569348
 30
0.0
 11
98.375239287974026
 21
265.72995794092259
 31
0.0
1001
GENIUS_GENOREF_13
1005
0
  0
LINE
  5
31F3
  8
AM_0N
 10
97.870239287974087
 20
265.72995794092259
 30
0.0
 11
98.375239287974026
 21
265.72995794092259
 31
0.0
1001
GENIUS_GENOREF_13
1005
0
  0
ARC
  5
31F4
  8
AM_0
 10
92.122739287973971
 20
269.20855313569359
 30
0.0
 40
2.0
 50
90.0
 51
180.0
1001
GENIUS_GENOBJ-N-FIL_13
1002
{
1000
OWNER
1000
GEN
1002
}
1001
GENIUS_GENODEF_13
1002
{
1000
HIER
1070
     0
1002
}
1002
{
1000
MANEDIT
1070
     0
1002
}
1002
{
1000
NOSEL
1070
     0
1002
}
1002
{
1000
BEHIND
1070
     0
1002
}
1002
{
1000
OTHER
1070
     0
1002
}
1002
{
1000
REACTOR
1002
}
  0
LINE
  5
31F5
  8
AM_0N
 10
97.870239287974087
 20
268.68714833046459
 30
0.0
 11
98.375239287974026
 21
268.68714833046459
 31
0.0
1001
GENIUS_GENOREF_13
1005
0
  0
LINE
  5
31F6
  8
AM_0
 10
106.122739287974
 20
269.20855313569359
 30
0.0
 11
106.122739287974
 21
263.20855313569359
 31
0.0
  0
LINE
  5
31F7
  8
AM_0
 10
102.122739287974
 20
271.20855313569359
 30
0.0
 11
102.122739287974
 21
263.20855313569359
 31
0.0
  0
LINE
  5
31F8
  8
AM_0N
 10
99.601334482745074
 20
266.95605313569348
 30
0.0
 11
99.601334482745074
 21
267.4610531356937
 31
0.0
1001
GENIUS_GENOREF_13
1005
0
  0
ARC
  5
31F9
  8
AM_0
 10
104.122739287974
 20
269.20855313569359
 30
0.0
 40
2.0
 50
0.0
 51
90.0
1001
GENIUS_GENOBJ-N-FIL_13
1002
{
1000
OWNER
1000
GEN
1002
}
1001
GENIUS_GENODEF_13
1002
{
1000
HIER
1070
     0
1002
}
1002
{
1000
MANEDIT
1070
     0
1002
}
1002
{
1000
NOSEL
1070
     0
1002
}
1002
{
1000
BEHIND
1070
     0
1002
}
1002
{
1000
OTHER
1070
     0
1002
}
1002
{
1000
REACTOR
1002
}
  0
LINE
  5
31FB
  8
AM_0
 10
234.12273928797401
 20
269.14552863569361
 30
0.0
 11
253.71213928797391
 21
269.14552863569361
 31
0.0
  0
LINE
  5
31FC
  8
AM_0
 10
234.12273928797401
 20
205.27148763569369
 30
0.0
 11
253.71213928797391
 21
205.27148763569369
 31
0.0
  0
LINE
  5
31FD
  8
AM_0
 10
234.12273928797401
 20
191.20851363569341
 30
0.0
 11
259.76646928797402
 21
191.20851363569341
 31
0.0
  0
LINE
  5
31FE
  8
AM_0
 10
234.12267928797391
 20
181.2085146356936
 30
0.0
 11
251.9915492879739
 21
180.58452063569359
 31
0.0
  0
LINE
  5
31FF
  8
AM_0
 10
205.62273928797401
 20
193.0085531356936
 30
0.0
 11
205.62273928797401
 21
189.80855313569359
 31
0.0
  0
LINE
  5
3200
  8
AM_0
 10
180.6227392879739
 20
193.00855313569349
 30
0.0
 11
180.6227392879739
 21
189.80855313569359
 31
0.0
  0
LINE
  5
3202
  8
ﾁｭｳｼﾝｾﾝ
 10
123.622739287974
 20
218.5289243440605
 30
0.0
 11
123.622739287974
 21
110.8739396621982
 31
0.0
  0
LINE
  5
3204
  8
AM_0
 10
181.6227392879739
 20
177.5085531356934
 30
0.0
 11
204.62273928797401
 21
177.5085531356934
 31
0.0
  0
LINE
  5
3205
  8
AM_0
 10
181.6227392879739
 20
181.0085531356934
 30
0.0
 11
204.62273928797401
 21
181.0085531356934
 31
0.0
  0
LINE
  5
3206
  8
AM_0
 10
181.6227392879739
 20
185.30855313569359
 30
0.0
 11
204.62273928797401
 21
185.30855313569359
 31
0.0
  0
LINE
  5
3207
  8
AM_0
 10
181.6227392879739
 20
188.8085531356935
 30
0.0
 11
204.62273928797401
 21
188.8085531356935
 31
0.0
  0
LINE
  5
3208
  8
AM_0
 10
181.6227392879739
 20
174.90855313569361
 30
0.0
 11
204.62273928797401
 21
174.90855313569361
 31
0.0
  0
ARC
  5
3209
  8
ｽﾝﾎ_ｳｾﾝ
 10
126.5688112879738
 20
118.5843481215401
 30
0.0
 40
1.5050001119999981
 50
241.0912951394732
 51
145.9182257596149
  0
LINE
  5
320A
  8
AM_0
 10
122.4281542879739
 20
121.6149663356935
 30
0.0
 11
121.3932952879739
 21
117.80992173569349
 31
0.0
  0
LINE
  5
320B
  8
AM_0
 10
124.7396452879737
 20
121.61281803569349
 30
0.0
 11
125.83941528797401
 21
117.8554035356935
 31
0.0
  0
LINE
  5
320C
  8
AM_0
 10
127.7229502879738
 20
122.99082642154011
 30
0.0
 11
128.75780928797391
 21
119.18578182154
 31
0.0
  0
LINE
  5
320D
  8
AM_0
 10
119.4326482879739
 20
122.99082642154011
 30
0.0
 11
118.39778928797389
 21
119.18578182154
 31
0.0
  0
ARC
  5
320E
  8
ｽﾝﾎ_ｳｾﾝ
 10
120.58678728797391
 20
118.5843481215401
 30
0.0
 40
1.5050001119999981
 50
34.081774240385151
 51
298.90870486052597
  0
ARC
  5
320F
  8
AM_0
 10
123.622739287974
 20
117.20855313569361
 30
0.0
 40
2.3091486599999991
 50
164.90527199999909
 51
16.267320000003402
  0
CIRCLE
  5
3210
  8
ｽﾝﾎ_ｳｾﾝ
 10
123.5822932879739
 20
117.2084880356937
 30
0.0
 40
1.5050001119999981
  0
ARC
  5
3211
  8
AM_0
 10
120.62723328797399
 20
118.58441322154
 30
0.0
 40
2.3091486599999991
 50
164.90527199999909
 51
290.87219614688911
  0
ARC
  5
3212
  8
AM_0
 10
126.5283652879737
 20
118.58441322154
 30
0.0
 40
2.3091486599999991
 50
249.12780385311081
 51
15.094728000000879
  0
LINE
  5
3213
  8
AM_0
 10
125.7901601884062
 20
217.20855313569359
 30
0.0
 11
125.57330528797389
 21
129.28971913552701
 31
0.0
  0
LINE
  5
3214
  8
AM_0
 10
121.5822932879739
 20
217.20855313569359
 30
0.0
 11
121.5822932879739
 21
129.28971913552701
 31
0.0
  0
LINE
  5
3215
  8
AM_0
 10
122.5822932879739
 20
217.20855313569359
 30
0.0
 11
122.5822932879739
 21
127.9133872982014
 31
0.0
  0
LINE
  5
3216
  8
AM_0
 10
124.5822932879739
 20
217.20855313569359
 30
0.0
 11
124.5822932879739
 21
127.9148741551205
 31
0.0
  0
LINE
  5
3217
  8
AM_0
 10
127.57330528797389
 20
217.20855313569359
 30
0.0
 11
127.57330528797389
 21
129.2889695885795
 31
0.0
  0
LINE
  5
3218
  8
AM_0
 10
119.5822932879739
 20
217.20855313569359
 30
0.0
 11
119.5822932879739
 21
129.2889695885795
 31
0.0
  0
LINE
  5
3219
  8
AM_0
 10
121.8617632879738
 20
127.9128516356935
 30
0.0
 11
125.29383528797391
 21
127.9154031356935
 31
0.0
  0
LINE
  5
321A
  8
AM_0
 10
122.4281542879739
 20
121.6149453356936
 30
0.0
 11
123.58391028797379
 21
121.6138764356937
 31
0.0
  0
LINE
  5
321B
  8
AM_0
 10
122.29828728797401
 20
129.29126322153999
 30
0.0
 11
122.299597145207
 21
127.9131771338435
 31
0.0
  0
LINE
  5
321C
  8
AM_0
 10
118.8662152879738
 20
129.28870122154001
 30
0.0
 11
122.2982885005618
 21
129.28998747154
 31
0.0
  0
LINE
  5
321D
  8
AM_0
 10
122.14605177273199
 20
121.615525736986
 30
0.0
 11
122.2923584401214
 21
121.1156623169109
 31
0.0
  0
LINE
  5
321E
  8
AM_0
 10
120.5884042879738
 20
122.98973652154
 30
0.0
 11
121.866434641315
 21
122.98855455767951
 31
0.0
  0
LINE
  5
321F
  8
AM_0
 10
121.74413928797379
 20
122.98867812154
 30
0.0
 11
121.8668357646953
 21
122.5694799976302
 31
0.0
  0
LINE
  5
3220
  8
AM_0
 10
122.4281542879739
 20
121.6149453356936
 30
0.0
 11
121.8677902879739
 21
121.6160982356936
 31
0.0
  0
LINE
  5
3221
  8
AM_0
 10
119.4326482879739
 20
122.99080542154
 30
0.0
 11
118.8722842879739
 21
122.9919583215401
 31
0.0
  0
LINE
  5
3222
  8
AM_0
 10
119.4326482879739
 20
122.99080542154
 30
0.0
 11
120.5884042879738
 21
122.98973652154
 31
0.0
  0
LINE
  5
3223
  8
AM_0
 10
118.8722422879739
 20
122.99197932154
 30
0.0
 11
118.8662152879738
 21
129.28870122154001
 31
0.0
  0
LINE
  5
3224
  8
AM_0
 10
121.8677482879739
 20
121.6161192356935
 30
0.0
 11
121.86172128797379
 21
127.9128411356936
 31
0.0
  0
LINE
  5
3225
  8
AM_0
 10
128.28938328797389
 20
129.28870122154001
 30
0.0
 11
124.8573100753859
 21
129.28998747154
 31
0.0
  0
LINE
  5
3226
  8
AM_0
 10
124.8573112879737
 20
129.29126322153999
 30
0.0
 11
124.8560014307408
 21
127.9131771338435
 31
0.0
  0
LINE
  5
3227
  8
AM_0
 10
127.7229502879738
 20
122.99080542154
 30
0.0
 11
126.5671942879739
 21
122.98973652154
 31
0.0
  0
LINE
  5
3228
  8
AM_0
 10
123.58391028797379
 20
121.6138764356937
 30
0.0
 11
124.73968728797399
 21
121.61280753569351
 31
0.0
  0
LINE
  5
3229
  8
AM_0
 10
125.0095468032158
 20
121.615525736986
 30
0.0
 11
124.8632401358263
 21
121.1156623169109
 31
0.0
  0
LINE
  5
322A
  8
AM_0
 10
126.5671942879739
 20
122.98973652154
 30
0.0
 11
125.2891639346327
 21
122.98855455767951
 31
0.0
  0
LINE
  5
322B
  8
AM_0
 10
125.411459287974
 20
122.98867812154
 30
0.0
 11
125.2887628112524
 21
122.5694799976302
 31
0.0
  0
LINE
  5
322C
  8
AM_0
 10
125.2998202879737
 20
121.6186833356935
 30
0.0
 11
124.73968728797399
 21
121.6128411356936
 31
0.0
  0
LINE
  5
322D
  8
AM_0
 10
127.7229502879738
 20
122.99080542154
 30
0.0
 11
128.28331428797389
 21
122.9919583215401
 31
0.0
  0
LINE
  5
322E
  8
AM_0
 10
125.293793287974
 20
127.9154031356935
 30
0.0
 11
125.29977828797379
 21
121.6186518356936
 31
0.0
  0
LINE
  5
322F
  8
AM_0
 10
128.2833562879739
 20
122.99197932154
 30
0.0
 11
128.28938328797389
 21
129.28870122154001
 31
0.0
  0
ARC
  5
3246
  8
AM_0
 10
181.6227392879739
 20
182.0085531356934
 30
0.0
 40
1.0
 50
180.0
 51
270.0
1001
GENIUS_GENOBJ-N-FIL_13
1002
{
1000
OWNER
1000
GEN
1002
}
1001
GENIUS_GENODEF_13
1002
{
1000
HIER
1070
     0
1002
}
1002
{
1000
MANEDIT
1070
     0
1002
}
1002
{
1000
NOSEL
1070
     0
1002
}
1002
{
1000
BEHIND
1070
     0
1002
}
1002
{
1000
OTHER
1070
     0
1002
}
1002
{
1000
REACTOR
1002
}
  0
ARC
  5
3247
  8
AM_0
 10
181.6227392879739
 20
176.5085531356934
 30
0.0
 40
1.0
 50
90.0
 51
180.0
1001
GENIUS_GENOBJ-N-FIL_13
1002
{
1000
OWNER
1000
GEN
1002
}
1001
GENIUS_GENODEF_13
1002
{
1000
HIER
1070
     0
1002
}
1002
{
1000
MANEDIT
1070
     0
1002
}
1002
{
1000
NOSEL
1070
     0
1002
}
1002
{
1000
BEHIND
1070
     0
1002
}
1002
{
1000
OTHER
1070
     0
1002
}
1002
{
1000
REACTOR
1002
}
  0
LINE
  5
3248
  8
AM_0
 10
180.6227392879739
 20
176.5085531356934
 30
0.0
 11
180.6227392879739
 21
175.90855313569361
 31
0.0
  0
ARC
  5
3249
  8
AM_0
 10
181.6227392879739
 20
175.90855313569361
 30
0.0
 40
1.0
 50
180.0
 51
270.0
1001
GENIUS_GENODEF_13
1002
{
1000
HIER
1070
     0
1002
}
1002
{
1000
MANEDIT
1070
     0
1002
}
1002
{
1000
NOSEL
1070
     0
1002
}
1002
{
1000
BEHIND
1070
     0
1002
}
1002
{
1000
OTHER
1070
     0
1002
}
1002
{
1000
REACTOR
1002
}
1001
GENIUS_GENOBJ-N-FIL_13
1002
{
1000
OWNER
1000
GEN
1002
}
  0
ARC
  5
324A
  8
AM_0
 10
181.6227392879739
 20
189.80855313569359
 30
0.0
 40
1.0
 50
180.0
 51
270.0
1001
GENIUS_GENOBJ-N-FIL_13
1002
{
1000
OWNER
1000
GEN
1002
}
1001
GENIUS_GENODEF_13
1002
{
1000
HIER
1070
     0
1002
}
1002
{
1000
MANEDIT
1070
     0
1002
}
1002
{
1000
NOSEL
1070
     0
1002
}
1002
{
1000
BEHIND
1070
     0
1002
}
1002
{
1000
OTHER
1070
     0
1002
}
1002
{
1000
REACTOR
1002
}
  0
ARC
  5
324B
  8
AM_0
 10
181.6227392879739
 20
184.30855313569359
 30
0.0
 40
1.0
 50
90.0
 51
180.0
1001
GENIUS_GENODEF_13
1002
{
1000
HIER
1070
     0
1002
}
1002
{
1000
MANEDIT
1070
     0
1002
}
1002
{
1000
NOSEL
1070
     0
1002
}
1002
{
1000
BEHIND
1070
     0
1002
}
1002
{
1000
OTHER
1070
     0
1002
}
1002
{
1000
REACTOR
1002
}
1001
GENIUS_GENOBJ-N-FIL_13
1002
{
1000
OWNER
1000
GEN
1002
}
  0
LINE
  5
324C
  8
AM_0
 10
180.6227392879739
 20
184.30855313569359
 30
0.0
 11
180.6227392879739
 21
182.0085531356934
 31
0.0
  0
ARC
  5
324D
  8
AM_0
 10
204.62273928797401
 20
182.0085531356934
 30
0.0
 40
1.0
 50
270.0
 51
0.0
1001
GENIUS_GENODEF_13
1002
{
1000
HIER
1070
     0
1002
}
1002
{
1000
MANEDIT
1070
     0
1002
}
1002
{
1000
NOSEL
1070
     0
1002
}
1002
{
1000
BEHIND
1070
     0
1002
}
1002
{
1000
OTHER
1070
     0
1002
}
1002
{
1000
REACTOR
1002
}
1001
GENIUS_GENOBJ-N-FIL_13
1002
{
1000
OWNER
1000
GEN
1002
}
  0
LINE
  5
324E
  8
AM_0
 10
205.62273928797401
 20
176.5085531356934
 30
0.0
 11
205.62273928797401
 21
175.90855313569361
 31
0.0
  0
ARC
  5
324F
  8
AM_0
 10
204.62273928797401
 20
176.5085531356934
 30
0.0
 40
1.0
 50
0.0
 51
90.0
1001
GENIUS_GENODEF_13
1002
{
1000
HIER
1070
     0
1002
}
1002
{
1000
MANEDIT
1070
     0
1002
}
1002
{
1000
NOSEL
1070
     0
1002
}
1002
{
1000
BEHIND
1070
     0
1002
}
1002
{
1000
OTHER
1070
     0
1002
}
1002
{
1000
REACTOR
1002
}
1001
GENIUS_GENOBJ-N-FIL_13
1002
{
1000
OWNER
1000
GEN
1002
}
  0
ARC
  5
3250
  8
AM_0
 10
204.62273928797401
 20
175.90855313569361
 30
0.0
 40
1.0
 50
270.0
 51
0.0
1001
GENIUS_GENOBJ-N-FIL_13
1002
{
1000
OWNER
1000
GEN
1002
}
1001
GENIUS_GENODEF_13
1002
{
1000
HIER
1070
     0
1002
}
1002
{
1000
MANEDIT
1070
     0
1002
}
1002
{
1000
NOSEL
1070
     0
1002
}
1002
{
1000
BEHIND
1070
     0
1002
}
1002
{
1000
OTHER
1070
     0
1002
}
1002
{
1000
REACTOR
1002
}
  0
ARC
  5
3251
  8
AM_0
 10
204.62273928797401
 20
189.80855313569359
 30
0.0
 40
1.0
 50
270.0
 51
0.0
1001
GENIUS_GENODEF_13
1002
{
1000
HIER
1070
     0
1002
}
1002
{
1000
MANEDIT
1070
     0
1002
}
1002
{
1000
NOSEL
1070
     0
1002
}
1002
{
1000
BEHIND
1070
     0
1002
}
1002
{
1000
OTHER
1070
     0
1002
}
1002
{
1000
REACTOR
1002
}
1001
GENIUS_GENOBJ-N-FIL_13
1002
{
1000
OWNER
1000
GEN
1002
}
  0
LINE
  5
3252
  8
AM_0
 10
205.62273928797401
 20
184.30855313569359
 30
0.0
 11
205.62273928797401
 21
182.0085531356934
 31
0.0
  0
ARC
  5
3253
  8
AM_0
 10
204.62273928797401
 20
184.30855313569359
 30
0.0
 40
1.0
 50
0.0
 51
90.0
1001
GENIUS_GENODEF_13
1002
{
1000
HIER
1070
     0
1002
}
1002
{
1000
MANEDIT
1070
     0
1002
}
1002
{
1000
NOSEL
1070
     0
1002
}
1002
{
1000
BEHIND
1070
     0
1002
}
1002
{
1000
OTHER
1070
     0
1002
}
1002
{
1000
REACTOR
1002
}
1001
GENIUS_GENOBJ-N-FIL_13
1002
{
1000
OWNER
1000
GEN
1002
}
  0
LINE
  5
3254
  8
AM_0
 10
234.12273928797401
 20
174.20855313569359
 30
0.0
 11
227.1227392879739
 21
171.20855313569359
 31
0.0
  0
LINE
  5
3255
  8
AM_0
 10
215.62273928797401
 20
171.20855313569359
 30
0.0
 11
227.1227392879739
 21
171.20855313569359
 31
0.0
  0
LINE
  5
3256
  8
AM_0
 10
181.6227392879739
 20
197.70855313569359
 30
0.0
 11
204.62273928797401
 21
197.70855313569359
 31
0.0
  0
LINE
  5
3257
  8
AM_0
 10
181.6227392879739
 20
203.20855313569359
 30
0.0
 11
204.6227392879739
 21
203.20855313569359
 31
0.0
  0
LINE
  5
3258
  8
AM_0
 10
181.6227392879739
 20
208.70855313569359
 30
0.0
 11
204.6227392879739
 21
208.70855313569359
 31
0.0
  0
LINE
  5
3259
  8
AM_0
 10
181.6227392879739
 20
215.20855313569359
 30
0.0
 11
204.6227392879739
 21
215.20855313569359
 31
0.0
  0
LINE
  5
325A
  8
AM_0
 10
181.6227392879739
 20
194.00855313569349
 30
0.0
 11
204.62273928797401
 21
194.0085531356936
 31
0.0
  0
LINE
  5
325B
  8
AM_0
 10
133.62273928797401
 20
262.20855313569359
 30
0.0
 11
133.62273928797401
 21
218.20855313569359
 31
0.0
  0
ARC
  5
3275
  8
AM_0
 10
132.62273928797401
 20
218.20855313569359
 30
0.0
 40
1.0
 50
270.0
 51
0.0
1001
GENIUS_GENOBJ-N-FIL_13
1002
{
1000
OWNER
1000
GEN
1002
}
1001
GENIUS_GENODEF_13
1002
{
1000
HIER
1070
     0
1002
}
1002
{
1000
MANEDIT
1070
     0
1002
}
1002
{
1000
NOSEL
1070
     0
1002
}
1002
{
1000
BEHIND
1070
     0
1002
}
1002
{
1000
OTHER
1070
     0
1002
}
1002
{
1000
REACTOR
1002
}
  0
LINE
  5
3276
  8
AM_0
 10
180.6227392879739
 20
214.20855313569359
 30
0.0
 11
180.6227392879739
 21
209.70855313569359
 31
0.0
  0
ARC
  5
3277
  8
AM_0
 10
181.6227392879739
 20
202.20855313569359
 30
0.0
 40
1.0
 50
90.0
 51
180.0
1001
GENIUS_GENODEF_13
1002
{
1000
HIER
1070
     0
1002
}
1002
{
1000
MANEDIT
1070
     0
1002
}
1002
{
1000
NOSEL
1070
     0
1002
}
1002
{
1000
BEHIND
1070
     0
1002
}
1002
{
1000
OTHER
1070
     0
1002
}
1002
{
1000
REACTOR
1002
}
1001
GENIUS_GENOBJ-N-FIL_13
1002
{
1000
OWNER
1000
GEN
1002
}
  0
ARC
  5
3278
  8
AM_0
 10
181.6227392879739
 20
198.70855313569359
 30
0.0
 40
1.0
 50
180.0
 51
270.0
1001
GENIUS_GENODEF_13
1002
{
1000
HIER
1070
     0
1002
}
1002
{
1000
MANEDIT
1070
     0
1002
}
1002
{
1000
NOSEL
1070
     0
1002
}
1002
{
1000
BEHIND
1070
     0
1002
}
1002
{
1000
OTHER
1070
     0
1002
}
1002
{
1000
REACTOR
1002
}
1001
GENIUS_GENOBJ-N-FIL_13
1002
{
1000
OWNER
1000
GEN
1002
}
  0
LINE
  5
3279
  8
AM_0
 10
180.6227392879739
 20
202.20855313569359
 30
0.0
 11
180.6227392879739
 21
198.70855313569359
 31
0.0
  0
ARC
  5
327A
  8
AM_0
 10
181.6227392879739
 20
193.00855313569349
 30
0.0
 40
1.0
 50
90.0
 51
180.0
1001
GENIUS_GENODEF_13
1002
{
1000
HIER
1070
     0
1002
}
1002
{
1000
MANEDIT
1070
     0
1002
}
1002
{
1000
NOSEL
1070
     0
1002
}
1002
{
1000
BEHIND
1070
     0
1002
}
1002
{
1000
OTHER
1070
     0
1002
}
1002
{
1000
REACTOR
1002
}
1001
GENIUS_GENOBJ-N-FIL_13
1002
{
1000
OWNER
1000
GEN
1002
}
  0
ARC
  5
327B
  8
AM_0
 10
181.6227392879739
 20
209.70855313569359
 30
0.0
 40
1.0
 50
180.0
 51
270.0
1001
GENIUS_GENODEF_13
1002
{
1000
HIER
1070
     0
1002
}
1002
{
1000
MANEDIT
1070
     0
1002
}
1002
{
1000
NOSEL
1070
     0
1002
}
1002
{
1000
BEHIND
1070
     0
1002
}
1002
{
1000
OTHER
1070
     0
1002
}
1002
{
1000
REACTOR
1002
}
1001
GENIUS_GENOBJ-N-FIL_13
1002
{
1000
OWNER
1000
GEN
1002
}
  0
ARC
  5
327C
  8
AM_0
 10
181.6227392879739
 20
214.20855313569359
 30
0.0
 40
1.0
 50
90.0
 51
180.0
1001
GENIUS_GENOBJ-N-FIL_13
1002
{
1000
OWNER
1000
GEN
1002
}
1001
GENIUS_GENODEF_13
1002
{
1000
HIER
1070
     0
1002
}
1002
{
1000
MANEDIT
1070
     0
1002
}
1002
{
1000
NOSEL
1070
     0
1002
}
1002
{
1000
BEHIND
1070
     0
1002
}
1002
{
1000
OTHER
1070
     0
1002
}
1002
{
1000
REACTOR
1002
}
  0
ARC
  5
327D
  8
AM_0
 10
132.62273928797401
 20
262.20855313569359
 30
0.0
 40
1.0
 50
0.0
 51
90.0
1001
GENIUS_GENODEF_13
1002
{
1000
HIER
1070
     0
1002
}
1002
{
1000
MANEDIT
1070
     0
1002
}
1002
{
1000
NOSEL
1070
     0
1002
}
1002
{
1000
BEHIND
1070
     0
1002
}
1002
{
1000
OTHER
1070
     0
1002
}
1002
{
1000
REACTOR
1002
}
1001
GENIUS_GENOBJ-N-FIL_13
1002
{
1000
OWNER
1000
GEN
1002
}
  0
LINE
  5
327E
  8
AM_0
 10
205.62273928797401
 20
214.20855313569359
 30
0.0
 11
205.6227392879739
 21
209.70855313569359
 31
0.0
  0
ARC
  5
327F
  8
AM_0
 10
204.6227392879739
 20
202.20855313569359
 30
0.0
 40
1.0
 50
0.0
 51
90.0
1001
GENIUS_GENOBJ-N-FIL_13
1002
{
1000
OWNER
1000
GEN
1002
}
1001
GENIUS_GENODEF_13
1002
{
1000
HIER
1070
     0
1002
}
1002
{
1000
MANEDIT
1070
     0
1002
}
1002
{
1000
NOSEL
1070
     0
1002
}
1002
{
1000
BEHIND
1070
     0
1002
}
1002
{
1000
OTHER
1070
     0
1002
}
1002
{
1000
REACTOR
1002
}
  0
ARC
  5
3280
  8
AM_0
 10
204.62273928797401
 20
198.70855313569359
 30
0.0
 40
1.0
 50
270.0
 51
0.0
1001
GENIUS_GENODEF_13
1002
{
1000
HIER
1070
     0
1002
}
1002
{
1000
MANEDIT
1070
     0
1002
}
1002
{
1000
NOSEL
1070
     0
1002
}
1002
{
1000
BEHIND
1070
     0
1002
}
1002
{
1000
OTHER
1070
     0
1002
}
1002
{
1000
REACTOR
1002
}
1001
GENIUS_GENOBJ-N-FIL_13
1002
{
1000
OWNER
1000
GEN
1002
}
  0
LINE
  5
3281
  8
AM_0
 10
205.6227392879739
 20
202.20855313569359
 30
0.0
 11
205.6227392879739
 21
198.70855313569359
 31
0.0
  0
ARC
  5
3282
  8
AM_0
 10
204.62273928797401
 20
193.0085531356936
 30
0.0
 40
1.0
 50
0.0
 51
90.0
1001
GENIUS_GENODEF_13
1002
{
1000
HIER
1070
     0
1002
}
1002
{
1000
MANEDIT
1070
     0
1002
}
1002
{
1000
NOSEL
1070
     0
1002
}
1002
{
1000
BEHIND
1070
     0
1002
}
1002
{
1000
OTHER
1070
     0
1002
}
1002
{
1000
REACTOR
1002
}
1001
GENIUS_GENOBJ-N-FIL_13
1002
{
1000
OWNER
1000
GEN
1002
}
  0
ARC
  5
3283
  8
AM_0
 10
204.6227392879739
 20
209.70855313569359
 30
0.0
 40
1.0
 50
270.0
 51
0.0
1001
GENIUS_GENODEF_13
1002
{
1000
HIER
1070
     0
1002
}
1002
{
1000
MANEDIT
1070
     0
1002
}
1002
{
1000
NOSEL
1070
     0
1002
}
1002
{
1000
BEHIND
1070
     0
1002
}
1002
{
1000
OTHER
1070
     0
1002
}
1002
{
1000
REACTOR
1002
}
1001
GENIUS_GENOBJ-N-FIL_13
1002
{
1000
OWNER
1000
GEN
1002
}
  0
ARC
  5
3284
  8
AM_0
 10
204.6227392879739
 20
214.20855313569359
 30
0.0
 40
1.0
 50
0.0
 51
90.0
1001
GENIUS_GENOBJ-N-FIL_13
1002
{
1000
OWNER
1000
GEN
1002
}
1001
GENIUS_GENODEF_13
1002
{
1000
HIER
1070
     0
1002
}
1002
{
1000
MANEDIT
1070
     0
1002
}
1002
{
1000
NOSEL
1070
     0
1002
}
1002
{
1000
BEHIND
1070
     0
1002
}
1002
{
1000
OTHER
1070
     0
1002
}
1002
{
1000
REACTOR
1002
}
  0
ARC
  5
3285
  8
AM_0
 10
302.624319287974
 20
191.27238663569361
 30
0.0
 40
7.331659199999998
 50
90.00000299999769
 51
270.0
  0
ARC
  5
3286
  8
AM_0
 10
259.76646928797402
 20
193.2085146356936
 30
0.0
 40
2.00000007
 50
270.0
 51
35.173271000001471
  0
LINE
  5
3287
  8
AM_0
 10
352.62270928797392
 20
167.9084796356936
 30
0.0
 11
352.62270928797392
 21
260.40848463569358
 31
0.0
  0
LINE
  5
3288
  8
AM_0
 10
342.62265928797387
 20
170.66586663569359
 30
0.0
 11
342.62265928797387
 21
206.03786163569359
 31
0.0
  0
LINE
  5
3289
  8
AM_0
 10
302.62266928797402
 20
185.12372163569361
 30
0.0
 11
302.62266928797402
 21
197.4437136356936
 31
0.0
  0
LINE
  5
328A
  8
AM_0
 10
270.62265928797387
 20
268.35771663569369
 30
0.0
 11
270.62265928797387
 21
177.6645246356936
 31
0.0
  0
LINE
  5
328B
  8
AM_0
 10
277.6227392879739
 20
171.09828363569341
 30
0.0
 11
342.62265928797387
 21
171.09828363569341
 31
0.0
  0
LINE
  5
328C
  8
AM_0
 10
277.62267928797388
 20
156.20851263569361
 30
0.0
 11
320.37657928797393
 21
154.71550263569361
 31
0.0
  0
LINE
  5
328D
  8
AM_0
 10
302.62266928797402
 20
183.94073763569361
 30
0.0
 11
342.62265928797387
 21
183.94073763569361
 31
0.0
  0
ARC
  5
328E
  8
AM_0
 10
258.62265928797387
 20
169.87697163569359
 30
0.0
 40
5.0000001000000003
 50
0.0
 51
49.999999999996341
  0
ARC
  5
328F
  8
AM_0
 10
265.62273928797401
 20
158.6287716356936
 30
0.0
 40
2.00000007
 50
179.99999000000059
 51
268.00000999999872
  0
LINE
  5
3290
  8
AM_0
 10
277.62267928797388
 20
156.20851263569361
 30
0.0
 11
265.552839287974
 21
156.62999163569361
 31
0.0
  0
ARC
  5
3291
  8
AM_0
 10
265.62273928797401
 20
173.66453763569359
 30
0.0
 40
2.00000007
 50
90.00000299999769
 51
180.00000999999941
  0
LINE
  5
3292
  8
AM_0
 10
253.71213928797391
 20
180.52443363569361
 30
0.0
 11
253.71213928797391
 21
191.20851363569341
 31
0.0
  0
LINE
  5
3293
  8
AM_0
 10
255.03099928797391
 20
179.41780263569359
 30
0.0
 11
261.83658928797388
 21
173.70721863569361
 31
0.0
  0
ARC
  5
3294
  8
AM_0
 10
251.81706928797399
 20
175.5875586356936
 30
0.0
 40
5.0000001000000003
 50
49.999999999996341
 51
88.000000000002842
  0
ARC
  5
3295
  8
AM_0
 10
268.6227392879739
 20
177.6645246356936
 30
0.0
 40
2.00000007
 50
270.0
 51
0.0
  0
LINE
  5
3296
  8
AM_0
 10
265.62273928797401
 20
175.6645236356936
 30
0.0
 11
268.6227392879739
 21
175.6645236356936
 31
0.0
  0
LINE
  5
3297
  8
AM_0
 10
342.62268928797391
 20
167.55928263569359
 30
0.0
 11
352.62273928797401
 21
167.9084796356936
 31
0.0
  0
ARC
  5
3298
  8
AM_0
 10
345.62265928797387
 20
170.66586663569359
 30
0.0
 40
3.0
 50
179.99999000000059
 51
271.99999000000128
  0
LINE
  5
3299
  8
AM_0
 10
320.37660928797402
 20
154.71548763569359
 30
0.0
 11
342.62265928797387
 21
167.5592676356936
 31
0.0
  0
ARC
  5
329A
  8
AM_0
 10
343.62270928797392
 20
189.90849663569361
 30
0.0
 40
3.0
 50
270.0
 51
0.0
  0
LINE
  5
329B
  8
AM_0
 10
352.62270928797392
 20
175.4085126356936
 30
0.0
 11
356.62266928797402
 21
175.4085126356936
 31
0.0
  0
LINE
  5
329C
  8
AM_0
 10
302.62266928797402
 20
198.6040386356936
 30
0.0
 11
342.62265928797387
 21
198.6040386356936
 31
0.0
  0
LINE
  5
329D
  8
AM_0
 10
253.71213928797391
 20
205.27148763569369
 30
0.0
 11
253.71213928797391
 21
269.14552863569361
 31
0.0
  0
LINE
  5
329E
  8
AM_0
 10
253.71213928797391
 20
205.27151763569361
 30
0.0
 11
261.40128928797401
 21
194.3606136356936
 31
0.0
  0
ARC
  5
329F
  8
AM_0
 10
265.62273928797401
 20
272.35771863569369
 30
0.0
 40
2.00000007
 50
179.99999000000059
 51
270.0
  0
LINE
  5
32A0
  8
AM_0
 10
263.62266928797402
 20
263.88057363569351
 30
0.0
 11
268.6227392879739
 21
263.88057363569351
 31
0.0
  0
ARC
  5
32A1
  8
AM_0
 10
268.6227392879739
 20
261.88059063569358
 30
0.0
 40
2.00000007
 50
0.0
 51
90.00000299999769
  0
ARC
  5
32A2
  8
AM_0
 10
268.6227392879739
 20
268.35771663569369
 30
0.0
 40
2.00000007
 50
0.0
 51
90.00000299999769
  0
LINE
  5
32A3
  8
AM_0
 10
265.62273928797401
 20
270.35768763569371
 30
0.0
 11
268.6227392879739
 21
270.35768763569371
 31
0.0
  0
ARC
  5
32A4
  8
AM_0
 10
361.26795928797378
 20
251.17626063569361
 30
0.0
 40
24.832211399999998
 50
169.38167999999899
 51
218.7932100000001
  0
ARC
  5
32A5
  8
AM_0
 10
345.62265928797387
 20
206.03786163569359
 30
0.0
 40
3.0
 50
90.00000299999769
 51
180.00000999999941
  0
ARC
  5
32A6
  8
AM_0
 10
344.25168928797387
 20
237.49814463569371
 30
0.0
 40
3.0
 50
218.7932199999976
 51
270.0
  0
LINE
  5
32A7
  8
AM_0
 10
344.25168928797387
 20
234.4981416356936
 30
0.0
 11
346.62270928797381
 21
234.4981416356936
 31
0.0
  0
LINE
  5
32A8
  8
AM_0
 10
341.19744928797388
 20
278.88280263569368
 30
0.0
 11
336.86097928797398
 21
255.75200463569371
 31
0.0
  0
LINE
  5
32A9
  8
AM_0
 10
366.62265928797382
 20
277.40849763569361
 30
0.0
 11
366.62265928797382
 21
274.40849763569361
 31
0.0
  0
LINE
  5
32AA
  8
AM_0
 10
72.122739287974042
 20
302.80855313569373
 30
0.0
 11
215.62273928797401
 21
302.80855313569361
 31
0.0
  0
ARC
  5
32AB
  8
AM_0
 10
67.622739287974071
 20
290.31042100707322
 30
0.0
 40
2.0
 50
131.6335393365685
 51
180.0
1001
GENIUS_GENODEF_13
1002
{
1000
HIER
1070
     0
1002
}
1002
{
1000
MANEDIT
1070
     0
1002
}
1002
{
1000
NOSEL
1070
     0
1002
}
1002
{
1000
BEHIND
1070
     0
1002
}
1002
{
1000
OTHER
1070
     0
1002
}
1002
{
1000
REACTOR
1002
}
1001
GENIUS_GENOBJ-N-FIL_13
1002
{
1000
OWNER
1000
GEN
1002
}
  0
LINE
  5
32AC
  8
AM_0
 10
69.45146696563387
 20
294.61186662694678
 30
0.0
 11
66.294011610314271
 21
291.80523964444052
 31
0.0
  0
ARC
  5
32AD
  8
AM_0
 10
68.122739287974071
 20
296.10668526431419
 30
0.0
 40
2.0
 50
311.63353933656862
 51
0.0
1001
GENIUS_GENOBJ-N-FIL_13
1002
{
1000
OWNER
1000
GEN
1002
}
1001
GENIUS_GENODEF_13
1002
{
1000
HIER
1070
     0
1002
}
1002
{
1000
MANEDIT
1070
     0
1002
}
1002
{
1000
NOSEL
1070
     0
1002
}
1002
{
1000
BEHIND
1070
     0
1002
}
1002
{
1000
OTHER
1070
     0
1002
}
1002
{
1000
REACTOR
1002
}
  0
ARC
  5
32AE
  8
AM_0
 10
72.122739287974042
 20
300.80855313569373
 30
0.0
 40
2.0
 50
90.0
 51
180.0
1001
GENIUS_GENOBJ-N-FIL_13
1002
{
1000
OWNER
1000
GEN
1002
}
1001
GENIUS_GENODEF_13
1002
{
1000
HIER
1070
     0
1002
}
1002
{
1000
MANEDIT
1070
     0
1002
}
1002
{
1000
NOSEL
1070
     0
1002
}
1002
{
1000
BEHIND
1070
     0
1002
}
1002
{
1000
OTHER
1070
     0
1002
}
1002
{
1000
REACTOR
1002
}
  0
LINE
  5
32B0
  8
AM_0
 10
234.12273928797401
 20
283.20848763569359
 30
0.0
 11
259.76646928797402
 21
283.20848763569359
 31
0.0
  0
LINE
  5
32B1
  8
AM_0
 10
234.12267928797391
 20
293.20851663569363
 30
0.0
 11
251.9915492879739
 21
293.83251063569372
 31
0.0
  0
LINE
  5
32B2
  8
AM_0
 10
227.1227392879739
 20
303.20855313569371
 30
0.0
 11
234.12273928797401
 21
300.20855313569359
 31
0.0
  0
LINE
  5
32B3
  8
AM_0
 10
215.6227392879739
 20
303.20855313569371
 30
0.0
 11
227.1227392879739
 21
303.20855313569371
 31
0.0
  0
ARC
  5
32B6
  8
AM_0
 10
312.91428928797387
 20
322.44274563569371
 30
0.0
 40
3.0
 50
271.9999999999971
 51
315.0
  0
LINE
  5
32B7
  8
AM_0
 10
315.03558928797372
 20
320.32144563569358
 30
0.0
 11
342.62265928797387
 21
347.90851563569367
 31
0.0
  0
LINE
  5
32B8
  8
AM_0
 10
277.6227392879739
 20
283.45851663569363
 30
0.0
 11
339.56799928797392
 21
283.45851663569363
 31
0.0
  0
LINE
  5
32B9
  8
AM_0
 10
314.2000292879739
 20
319.48576563569361
 30
0.0
 11
333.5527592879738
 21
301.77962463569361
 31
0.0
  0
LINE
  5
32BA
  8
AM_0
 10
277.62267928797388
 20
318.20851563569369
 30
0.0
 11
313.01901928797372
 21
319.4445756356937
 31
0.0
  0
ARC
  5
32BB
  8
AM_0
 10
258.62265928797387
 20
304.5400296356936
 30
0.0
 40
5.0000001000000003
 50
310.00000000000369
 51
0.0
  0
LINE
  5
32BC
  8
AM_0
 10
270.62265928797387
 20
316.03267563569369
 30
0.0
 11
270.62265928797387
 21
293.54259363569361
 31
0.0
  0
ARC
  5
32BD
  8
AM_0
 10
265.62273928797401
 20
289.54256163569357
 30
0.0
 40
2.00000007
 50
90.00000299999769
 51
180.00000999999941
  0
LINE
  5
32BE
  8
AM_0
 10
253.71213928797391
 20
283.20848763569359
 30
0.0
 11
253.71213928797391
 21
293.89260063569361
 31
0.0
  0
ARC
  5
32BF
  8
AM_0
 10
259.76646928797402
 20
281.20851663569363
 30
0.0
 40
2.00000007
 50
324.82672999999932
 51
90.00000299999769
  0
LINE
  5
32C0
  8
AM_0
 10
255.03099928797391
 20
294.99922863569361
 30
0.0
 11
261.83658928797388
 21
300.70980063569368
 31
0.0
  0
ARC
  5
32C1
  8
AM_0
 10
251.81706928797399
 20
298.8294576356937
 30
0.0
 40
5.0000001000000003
 50
271.9999999999971
 51
310.00000000000369
  0
ARC
  5
32C2
  8
AM_0
 10
268.6227392879739
 20
293.54259363569361
 30
0.0
 40
2.00000007
 50
270.0
 51
0.0
  0
LINE
  5
32C3
  8
AM_0
 10
265.62273928797401
 20
291.54259263569361
 30
0.0
 11
268.6227392879739
 21
291.54259263569361
 31
0.0
  0
ARC
  5
32C4
  8
AM_0
 10
266.62266928797402
 20
310.06696563569369
 30
0.0
 40
3.0
 50
91.999998000000545
 51
180.00000999999941
  0
LINE
  5
32C5
  8
AM_0
 10
272.55291928797391
 20
318.0314556356937
 30
0.0
 11
277.62267928797388
 21
318.20851563569369
 31
0.0
  0
ARC
  5
32C6
  8
AM_0
 10
267.62265928797387
 20
316.10557563569358
 30
0.0
 40
3.0
 50
271.9999999999971
 51
0.0
  0
ARC
  5
32C7
  8
AM_0
 10
272.62266928797402
 20
316.03267563569369
 30
0.0
 40
2.00000007
 50
91.999998000000545
 51
180.00000999999941
  0
LINE
  5
32C8
  8
AM_0
 10
266.51799928797391
 20
313.06513563569371
 30
0.0
 11
267.72732928797387
 21
313.10737563569359
 31
0.0
  0
LINE
  5
32C9
  8
AM_0
 10
270.62265928797387
 20
316.03267563569369
 30
0.0
 11
270.62265928797387
 21
316.10557563569358
 31
0.0
  0
LINE
  5
32CA
  8
AM_0
 10
342.62265928797387
 20
311.53372563569371
 30
0.0
 11
342.62265928797387
 21
350.62789563569368
 31
0.0
  0
LINE
  5
32CB
  8
AM_0
 10
333.55281928797388
 20
301.77959463569368
 30
0.0
 11
333.55281928797388
 21
301.77959463569368
 31
0.0
  0
ARC
  5
32CC
  8
AM_0
 10
345.62265928797387
 20
311.53372563569371
 30
0.0
 40
3.0
 50
179.99999000000059
 51
270.0
  0
LINE
  5
32CD
  8
AM_0
 10
344.55291928797402
 20
352.62667563569369
 30
0.0
 11
352.62270928797392
 21
352.90846563569369
 31
0.0
  0
ARC
  5
32CE
  8
AM_0
 10
343.62270928797392
 20
330.58081563569363
 30
0.0
 40
3.0
 50
0.0
 51
91.999998000000545
  0
ARC
  5
32CF
  8
AM_0
 10
344.62266928797402
 20
350.62789563569368
 30
0.0
 40
2.00000007
 50
91.999998000000545
 51
180.00000999999941
  0
LINE
  5
32D0
  8
AM_0
 10
352.62270928797392
 20
345.40849563569361
 30
0.0
 11
356.62266928797402
 21
345.40849563569361
 31
0.0
  0
CIRCLE
  5
32D6
  8
AM_0
 10
580.62611748610425
 20
260.40848463569358
 30
0.0
 40
85.000001999999981
  0
ARC
  5
32D7
  8
AM_0
 10
580.62611748610425
 20
237.20850063569361
 30
0.0
 40
81.000003000000007
 50
24.588774999999941
 51
54.525829999998038
  0
CIRCLE
  5
32D8
  8
AM_0
 10
580.62611748610425
 20
260.40848463569358
 30
0.0
 40
80.000000999999983
  0
CIRCLE
  5
32D9
  8
AM_0
 10
580.62611748610425
 20
260.40851463569368
 30
0.0
 40
29.000001000000001
  0
ARC
  5
32DA
  8
AM_0
 10
580.62611748610425
 20
260.40848463569358
 30
0.0
 40
39.000011999999998
 50
143.21321000000231
 51
180.00000999999941
  0
ARC
  5
32DB
  8
AM_0
 10
580.62611748610425
 20
260.40848463569358
 30
0.0
 40
39.000011999999998
 50
0.0
 51
36.786791000002722
  0
ARC
  5
32DC
  8
AM_0
 10
580.62611748610425
 20
237.20850063569361
 30
0.0
 40
81.000003000000007
 50
125.47417000000191
 51
155.4112299999997
  0
LINE
  5
32DD
  8
ﾁｭｳｼﾝｾﾝ
 10
580.62611748610425
 20
150.87376563569359
 30
0.0
 11
580.62611748610425
 21
357.29988277682651
 31
0.0
  0
LINE
  5
32DE
  8
AM_0
 10
673.1260984861043
 20
260.40848463569358
 30
0.0
 11
673.1260984861043
 21
290.40846963569368
 31
0.0
  0
LINE
  5
32DF
  8
AM_0
 10
488.12610348610428
 20
260.40848463569358
 30
0.0
 11
488.12610348610428
 21
290.40846963569368
 31
0.0
  0
ARC
  5
32E1
  8
ﾁｭｳｼﾝｾﾝ1
 10
580.62611748610198
 20
260.4084846356954
 30
0.0
 40
107.5000110000026
 50
306.12959646940482
 51
323.24632000000048
  0
LINE
  5
32E2
  8
ﾁｭｳｼﾝｾﾝ
 10
483.09063998444708
 20
260.40848463569358
 30
0.0
 11
678.50738515028013
 21
260.40848463569358
 31
0.0
  0
LINE
  5
32E3
  8
AM_0
 10
610.62610548610405
 20
167.90849463569359
 30
0.0
 11
656.52619248610415
 21
170.3140146356935
 31
0.0
  0
LINE
  5
32E4
  8
AM_0
 10
655.49105148610431
 20
232.20849963569361
 30
0.0
 11
624.62610348610406
 21
232.20849963569361
 31
0.0
  0
CIRCLE
  5
32E5
  8
AM_0
 10
504.61213848610419
 20
184.3945206356936
 30
0.0
 40
6.0000002999999991
  0
ARC
  5
32E6
  8
ﾁｭｳｼﾝｾﾝ1
 10
580.62611748610425
 20
260.40848463569358
 30
0.0
 40
107.500011
 50
218.02723999999881
 51
233.24631999999701
  0
ARC
  5
32E7
  8
AM_0
 10
580.62611748610425
 20
260.40848463569358
 30
0.0
 40
74.400002999999998
 50
171.88345000000001
 51
184.9454200000003
  0
ARC
  5
32E8
  8
AM_0
 10
580.62611748610425
 20
237.20850063569361
 30
0.0
 40
76.000001999999981
 50
167.23980000000071
 51
181.39354000000071
  0
LINE
  5
32E9
  8
ﾁｭｳｼﾝｾﾝ1
 10
515.86574148610418
 20
195.64815063569361
 30
0.0
 11
494.90442348610429
 21
174.68686263569359
 31
0.0
  0
LINE
  5
32EA
  8
AM_0
 10
505.7611564861042
 20
232.20849963569361
 30
0.0
 11
536.62611648610425
 21
232.20849963569361
 31
0.0
  0
LINE
  5
32EB
  8
AM_0
 10
550.62610248610429
 20
167.90849463569359
 30
0.0
 11
504.72603048610398
 21
170.3140146356935
 31
0.0
  0
LINE
  5
32EC
  8
AM_0
 10
488.12607348610419
 20
230.40849663569361
 30
0.0
 11
490.53159348610421
 21
184.5084096356936
 31
0.0
  0
ARC
  5
32ED
  8
AM_0
 10
505.51109448610401
 20
185.2934616356936
 30
0.0
 40
15.000000299999989
 50
183.00000999999969
 51
267.0000000000008
  0
ARC
  5
32EE
  8
AM_0
 10
505.51109448610401
 20
185.2934616356936
 30
0.0
 40
15.000000299999989
 50
183.00000999999969
 51
267.0000000000008
  0
LINE
  5
32F0
  8
AM_0
 10
398.62266928797402
 20
277.40849763569361
 30
0.0
 11
398.62266928797402
 21
246.4084986356936
 31
0.0
  0
LINE
  5
32F2
  8
AM_0
 10
488.12610348610428
 20
260.40848463569358
 30
0.0
 11
488.12610348610428
 21
230.40848163569359
 31
0.0
  0
ARC
  5
32F3
  8
AM_0
 10
580.62611748610425
 20
237.20850063569361
 30
0.0
 40
81.000003000000007
 50
248.6337999999979
 51
270.0
  0
LINE
  5
32F4
  8
AM_0
 10
580.62611748610425
 20
167.90849463569359
 30
0.0
 11
550.62611748610425
 21
167.90849463569359
 31
0.0
  0
ARC
  5
32F5
  8
AM_0
 10
538.87611648610425
 20
164.8953876356936
 30
0.0
 40
8.0000000999999976
 50
156.738740000001
 51
323.26127000000218
  0
ARC
  5
32F6
  8
AM_0
 10
549.29394948610422
 20
157.11920463569359
 30
0.0
 40
5.0000001000000003
 50
68.633797999997029
 51
143.26126000000099
  0
ARC
  5
32F7
  8
AM_0
 10
580.62611748610425
 20
237.20850063569361
 30
0.0
 40
81.000003000000007
 50
270.0
 51
291.36620000000198
  0
LINE
  5
32F8
  8
AM_0
 10
580.62611748610425
 20
167.90849463569359
 30
0.0
 11
610.62610548610405
 21
167.90849463569359
 31
0.0
  0
ARC
  5
32F9
  8
AM_0
 10
622.37608848610432
 20
164.8953876356936
 30
0.0
 40
8.0000000999999976
 50
216.7387399999989
 51
23.2612579999997
  0
ARC
  5
32FA
  8
AM_0
 10
611.95827348610385
 20
157.11920463569359
 30
0.0
 40
5.0000001000000003
 50
36.738736999999908
 51
111.3662099999999
  0
ARC
  5
32FB
  8
AM_0
 10
580.62611748610425
 20
260.40848463569358
 30
0.0
 40
14.000001299999999
 50
106.60154000000171
 51
73.39845199999823
  0
LINE
  5
32FC
  8
ﾁｭｳｼﾝｾﾝ
 10
534.07826933685465
 20
237.20850063569361
 30
0.0
 11
627.17396563535374
 21
237.20850063569361
 31
0.0
  0
ARC
  5
32FD
  8
AM_0
 10
536.62611648610425
 20
237.20850063569361
 30
0.0
 40
5.0000001000000003
 50
270.0
 51
0.0
  0
LINE
  5
32FE
  8
AM_0
 10
541.62608748610421
 20
260.40848463569358
 30
0.0
 11
541.62608748610421
 21
237.20850063569361
 31
0.0
  0
ARC
  5
32FF
  8
AM_0
 10
624.62610348610406
 20
237.20850063569361
 30
0.0
 40
5.0000001000000003
 50
179.99999000000059
 51
270.0
  0
CIRCLE
  5
3300
  8
AM_5
 10
580.62611748610425
 20
260.40848463569358
 30
0.0
 40
4.000000199999997
  0
CIRCLE
  5
3301
  8
AM_0
 10
580.62611748610425
 20
260.40848463569358
 30
0.0
 40
3.0
  0
POINT
  5
3302
  8
AM_0
 10
580.62611748610425
 20
260.40848463569358
 30
0.0
  0
LINE
  5
3303
  8
AM_0
 10
576.62610348610428
 20
270.4084986356936
 30
0.0
 11
584.62610448610428
 21
270.4084986356936
 31
0.0
  0
LINE
  5
3304
  8
AM_0
 10
576.62610348610428
 20
277.40849763569361
 30
0.0
 11
584.62610448610428
 21
277.40849763569361
 31
0.0
  0
LINE
  5
3305
  8
AM_0
 10
576.62610348610428
 20
270.4084986356936
 30
0.0
 11
576.62610348610428
 21
277.40849763569361
 31
0.0
  0
LINE
  5
3306
  8
AM_0
 10
584.62610448610428
 20
270.4084986356936
 30
0.0
 11
584.62610448610428
 21
277.40849763569361
 31
0.0
  0
LINE
  5
3307
  8
AM_0
 10
619.62612048610413
 20
260.40848463569358
 30
0.0
 11
619.62612048610413
 21
237.20850063569361
 31
0.0
  0
LINE
  5
3308
  8
ﾁｭｳｼﾝｾﾝ1
 10
647.33129148610408
 20
193.70331063569361
 30
0.0
 11
666.34773948610405
 21
174.68686263569359
 31
0.0
  0
LINE
  5
3309
  8
AM_0
 10
673.12610748610405
 20
230.40849663569361
 30
0.0
 11
670.72058748610425
 21
184.5084096356936
 31
0.0
  0
ARC
  5
330A
  8
AM_0
 10
655.74112548610412
 20
185.2934616356936
 30
0.0
 40
15.000000299999989
 50
272.99999999999909
 51
356.99999999999949
  0
ARC
  5
330B
  8
AM_0
 10
655.74112548610412
 20
185.2934616356936
 30
0.0
 40
15.000000299999989
 50
272.99999999999909
 51
356.99999999999949
  0
CIRCLE
  5
330C
  8
AM_0
 10
656.64008148610412
 20
184.3945206356936
 30
0.0
 40
6.0000002999999991
  0
ARC
  5
330D
  8
AM_0
 10
580.62611748610425
 20
237.20850063569361
 30
0.0
 40
76.000001999999981
 50
358.60644999999948
 51
12.760202000001
  0
LINE
  5
330E
  8
AM_0
 10
673.1260984861043
 20
260.40848463569358
 30
0.0
 11
673.1260984861043
 21
230.40848163569359
 31
0.0
  0
ARC
  5
330F
  8
AM_0
 10
580.62611748610425
 20
260.40848463569358
 30
0.0
 40
74.400002999999998
 50
355.0545799999997
 51
8.116549400000137
  0
ARC
  5
3311
  8
AM_0
 10
639.15041148610396
 20
310.4475456356937
 30
0.0
 40
3.0
 50
40.530864999996624
 51
135.0
  0
LINE
  5
3312
  8
AM_0
 10
610.62610548610405
 20
352.90849563569361
 30
0.0
 11
656.52619248610415
 21
350.50297563569359
 31
0.0
  0
ARC
  5
3314
  8
ﾁｭｳｼﾝｾﾝ1
 10
580.62611748610254
 20
260.408484635695
 30
0.0
 40
107.500010999998
 50
126.5707787507498
 51
143.24632000000059
  0
CIRCLE
  5
3315
  8
AM_0
 10
504.61213848610419
 20
336.42247563569367
 30
0.0
 40
6.0000002999999991
  0
LINE
  5
3316
  8
AM_0
 10
550.62611748610425
 20
352.90849563569361
 30
0.0
 11
504.72603048610398
 21
350.50297563569359
 31
0.0
  0
LINE
  5
3317
  8
ﾁｭｳｼﾝｾﾝ1
 10
514.40968548610385
 20
326.62489563569358
 30
0.0
 11
494.9044834861042
 21
346.13011563569358
 31
0.0
  0
LINE
  5
3318
  8
AM_0
 10
488.12610348610428
 20
290.4084996356936
 30
0.0
 11
490.53162348610391
 21
336.30859563569368
 31
0.0
  0
ARC
  5
3319
  8
AM_0
 10
505.51109448610401
 20
335.5235256356936
 30
0.0
 40
15.000000299999989
 50
92.999999000001623
 51
176.9999900000002
  0
ARC
  5
331A
  8
AM_0
 10
505.51109448610401
 20
335.5235256356936
 30
0.0
 40
15.000000299999989
 50
92.999999000001623
 51
176.9999900000002
  0
ARC
  5
331C
  8
AM_0
 10
580.62611748610425
 20
260.40848463569358
 30
0.0
 40
39.000011999999998
 50
53.213208000001032
 51
126.7867899999999
  0
LINE
  5
331D
  8
AM_0
 10
580.62611748610425
 20
352.90849563569361
 30
0.0
 11
550.62611748610425
 21
352.90849563569361
 31
0.0
  0
ARC
  5
331F
  8
AM_0
 10
580.62611748610425
 20
237.20847363569359
 30
0.0
 40
81.000003000000007
 50
93.754195000000877
 51
121.1390599999999
  0
LINE
  5
3320
  8
AM_0
 10
549.11091948610431
 20
287.68105263569362
 30
0.0
 11
524.22313248610419
 21
312.56884563569361
 31
0.0
  0
LINE
  5
3321
  8
AM_0
 10
553.35354948610393
 20
291.92369763569371
 30
0.0
 11
528.46577748610423
 21
316.81147563569368
 31
0.0
  0
ARC
  5
3322
  8
AM_0
 10
522.10182348610431
 20
310.4475456356937
 30
0.0
 40
3.0
 50
45.000001000002641
 51
139.46914000000129
  0
ARC
  5
3323
  8
AM_0
 10
530.587086486104
 20
318.93283563569372
 30
0.0
 40
3.0
 50
130.5308599999974
 51
225.0
  0
ARC
  5
3324
  8
AM_0
 10
555.47485848610427
 20
294.0450336356937
 30
0.0
 40
3.0
 50
225.0
 51
306.78678999999988
  0
ARC
  5
3325
  8
AM_0
 10
546.98959848610423
 20
285.55974363569362
 30
0.0
 40
3.0
 50
323.21321000000228
 51
45.000001000002641
  0
LINE
  5
3326
  8
AM_0
 10
578.12610348610406
 20
321.02824563569362
 30
0.0
 11
578.12610348610406
 21
331.59634563569358
 31
0.0
  0
LINE
  5
3327
  8
AM_0
 10
583.12611948610413
 20
321.02824563569362
 30
0.0
 11
583.12611948610413
 21
331.59634563569358
 31
0.0
  0
ARC
  5
3328
  8
AM_0
 10
605.77736448610415
 20
294.0450336356937
 30
0.0
 40
3.0
 50
233.21321000000009
 51
315.0
  0
ARC
  5
3329
  8
AM_0
 10
580.62611748610425
 20
237.20850063569361
 30
0.0
 40
81.000003000000007
 50
58.860945000003653
 51
86.245802999997153
  0
ARC
  5
332A
  8
AM_0
 10
575.12610348610428
 20
321.02824563569362
 30
0.0
 40
3.0
 50
273.75420000000253
 51
0.0
  0
ARC
  5
332B
  8
AM_0
 10
586.12611948610413
 20
321.02824563569362
 30
0.0
 40
3.0
 50
180.00000999999941
 51
266.24579999999759
  0
LINE
  5
332C
  8
AM_0
 10
607.89865548610408
 20
291.92372763569358
 30
0.0
 11
632.78644548610407
 21
316.81150563569361
 31
0.0
  0
LINE
  5
332D
  8
AM_0
 10
612.14130348610411
 20
287.68108263569371
 30
0.0
 11
637.029090486104
 21
312.56887563569359
 31
0.0
  0
ARC
  5
332E
  8
AM_0
 10
614.2626244861043
 20
285.55974363569362
 30
0.0
 40
3.0
 50
135.0
 51
216.78678999999761
  0
ARC
  5
332F
  8
AM_0
 10
630.66512148610411
 20
318.93283563569372
 30
0.0
 40
3.0
 50
315.0
 51
49.469136999997183
  0
LINE
  5
3330
  8
AM_0
 10
580.62611748610425
 20
352.90849563569361
 30
0.0
 11
610.62610548610405
 21
352.90849563569361
 31
0.0
  0
ARC
  5
3331
  8
AM_0
 10
586.12611948610413
 20
331.59634563569358
 30
0.0
 40
3.0
 50
85.582086000002178
 51
180.00000999999941
  0
ARC
  5
3332
  8
AM_0
 10
575.12610348610428
 20
331.59634563569358
 30
0.0
 40
3.0
 50
0.0
 51
94.417918999996871
  0
LINE
  5
3334
  8
AM_0
 10
673.12610748610405
 20
290.4084996356936
 30
0.0
 11
670.72058748610425
 21
336.30859563569368
 31
0.0
  0
ARC
  5
3335
  8
AM_0
 10
655.74112548610412
 20
335.5235256356936
 30
0.0
 40
15.000000299999989
 50
3.0000001000004741
 51
86.999998999996933
  0
ARC
  5
3336
  8
AM_0
 10
655.74112548610412
 20
335.5235256356936
 30
0.0
 40
15.000000299999989
 50
3.0000001000004741
 51
86.999998999996933
  0
ARC
  5
3337
  8
ﾁｭｳｼﾝｾﾝ1
 10
592.78183143178489
 20
272.8374400738935
 30
0.0
 40
90.297404320475806
 50
36.566302857884153
 51
53.20687439470931
  0
LINE
  5
3338
  8
ﾁｭｳｼﾝｾﾝ1
 10
647.18865048610428
 20
326.97106563569372
 30
0.0
 11
666.3477244861042
 21
346.13014563569351
 31
0.0
  0
CIRCLE
  5
3339
  8
AM_0
 10
656.64008148610412
 20
336.42247563569367
 30
0.0
 40
6.0000002999999991
  0
POINT
  5
333A
  8
0
 10
52.612975462400762
 20
502.54861486055762
 30
0.0
1001
GENIUS_GENOLIS_13
1002
{
1000
ENT
1005
0
1005
31AE
1005
31E9
1002
}
1001
GENIUS_GENOENT_13
1002
{
1000
MYREF
1005
333A
1002
}
1002
{
1000
GRP
1005
0
1002
}
1001
GENIUS_GENOBJ-NBEHI-BHB_13
1002
{
1000
OWNER
1000
genbehi
1002
}
1001
GENIUS_GENBH_13
1002
{
1000
FGO
1005
0
1002
}
1001
GENIUS_GENODEF_13
1002
{
1000
HIER
1070
     1
1002
}
1002
{
1000
MANEDIT
1070
     1
1002
}
1002
{
1000
NOSEL
1070
     1
1002
}
1002
{
1000
BEHIND
1070
     0
1002
}
1002
{
1000
OTHER
1070
     1
1002
}
1002
{
1000
REACTOR
1002
}
  0
LINE
  5
34A1
  8
AM_0
 10
127.5733052879738
 20
171.60855313569351
 30
0.0
 11
215.6227392879739
 21
171.60855313569351
 31
0.0
  0
TEXT
  5
382E
  8
AM_0
 10
476.3069657322871
 20
543.43838477124825
 30
0.0
 40
10.0
  1
VX02-120SF~VX02-200SF
  0
ENDSEC
  0
EOF
