  0
SECTION
  2
HEADER
  9
$ACADVER
  1
AC1009
  9
$INSBASE
 10
0.0
 20
0.0
 30
0.0
  9
$EXTMIN
 10
182.71797532648489
 20
244.150545650803
 30
-0.0015258207003583
  9
$EXTMAX
 10
1115.6258421881651
 20
875.6984731656247
 30
0.0000000349246037
  9
$LIMMIN
 10
0.0
 20
0.0
  9
$LIMMAX
 10
1422.5
 20
925.0
  9
$ORTHOMODE
 70
     0
  9
$REGENMODE
 70
     1
  9
$FILLMODE
 70
     1
  9
$QTEXTMODE
 70
     0
  9
$MIRRTEXT
 70
     1
  9
$DRAGMODE
 70
     2
  9
$LTSCALE
 40
5.0
  9
$OSMODE
 70
   551
  9
$ATTMODE
 70
     1
  9
$TEXTSIZE
 40
2.5
  9
$TRACEWID
 40
1.0
  9
$TEXTSTYLE
  7
STANDARD
  9
$CLAYER
  8
AM_0
  9
$CELTYPE
  6
BYLAYER
  9
$CECOLOR
 62
   256
  9
$DIMSCALE
 40
5.0
  9
$DIMASZ
 40
2.5
  9
$DIMEXO
 40
1.0
  9
$DIMDLI
 40
8.0
  9
$DIMRND
 40
0.0
  9
$DIMDLE
 40
0.0
  9
$DIMEXE
 40
0.6
  9
$DIMTP
 40
0.1
  9
$DIMTM
 40
0.1
  9
$DIMTXT
 40
2.5
  9
$DIMCEN
 40
0.0
  9
$DIMTSZ
 40
0.0
  9
$DIMTOL
 70
     0
  9
$DIMLIM
 70
     0
  9
$DIMTIH
 70
     0
  9
$DIMTOH
 70
     0
  9
$DIMSE1
 70
     0
  9
$DIMSE2
 70
     0
  9
$DIMTAD
 70
     1
  9
$DIMZIN
 70
     8
  9
$DIMBLK
  1

  9
$DIMASO
 70
     1
  9
$DIMSHO
 70
     1
  9
$DIMPOST
  1

  9
$DIMAPOST
  1
"
  9
$DIMALT
 70
     0
  9
$DIMALTD
 70
     2
  9
$DIMALTF
 40
0.0393701
  9
$DIMLFAC
 40
1.0
  9
$DIMTOFL
 70
     1
  9
$DIMTVP
 40
0.0
  9
$DIMTIX
 70
     0
  9
$DIMSOXD
 70
     0
  9
$DIMSAH
 70
     0
  9
$DIMBLK1
  1

  9
$DIMBLK2
  1

  9
$DIMSTYLE
  2
AM_ISO
  9
$DIMCLRD
 70
   256
  9
$DIMCLRE
 70
   256
  9
$DIMCLRT
 70
     4
  9
$DIMTFAC
 40
0.71
  9
$DIMGAP
 40
0.8
  9
$LUNITS
 70
     2
  9
$LUPREC
 70
     2
  9
$SKETCHINC
 40
1.0
  9
$FILLETRAD
 40
25.0
  9
$AUNITS
 70
     0
  9
$AUPREC
 70
     0
  9
$MENU
  1
.
  9
$ELEVATION
 40
0.0
  9
$PELEVATION
 40
0.0
  9
$THICKNESS
 40
0.0
  9
$LIMCHECK
 70
     0
  9
$BLIPMODE
 70
     0
  9
$CHAMFERA
 40
10.0
  9
$CHAMFERB
 40
5.0
  9
$SKPOLY
 70
     0
  9
$TDCREATE
 40
2452065.7659250121
  9
$TDUPDATE
 40
2458541.5890117711
  9
$TDINDWG
 40
0.2620511458
  9
$TDUSRTIMER
 40
0.2620511227
  9
$USRTIMER
 70
     1
  9
$ANGBASE
 50
0.0
  9
$ANGDIR
 70
     0
  9
$PDMODE
 70
     0
  9
$PDSIZE
 40
0.0
  9
$PLINEWID
 40
0.0
  9
$COORDS
 70
     1
  9
$SPLFRAME
 70
     0
  9
$SPLINETYPE
 70
     6
  9
$SPLINESEGS
 70
     8
  9
$ATTDIA
 70
     1
  9
$ATTREQ
 70
     1
  9
$HANDLING
 70
     1
  9
$HANDSEED
  5
3997
  9
$SURFTAB1
 70
     6
  9
$SURFTAB2
 70
     6
  9
$SURFTYPE
 70
     6
  9
$SURFU
 70
     6
  9
$SURFV
 70
     6
  9
$UCSNAME
  2

  9
$UCSORG
 10
0.0
 20
0.0
 30
0.0
  9
$UCSXDIR
 10
1.0
 20
0.0
 30
0.0
  9
$UCSYDIR
 10
0.0
 20
1.0
 30
0.0
  9
$PUCSNAME
  2

  9
$PUCSORG
 10
0.0
 20
0.0
 30
0.0
  9
$PUCSXDIR
 10
1.0
 20
0.0
 30
0.0
  9
$PUCSYDIR
 10
0.0
 20
1.0
 30
0.0
  9
$USERI1
 70
     0
  9
$USERI2
 70
     0
  9
$USERI3
 70
     0
  9
$USERI4
 70
     0
  9
$USERI5
 70
     0
  9
$USERR1
 40
0.0
  9
$USERR2
 40
0.0
  9
$USERR3
 40
0.0
  9
$USERR4
 40
0.0
  9
$USERR5
 40
0.0
  9
$WORLDVIEW
 70
     1
  9
$SHADEDGE
 70
     3
  9
$SHADEDIF
 70
    70
  9
$TILEMODE
 70
     1
  9
$MAXACTVP
 70
    64
  9
$PLIMCHECK
 70
     0
  9
$PEXTMIN
 10
1.0000000000000000E+020
 20
1.0000000000000000E+020
 30
1.0000000000000000E+020
  9
$PEXTMAX
 10
-1.0000000000000000E+020
 20
-1.0000000000000000E+020
 30
-1.0000000000000000E+020
  9
$PLIMMIN
 10
0.0
 20
0.0
  9
$PLIMMAX
 10
420.0
 20
297.0
  9
$UNITMODE
 70
     0
  9
$VISRETAIN
 70
     1
  9
$PLINEGEN
 70
     0
  9
$PSLTSCALE
 70
     1
  0
ENDSEC
  0
SECTION
  2
TABLES
  0
TABLE
  2
VPORT
 70
     1
  0
VPORT
  2
*ACTIVE
 70
     0
 10
0.0
 20
0.0
 11
1.0
 21
1.0
 12
649.17190875732513
 22
559.92450940821391
 13
0.0
 23
0.0
 14
12.5
 24
12.5
 15
50.0
 25
50.0
 16
0.0
 26
0.0
 36
1.0
 17
0.0
 27
0.0
 37
0.0
 40
635.88349681126215
 41
1.7571592210767459
 42
50.0
 43
0.0
 44
0.0
 50
0.0
 51
0.0
 71
     0
 72
   100
 73
     1
 74
     3
 75
     0
 76
     0
 77
     0
 78
     0
  0
ENDTAB
  0
TABLE
  2
LTYPE
 70
    18
  0
LTYPE
  2
CONTINUOUS
 70
     0
  3
Solid line
 72
    65
 73
     0
 40
0.0
  0
LTYPE
  2
AM_ISO02W050
 70
     0
  3
__ __ __ __ __ __ __ __ __ __ __ __ __ __ __
 72
    65
 73
     2
 40
7.5
 49
6.0
 49
-1.5
  0
LTYPE
  2
AM_ISO08W050
 70
     0
  3
____ . ____ . ____ . ____ . ____ . ____ . ____
 72
    65
 73
     4
 40
18.0
 49
12.0
 49
-1.5
 49
3.0
 49
-1.5
  0
LTYPE
  2
AM_ISO09W050
 70
     0
  3
_____ . . _____ . . _____ . . ____ .. ____
 72
    65
 73
     6
 40
22.5
 49
12.0
 49
-1.5
 49
3.0
 49
-1.5
 49
3.0
 49
-1.5
  0
LTYPE
  2
AMCONSTR
 70
     0
  3
_______________________
 72
    65
 73
     2
 40
9999.0
 49
9999.0
 49
0.0
  0
LTYPE
  2
AM_ISO08W050X2
 70
     0
  3
__ . __ . __ . __ . __ . __
 72
    65
 73
     4
 40
9.0
 49
6.0
 49
-0.75
 49
1.5
 49
-0.75
  0
LTYPE
  2
AM_ISO02W050X2
 70
     0
  3
 _ _ _ _ _ _ _ _ _ _ _ _
 72
    65
 73
     2
 40
3.75
 49
3.0
 49
-0.75
  0
LTYPE
  2
AMZIGZAG
 70
     0
  3
/\/-/\/-/\/-/\/-/\/-/\/
 72
    65
 73
     2
 40
11.0001
 49
0.0001
 49
-11.0
  0
LTYPE
  2
CENTER
 70
     0
  3
__ . __
 72
    65
 73
     4
 40
7.0
 49
4.0
 49
-1.0
 49
1.0
 49
-1.0
  0
LTYPE
  2
PHANTOM2
 70
     0
  3
Phantom (.5x) ___ _ _ ___ _ _ ___ _ _ ___ _ _
 72
    65
 73
     6
 40
31.75
 49
15.875
 49
-3.174999999999998
 49
3.174999999999998
 49
-3.174999999999998
 49
3.174999999999998
 49
-3.174999999999998
  0
LTYPE
  2
GEN7
 70
     0
  3
____ . ____ . ____ . ____ . ____ . ____ . ____
 72
    65
 73
     4
 40
14.25
 49
9.75
 49
-1.5
 49
1.5
 49
-1.5
  0
LTYPE
  2
HIDDEN
 70
     0
  3
Hidden __ __ __ __ __ __ __ __ __ __ __ __ __ _
 72
    65
 73
     2
 40
9.5249999999999986
 49
6.349999999999997
 49
-3.174999999999998
  0
LTYPE
  2
CENTER2
 70
     0
  3
Center (.5x) ___ _ ___ _ ___ _ ___ _ ___ _ ___
 72
    65
 73
     4
 40
1.125
 49
0.75
 49
-0.125
 49
0.125
 49
-0.125
  0
LTYPE
  2
HIDDEN2
 70
     0
  3
Hidden (.5x) _ _ _ _ _ _ _ _ _ _ _ _ _ _ _ _ _
 72
    65
 73
     2
 40
0.1875
 49
0.125
 49
-0.0625
  0
LTYPE
  2
AMZIGZAG2
 70
     0
  3
/\/-/\/-/\/-/\/-/\/-/\/
 72
    65
 73
     2
 40
0.4401
 49
0.0001
 49
-0.4400000000000001
  0
LTYPE
  2
ACANSTGB
 70
     0
  3
__ . . __ . .
 72
    65
 73
     6
 40
0.35433070866
 49
0.15748031496
 49
-0.03937007874
 49
0.03937007874
 49
-0.03937007874
 49
0.03937007874
 49
-0.03937007874
  0
LTYPE
  2
ACANSTGL
 70
     0
  3
_ _ _ _ _
 72
    65
 73
     2
 40
0.11811023622
 49
0.07874015748
 49
-0.03937007874
  0
ENDTAB
  0
TABLE
  2
LAYER
 70
     8
  0
LAYER
  2
0
 70
     0
 62
     7
  6
CONTINUOUS
  0
LAYER
  2
AM_0
 70
     0
 62
     7
  6
CONTINUOUS
  0
LAYER
  2
AM_5
 70
     0
 62
     2
  6
CONTINUOUS
  0
LAYER
  2
DEFPOINTS
 70
     0
 62
     7
  6
CONTINUOUS
  0
LAYER
  2
ﾁｭｳｼﾝｾﾝ
 70
     0
 62
     1
  6
GEN7
  0
LAYER
  2
AM_0N
 70
     0
 62
     7
  6
CONTINUOUS
  0
LAYER
  2
AM_3N
 70
     0
 62
     3
  6
AM_ISO02W050
  0
LAYER
  2
ｽﾝﾎ_ｳｾﾝ
 70
     0
 62
     2
  6
CONTINUOUS
  0
ENDTAB
  0
TABLE
  2
STYLE
 70
     5
  0
STYLE
  2
STANDARD
 70
     0
 40
0.0
 41
0.8299999999999999
 50
0.0
 71
     0
 42
2.5
  3
txt.shx
  4
bigfont.shx
  0
STYLE
  2
ANNOTATIVE
 70
     0
 40
0.0
 41
1.0
 50
0.0
 71
     0
 42
0.2
  3
txt
  4

  0
STYLE
  2

 70
     1
 40
0.0
 41
1.0
 50
0.0
 71
     0
 42
2.5
  3
genltshp.shx
  4

  0
STYLE
  2
ACANSTS
 70
     0
 40
0.0
 41
1.0
 50
0.0
 71
     0
 42
2.5
  3
romans.shx
  4
extfont.shx
  0
STYLE
  2
ACANSGDT
 70
     0
 40
0.0
 41
1.0
 50
0.0
 71
     0
 42
2.5
  3
amgdt.shx
  4

  0
ENDTAB
  0
TABLE
  2
VIEW
 70
     6
  0
VIEW
  2
AM_VIEW1
 70
     0
 40
462.5
 10
416.07965009208078
 20
693.75
 41
832.15930018416213
 11
0.0
 21
0.0
 31
1.0
 12
0.0
 22
0.0
 32
0.0
 42
50.0
 43
0.0
 44
0.0
 50
0.0
 71
     0
  0
VIEW
  2
AM_VIEW2
 70
     0
 40
462.5
 10
1006.420349907919
 20
693.75
 41
832.15930018416213
 11
0.0
 21
0.0
 31
1.0
 12
0.0
 22
0.0
 32
0.0
 42
50.0
 43
0.0
 44
0.0
 50
0.0
 71
     0
  0
VIEW
  2
AM_VIEW3
 70
     0
 40
462.5
 10
416.07965009208078
 20
231.25
 41
832.15930018416213
 11
0.0
 21
0.0
 31
1.0
 12
0.0
 22
0.0
 32
0.0
 42
50.0
 43
0.0
 44
0.0
 50
0.0
 71
     0
  0
VIEW
  2
AM_VIEW4
 70
     0
 40
462.5
 10
1006.420349907919
 20
231.25
 41
832.15930018416213
 11
0.0
 21
0.0
 31
1.0
 12
0.0
 22
0.0
 32
0.0
 42
50.0
 43
0.0
 44
0.0
 50
0.0
 71
     0
  0
VIEW
  2
AM_VIEW5
 70
     0
 40
462.5
 10
711.24999999999966
 20
462.5
 41
832.15930018416179
 11
0.0
 21
0.0
 31
1.0
 12
0.0
 22
0.0
 32
0.0
 42
50.0
 43
0.0
 44
0.0
 50
0.0
 71
     0
  0
VIEW
  2
AM_VIEW6
 70
     0
 40
924.99075000000005
 10
711.24999999999966
 20
462.5
 41
1664.3019571823199
 11
0.0
 21
0.0
 31
1.0
 12
0.0
 22
0.0
 32
0.0
 42
50.0
 43
0.0
 44
0.0
 50
0.0
 71
     0
  0
ENDTAB
  0
TABLE
  2
UCS
 70
     0
  0
ENDTAB
  0
TABLE
  2
APPID
 70
    97
  0
APPID
  2
ACAD
 70
     0
  0
APPID
  2
ACADANNOTATIVE
 70
     0
  0
APPID
  2
MCAD_NO_VIS
 70
     0
  0
APPID
  2
ACAD_TEMP_GRAPHIC
 70
     0
  0
APPID
  2
ACATTRIBSERVICES
 70
     0
  0
APPID
  2
GENIUS_GENREC_14
 70
     0
  0
APPID
  2
GENIUS_GENOBJ-N-REC_13
 70
     0
  0
APPID
  2
GENIUS_GENODEF_13
 70
     0
  0
APPID
  2
GENIUS_GENOLIS_13
 70
     0
  0
APPID
  2
GENIUS_GENOBJ-N-TIT_13
 70
     0
  0
APPID
  2
GENIUS_GENOENT_13
 70
     0
  0
APPID
  2
GENIUS_GENTITLE_13
 70
     0
  0
APPID
  2
GENIUS_GENOREF_13
 70
     0
  0
APPID
  2
GENIUS_GENSCREG_15
 70
     0
  0
APPID
  2
GENIUS_GENOBJ-N-SDF_13
 70
     0
  0
APPID
  2
GENIUS_GENFIL_13
 70
     0
  0
APPID
  2
GENIUS_GENOBJ-N-CHA_13
 70
     0
  0
APPID
  2
GENIUS_GENDTOL_13
 70
     0
  0
APPID
  2
GENIUS_GENOBJ-N-FIL_13
 70
     0
  0
APPID
  2
AD_DRAW
 70
     0
  0
APPID
  2
DESIGNERASSEMBLIES
 70
     0
  0
APPID
  2
ASURF_PCURVE_APPNAME
 70
     0
  0
APPID
  2
GENIUS_GE3SECT_13
 70
     0
  0
APPID
  2
GENIUS_GENCFG_13
 70
     0
  0
APPID
  2
GENIUS_GE3CFG0_13
 70
     0
  0
APPID
  2
GENIUS_GENCFG0_13
 70
     0
  0
APPID
  2
GENIUS_GENCFG1_13
 70
     0
  0
APPID
  2
GENIUS_GENCFG2_13
 70
     0
  0
APPID
  2
GENIUS_GENCFG3_13
 70
     0
  0
APPID
  2
GENIUS_GENCFG4_13
 70
     0
  0
APPID
  2
GENIUS_GEVCFG0_13
 70
     0
  0
APPID
  2
GENIUS_GENHINW_13
 70
     0
  0
APPID
  2
GENIUS_FIRSTVISTXT_14
 70
     0
  0
APPID
  2
GENIUS_GENOBJ-N-LEADER_13
 70
     0
  0
APPID
  2
GEV_VCCNULL_SWITCH_OFF
 70
     0
  0
APPID
  2
GENIUS_GEFCFG0_13
 70
     0
  0
APPID
  2
GENIUS_GENZVEED_13
 70
     0
  0
APPID
  2
GENIUS_GENSCREG_13
 70
     0
  0
APPID
  2
GENIUS_DUMCFG0_13
 70
     0
  0
APPID
  2
GEVID936201362
 70
     0
  0
APPID
  2
GEVDC
 70
     0
  0
APPID
  2
GEVCON
 70
     0
  0
APPID
  2
VCC
 70
     0
  0
APPID
  2
GEVPT
 70
     0
  0
APPID
  2
GEVIT
 70
     0
  0
APPID
  2
GENBH
 70
     0
  0
APPID
  2
GEVMK
 70
     0
  0
APPID
  2
GENIUS_GENBH_13
 70
     0
  0
APPID
  2
GENIUS_GENOBJ-NBEHI-BHF_13
 70
     0
  0
APPID
  2
GENIUS_GENOBJ-NBEHI-BHB_13
 70
     0
  0
APPID
  2
GENIUS_GENOBJ-F-DESC_13
 70
     0
  0
APPID
  2
GENIUS_GEFDESC_14
 70
     0
  0
APPID
  2
GENIUS_GENOBJ-F-PART_13
 70
     0
  0
APPID
  2
GENIUS_GEFSTDP_13
 70
     0
  0
APPID
  2
GENIUS_GEFPARTINS_13
 70
     0
  0
APPID
  2
GENIUS_GENTRA_14
 70
     0
  0
APPID
  2
GENIUS_GENINF13_13
 70
     0
  0
APPID
  2
GENIUS_GENOBJ-N-INFOPT_13
 70
     0
  0
APPID
  2
GENIUS_GENOBJ-N-RSSYM_13
 70
     0
  0
APPID
  2
GENIUS_GENSYMENT_13
 70
     0
  0
APPID
  2
GENIUS_GENSCSYM_13
 70
     0
  0
APPID
  2
GENIUS_GEFINFNAM_13
 70
     0
  0
APPID
  2
GENIUS_GENOBJ-N-CEN_13
 70
     0
  0
APPID
  2
GENIUS_GENOBJ-N-CRS_13
 70
     0
  0
APPID
  2
GENIUS_GENOBJ-N-CRC_13
 70
     0
  0
APPID
  2
GENIUS_GENCRC_14
 70
     0
  0
APPID
  2
GEVID942827039
 70
     0
  0
APPID
  2
GEVID942827040
 70
     0
  0
APPID
  2
GEVID942827041
 70
     0
  0
APPID
  2
GENIUS_GENOBJ-F-SCPASSM_13
 70
     0
  0
APPID
  2
GENIUS_GENDIMSH_14
 70
     0
  0
APPID
  2
GEVID942827042
 70
     0
  0
APPID
  2
GEVID946020473
 70
     0
  0
APPID
  2
GEVID946020474
 70
     0
  0
APPID
  2
GEVID946020475
 70
     0
  0
APPID
  2
GENIUS_GENOBJ-N-HTC_13
 70
     0
  0
APPID
  2
GENIUS_GENHATCH_13
 70
     0
  0
APPID
  2
GEVID948854295
 70
     0
  0
APPID
  2
GEVID939402019
 70
     0
  0
APPID
  2
GEVID952919491
 70
     0
  0
APPID
  2
GEVID952919492
 70
     0
  0
APPID
  2
GENIUS_GEFWELD_13
 70
     0
  0
APPID
  2
GENIUS_GENOBJ-F-WELS_13
 70
     0
  0
APPID
  2
GEVID952919493
 70
     0
  0
APPID
  2
GENIUS_GENOBJ-N-RSBK_13
 70
     0
  0
APPID
  2
GENIUS_GENOBJ-N-LIB_13
 70
     0
  0
APPID
  2
GENIUS_GENSCALE_13
 70
     0
  0
APPID
  2
GEVID986376691
 70
     0
  0
APPID
  2
DCO15
 70
     0
  0
APPID
  2
ACADM_DIM_EDIT
 70
     0
  0
APPID
  2
AMDT_DM_ADJ
 70
     0
  0
APPID
  2
ACAD_DSTYLE_DIMJAG
 70
     0
  0
APPID
  2
ACAD_DSTYLE_DIMBREAK
 70
     0
  0
APPID
  2
ACAD_NAV_VCDISPLAY
 70
     0
  0
APPID
  2
ACADANNOPO
 70
     0
  0
APPID
  2
ACAD_EXEMPT_FROM_CAD_STANDARDS
 70
     0
  0
APPID
  2
ACAD_MLEADERVER
 70
     0
  0
ENDTAB
  0
TABLE
  2
DIMSTYLE
 70
     9
  0
DIMSTYLE
  2
STANDARD
 70
     0
  3

  4

  5

  6

  7

 40
1.0
 41
0.18
 42
0.0625
 43
0.38
 44
0.18
 45
0.0
 46
0.0
 47
0.0
 48
0.0
140
0.18
141
0.09
142
0.0
143
25.399999999999999
144
1.0
145
0.0
146
1.0
147
0.09
 71
     0
 72
     0
 73
     1
 74
     1
 75
     0
 76
     0
 77
     0
 78
     0
170
     0
171
     2
172
     0
173
     0
174
     0
175
     0
176
     0
177
     0
178
     0
  0
DIMSTYLE
  2
ANNOTATIVE
 70
     0
  3

  4

  5

  6

  7

 40
1.0
 41
0.18
 42
0.0625
 43
0.38
 44
0.18
 45
0.0
 46
0.0
 47
0.0
 48
0.0
140
0.18
141
0.09
142
0.0
143
25.399999999999999
144
1.0
145
0.0
146
1.0
147
0.09
 71
     0
 72
     0
 73
     1
 74
     1
 75
     0
 76
     0
 77
     0
 78
     0
170
     0
171
     2
172
     0
173
     0
174
     0
175
     0
176
     0
177
     0
178
     0
  0
DIMSTYLE
  2
AM_ISO
 70
     0
  3

  4
"
  5

  6

  7

 40
1.0
 41
2.5
 42
1.0
 43
8.0
 44
0.6
 45
0.0
 46
0.0
 47
0.1
 48
0.1
140
2.5
141
0.0
142
0.0
143
0.0393701
144
1.0
145
0.0
146
0.71
147
0.8
 71
     0
 72
     0
 73
     0
 74
     0
 75
     0
 76
     0
 77
     1
 78
     8
170
     0
171
     2
172
     1
173
     0
174
     0
175
     0
176
   256
177
   256
178
     4
  0
DIMSTYLE
  2
AM_ANSI
 70
     0
  3

  4
mm
  5

  6

  7

 40
1.0
 41
0.12
 42
0.05
 43
0.5
 44
0.1
 45
0.0
 46
0.0
 47
0.1
 48
0.1
140
0.12
141
0.0
142
0.0
143
25.399999999999999
144
1.0
145
0.0
146
0.71
147
0.06
 71
     0
 72
     0
 73
     1
 74
     1
 75
     0
 76
     0
 77
     0
 78
     7
170
     0
171
     2
172
     0
173
     0
174
     0
175
     0
176
   256
177
   256
178
     2
  0
DIMSTYLE
  2
AM_ANSI$3
 70
     0
  3

  4
mm
  5

  6

  7

 40
1.0
 41
0.12
 42
0.05
 43
0.5
 44
0.1
 45
0.0
 46
0.0
 47
0.1
 48
0.1
140
0.12
141
0.0
142
0.0
143
25.399999999999999
144
1.0
145
0.0
146
0.71
147
0.06
 71
     0
 72
     0
 73
     1
 74
     1
 75
     0
 76
     0
 77
     0
 78
     7
170
     0
171
     2
172
     0
173
     0
174
     0
175
     0
176
   256
177
   256
178
     2
  0
DIMSTYLE
  2
AM_ANSI$4
 70
     0
  3

  4
mm
  5

  6

  7

 40
1.0
 41
0.12
 42
0.05
 43
0.5
 44
0.1
 45
0.0
 46
0.0
 47
0.1
 48
0.1
140
0.12
141
0.0
142
0.0
143
25.399999999999999
144
1.0
145
0.0
146
0.71
147
0.06
 71
     0
 72
     0
 73
     1
 74
     1
 75
     0
 76
     0
 77
     0
 78
     7
170
     0
171
     2
172
     0
173
     0
174
     0
175
     0
176
   256
177
   256
178
     2
  0
DIMSTYLE
  2
AM_ANSI$7
 70
     0
  3

  4
mm
  5

  6

  7

 40
1.0
 41
0.12
 42
0.05
 43
0.5
 44
0.1
 45
0.0
 46
0.0
 47
0.1
 48
0.1
140
0.12
141
0.0
142
0.0
143
25.399999999999999
144
1.0
145
0.0
146
0.71
147
0.06
 71
     0
 72
     0
 73
     1
 74
     1
 75
     0
 76
     0
 77
     0
 78
     7
170
     0
171
     2
172
     0
173
     0
174
     0
175
     0
176
   256
177
   256
178
     2
  0
DIMSTYLE
  2
AM_ANSI$SF
 70
     0
  3

  4
mm
  5

  6

  7

 40
1.0
 41
0.12
 42
0.05
 43
0.5
 44
0.1
 45
0.0
 46
0.0
 47
0.1
 48
0.1
140
0.12
141
0.0
142
0.0
143
25.399999999999999
144
1.0
145
0.0
146
0.71
147
0.06
 71
     0
 72
     0
 73
     1
 74
     1
 75
     1
 76
     1
 77
     0
 78
     7
170
     0
171
     2
172
     0
173
     0
174
     0
175
     0
176
   256
177
   256
178
     2
  0
DIMSTYLE
  2
AM_ANSI$SH
 70
     0
  3

  4
mm
  5

  6
GENAXEH
  7

 40
1.0
 41
0.12
 42
0.05
 43
0.5
 44
0.1
 45
0.0
 46
0.0
 47
0.1
 48
0.1
140
0.12
141
0.0
142
0.0
143
25.399999999999999
144
1.0
145
0.0
146
0.71
147
0.06
 71
     0
 72
     0
 73
     1
 74
     1
 75
     1
 76
     1
 77
     0
 78
     7
170
     0
171
     2
172
     0
173
     1
174
     0
175
     0
176
   256
177
   256
178
     2
  0
ENDTAB
  0
ENDSEC
  0
SECTION
  2
BLOCKS
  0
BLOCK
  8
0
  2
$MODEL_SPACE
 70
     0
 10
0.0
 20
0.0
 30
0.0
  3
$MODEL_SPACE
  1

  0
ENDBLK
  5
3832
  8
0
  0
BLOCK
 67
     1
  8
0
  2
$PAPER_SPACE
 70
     0
 10
0.0
 20
0.0
 30
0.0
  3
$PAPER_SPACE
  1

  0
ENDBLK
  5
382E
 67
     1
  8
0
  0
BLOCK
  8
0
  2
*U2
 70
     1
 10
0.0
 20
0.0
 30
0.0
  3
*U2
  1

  0
TEXT
  5
3685
  8
AM_0
 10
860.85028543159694
 20
244.12749145592969
 30
0.0
 40
16.0
  1
VX02-600SF
 41
0.8299999999999999
  0
ENDBLK
  5
3687
  8
0
  0
BLOCK
  8
0
  2
GENAXEH
 70
     0
 10
0.0
 20
0.0
 30
0.0
  3
GENAXEH
  1

  0
LINE
  5
38FE
  8
0
 10
-1.0
 20
0.0
 30
0.0
 11
1.0
 21
0.0
 31
0.0
  0
ENDBLK
  5
3900
  8
0
  0
BLOCK
  8
0
  2
_ACMFILLEDHALF
 70
     0
 10
0.0
 20
0.0
 30
0.0
  3
_ACMFILLEDHALF
  1

  0
TRACE
  5
390E
  8
AM_0
 62
     0
 10
-0.8
 20
0.0
 30
0.0
 11
-1.0
 21
0.166666666
 31
0.0
 12
0.0
 22
0.0
 32
0.0
 13
0.0
 23
0.0
 33
0.0
  0
LINE
  5
390F
  8
AM_0
 62
     0
 10
-1.0
 20
0.0
 30
0.0
 11
-0.8
 21
0.0
 31
0.0
  0
ENDBLK
  5
390D
  8
0
  0
ENDSEC
  0
SECTION
  2
ENTITIES
  0
LINE
  5
280C
  8
AM_0
 10
626.39947031808299
 20
753.14019785206654
 30
0.0
 11
671.39950031808291
 21
753.14019785206654
 31
0.0
  0
LINE
  5
280D
  8
AM_0
 10
626.39947031808299
 20
763.14016785206616
 30
0.0
 11
671.39950031808291
 21
763.14016785206616
 31
0.0
  0
LINE
  5
280E
  8
AM_0
 10
671.39950031808291
 20
742.14022785206623
 30
0.0
 11
613.39947031808299
 21
742.14022785206623
 31
0.0
  0
LINE
  5
280F
  8
AM_0
 10
671.39950031808291
 20
774.14022785206623
 30
0.0
 11
613.39947031808299
 21
774.14022785206623
 31
0.0
  0
LINE
  5
2810
  8
ﾁｭｳｼﾝｾﾝ
 10
182.78800554968529
 20
758.14019785206654
 30
0.0
 11
679.31228031808268
 21
758.14019785206654
 31
0.0
  0
LINE
  5
2811
  8
AM_0
 10
365.89941031808308
 20
726.20025785206633
 30
0.0
 11
401.99182031808289
 21
726.20025785206633
 31
0.0
  0
LINE
  5
2812
  8
AM_0
 10
365.89941031808308
 20
790.08010785206648
 30
0.0
 11
401.99182031808289
 21
790.08010785206648
 31
0.0
  0
LINE
  5
2813
  8
AM_0
 10
365.89941031808308
 20
712.14019785206654
 30
0.0
 11
407.24218031808277
 21
712.14019785206654
 31
0.0
  0
LINE
  5
2814
  8
AM_0
 10
365.8994703180831
 20
814.64022785206623
 30
0.0
 11
418.33081031808302
 21
816.4711578520662
 31
0.0
  0
LINE
  5
2815
  8
AM_0
 10
418.33075031808278
 20
699.80926785206645
 30
0.0
 11
365.8994703180831
 21
701.64019785206654
 31
0.0
  0
LINE
  5
2816
  8
AM_0
 10
365.89941031808308
 20
804.14022785206623
 30
0.0
 11
407.24218031808277
 21
804.14022785206623
 31
0.0
  0
POLYLINE
  5
29DC
  8
AM_0
 66
     1
 10
0.0
 20
0.0
 30
0.0
  0
VERTEX
  5
29DD
  8
AM_0
 10
587.06558031808299
 20
860.80629785206622
 30
0.0
 42
0.079826744
  0
VERTEX
  5
29DE
  8
AM_0
 10
561.22375031808281
 20
793.89985785206625
 30
0.0
 42
0.10414854
  0
VERTEX
  5
29DF
  8
AM_0
 10
561.22382031808286
 20
722.38015785206653
 30
0.0
 42
0.079826277
  0
VERTEX
  5
29E0
  8
AM_0
 10
587.06558031808299
 20
655.47405785206638
 30
0.0
  0
SEQEND
  5
29E1
  8
AM_0
  0
ARC
  5
29E2
  8
AM_0
 10
626.39947031808299
 20
758.14019785206654
 30
0.0
 40
5.0
 50
90.00000299999769
 51
270.0
  0
LINE
  5
29E3
  8
AM_0
 10
626.39947031808299
 20
763.14016785206616
 30
0.0
 11
626.39947031808299
 21
753.14019785206654
 31
0.0
  0
LINE
  5
29E4
  8
AM_0
 10
594.39947031808299
 20
644.06106785206634
 30
0.0
 11
594.39947031808299
 21
872.2193278520665
 31
0.0
  0
LINE
  5
29E5
  8
AM_0
 10
601.39947031808299
 20
667.54046785206629
 30
0.0
 11
601.39947031808299
 21
848.73995785206625
 31
0.0
  0
LINE
  5
29E6
  8
AM_0
 10
609.39947031808299
 20
640.64019785206665
 30
0.0
 11
609.39947031808299
 21
875.64022785206623
 31
0.0
  0
LINE
  5
29E7
  8
AM_0
 10
613.39947031808299
 20
653.1401678520665
 30
0.0
 11
613.39947031808299
 21
863.14022785206623
 31
0.0
  0
LINE
  5
29E8
  8
AM_0
 10
426.20215031808289
 20
747.37172785206633
 30
0.0
 11
426.20215031808289
 21
769.37221785206623
 31
0.0
  0
LINE
  5
29E9
  8
AM_0
 10
388.8994103180832
 20
748.14019785206654
 30
0.0
 11
388.8994103180832
 21
768.1401678520665
 31
0.0
  0
LINE
  5
29EA
  8
AM_0
 10
429.89941031808303
 20
688.85213785206645
 30
0.0
 11
429.89941031808303
 21
827.42818785206623
 31
0.0
  0
LINE
  5
29EB
  8
AM_0
 10
496.39941031808303
 20
658.64019785206665
 30
0.0
 11
496.39941031808303
 21
857.64016785206661
 31
0.0
  0
LINE
  5
29EC
  8
AM_0
 10
474.39941031808303
 20
667.21908785206654
 30
0.0
 11
474.39941031808303
 21
849.06130785206653
 31
0.0
  0
LINE
  5
29ED
  8
AM_0
 10
439.89947031808299
 20
684.64019785206654
 30
0.0
 11
439.89947031808299
 21
831.64016785206593
 31
0.0
  0
LINE
  5
29EE
  8
AM_0
 10
486.39941031808303
 20
693.06798785206627
 30
0.0
 11
486.39941031808303
 21
823.2124278520663
 31
0.0
  0
LINE
  5
29EF
  8
AM_0
 10
496.39947031808282
 20
658.64022785206635
 30
0.0
 11
585.09723031808312
 21
655.54281785206638
 31
0.0
  0
ARC
  5
29F0
  8
AM_0
 10
489.39941031808308
 20
661.88646785206652
 30
0.0
 40
3.0
 50
180.00001000000091
 51
268.0000000000029
  0
LINE
  5
29F1
  8
AM_0
 10
489.2947403180828
 20
658.88827785206627
 30
0.0
 11
496.39935031808272
 21
658.64019785206665
 31
0.0
  0
LINE
  5
29F2
  8
AM_0
 10
429.89941031808303
 20
696.5615478520665
 30
0.0
 11
474.39941031808303
 21
696.5615478520665
 31
0.0
  0
LINE
  5
29F3
  8
AM_0
 10
429.89941031808303
 20
718.66552785206648
 30
0.0
 11
474.39941031808303
 21
718.66552785206648
 31
0.0
  0
LINE
  5
29F4
  8
AM_0
 10
433.75982031808297
 20
684.85457785206654
 30
0.0
 11
471.96924031808283
 21
683.52025785206638
 31
0.0
  0
POLYLINE
  5
29F5
  8
AM_0
 66
     1
 10
0.0
 20
0.0
 30
0.0
  0
VERTEX
  5
29F6
  8
AM_0
 10
409.01921031808303
 20
712.7220778520666
 30
0.0
 42
0.011693549
  0
VERTEX
  5
29F7
  8
AM_0
 10
412.58209031808269
 20
708.22570785206653
 30
0.0
 42
0.011216814
  0
VERTEX
  5
29F8
  8
AM_0
 10
416.34697031808298
 20
703.89694785206655
 30
0.0
 42
0.011000278
  0
VERTEX
  5
29F9
  8
AM_0
 10
420.29907031808278
 20
699.74050785206634
 30
0.0
  0
SEQEND
  5
29FA
  8
AM_0
  0
ARC
  5
29FB
  8
AM_0
 10
433.89941031808303
 20
688.85213785206645
 30
0.0
 40
4.0
 50
180.00001000000091
 51
268.0000000000029
  0
ARC
  5
29FC
  8
AM_0
 10
424.93689031808299
 20
688.0316478520665
 30
0.0
 40
5.0
 50
5.2307202000000732
 51
44.999998000001611
  0
LINE
  5
29FD
  8
AM_0
 10
428.47247031808303
 20
691.56719785206633
 30
0.0
 11
421.69177031808277
 21
698.3478378520665
 31
0.0
  0
ARC
  5
29FE
  8
AM_0
 10
418.15625031808293
 20
694.81228785206645
 30
0.0
 40
5.0
 50
44.999998000001611
 51
88.000000000002785
  0
LINE
  5
29FF
  8
AM_0
 10
391.8994103180832
 20
745.14019785206654
 30
0.0
 11
423.20215031808289
 21
745.14019785206654
 31
0.0
  0
POLYLINE
  5
2A00
  8
AM_0
 66
     1
 10
0.0
 20
0.0
 30
0.0
  0
VERTEX
  5
2A01
  8
AM_0
 10
392.8690203180829
 20
745.14046785206654
 30
0.0
  0
VERTEX
  5
2A02
  8
AM_0
 10
400.29628031808301
 20
726.20105785206636
 30
0.0
 42
-1.0
  0
SEQEND
  5
2A03
  8
AM_0
  0
POLYLINE
  5
2A04
  8
AM_0
 66
     1
 10
0.0
 20
0.0
 30
0.0
  0
VERTEX
  5
2A05
  8
AM_0
 10
404.57749031808282
 20
724.72141785206622
 30
0.0
 42
0.0058779435
  0
VERTEX
  5
2A06
  8
AM_0
 10
405.78711031808302
 20
722.71983785206623
 30
0.0
 42
0.0056588804
  0
VERTEX
  5
2A07
  8
AM_0
 10
407.04258031808303
 20
720.74668785206654
 30
0.0
 42
0.0054619297
  0
VERTEX
  5
2A08
  8
AM_0
 10
408.34162031808302
 20
718.80193785206654
 30
0.0
 42
0.0052861412
  0
VERTEX
  5
2A09
  8
AM_0
 10
409.68215031808268
 20
716.88553785206648
 30
0.0
  0
SEQEND
  5
2A0A
  8
AM_0
  0
ARC
  5
2A0B
  8
AM_0
 10
407.24218031808277
 20
715.14019785206654
 30
0.0
 40
3.0
 50
270.0
 51
35.575756999997722
  0
ARC
  5
2A0C
  8
AM_0
 10
401.99182031808289
 20
723.20025785206633
 30
0.0
 40
3.0
 50
30.468076999999099
 51
90.00000299999769
  0
ARC
  5
2A0D
  8
AM_0
 10
391.8994103180832
 20
748.14019785206654
 30
0.0
 40
3.0
 50
180.00001000000091
 51
270.0
  0
ARC
  5
2A0E
  8
AM_0
 10
423.20215031808289
 20
742.14019785206654
 30
0.0
 40
3.0
 50
0.0
 51
90.00000299999769
  0
ARC
  5
2A0F
  8
AM_0
 10
477.39941031808308
 20
667.21908785206654
 30
0.0
 40
3.0
 50
180.00001000000091
 51
270.0
  0
ARC
  5
2A10
  8
AM_0
 10
477.39941031808308
 20
678.2501778520666
 30
0.0
 40
3.0
 50
180.00001000000091
 51
270.0
  0
LINE
  5
2A11
  8
AM_0
 10
474.39941031808303
 20
700.8226278520666
 30
0.0
 11
486.39941031808303
 21
700.8226278520666
 31
0.0
  0
LINE
  5
2A12
  8
AM_0
 10
474.39941031808303
 20
690.06798785206649
 30
0.0
 11
483.39941031808303
 21
690.06798785206649
 31
0.0
  0
ARC
  5
2A13
  8
AM_0
 10
471.39941031808303
 20
680.5383578520665
 30
0.0
 40
3.0
 50
0.0
 51
88.000000000002785
  0
ARC
  5
2A14
  8
AM_0
 10
483.39941031808303
 20
672.25017785206649
 30
0.0
 40
3.0
 50
0.0
 51
90.00000299999769
  0
ARC
  5
2A15
  8
AM_0
 10
483.43664031808288
 20
661.21908785206654
 30
0.0
 40
3.0
 50
6.3862994000021986
 51
90.00000299999769
  0
LINE
  5
2A16
  8
AM_0
 10
477.39941031808308
 20
664.21908785206654
 30
0.0
 11
483.43664031808288
 21
664.21908785206654
 31
0.0
  0
LINE
  5
2A17
  8
AM_0
 10
486.39941031808303
 20
661.88646785206652
 30
0.0
 11
486.39941031808303
 21
672.25017785206649
 31
0.0
  0
LINE
  5
2A18
  8
AM_0
 10
477.39941031808308
 20
675.2501778520666
 30
0.0
 11
483.39941031808303
 21
675.2501778520666
 31
0.0
  0
ARC
  5
2A19
  8
AM_0
 10
483.39941031808303
 20
693.06798785206627
 30
0.0
 40
3.0
 50
269.999989999999
 51
0.0000006832495047
  0
LINE
  5
2A1A
  8
AM_0
 10
597.29480031808293
 20
641.0628978520665
 30
0.0
 11
609.39947031808299
 21
640.64019785206665
 31
0.0
  0
LINE
  5
2A1B
  8
AM_0
 10
588.4582803180831
 20
654.0813578520665
 30
0.0
 11
594.39950031808291
 21
648.14013785206635
 31
0.0
  0
ARC
  5
2A1C
  8
AM_0
 10
584.92273031808293
 20
650.5458378520666
 30
0.0
 40
5.0
 50
45.000000999999187
 51
88.000000000002785
  0
ARC
  5
2A1D
  8
AM_0
 10
597.39947031808299
 20
644.06106785206634
 30
0.0
 40
3.0
 50
179.999989999999
 51
268.00000999999861
  0
LINE
  5
2A1E
  8
AM_0
 10
609.39947031808299
 20
653.1401678520665
 30
0.0
 11
613.39947031808299
 21
653.1401678520665
 31
0.0
  0
ARC
  5
2A20
  8
AM_0
 10
598.39947031808299
 20
667.54046785206629
 30
0.0
 40
3.0
 50
268.0000000000029
 51
0.0
  0
LINE
  5
2A21
  8
AM_0
 10
598.114930318083
 20
664.5485778520665
 30
0.0
 11
598.29477031808301
 21
664.54229785206655
 31
0.0
  0
ARC
  5
2A22
  8
AM_0
 10
597.39947031808299
 20
699.2294578520665
 30
0.0
 40
3.0
 50
90.00000299999769
 51
180.00001000000091
  0
LINE
  5
2A23
  8
AM_0
 10
597.39947031808299
 20
702.22945785206628
 30
0.0
 11
601.39947031808299
 21
702.22945785206628
 31
0.0
  0
LINE
  5
2A24
  8
AM_0
 10
496.39947031808282
 20
857.64016785206661
 30
0.0
 11
585.09723031808312
 21
860.73757785206624
 31
0.0
  0
ARC
  5
2A25
  8
AM_0
 10
489.39941031808308
 20
854.39394785206639
 30
0.0
 40
3.0
 50
91.999998000000545
 51
180.00001000000091
  0
LINE
  5
2A26
  8
AM_0
 10
429.89941031808303
 20
819.7188378520666
 30
0.0
 11
474.39941031808303
 21
819.7188378520666
 31
0.0
  0
LINE
  5
2A27
  8
AM_0
 10
429.89941031808303
 20
797.61489785206618
 30
0.0
 11
474.39941031808303
 21
797.61489785206618
 31
0.0
  0
LINE
  5
2A28
  8
AM_0
 10
433.75988031808311
 20
831.42574785206591
 30
0.0
 11
471.50415031808268
 21
832.74386785206639
 31
0.0
  0
POLYLINE
  5
2A29
  8
AM_0
 66
     1
 10
0.0
 20
0.0
 30
0.0
  0
VERTEX
  5
2A2A
  8
AM_0
 10
409.01921031808303
 20
803.55830785206615
 30
0.0
 42
-0.011693549
  0
VERTEX
  5
2A2B
  8
AM_0
 10
412.58209031808269
 20
808.05467785206633
 30
0.0
 42
-0.011216814
  0
VERTEX
  5
2A2C
  8
AM_0
 10
416.34697031808298
 20
812.38344785206584
 30
0.0
 42
-0.011000278
  0
VERTEX
  5
2A2D
  8
AM_0
 10
420.29907031808278
 20
816.5398878520665
 30
0.0
  0
SEQEND
  5
2A2E
  8
AM_0
  0
LINE
  5
2A2F
  8
AM_0
 10
391.8994103180832
 20
771.14016785206616
 30
0.0
 11
423.20215031808289
 21
771.14016785206616
 31
0.0
  0
POLYLINE
  5
2A30
  8
AM_0
 66
     1
 10
0.0
 20
0.0
 30
0.0
  0
VERTEX
  5
2A31
  8
AM_0
 10
392.8690203180829
 20
771.13991785206622
 30
0.0
  0
VERTEX
  5
2A32
  8
AM_0
 10
400.29628031808301
 20
790.0793378520666
 30
0.0
 42
-1.0
  0
SEQEND
  5
2A33
  8
AM_0
  0
ARC
  5
2A34
  8
AM_0
 10
391.8994103180832
 20
768.1401678520665
 30
0.0
 40
3.0
 50
90.00000299999769
 51
180.00001000000091
  0
POLYLINE
  5
2A35
  8
AM_0
 66
     1
 10
0.0
 20
0.0
 30
0.0
  0
VERTEX
  5
2A36
  8
AM_0
 10
404.57749031808282
 20
791.55896785206653
 30
0.0
 42
-0.0058779435
  0
VERTEX
  5
2A37
  8
AM_0
 10
405.78711031808302
 20
793.56054785206652
 30
0.0
 42
-0.0056588804
  0
VERTEX
  5
2A38
  8
AM_0
 10
407.04258031808303
 20
795.53369785206655
 30
0.0
 42
-0.0054619297
  0
VERTEX
  5
2A39
  8
AM_0
 10
408.34162031808302
 20
797.47845785206653
 30
0.0
 42
-0.0052861412
  0
VERTEX
  5
2A3A
  8
AM_0
 10
409.68215031808268
 20
799.39485785206614
 30
0.0
  0
SEQEND
  5
2A3B
  8
AM_0
  0
ARC
  5
2A3C
  8
AM_0
 10
401.99182031808289
 20
793.08010785206648
 30
0.0
 40
3.0
 50
270.0
 51
329.53192000000138
  0
ARC
  5
2A3D
  8
AM_0
 10
407.24218031808277
 20
801.14022785206623
 30
0.0
 40
3.0
 50
324.42424000000028
 51
90.00000299999769
  0
ARC
  5
2A3E
  8
AM_0
 10
423.20215031808289
 20
774.1401678520665
 30
0.0
 40
3.0
 50
270.0
 51
0.0
  0
ARC
  5
2A3F
  8
AM_0
 10
433.89941031808303
 20
827.42818785206623
 30
0.0
 40
4.0
 50
91.999998000000545
 51
180.00001000000091
  0
ARC
  5
2A40
  8
AM_0
 10
424.93689031808299
 20
828.24874785206623
 30
0.0
 40
5.0
 50
315.0
 51
354.76905999999752
  0
LINE
  5
2A41
  8
AM_0
 10
421.69183031808308
 20
817.93258785206615
 30
0.0
 11
428.47247031808303
 21
824.71322785206632
 31
0.0
  0
ARC
  5
2A42
  8
AM_0
 10
418.15625031808293
 20
821.46810785206662
 30
0.0
 40
5.0
 50
271.99999999999721
 51
315.0
  0
ARC
  5
2A43
  8
AM_0
 10
477.39941031808308
 20
849.06130785206653
 30
0.0
 40
3.0
 50
90.00000299999769
 51
180.00001000000091
  0
ARC
  5
2A44
  8
AM_0
 10
477.39941031808308
 20
838.03023785206653
 30
0.0
 40
3.0
 50
90.00000299999769
 51
180.00001000000091
  0
LINE
  5
2A45
  8
AM_0
 10
474.39941031808303
 20
826.21242785206664
 30
0.0
 11
483.39941031808303
 21
826.21242785206664
 31
0.0
  0
LINE
  5
2A46
  8
AM_0
 10
474.39941031808303
 20
815.45778785206653
 30
0.0
 11
486.39941031808303
 21
815.45778785206653
 31
0.0
  0
ARC
  5
2A47
  8
AM_0
 10
471.39941031808303
 20
835.74202785206649
 30
0.0
 40
3.0
 50
271.99999999999721
 51
0.0
  0
ARC
  5
2A48
  8
AM_0
 10
483.39941031808303
 20
823.2124278520663
 30
0.0
 40
3.0
 50
0.0
 51
90.00000299999769
  0
LINE
  5
2A49
  8
AM_0
 10
486.39941031808303
 20
854.39394785206639
 30
0.0
 11
486.39941031808303
 21
844.03023785206665
 31
0.0
  0
ARC
  5
2A4A
  8
AM_0
 10
483.39941031808303
 20
844.03023785206665
 30
0.0
 40
3.0
 50
269.999989999999
 51
0.0000006832495047
  0
LINE
  5
2A4B
  8
AM_0
 10
477.39941031808308
 20
841.03023785206653
 30
0.0
 11
483.39941031808303
 21
841.03023785206653
 31
0.0
  0
ARC
  5
2A4C
  8
AM_0
 10
483.43664031808288
 20
855.06130785206653
 30
0.0
 40
3.0
 50
269.999989999999
 51
353.61369000000383
  0
LINE
  5
2A4D
  8
AM_0
 10
477.39941031808308
 20
852.06130785206619
 30
0.0
 11
483.43664031808288
 21
852.06130785206619
 31
0.0
  0
LINE
  5
2A4E
  8
AM_0
 10
489.2947403180828
 20
857.39211785206612
 30
0.0
 11
496.39941031808303
 21
857.64022785206623
 31
0.0
  0
ARC
  5
2A50
  8
AM_0
 10
597.39947031808299
 20
817.05092785206648
 30
0.0
 40
3.0
 50
179.999989999999
 51
270.0
  0
LINE
  5
2A51
  8
AM_0
 10
597.39947031808299
 20
814.05092785206625
 30
0.0
 11
601.39947031808299
 21
814.05092785206625
 31
0.0
  0
ARC
  5
2A52
  8
AM_0
 10
598.39947031808299
 20
848.73995785206625
 30
0.0
 40
3.0
 50
0.0
 51
91.999998000000545
  0
LINE
  5
2A53
  8
AM_0
 10
598.114930318083
 20
851.73177785206633
 30
0.0
 11
598.29474031808309
 21
851.73806785206614
 31
0.0
  0
LINE
  5
2A54
  8
AM_0
 10
597.29477031808301
 20
875.21749785206612
 30
0.0
 11
609.39947031808299
 21
875.6401678520665
 31
0.0
  0
LINE
  5
2A55
  8
AM_0
 10
588.4582803180831
 20
862.19900785206653
 30
0.0
 11
594.39950031808291
 21
868.14022785206623
 31
0.0
  0
ARC
  5
2A56
  8
AM_0
 10
584.92273031808293
 20
865.73452785206655
 30
0.0
 40
5.0
 50
271.99999999999721
 51
315.0
  0
ARC
  5
2A57
  8
AM_0
 10
597.39947031808299
 20
872.2193278520665
 30
0.0
 40
3.0
 50
91.999998000000545
 51
180.00001000000091
  0
LINE
  5
2A58
  8
AM_0
 10
609.39947031808299
 20
863.14022785206623
 30
0.0
 11
613.39947031808299
 21
863.14022785206623
 31
0.0
  0
LINE
  5
2A59
  8
AM_0
 10
671.39950031808291
 20
742.14022785206623
 30
0.0
 11
671.39950031808291
 21
774.14022785206623
 31
0.0
  0
LINE
  5
2FB6
  8
AM_0
 10
203.899410318083
 20
823.74018285206694
 30
0.0
 11
347.3994103180832
 21
823.74018285206648
 31
0.0
  0
LINE
  5
2FB7
  8
AM_0
 10
265.39941031808303
 20
692.54018285206666
 30
0.0
 11
347.39941031808303
 21
692.54018285206655
 31
0.0
  0
LINE
  5
2FB8
  8
AM_0
 10
201.899410318083
 20
821.74018285206671
 30
0.0
 11
201.899410318083
 21
694.54018285206655
 31
0.0
  0
LINE
  5
2FB9
  8
AM_0
 10
204.399410318083
 20
823.74018285206694
 30
0.0
 11
204.399410318083
 21
692.54018285206655
 31
0.0
  0
ARC
  5
2FBA
  8
AM_0
 10
1136.5855341279021
 20
758.14018285206623
 30
0.0
 40
940.68612380981915
 50
176.76392470776139
 51
183.2360752922385
  0
LINE
  5
2FBB
  8
AM_0
 10
197.399410318083
 20
811.24205072344603
 30
0.0
 11
197.399410318083
 21
705.03831498068701
 31
0.0
  0
LINE
  5
2FBC
  8
AM_0
 10
263.39941031808303
 20
680.48778462183486
 30
0.0
 11
209.399410318083
 21
680.48778462183486
 31
0.0
  0
LINE
  5
2FBD
  8
AM_0
 10
263.39941031808291
 20
677.08018362312816
 30
0.0
 11
209.399410318083
 21
677.08018362312816
 31
0.0
  0
LINE
  5
2FBE
  8
AM_0
 10
225.899410318083
 20
688.99058691937194
 30
0.0
 11
221.899410318083
 21
688.99058691937137
 31
0.0
  0
LINE
  5
2FBF
  8
AM_0
 10
237.899410318083
 20
701.84938987259761
 30
0.0
 11
221.899410318083
 21
701.84938987259761
 31
0.0
1001
GENIUS_GENOREF_13
1005
2FF0
  0
LINE
  5
2FC0
  8
AM_0N
 10
221.899410318083
 20
698.29760558087844
 30
0.0
 11
237.899410318083
 21
698.29760558087844
 31
0.0
1001
GENIUS_GENOREF_13
1005
0
  0
ARC
  5
2FC1
  8
AM_0
 10
209.399410318083
 20
695.88120987888715
 30
0.0
 40
2.0
 50
90.0
 51
180.0
1001
GENIUS_GENOBJ-N-FIL_13
1002
{
1000
OWNER
1000
GEN
1002
}
1001
GENIUS_GENODEF_13
1002
{
1000
HIER
1070
     0
1002
}
1002
{
1000
MANEDIT
1070
     0
1002
}
1002
{
1000
NOSEL
1070
     0
1002
}
1002
{
1000
BEHIND
1070
     0
1002
}
1002
{
1000
OTHER
1070
     0
1002
}
1002
{
1000
REACTOR
1002
}
  0
LINE
  5
2FC2
  8
AM_0
 10
221.899410318083
 20
701.84938987259761
 30
0.0
 11
221.899410318083
 21
688.99058691937137
 31
0.0
  0
ARC
  5
2FC3
  8
AM_0
 10
209.399410318083
 20
682.48778462183509
 30
0.0
 40
2.0
 50
180.0
 51
270.0
1001
GENIUS_GENODEF_13
1002
{
1000
HIER
1070
     0
1002
}
1002
{
1000
MANEDIT
1070
     0
1002
}
1002
{
1000
NOSEL
1070
     0
1002
}
1002
{
1000
BEHIND
1070
     0
1002
}
1002
{
1000
OTHER
1070
     0
1002
}
1002
{
1000
REACTOR
1002
}
1001
GENIUS_GENOBJ-N-FIL_13
1002
{
1000
OWNER
1000
GEN
1002
}
  0
ARC
  5
2FC4
  8
AM_0
 10
209.399410318083
 20
679.08018362312839
 30
0.0
 40
2.0
 50
180.0
 51
270.0
1001
GENIUS_GENOBJ-N-FIL_13
1002
{
1000
OWNER
1000
GEN
1002
}
1001
GENIUS_GENODEF_13
1002
{
1000
HIER
1070
     0
1002
}
1002
{
1000
MANEDIT
1070
     0
1002
}
1002
{
1000
NOSEL
1070
     0
1002
}
1002
{
1000
BEHIND
1070
     0
1002
}
1002
{
1000
OTHER
1070
     0
1002
}
1002
{
1000
REACTOR
1002
}
  0
LINE
  5
2FC5
  8
AM_0
 10
207.399410318083
 20
695.88120987888715
 30
0.0
 11
207.399410318083
 21
679.08018362312839
 31
0.0
  0
LINE
  5
2FC6
  8
AM_0
 10
203.899410318083
 20
692.54018285206655
 30
0.0
 11
207.399410318083
 21
692.54018285206632
 31
0.0
  0
ARC
  5
2FC7
  8
AM_0
 10
203.899410318083
 20
694.54018285206655
 30
0.0
 40
2.0
 50
180.0
 51
270.0
1001
GENIUS_GENOBJ-N-FIL_13
1002
{
1000
OWNER
1000
GEN
1002
}
1001
GENIUS_GENODEF_13
1002
{
1000
HIER
1070
     0
1002
}
1002
{
1000
MANEDIT
1070
     0
1002
}
1002
{
1000
NOSEL
1070
     0
1002
}
1002
{
1000
BEHIND
1070
     0
1002
}
1002
{
1000
OTHER
1070
     0
1002
}
1002
{
1000
REACTOR
1002
}
  0
LINE
  5
2FC8
  8
AM_0
 10
201.2281379957428
 20
700.73686936081344
 30
0.0
 11
198.0706826404232
 21
703.54349634331948
 31
0.0
  0
ARC
  5
2FC9
  8
AM_0
 10
199.399410318083
 20
705.03831498068701
 30
0.0
 40
2.0
 50
180.0
 51
228.36646066343241
1001
GENIUS_GENODEF_13
1002
{
1000
HIER
1070
     0
1002
}
1002
{
1000
MANEDIT
1070
     0
1002
}
1002
{
1000
NOSEL
1070
     0
1002
}
1002
{
1000
BEHIND
1070
     0
1002
}
1002
{
1000
OTHER
1070
     0
1002
}
1002
{
1000
REACTOR
1002
}
1001
GENIUS_GENOBJ-N-FIL_13
1002
{
1000
OWNER
1000
GEN
1002
}
  0
ARC
  5
2FCA
  8
AM_0
 10
199.899410318083
 20
699.24205072344603
 30
0.0
 40
2.0
 50
0.0
 51
48.36646066343252
1001
GENIUS_GENOBJ-N-FIL_13
1002
{
1000
OWNER
1000
GEN
1002
}
1001
GENIUS_GENODEF_13
1002
{
1000
HIER
1070
     0
1002
}
1002
{
1000
MANEDIT
1070
     0
1002
}
1002
{
1000
NOSEL
1070
     0
1002
}
1002
{
1000
BEHIND
1070
     0
1002
}
1002
{
1000
OTHER
1070
     0
1002
}
1002
{
1000
REACTOR
1002
}
  0
LINE
  5
2FCB
  8
AM_0
 10
221.899410318083
 20
697.8812098788876
 30
0.0
 11
209.399410318083
 21
697.88120987888749
 31
0.0
  0
LINE
  5
2FCC
  8
AM_0
 10
263.39941031808303
 20
697.88120987888749
 30
0.0
 11
237.899410318083
 21
697.88120987888749
 31
0.0
  0
ARC
  5
2FCD
  8
AM_0N
 10
228.38129740109281
 20
697.41402507064686
 30
0.0
 40
1.1999999999999991
 50
184.99999999999969
 51
246.4528627629243
1001
GENIUS_GENOREF_13
1005
0
  0
ARC
  5
2FCE
  8
AM_0N
 10
231.41752323507319
 20
697.41402507064686
 30
0.0
 40
1.1999999999999991
 50
293.54713723707567
 51
355.00000000000023
1001
GENIUS_GENOREF_13
1005
0
  0
LINE
  5
2FCF
  8
AM_3N
  6
AM_ISO02W050X2
 10
228.399410318083
 20
696.12790957379354
 30
0.0
 11
229.899410318083
 21
698.01531960235275
 31
0.0
1001
GENIUS_GENOREF_13
1005
0
  0
LINE
  5
2FD0
  8
AM_3N
  6
AM_ISO02W050X2
 10
230.15191031808291
 20
695.90398527592947
 30
0.0
 11
230.15191031808291
 21
697.69760558087819
 31
0.0
1001
GENIUS_GENOREF_13
1005
0
  0
LINE
  5
2FD1
  8
AM_3N
  6
AM_ISO02W050X2
 10
229.646910318083
 20
695.90398527592947
 30
0.0
 11
229.646910318083
 21
697.69760558087819
 31
0.0
1001
GENIUS_GENOREF_13
1005
0
  0
LINE
  5
2FD2
  8
AM_3N
  6
AM_ISO02W050X2
 10
231.399410318083
 20
696.12790957379354
 30
0.0
 11
229.899410318083
 21
698.01531960235275
 31
0.0
1001
GENIUS_GENOREF_13
1005
0
  0
LINE
  5
2FD3
  8
AM_0
 10
237.899410318083
 20
701.84938987259761
 30
0.0
 11
237.899410318083
 21
688.99058691937137
 31
0.0
  0
LINE
  5
2FD4
  8
AM_0
 10
233.89941031808311
 20
698.29760558087844
 30
0.0
 11
233.89941031808311
 21
688.99058691937194
 31
0.0
  0
LINE
  5
2FD5
  8
AM_0
 10
225.899410318083
 20
698.29760558087844
 30
0.0
 11
225.899410318083
 21
688.99058691937137
 31
0.0
  0
LINE
  5
2FD6
  8
AM_0
 10
233.89941031808311
 20
694.26664971788091
 30
0.0
 11
225.899410318083
 21
694.26664971788091
 31
0.0
  0
ARC
  5
2FD7
  8
AM_0N
 10
229.899410318083
 20
700.89760558087835
 30
0.0
 40
5.0
 50
246.4528627629243
 51
293.54713723707567
1001
GENIUS_GENOREF_13
1005
0
  0
LINE
  5
2FD8
  8
AM_0
 10
237.899410318083
 20
688.99058691937137
 30
0.0
 11
233.89941031808311
 21
688.99058691937194
 31
0.0
  0
LINE
  5
2FD9
  8
AM_0N
 10
227.18586376338271
 20
697.30943817934963
 30
0.0
 11
227.09941031808299
 21
698.29760558087844
 31
0.0
1001
GENIUS_GENOREF_13
1005
0
  0
LINE
  5
2FDA
  8
AM_3N
  6
AM_ISO02W050X2
 10
230.15191031808291
 20
697.69760558087819
 30
0.0
 11
229.646910318083
 21
697.69760558087819
 31
0.0
1001
GENIUS_GENOREF_13
1005
0
  0
LINE
  5
2FDB
  8
AM_0N
 10
232.6129568727834
 20
697.30943817934963
 30
0.0
 11
232.69941031808301
 21
698.29760558087844
 31
0.0
1001
GENIUS_GENOREF_13
1005
0
  0
ARC
  5
2FDC
  8
AM_0
 10
263.39941031808303
 20
695.88120987888715
 30
0.0
 40
2.0
 50
0.0
 51
90.0
1001
GENIUS_GENODEF_13
1002
{
1000
HIER
1070
     0
1002
}
1002
{
1000
MANEDIT
1070
     0
1002
}
1002
{
1000
NOSEL
1070
     0
1002
}
1002
{
1000
BEHIND
1070
     0
1002
}
1002
{
1000
OTHER
1070
     0
1002
}
1002
{
1000
REACTOR
1002
}
1001
GENIUS_GENOBJ-N-FIL_13
1002
{
1000
OWNER
1000
GEN
1002
}
  0
LINE
  5
2FDD
  8
AM_0
 10
265.39941031808303
 20
695.88120987888715
 30
0.0
 11
265.39941031808291
 21
679.08018362312805
 31
0.0
  0
ARC
  5
2FDE
  8
AM_0
 10
263.39941031808291
 20
679.08018362312805
 30
0.0
 40
2.0
 50
270.0
 51
0.0
1001
GENIUS_GENOBJ-N-FIL_13
1002
{
1000
OWNER
1000
GEN
1002
}
1001
GENIUS_GENODEF_13
1002
{
1000
HIER
1070
     0
1002
}
1002
{
1000
MANEDIT
1070
     0
1002
}
1002
{
1000
NOSEL
1070
     0
1002
}
1002
{
1000
BEHIND
1070
     0
1002
}
1002
{
1000
OTHER
1070
     0
1002
}
1002
{
1000
REACTOR
1002
}
  0
ARC
  5
2FDF
  8
AM_0
 10
263.39941031808303
 20
682.48778462183509
 30
0.0
 40
2.0
 50
270.0
 51
0.0
1001
GENIUS_GENOBJ-N-FIL_13
1002
{
1000
OWNER
1000
GEN
1002
}
1001
GENIUS_GENODEF_13
1002
{
1000
HIER
1070
     0
1002
}
1002
{
1000
MANEDIT
1070
     0
1002
}
1002
{
1000
NOSEL
1070
     0
1002
}
1002
{
1000
BEHIND
1070
     0
1002
}
1002
{
1000
OTHER
1070
     0
1002
}
1002
{
1000
REACTOR
1002
}
  0
ARC
  5
2FE0
  8
AM_0
 10
199.399410318083
 20
811.24205072344603
 30
0.0
 40
2.0
 50
131.63353933656751
 51
180.0
1001
GENIUS_GENODEF_13
1002
{
1000
HIER
1070
     0
1002
}
1002
{
1000
MANEDIT
1070
     0
1002
}
1002
{
1000
NOSEL
1070
     0
1002
}
1002
{
1000
BEHIND
1070
     0
1002
}
1002
{
1000
OTHER
1070
     0
1002
}
1002
{
1000
REACTOR
1002
}
1001
GENIUS_GENOBJ-N-FIL_13
1002
{
1000
OWNER
1000
GEN
1002
}
  0
LINE
  5
2FE1
  8
AM_0
 10
186.399410318083
 20
775.14018285206623
 30
0.0
 11
186.399410318083
 21
741.14018285206623
 31
0.0
  0
LINE
  5
2FE2
  8
AM_0
 10
189.399410318083
 20
738.14018285206623
 30
0.0
 11
196.11204511912521
 21
738.14018285206623
 31
0.0
  0
ARC
  5
2FE3
  8
AM_0
 10
189.399410318083
 20
741.14018285206623
 30
0.0
 40
3.0
 50
180.0
 51
270.0
1001
GENIUS_GENODEF_13
1002
{
1000
HIER
1070
     0
1002
}
1002
{
1000
MANEDIT
1070
     0
1002
}
1002
{
1000
NOSEL
1070
     0
1002
}
1002
{
1000
BEHIND
1070
     0
1002
}
1002
{
1000
OTHER
1070
     0
1002
}
1002
{
1000
REACTOR
1002
}
1001
GENIUS_GENOBJ-N-FIL_13
1002
{
1000
OWNER
1000
GEN
1002
}
  0
LINE
  5
2FE4
  8
AM_0
 10
189.399410318083
 20
778.14018285206635
 30
0.0
 11
196.11204511912521
 21
778.14018285206635
 31
0.0
  0
ARC
  5
2FE5
  8
AM_0
 10
189.399410318083
 20
775.14018285206623
 30
0.0
 40
3.0
 50
90.0
 51
180.0
1001
GENIUS_GENOBJ-N-FIL_13
1002
{
1000
OWNER
1000
GEN
1002
}
1001
GENIUS_GENODEF_13
1002
{
1000
HIER
1070
     0
1002
}
1002
{
1000
MANEDIT
1070
     0
1002
}
1002
{
1000
NOSEL
1070
     0
1002
}
1002
{
1000
BEHIND
1070
     0
1002
}
1002
{
1000
OTHER
1070
     0
1002
}
1002
{
1000
REACTOR
1002
}
  0
ARC
  5
2FE6
  8
AM_0
 10
203.899410318083
 20
821.74018285206671
 30
0.0
 40
2.0
 50
90.0
 51
180.0
1001
GENIUS_GENOBJ-N-FIL_13
1002
{
1000
OWNER
1000
GEN
1002
}
1001
GENIUS_GENODEF_13
1002
{
1000
HIER
1070
     0
1002
}
1002
{
1000
MANEDIT
1070
     0
1002
}
1002
{
1000
NOSEL
1070
     0
1002
}
1002
{
1000
BEHIND
1070
     0
1002
}
1002
{
1000
OTHER
1070
     0
1002
}
1002
{
1000
REACTOR
1002
}
  0
LINE
  5
2FE7
  8
AM_0
 10
201.2281379957428
 20
815.5434963433197
 30
0.0
 11
198.0706826404232
 21
812.73686936081344
 31
0.0
  0
ARC
  5
2FE8
  8
AM_0
 10
199.899410318083
 20
817.03831498068701
 30
0.0
 40
2.0
 50
311.63353933656748
 51
0.0
1001
GENIUS_GENOBJ-N-FIL_13
1002
{
1000
OWNER
1000
GEN
1002
}
1001
GENIUS_GENODEF_13
1002
{
1000
HIER
1070
     0
1002
}
1002
{
1000
MANEDIT
1070
     0
1002
}
1002
{
1000
NOSEL
1070
     0
1002
}
1002
{
1000
BEHIND
1070
     0
1002
}
1002
{
1000
OTHER
1070
     0
1002
}
1002
{
1000
REACTOR
1002
}
  0
LINE
  5
2FE9
  8
AM_0
 10
347.39941031808303
 20
824.14018285206612
 30
0.0
 11
347.39941031808303
 21
692.14018285206635
 31
0.0
  0
LINE
  5
2FEA
  8
AM_0
 10
358.89941031808308
 20
824.14018285206612
 30
0.0
 11
358.89941031808308
 21
692.14018285206635
 31
0.0
  0
LINE
  5
2FEB
  8
AM_0
 10
347.39941031808303
 20
692.14018285206635
 30
0.0
 11
358.89941031808308
 21
692.14018285206635
 31
0.0
  0
LINE
  5
2FEC
  8
AM_0
 10
365.89941031808308
 20
695.14018285206646
 30
0.0
 11
358.89941031808308
 21
692.14018285206635
 31
0.0
  0
LINE
  5
2FED
  8
AM_0
 10
347.39941031808303
 20
824.14018285206612
 30
0.0
 11
358.89941031808308
 21
824.14018285206612
 31
0.0
  0
LINE
  5
2FEE
  8
AM_0
 10
358.89941031808308
 20
824.14018285206612
 30
0.0
 11
365.89941031808308
 21
821.14018285206623
 31
0.0
  0
LINE
  5
2FEF
  8
AM_0
 10
365.89941031808308
 20
821.14018285206623
 30
0.0
 11
365.89941031808308
 21
695.14018285206646
 31
0.0
  0
POINT
  5
2FF0
  8
0
 10
80.025171716774665
 20
202.83933643531421
 30
0.0
1001
GENIUS_GENOLIS_13
1002
{
1000
ENT
1005
0
1005
0
1005
0
1005
2FBF
1002
}
1001
GENIUS_GENOENT_13
1002
{
1000
MYREF
1005
2FF0
1002
}
1002
{
1000
GRP
1005
0
1002
}
1001
GENIUS_GENOBJ-NBEHI-BHB_13
1002
{
1000
OWNER
1000
genbehi
1002
}
1001
GENIUS_GENBH_13
1002
{
1000
FGO
1005
0
1002
}
1001
GENIUS_GENODEF_13
1002
{
1000
HIER
1070
     1
1002
}
1002
{
1000
MANEDIT
1070
     1
1002
}
1002
{
1000
NOSEL
1070
     1
1002
}
1002
{
1000
BEHIND
1070
     0
1002
}
1002
{
1000
OTHER
1070
     1
1002
}
1002
{
1000
REACTOR
1002
}
  0
LINE
  5
3287
  8
ﾁｭｳｼﾝｾﾝ
 10
674.51782031808295
 20
423.9174664703811
 30
0.0
 11
451.84915031808282
 21
423.9174664703811
 31
0.0
  0
LINE
  5
3288
  8
AM_0
 10
671.39950031808291
 20
439.9174654703811
 30
0.0
 11
613.39951031808312
 21
439.9174654703811
 31
0.0
  0
LINE
  5
3289
  8
AM_0
 10
671.39950031808291
 20
442.91746547038099
 30
0.0
 11
626.3994703180831
 21
442.91746547038099
 31
0.0
  0
LINE
  5
328A
  8
AM_0
 10
671.39950031808291
 20
407.91749747038108
 30
0.0
 11
613.39951031808312
 21
407.91749747038108
 31
0.0
  0
ARC
  5
328E
  8
AM_0
 10
433.89949031808311
 20
465.70551347038111
 30
0.0
 40
4.000000199999997
 50
91.999997999994008
 51
180.93197999999961
  0
LINE
  5
328F
  8
AM_0
 10
439.89949031808311
 20
321.9174784703813
 30
0.0
 11
439.89949031808311
 21
469.91745347038119
 31
0.0
  0
LINE
  5
3290
  8
AM_0
 10
601.39951031808312
 20
423.9174664703811
 30
0.0
 11
601.39951031808312
 21
514.51719347038124
 31
0.0
  0
LINE
  5
3291
  8
AM_0
 10
609.39949031808305
 20
423.9174664703811
 30
0.0
 11
609.39949031808305
 21
541.41750347038112
 31
0.0
  0
LINE
  5
3292
  8
AM_0
 10
594.39949031808305
 20
395.15322947038118
 30
0.0
 11
594.39949031808305
 21
482.82822347038098
 31
0.0
  0
LINE
  5
3293
  8
AM_0
 10
582.28735031808276
 20
472.95450347038133
 30
0.0
 11
577.86664031808311
 21
430.35063347038101
 31
0.0
  0
LINE
  5
3294
  8
AM_0
 10
613.39951031808312
 20
318.9174784703813
 30
0.0
 11
613.39951031808312
 21
528.91749347038126
 31
0.0
  0
LINE
  5
3295
  8
AM_0
 10
474.39949031808322
 20
486.94152347038113
 30
0.0
 11
474.39949031808322
 21
304.8940414703813
 31
0.0
  0
LINE
  5
3296
  8
AM_0
 10
496.39951031808312
 20
495.41745347038108
 30
0.0
 11
496.39951031808312
 21
296.4174784703813
 31
0.0
  0
LINE
  5
3297
  8
AM_0
 10
223.89948031808311
 20
401.91751797038103
 30
0.0
 11
235.89948031808311
 21
401.91751797038103
 31
0.0
1001
GENIUS_GENOREF_13
1005
343E
  0
LINE
  5
3298
  8
AM_0
 10
208.39948031808311
 20
393.91751797038131
 30
0.0
 11
264.39948031808308
 21
393.91751797038131
 31
0.0
1001
GENIUS_GENOREF_13
1005
343E
  0
LINE
  5
3299
  8
AM_0
 10
203.89948031808319
 20
433.51751797038139
 30
0.0
 11
347.39948031808302
 21
433.51751797038111
 31
0.0
  0
LINE
  5
329A
  8
AM_0
 10
223.89948031808311
 20
339.91751797038131
 30
0.0
 11
235.89948031808311
 21
339.91751797038131
 31
0.0
  0
LINE
  5
329B
  8
AM_0
 10
203.89948031808311
 20
302.31751797038118
 30
0.0
 11
251.39948031808311
 21
302.31751797038118
 31
0.0
  0
LINE
  5
329C
  8
AM_0
 10
208.39948031808311
 20
347.91751797038108
 30
0.0
 11
264.39948031808308
 21
347.91751797038108
 31
0.0
  0
LINE
  5
329D
  8
ﾁｭｳｼﾝｾﾝ
 10
468.76150031808288
 20
367.91748047038129
 30
0.0
 11
182.78800554968529
 21
367.91748047038129
 31
0.0
  0
ARC
  5
329E
  8
AM_0
 10
1136.5856041279019
 20
367.91751797038091
 30
0.0
 40
940.68612380981915
 50
176.76392470776159
 51
183.2360752922383
  0
LINE
  5
329F
  8
AM_0
 10
197.39948031808311
 20
421.01938584176071
 30
0.0
 11
197.39948031808311
 21
314.8156500990018
 31
0.0
  0
LINE
  5
32A0
  8
AM_0
 10
201.89948031808319
 20
431.51751797038111
 30
0.0
 11
201.89948031808311
 21
304.31751797038118
 31
0.0
  0
LINE
  5
32A1
  8
AM_0
 10
204.39948031808311
 20
433.51751797038111
 30
0.0
 11
204.39948031808311
 21
302.31751797038118
 31
0.0
  0
LINE
  5
32A3
  8
AM_0
 10
201.22820799574291
 20
310.51420447912813
 30
0.0
 11
198.07075264042331
 21
313.32083146163438
 31
0.0
  0
ARC
  5
32A4
  8
AM_0
 10
199.39948031808291
 20
314.8156500990018
 30
0.0
 40
2.0
 50
180.0
 51
228.36646066343951
1001
GENIUS_GENODEF_13
1002
{
1000
HIER
1070
     0
1002
}
1002
{
1000
MANEDIT
1070
     0
1002
}
1002
{
1000
NOSEL
1070
     0
1002
}
1002
{
1000
BEHIND
1070
     0
1002
}
1002
{
1000
OTHER
1070
     0
1002
}
1002
{
1000
REACTOR
1002
}
1001
GENIUS_GENOBJ-N-FIL_13
1002
{
1000
OWNER
1000
GEN
1002
}
  0
ARC
  5
32A5
  8
AM_0
 10
203.89948031808311
 20
304.31751797038118
 30
0.0
 40
2.0
 50
180.0
 51
270.0
1001
GENIUS_GENOBJ-N-FIL_13
1002
{
1000
OWNER
1000
GEN
1002
}
1001
GENIUS_GENODEF_13
1002
{
1000
HIER
1070
     0
1002
}
1002
{
1000
MANEDIT
1070
     0
1002
}
1002
{
1000
NOSEL
1070
     0
1002
}
1002
{
1000
BEHIND
1070
     0
1002
}
1002
{
1000
OTHER
1070
     0
1002
}
1002
{
1000
REACTOR
1002
}
  0
ARC
  5
32A6
  8
AM_0
 10
199.89948031808311
 20
309.01938584176082
 30
0.0
 40
2.0
 50
0.0
 51
48.366460663439533
1001
GENIUS_GENOBJ-N-FIL_13
1002
{
1000
OWNER
1000
GEN
1002
}
1001
GENIUS_GENODEF_13
1002
{
1000
HIER
1070
     0
1002
}
1002
{
1000
MANEDIT
1070
     0
1002
}
1002
{
1000
NOSEL
1070
     0
1002
}
1002
{
1000
BEHIND
1070
     0
1002
}
1002
{
1000
OTHER
1070
     0
1002
}
1002
{
1000
REACTOR
1002
}
  0
LINE
  5
32A7
  8
AM_0
 10
225.89948031808311
 20
401.91751797038103
 30
0.0
 11
225.89948031808311
 21
393.91751797038131
 31
0.0
  0
LINE
  5
32A8
  8
AM_0
 10
221.89948031808311
 20
399.91751797038108
 30
0.0
 11
221.89948031808311
 21
393.91751797038131
 31
0.0
  0
LINE
  5
32A9
  8
AM_0
 10
186.39948031808311
 20
384.91751797038131
 30
0.0
 11
186.39948031808311
 21
350.91751797038131
 31
0.0
  0
LINE
  5
32AA
  8
AM_0
 10
207.39948031808311
 20
392.91751797038131
 30
0.0
 11
207.39948031808311
 21
348.91751797038131
 31
0.0
  0
LINE
  5
32AB
  8
AM_0
 10
189.39948031808311
 20
347.91751797038108
 30
0.0
 11
196.11211511912529
 21
347.91751797038108
 31
0.0
  0
ARC
  5
32AC
  8
AM_0
 10
189.39948031808311
 20
350.91751797038131
 30
0.0
 40
3.0
 50
180.0
 51
270.0
1001
GENIUS_GENODEF_13
1002
{
1000
HIER
1070
     0
1002
}
1002
{
1000
MANEDIT
1070
     0
1002
}
1002
{
1000
NOSEL
1070
     0
1002
}
1002
{
1000
BEHIND
1070
     0
1002
}
1002
{
1000
OTHER
1070
     0
1002
}
1002
{
1000
REACTOR
1002
}
1001
GENIUS_GENOBJ-N-FIL_13
1002
{
1000
OWNER
1000
GEN
1002
}
  0
LINE
  5
32AD
  8
AM_0
 10
225.89948031808311
 20
339.91751797038131
 30
0.0
 11
225.89948031808311
 21
347.91751797038108
 31
0.0
  0
ARC
  5
32AE
  8
AM_0
 10
223.89948031808311
 20
341.91751797038131
 30
0.0
 40
2.0
 50
180.0
 51
270.0
1001
GENIUS_GENOBJ-N-FIL_13
1002
{
1000
OWNER
1000
GEN
1002
}
1001
GENIUS_GENODEF_13
1002
{
1000
HIER
1070
     0
1002
}
1002
{
1000
MANEDIT
1070
     0
1002
}
1002
{
1000
NOSEL
1070
     0
1002
}
1002
{
1000
BEHIND
1070
     0
1002
}
1002
{
1000
OTHER
1070
     0
1002
}
1002
{
1000
REACTOR
1002
}
  0
ARC
  5
32AF
  8
AM_0
 10
208.39948031808311
 20
348.91751797038131
 30
0.0
 40
1.0
 50
180.0
 51
270.0
1001
GENIUS_GENOBJ-N-FIL_13
1002
{
1000
OWNER
1000
GEN
1002
}
1001
GENIUS_GENODEF_13
1002
{
1000
HIER
1070
     0
1002
}
1002
{
1000
MANEDIT
1070
     0
1002
}
1002
{
1000
NOSEL
1070
     0
1002
}
1002
{
1000
BEHIND
1070
     0
1002
}
1002
{
1000
OTHER
1070
     0
1002
}
1002
{
1000
REACTOR
1002
}
  0
LINE
  5
32B0
  8
AM_0
 10
221.89948031808311
 20
341.91751797038131
 30
0.0
 11
221.89948031808311
 21
347.91751797038108
 31
0.0
  0
ARC
  5
32B1
  8
AM_0
 10
189.39948031808311
 20
384.91751797038131
 30
0.0
 40
3.0
 50
90.0
 51
180.0
1001
GENIUS_GENOBJ-N-FIL_13
1002
{
1000
OWNER
1000
GEN
1002
}
1001
GENIUS_GENODEF_13
1002
{
1000
HIER
1070
     0
1002
}
1002
{
1000
MANEDIT
1070
     0
1002
}
1002
{
1000
NOSEL
1070
     0
1002
}
1002
{
1000
BEHIND
1070
     0
1002
}
1002
{
1000
OTHER
1070
     0
1002
}
1002
{
1000
REACTOR
1002
}
  0
LINE
  5
32B2
  8
AM_0
 10
189.39948031808311
 20
387.91751797038131
 30
0.0
 11
196.11211511912529
 21
387.91751797038131
 31
0.0
  0
ARC
  5
32B3
  8
AM_0
 10
208.39948031808311
 20
392.91751797038131
 30
0.0
 40
1.0
 50
90.0
 51
180.0
1001
GENIUS_GENODEF_13
1002
{
1000
HIER
1070
     0
1002
}
1002
{
1000
MANEDIT
1070
     0
1002
}
1002
{
1000
NOSEL
1070
     0
1002
}
1002
{
1000
BEHIND
1070
     0
1002
}
1002
{
1000
OTHER
1070
     0
1002
}
1002
{
1000
REACTOR
1002
}
1001
GENIUS_GENOBJ-N-FIL_13
1002
{
1000
OWNER
1000
GEN
1002
}
  0
ARC
  5
32B4
  8
AM_0
 10
203.89948031808319
 20
431.51751797038111
 30
0.0
 40
2.0
 50
90.0
 51
180.0
1001
GENIUS_GENOBJ-N-FIL_13
1002
{
1000
OWNER
1000
GEN
1002
}
1001
GENIUS_GENODEF_13
1002
{
1000
HIER
1070
     0
1002
}
1002
{
1000
MANEDIT
1070
     0
1002
}
1002
{
1000
NOSEL
1070
     0
1002
}
1002
{
1000
BEHIND
1070
     0
1002
}
1002
{
1000
OTHER
1070
     0
1002
}
1002
{
1000
REACTOR
1002
}
  0
LINE
  5
32B5
  8
AM_0
 10
201.22820799574291
 20
425.32083146163421
 30
0.0
 11
198.07075264042331
 21
422.5142044791279
 31
0.0
  0
ARC
  5
32B6
  8
AM_0
 10
199.39948031808291
 20
421.01938584176071
 30
0.0
 40
2.0
 50
131.6335393365604
 51
180.0
1001
GENIUS_GENODEF_13
1002
{
1000
HIER
1070
     0
1002
}
1002
{
1000
MANEDIT
1070
     0
1002
}
1002
{
1000
NOSEL
1070
     0
1002
}
1002
{
1000
BEHIND
1070
     0
1002
}
1002
{
1000
OTHER
1070
     0
1002
}
1002
{
1000
REACTOR
1002
}
1001
GENIUS_GENOBJ-N-FIL_13
1002
{
1000
OWNER
1000
GEN
1002
}
  0
ARC
  5
32B7
  8
AM_0
 10
223.89948031808311
 20
399.91751797038108
 30
0.0
 40
2.0
 50
90.0
 51
180.0
1001
GENIUS_GENOBJ-N-FIL_13
1002
{
1000
OWNER
1000
GEN
1002
}
1001
GENIUS_GENODEF_13
1002
{
1000
HIER
1070
     0
1002
}
1002
{
1000
MANEDIT
1070
     0
1002
}
1002
{
1000
NOSEL
1070
     0
1002
}
1002
{
1000
BEHIND
1070
     0
1002
}
1002
{
1000
OTHER
1070
     0
1002
}
1002
{
1000
REACTOR
1002
}
  0
ARC
  5
32B8
  8
AM_0
 10
199.89948031808311
 20
426.81565009900152
 30
0.0
 40
2.0
 50
311.63353933656049
 51
0.0
1001
GENIUS_GENOBJ-N-FIL_13
1002
{
1000
OWNER
1000
GEN
1002
}
1001
GENIUS_GENODEF_13
1002
{
1000
HIER
1070
     0
1002
}
1002
{
1000
MANEDIT
1070
     0
1002
}
1002
{
1000
NOSEL
1070
     0
1002
}
1002
{
1000
BEHIND
1070
     0
1002
}
1002
{
1000
OTHER
1070
     0
1002
}
1002
{
1000
REACTOR
1002
}
  0
LINE
  5
32B9
  8
AM_0
 10
429.89950031808303
 20
334.3388344703813
 30
0.0
 11
474.39949031808322
 21
334.3388344703813
 31
0.0
  0
LINE
  5
32BA
  8
AM_0
 10
429.89950031808303
 20
457.49613347038132
 30
0.0
 11
474.39949031808322
 21
457.49613347038132
 31
0.0
  0
LINE
  5
32BB
  8
AM_0
 10
429.89950031808303
 20
435.39216647038103
 30
0.0
 11
474.39949031808322
 21
435.39216647038103
 31
0.0
  0
LINE
  5
32BC
  8
AM_0
 10
429.89950031808303
 20
356.44281047038118
 30
0.0
 11
474.39949031808322
 21
356.44281047038118
 31
0.0
  0
LINE
  5
32BD
  8
AM_0
 10
439.89949031808311
 20
322.41747947038129
 30
0.0
 11
471.96925031808303
 21
321.29757347038122
 31
0.0
  0
LINE
  5
32BE
  8
AM_0
 10
337.39948031808308
 20
323.71751797038132
 30
0.0
 11
337.39948031808308
 21
320.51751797038122
 31
0.0
  0
LINE
  5
32BF
  8
AM_0
 10
312.39948031808308
 20
323.71751797038121
 30
0.0
 11
312.39948031808308
 21
320.51751797038122
 31
0.0
  0
LINE
  5
32C1
  8
AM_0
 10
229.39948031808311
 20
323.71751797038121
 30
0.0
 11
229.39948031808311
 21
320.51751797038122
 31
0.0
  0
LINE
  5
32C2
  8
ﾁｭｳｼﾝｾﾝ
 10
255.39948031808311
 20
349.23788917874822
 30
0.0
 11
255.39948031808311
 21
244.21159592403509
 31
0.0
  0
LINE
  5
32C4
  8
AM_0
 10
358.89948031808302
 20
433.91751797038103
 30
0.0
 11
358.89948031808302
 21
301.9175179703812
 31
0.0
  0
LINE
  5
32C5
  8
AM_0
 10
347.39948031808302
 20
433.91751797038103
 30
0.0
 11
347.39948031808302
 21
301.9175179703812
 31
0.0
  0
ARC
  5
32C6
  8
AM_0
 10
433.89949031808311
 20
326.12943947038133
 30
0.0
 40
4.000000199999997
 50
211.07234000000261
 51
267.99999999999642
  0
LINE
  5
32C7
  8
AM_0
 10
385.89949031808288
 20
346.4219344703813
 30
0.0
 11
385.89949031808288
 21
315.97865147038118
 31
0.0
  0
LINE
  5
32C8
  8
AM_0
 10
365.89948031808308
 20
304.91751797038131
 30
0.0
 11
365.89948031808308
 21
430.91751797038103
 31
0.0
  0
ARC
  5
32C9
  8
AM_0
 10
336.39948031808308
 20
320.51751797038122
 30
0.0
 40
1.0
 50
270.0
 51
0.0
1001
GENIUS_GENODEF_13
1002
{
1000
HIER
1070
     0
1002
}
1002
{
1000
MANEDIT
1070
     0
1002
}
1002
{
1000
NOSEL
1070
     0
1002
}
1002
{
1000
BEHIND
1070
     0
1002
}
1002
{
1000
OTHER
1070
     0
1002
}
1002
{
1000
REACTOR
1002
}
1001
GENIUS_GENOBJ-N-FIL_13
1002
{
1000
OWNER
1000
GEN
1002
}
  0
ARC
  5
32CA
  8
AM_0
 10
336.39948031808308
 20
312.71751797038121
 30
0.0
 40
1.0
 50
270.0
 51
0.0
1001
GENIUS_GENODEF_13
1002
{
1000
HIER
1070
     0
1002
}
1002
{
1000
MANEDIT
1070
     0
1002
}
1002
{
1000
NOSEL
1070
     0
1002
}
1002
{
1000
BEHIND
1070
     0
1002
}
1002
{
1000
OTHER
1070
     0
1002
}
1002
{
1000
REACTOR
1002
}
1001
GENIUS_GENOBJ-N-FIL_13
1002
{
1000
OWNER
1000
GEN
1002
}
  0
ARC
  5
32CB
  8
AM_0
 10
336.39948031808308
 20
307.21751797038121
 30
0.0
 40
1.0
 50
0.0
 51
90.0
1001
GENIUS_GENODEF_13
1002
{
1000
HIER
1070
     0
1002
}
1002
{
1000
MANEDIT
1070
     0
1002
}
1002
{
1000
NOSEL
1070
     0
1002
}
1002
{
1000
BEHIND
1070
     0
1002
}
1002
{
1000
OTHER
1070
     0
1002
}
1002
{
1000
REACTOR
1002
}
1001
GENIUS_GENOBJ-N-FIL_13
1002
{
1000
OWNER
1000
GEN
1002
}
  0
ARC
  5
32CC
  8
AM_0
 10
336.39948031808308
 20
315.01751797038122
 30
0.0
 40
1.0
 50
0.0
 51
90.0
1001
GENIUS_GENODEF_13
1002
{
1000
HIER
1070
     0
1002
}
1002
{
1000
MANEDIT
1070
     0
1002
}
1002
{
1000
NOSEL
1070
     0
1002
}
1002
{
1000
BEHIND
1070
     0
1002
}
1002
{
1000
OTHER
1070
     0
1002
}
1002
{
1000
REACTOR
1002
}
1001
GENIUS_GENOBJ-N-FIL_13
1002
{
1000
OWNER
1000
GEN
1002
}
  0
ARC
  5
32CD
  8
AM_0
 10
336.39948031808308
 20
306.6175179703813
 30
0.0
 40
1.0
 50
270.0
 51
0.0
1001
GENIUS_GENOBJ-N-FIL_13
1002
{
1000
OWNER
1000
GEN
1002
}
1001
GENIUS_GENODEF_13
1002
{
1000
HIER
1070
     0
1002
}
1002
{
1000
MANEDIT
1070
     0
1002
}
1002
{
1000
NOSEL
1070
     0
1002
}
1002
{
1000
BEHIND
1070
     0
1002
}
1002
{
1000
OTHER
1070
     0
1002
}
1002
{
1000
REACTOR
1002
}
  0
LINE
  5
32CE
  8
AM_0
 10
250.68942931808311
 20
253.70100925622759
 30
0.0
 11
250.6834023180831
 21
259.9977311562277
 31
0.0
  0
LINE
  5
32CF
  8
AM_0
 10
253.68493531808301
 20
252.3251491703812
 30
0.0
 11
253.6789083180829
 21
258.62187107038119
 31
0.0
  0
LINE
  5
32D0
  8
AM_0
 10
257.11098031808319
 20
258.62443307038109
 30
0.0
 11
257.11696531808309
 21
252.32768177038119
 31
0.0
  0
LINE
  5
32D1
  8
AM_0
 10
260.100543318083
 20
253.70100925622759
 30
0.0
 11
260.10657031808319
 21
259.9977311562277
 31
0.0
  0
LINE
  5
32D2
  8
AM_0
 10
254.24534131808301
 20
252.3239962703812
 30
0.0
 11
253.21048231808311
 21
248.518951670381
 31
0.0
  0
ARC
  5
32D3
  8
AM_0
 10
255.43992631808331
 20
247.9175830703812
 30
0.0
 40
2.3091486599999991
 50
164.90527199999909
 51
16.267320000000009
  0
LINE
  5
32D4
  8
AM_0
 10
254.24534131808301
 20
252.3239752703812
 30
0.0
 11
253.6849773180831
 21
252.32512817038111
 31
0.0
  0
ARC
  5
32D5
  8
ｽﾝﾎ_ｳｾﾝ
 10
252.4039743180831
 20
249.2933780562276
 30
0.0
 40
1.5050001119999981
 50
34.081774240380142
 51
298.9087048605341
  0
LINE
  5
32D6
  8
AM_0
 10
252.405591318083
 20
253.6987664562277
 30
0.0
 11
253.68362167142431
 21
253.6975844923671
 31
0.0
  0
LINE
  5
32D7
  8
AM_0
 10
253.5613263180831
 20
253.69770805622761
 30
0.0
 11
253.6840227948046
 21
253.2785099323178
 31
0.0
  0
LINE
  5
32D8
  8
AM_0
 10
251.24983531808309
 20
253.6998353562276
 30
0.0
 11
250.68947131808321
 21
253.7009882562277
 31
0.0
  0
LINE
  5
32D9
  8
AM_0
 10
251.24983531808309
 20
253.6998563562276
 30
0.0
 11
250.2149763180831
 21
249.8948117562276
 31
0.0
  0
ARC
  5
32DA
  8
AM_0
 10
252.4444203180833
 20
249.2934431562276
 30
0.0
 40
2.3091486599999991
 50
164.90527199999909
 51
290.87219614688911
  0
LINE
  5
32DB
  8
AM_0
 10
251.24983531808309
 20
253.6998353562276
 30
0.0
 11
252.405591318083
 21
253.6987664562277
 31
0.0
  0
LINE
  5
32DC
  8
AM_0
 10
259.540137318083
 20
253.6998353562276
 30
0.0
 11
258.38438131808311
 21
253.6987664562277
 31
0.0
  0
ARC
  5
32DD
  8
ｽﾝﾎ_ｳｾﾝ
 10
258.38599831808301
 20
249.2933780562276
 30
0.0
 40
1.5050001119999981
 50
241.0912951394659
 51
145.91822575961979
  0
LINE
  5
32DE
  8
AM_0
 10
256.55683231808302
 20
252.3218479703811
 30
0.0
 11
257.65660231808329
 21
248.56443347038109
 31
0.0
  0
CIRCLE
  5
32DF
  8
ｽﾝﾎ_ｳｾﾝ
 10
255.39948031808311
 20
247.9175179703812
 30
0.0
 40
1.5050001119999981
  0
LINE
  5
32E0
  8
AM_0
 10
255.401097318083
 20
252.3229063703813
 30
0.0
 11
256.55687431808309
 21
252.3218374703811
 31
0.0
  0
LINE
  5
32E1
  8
AM_0
 10
253.96323880284129
 20
252.32455567167361
 30
0.0
 11
254.1095454702305
 21
251.82469225159841
 31
0.0
  0
LINE
  5
32E2
  8
AM_0
 10
254.24534131808301
 20
252.3239752703812
 30
0.0
 11
255.401097318083
 21
252.3229063703813
 31
0.0
  0
LINE
  5
32E3
  8
AM_0
 10
256.82673383332508
 20
252.32455567167361
 30
0.0
 11
256.6804271659355
 21
251.82469225159841
 31
0.0
  0
LINE
  5
32E4
  8
AM_0
 10
258.38438131808311
 20
253.6987664562277
 30
0.0
 11
257.10635096474198
 21
253.6975844923671
 31
0.0
  0
LINE
  5
32E5
  8
AM_0
 10
257.22864631808329
 20
253.69770805622761
 30
0.0
 11
257.10594984136168
 21
253.2785099323178
 31
0.0
  0
LINE
  5
32E6
  8
AM_0
 10
257.11700731808298
 20
252.32771327038111
 30
0.0
 11
256.55687431808309
 21
252.32187107038121
 31
0.0
  0
LINE
  5
32E7
  8
AM_0
 10
259.540137318083
 20
253.6998563562276
 30
0.0
 11
260.57499631808309
 21
249.8948117562276
 31
0.0
  0
LINE
  5
32E8
  8
AM_0
 10
259.540137318083
 20
253.6998353562276
 30
0.0
 11
260.10050131808322
 21
253.7009882562277
 31
0.0
  0
ARC
  5
32E9
  8
AM_0
 10
258.34555231808298
 20
249.2934431562276
 30
0.0
 40
2.3091486599999991
 50
249.12780385311081
 51
15.094728000000879
  0
LINE
  5
32EE
  8
AM_0
 10
253.678950318083
 20
258.62188157038111
 30
0.0
 11
257.11102231808309
 21
258.62443307038109
 31
0.0
  0
LINE
  5
32FE
  8
AM_0
 10
250.6834023180831
 20
259.9977311562277
 30
0.0
 11
254.11547553067109
 21
259.99901740622761
 31
0.0
  0
LINE
  5
3300
  8
AM_0
 10
253.39948031808311
 20
347.91751797038108
 30
0.0
 11
253.39948031808311
 21
259.99874907021461
 31
0.0
  0
LINE
  5
3301
  8
AM_0
 10
251.39948031808311
 20
347.91751797038108
 30
0.0
 11
251.39948031808311
 21
259.9979995232672
 31
0.0
  0
LINE
  5
3302
  8
AM_0
 10
230.39948031808311
 20
308.21751797038121
 30
0.0
 11
251.39948031808311
 21
308.21751797038121
 31
0.0
  0
LINE
  5
3303
  8
AM_0
 10
230.39948031808311
 20
305.6175179703813
 30
0.0
 11
251.39948031808311
 21
305.6175179703813
 31
0.0
  0
LINE
  5
3304
  8
AM_0
 10
230.39948031808311
 20
311.71751797038121
 30
0.0
 11
251.39948031808311
 21
311.71751797038121
 31
0.0
  0
LINE
  5
3305
  8
AM_0
 10
230.39948031808311
 20
316.01751797038122
 30
0.0
 11
251.39948031808311
 21
316.01751797038122
 31
0.0
  0
LINE
  5
3306
  8
AM_0
 10
230.39948031808311
 20
319.51751797038122
 30
0.0
 11
251.39948031808311
 21
319.51751797038122
 31
0.0
  0
ARC
  5
3307
  8
AM_0
 10
230.39948031808311
 20
320.51751797038122
 30
0.0
 40
1.0
 50
180.0
 51
270.0
1001
GENIUS_GENOBJ-N-FIL_13
1002
{
1000
OWNER
1000
GEN
1002
}
1001
GENIUS_GENODEF_13
1002
{
1000
HIER
1070
     0
1002
}
1002
{
1000
MANEDIT
1070
     0
1002
}
1002
{
1000
NOSEL
1070
     0
1002
}
1002
{
1000
BEHIND
1070
     0
1002
}
1002
{
1000
OTHER
1070
     0
1002
}
1002
{
1000
REACTOR
1002
}
  0
ARC
  5
3308
  8
AM_0
 10
230.39948031808311
 20
312.71751797038121
 30
0.0
 40
1.0
 50
180.0
 51
270.0
1001
GENIUS_GENOBJ-N-FIL_13
1002
{
1000
OWNER
1000
GEN
1002
}
1001
GENIUS_GENODEF_13
1002
{
1000
HIER
1070
     0
1002
}
1002
{
1000
MANEDIT
1070
     0
1002
}
1002
{
1000
NOSEL
1070
     0
1002
}
1002
{
1000
BEHIND
1070
     0
1002
}
1002
{
1000
OTHER
1070
     0
1002
}
1002
{
1000
REACTOR
1002
}
  0
ARC
  5
3309
  8
AM_0
 10
230.39948031808311
 20
307.21751797038121
 30
0.0
 40
1.0
 50
90.0
 51
180.0
1001
GENIUS_GENOBJ-N-FIL_13
1002
{
1000
OWNER
1000
GEN
1002
}
1001
GENIUS_GENODEF_13
1002
{
1000
HIER
1070
     0
1002
}
1002
{
1000
MANEDIT
1070
     0
1002
}
1002
{
1000
NOSEL
1070
     0
1002
}
1002
{
1000
BEHIND
1070
     0
1002
}
1002
{
1000
OTHER
1070
     0
1002
}
1002
{
1000
REACTOR
1002
}
  0
LINE
  5
330A
  8
AM_0
 10
229.39948031808311
 20
307.21751797038121
 30
0.0
 11
229.39948031808311
 21
306.6175179703813
 31
0.0
  0
ARC
  5
330B
  8
AM_0
 10
230.39948031808311
 20
315.01751797038122
 30
0.0
 40
1.0
 50
90.0
 51
180.0
1001
GENIUS_GENODEF_13
1002
{
1000
HIER
1070
     0
1002
}
1002
{
1000
MANEDIT
1070
     0
1002
}
1002
{
1000
NOSEL
1070
     0
1002
}
1002
{
1000
BEHIND
1070
     0
1002
}
1002
{
1000
OTHER
1070
     0
1002
}
1002
{
1000
REACTOR
1002
}
1001
GENIUS_GENOBJ-N-FIL_13
1002
{
1000
OWNER
1000
GEN
1002
}
  0
LINE
  5
330C
  8
AM_0
 10
229.39948031808311
 20
315.01751797038122
 30
0.0
 11
229.39948031808311
 21
312.71751797038121
 31
0.0
  0
ARC
  5
330D
  8
AM_0
 10
230.39948031808311
 20
306.6175179703813
 30
0.0
 40
1.0
 50
180.0
 51
270.0
1001
GENIUS_GENODEF_13
1002
{
1000
HIER
1070
     0
1002
}
1002
{
1000
MANEDIT
1070
     0
1002
}
1002
{
1000
NOSEL
1070
     0
1002
}
1002
{
1000
BEHIND
1070
     0
1002
}
1002
{
1000
OTHER
1070
     0
1002
}
1002
{
1000
REACTOR
1002
}
1001
GENIUS_GENOBJ-N-FIL_13
1002
{
1000
OWNER
1000
GEN
1002
}
  0
LINE
  5
330E
  8
AM_0
 10
260.10657031808319
 20
259.9977311562277
 30
0.0
 11
256.67449710549511
 21
259.99901740622761
 31
0.0
  0
LINE
  5
330F
  8
AM_0
 10
257.6073470579455
 20
347.91751797038108
 30
0.0
 11
257.39049231808298
 21
259.99874907021461
 31
0.0
  0
LINE
  5
3310
  8
AM_0
 10
254.39948031808311
 20
347.91751797038108
 30
0.0
 11
254.39948031808311
 21
258.62241723288901
 31
0.0
  0
LINE
  5
3311
  8
AM_0
 10
256.39948031808308
 20
347.91751797038108
 30
0.0
 11
256.39948031808308
 21
258.62390408980809
 31
0.0
  0
LINE
  5
3312
  8
AM_0
 10
254.11547431808319
 20
260.0002931562276
 30
0.0
 11
254.1167841753163
 21
258.62220706853111
 31
0.0
  0
LINE
  5
3313
  8
AM_0
 10
256.6744983180829
 20
260.0002931562276
 30
0.0
 11
256.67318846084999
 21
258.62220706853111
 31
0.0
  0
LINE
  5
3314
  8
AM_0
 10
259.39049231808298
 20
347.91751797038108
 30
0.0
 11
259.39049231808298
 21
259.9979995232672
 31
0.0
  0
LINE
  5
3317
  8
AM_0
 10
313.39948031808308
 20
308.21751797038121
 30
0.0
 11
336.39948031808308
 21
308.21751797038121
 31
0.0
  0
LINE
  5
3318
  8
AM_0
 10
313.39948031808308
 20
311.71751797038121
 30
0.0
 11
336.39948031808308
 21
311.71751797038121
 31
0.0
  0
LINE
  5
3319
  8
AM_0
 10
313.39948031808308
 20
316.01751797038122
 30
0.0
 11
336.39948031808308
 21
316.01751797038122
 31
0.0
  0
LINE
  5
331A
  8
AM_0
 10
313.39948031808308
 20
319.51751797038122
 30
0.0
 11
336.39948031808308
 21
319.51751797038122
 31
0.0
  0
LINE
  5
331B
  8
AM_0
 10
313.39948031808308
 20
305.6175179703813
 30
0.0
 11
336.39948031808308
 21
305.6175179703813
 31
0.0
  0
ARC
  5
331C
  8
AM_0
 10
313.39948031808308
 20
320.51751797038122
 30
0.0
 40
1.0
 50
180.0
 51
270.0
1001
GENIUS_GENOBJ-N-FIL_13
1002
{
1000
OWNER
1000
GEN
1002
}
1001
GENIUS_GENODEF_13
1002
{
1000
HIER
1070
     0
1002
}
1002
{
1000
MANEDIT
1070
     0
1002
}
1002
{
1000
NOSEL
1070
     0
1002
}
1002
{
1000
BEHIND
1070
     0
1002
}
1002
{
1000
OTHER
1070
     0
1002
}
1002
{
1000
REACTOR
1002
}
  0
ARC
  5
331D
  8
AM_0
 10
313.39948031808308
 20
312.71751797038121
 30
0.0
 40
1.0
 50
180.0
 51
270.0
1001
GENIUS_GENOBJ-N-FIL_13
1002
{
1000
OWNER
1000
GEN
1002
}
1001
GENIUS_GENODEF_13
1002
{
1000
HIER
1070
     0
1002
}
1002
{
1000
MANEDIT
1070
     0
1002
}
1002
{
1000
NOSEL
1070
     0
1002
}
1002
{
1000
BEHIND
1070
     0
1002
}
1002
{
1000
OTHER
1070
     0
1002
}
1002
{
1000
REACTOR
1002
}
  0
ARC
  5
331E
  8
AM_0
 10
313.39948031808308
 20
307.21751797038121
 30
0.0
 40
1.0
 50
90.0
 51
180.0
1001
GENIUS_GENOBJ-N-FIL_13
1002
{
1000
OWNER
1000
GEN
1002
}
1001
GENIUS_GENODEF_13
1002
{
1000
HIER
1070
     0
1002
}
1002
{
1000
MANEDIT
1070
     0
1002
}
1002
{
1000
NOSEL
1070
     0
1002
}
1002
{
1000
BEHIND
1070
     0
1002
}
1002
{
1000
OTHER
1070
     0
1002
}
1002
{
1000
REACTOR
1002
}
  0
LINE
  5
331F
  8
AM_0
 10
312.39948031808308
 20
307.21751797038121
 30
0.0
 11
312.39948031808308
 21
306.6175179703813
 31
0.0
  0
ARC
  5
3320
  8
AM_0
 10
313.39948031808308
 20
315.01751797038122
 30
0.0
 40
1.0
 50
90.0
 51
180.0
1001
GENIUS_GENODEF_13
1002
{
1000
HIER
1070
     0
1002
}
1002
{
1000
MANEDIT
1070
     0
1002
}
1002
{
1000
NOSEL
1070
     0
1002
}
1002
{
1000
BEHIND
1070
     0
1002
}
1002
{
1000
OTHER
1070
     0
1002
}
1002
{
1000
REACTOR
1002
}
1001
GENIUS_GENOBJ-N-FIL_13
1002
{
1000
OWNER
1000
GEN
1002
}
  0
LINE
  5
3321
  8
AM_0
 10
312.39948031808308
 20
315.01751797038122
 30
0.0
 11
312.39948031808308
 21
312.71751797038121
 31
0.0
  0
ARC
  5
3322
  8
AM_0
 10
313.39948031808308
 20
306.6175179703813
 30
0.0
 40
1.0
 50
180.0
 51
270.0
1001
GENIUS_GENODEF_13
1002
{
1000
HIER
1070
     0
1002
}
1002
{
1000
MANEDIT
1070
     0
1002
}
1002
{
1000
NOSEL
1070
     0
1002
}
1002
{
1000
BEHIND
1070
     0
1002
}
1002
{
1000
OTHER
1070
     0
1002
}
1002
{
1000
REACTOR
1002
}
1001
GENIUS_GENOBJ-N-FIL_13
1002
{
1000
OWNER
1000
GEN
1002
}
  0
LINE
  5
3323
  8
AM_0
 10
365.89948031808308
 20
304.91751797038131
 30
0.0
 11
358.89948031808302
 21
301.9175179703812
 31
0.0
  0
LINE
  5
3324
  8
AM_0
 10
347.39948031808302
 20
301.9175179703812
 30
0.0
 11
358.89948031808302
 21
301.9175179703812
 31
0.0
  0
LINE
  5
3325
  8
AM_0
 10
337.39948031808308
 20
307.21751797038121
 30
0.0
 11
337.39948031808308
 21
306.6175179703813
 31
0.0
  0
LINE
  5
3326
  8
AM_0
 10
337.39948031808308
 20
315.01751797038122
 30
0.0
 11
337.39948031808308
 21
312.71751797038121
 31
0.0
  0
LINE
  5
3327
  8
AM_0
 10
365.89948031808308
 20
321.9174784703813
 30
0.0
 11
385.89949031808288
 21
321.9174784703813
 31
0.0
  0
LINE
  5
3328
  8
AM_0
 10
365.89948031808308
 20
311.4174784703813
 30
0.0
 11
382.03909031808303
 21
311.98109147038122
 31
0.0
  0
ARC
  5
3329
  8
AM_0
 10
381.89950031808303
 20
315.97865147038118
 30
0.0
 40
4.000000199999997
 50
272.00000000000358
 51
0.0
  0
LINE
  5
332A
  8
AM_0
 10
433.75990031808283
 20
322.13187947038131
 30
0.0
 11
439.89949031808311
 21
321.9174784703813
 31
0.0
  0
ARC
  5
332B
  8
AM_0
 10
336.39948031808308
 20
340.41751797038131
 30
0.0
 40
1.0
 50
270.0
 51
0.0
1001
GENIUS_GENODEF_13
1002
{
1000
HIER
1070
     0
1002
}
1002
{
1000
MANEDIT
1070
     0
1002
}
1002
{
1000
NOSEL
1070
     0
1002
}
1002
{
1000
BEHIND
1070
     0
1002
}
1002
{
1000
OTHER
1070
     0
1002
}
1002
{
1000
REACTOR
1002
}
1001
GENIUS_GENOBJ-N-FIL_13
1002
{
1000
OWNER
1000
GEN
1002
}
  0
ARC
  5
332C
  8
AM_0
 10
336.39948031808308
 20
344.91751797038131
 30
0.0
 40
1.0
 50
0.0
 51
90.0
1001
GENIUS_GENOBJ-N-FIL_13
1002
{
1000
OWNER
1000
GEN
1002
}
1001
GENIUS_GENODEF_13
1002
{
1000
HIER
1070
     0
1002
}
1002
{
1000
MANEDIT
1070
     0
1002
}
1002
{
1000
NOSEL
1070
     0
1002
}
1002
{
1000
BEHIND
1070
     0
1002
}
1002
{
1000
OTHER
1070
     0
1002
}
1002
{
1000
REACTOR
1002
}
  0
ARC
  5
332D
  8
AM_0
 10
336.39948031808308
 20
332.9175179703812
 30
0.0
 40
1.0
 50
0.0
 51
90.0
1001
GENIUS_GENOBJ-N-FIL_13
1002
{
1000
OWNER
1000
GEN
1002
}
1001
GENIUS_GENODEF_13
1002
{
1000
HIER
1070
     0
1002
}
1002
{
1000
MANEDIT
1070
     0
1002
}
1002
{
1000
NOSEL
1070
     0
1002
}
1002
{
1000
BEHIND
1070
     0
1002
}
1002
{
1000
OTHER
1070
     0
1002
}
1002
{
1000
REACTOR
1002
}
  0
ARC
  5
332E
  8
AM_0
 10
336.39948031808308
 20
329.41751797038131
 30
0.0
 40
1.0
 50
270.0
 51
0.0
1001
GENIUS_GENODEF_13
1002
{
1000
HIER
1070
     0
1002
}
1002
{
1000
MANEDIT
1070
     0
1002
}
1002
{
1000
NOSEL
1070
     0
1002
}
1002
{
1000
BEHIND
1070
     0
1002
}
1002
{
1000
OTHER
1070
     0
1002
}
1002
{
1000
REACTOR
1002
}
1001
GENIUS_GENOBJ-N-FIL_13
1002
{
1000
OWNER
1000
GEN
1002
}
  0
ARC
  5
332F
  8
AM_0
 10
336.39948031808308
 20
323.71751797038132
 30
0.0
 40
1.0
 50
0.0
 51
90.0
1001
GENIUS_GENODEF_13
1002
{
1000
HIER
1070
     0
1002
}
1002
{
1000
MANEDIT
1070
     0
1002
}
1002
{
1000
NOSEL
1070
     0
1002
}
1002
{
1000
BEHIND
1070
     0
1002
}
1002
{
1000
OTHER
1070
     0
1002
}
1002
{
1000
REACTOR
1002
}
1001
GENIUS_GENOBJ-N-FIL_13
1002
{
1000
OWNER
1000
GEN
1002
}
  0
LINE
  5
3330
  8
AM_0
 10
237.89948031808311
 20
399.91751797038108
 30
0.0
 11
237.89948031808311
 21
393.91751797038131
 31
0.0
  0
LINE
  5
3331
  8
AM_0
 10
233.89948031808311
 20
401.91751797038103
 30
0.0
 11
233.89948031808311
 21
393.91751797038131
 31
0.0
  0
CIRCLE
  5
3332
  8
AM_0N
 10
229.89948031808311
 20
397.91751797038131
 30
0.0
 40
2.799999999999998
1001
GENIUS_GENOREF_13
1005
0
  0
LINE
  5
3333
  8
AM_0
 10
265.39948031808308
 20
392.91751797038131
 30
0.0
 11
265.39948031808308
 21
348.91751797038131
 31
0.0
  0
ARC
  5
3348
  8
AM_0
 10
235.89948031808311
 20
341.91751797038131
 30
0.0
 40
2.0
 50
270.0
 51
0.0
1001
GENIUS_GENOBJ-N-FIL_13
1002
{
1000
OWNER
1000
GEN
1002
}
1001
GENIUS_GENODEF_13
1002
{
1000
HIER
1070
     0
1002
}
1002
{
1000
MANEDIT
1070
     0
1002
}
1002
{
1000
NOSEL
1070
     0
1002
}
1002
{
1000
BEHIND
1070
     0
1002
}
1002
{
1000
OTHER
1070
     0
1002
}
1002
{
1000
REACTOR
1002
}
  0
LINE
  5
3349
  8
AM_0
 10
233.89948031808311
 20
339.91751797038131
 30
0.0
 11
233.89948031808311
 21
347.91751797038108
 31
0.0
  0
CIRCLE
  5
334A
  8
AM_0N
 10
229.89948031808311
 20
343.91751797038131
 30
0.0
 40
2.799999999999998
  0
LINE
  5
334B
  8
AM_0
 10
230.39948031808311
 20
328.41751797038131
 30
0.0
 11
251.39948031808311
 21
328.41751797038131
 31
0.0
  0
LINE
  5
334C
  8
AM_0
 10
230.39948031808311
 20
333.91751797038131
 30
0.0
 11
251.39948031808311
 21
333.9175179703812
 31
0.0
  0
LINE
  5
334D
  8
AM_0
 10
230.39948031808311
 20
324.71751797038121
 30
0.0
 11
251.39948031808311
 21
324.71751797038138
 31
0.0
  0
ARC
  5
334E
  8
AM_0
 10
230.39948031808311
 20
332.9175179703812
 30
0.0
 40
1.0
 50
90.0
 51
180.0
1001
GENIUS_GENODEF_13
1002
{
1000
HIER
1070
     0
1002
}
1002
{
1000
MANEDIT
1070
     0
1002
}
1002
{
1000
NOSEL
1070
     0
1002
}
1002
{
1000
BEHIND
1070
     0
1002
}
1002
{
1000
OTHER
1070
     0
1002
}
1002
{
1000
REACTOR
1002
}
1001
GENIUS_GENOBJ-N-FIL_13
1002
{
1000
OWNER
1000
GEN
1002
}
  0
ARC
  5
334F
  8
AM_0
 10
230.39948031808311
 20
329.41751797038131
 30
0.0
 40
1.0
 50
180.0
 51
270.0
1001
GENIUS_GENODEF_13
1002
{
1000
HIER
1070
     0
1002
}
1002
{
1000
MANEDIT
1070
     0
1002
}
1002
{
1000
NOSEL
1070
     0
1002
}
1002
{
1000
BEHIND
1070
     0
1002
}
1002
{
1000
OTHER
1070
     0
1002
}
1002
{
1000
REACTOR
1002
}
1001
GENIUS_GENOBJ-N-FIL_13
1002
{
1000
OWNER
1000
GEN
1002
}
  0
LINE
  5
3350
  8
AM_0
 10
229.39948031808311
 20
332.9175179703812
 30
0.0
 11
229.39948031808311
 21
329.41751797038131
 31
0.0
  0
ARC
  5
3351
  8
AM_0
 10
230.39948031808311
 20
323.71751797038121
 30
0.0
 40
1.0
 50
90.0
 51
180.0
1001
GENIUS_GENODEF_13
1002
{
1000
HIER
1070
     0
1002
}
1002
{
1000
MANEDIT
1070
     0
1002
}
1002
{
1000
NOSEL
1070
     0
1002
}
1002
{
1000
BEHIND
1070
     0
1002
}
1002
{
1000
OTHER
1070
     0
1002
}
1002
{
1000
REACTOR
1002
}
1001
GENIUS_GENOBJ-N-FIL_13
1002
{
1000
OWNER
1000
GEN
1002
}
  0
LINE
  5
3352
  8
AM_0
 10
237.89948031808311
 20
341.91751797038131
 30
0.0
 11
237.89948031808311
 21
347.91751797038108
 31
0.0
  0
LINE
  5
3353
  8
AM_0N
 10
229.64698031808311
 20
344.17001797038131
 30
0.0
 11
228.42088512331199
 21
344.17001797038131
 31
0.0
  0
LINE
  5
3354
  8
AM_0N
 10
229.64698031808311
 20
343.6650179703812
 30
0.0
 11
228.42088512331199
 21
343.6650179703812
 31
0.0
  0
LINE
  5
3355
  8
AM_0N
 10
228.42088512331199
 20
344.17001797038131
 30
0.0
 11
228.42088512331199
 21
343.6650179703812
 31
0.0
  0
LINE
  5
3356
  8
AM_0N
 10
230.1519803180831
 20
344.17001797038131
 30
0.0
 11
230.1519803180831
 21
345.39611316515231
 31
0.0
  0
LINE
  5
3357
  8
AM_0N
 10
229.64698031808311
 20
344.17001797038131
 30
0.0
 11
229.64698031808311
 21
345.39611316515231
 31
0.0
  0
LINE
  5
3358
  8
AM_0N
 10
229.64698031808311
 20
342.43892277561019
 30
0.0
 11
230.1519803180831
 21
342.43892277561019
 31
0.0
  0
LINE
  5
3359
  8
AM_0N
 10
231.37807551285411
 20
344.17001797038131
 30
0.0
 11
231.37807551285411
 21
343.6650179703812
 31
0.0
  0
LINE
  5
335A
  8
AM_0N
 10
231.37807551285411
 20
344.17001797038131
 30
0.0
 11
230.1519803180831
 21
344.17001797038131
 31
0.0
  0
LINE
  5
335B
  8
AM_0N
 10
231.37807551285411
 20
343.6650179703812
 30
0.0
 11
230.1519803180831
 21
343.6650179703812
 31
0.0
  0
LINE
  5
335C
  8
AM_0N
 10
229.64698031808311
 20
342.43892277561019
 30
0.0
 11
229.64698031808311
 21
343.6650179703812
 31
0.0
  0
LINE
  5
335D
  8
AM_0N
 10
230.1519803180831
 20
342.43892277561019
 30
0.0
 11
230.1519803180831
 21
343.6650179703812
 31
0.0
  0
LINE
  5
335E
  8
AM_0N
 10
229.64698031808311
 20
345.39611316515231
 30
0.0
 11
230.1519803180831
 21
345.39611316515231
 31
0.0
  0
ARC
  5
3364
  8
AM_0
 10
264.39948031808308
 20
348.91751797038131
 30
0.0
 40
1.0
 50
270.0
 51
0.0
1001
GENIUS_GENOBJ-N-FIL_13
1002
{
1000
OWNER
1000
GEN
1002
}
1001
GENIUS_GENODEF_13
1002
{
1000
HIER
1070
     0
1002
}
1002
{
1000
MANEDIT
1070
     0
1002
}
1002
{
1000
NOSEL
1070
     0
1002
}
1002
{
1000
BEHIND
1070
     0
1002
}
1002
{
1000
OTHER
1070
     0
1002
}
1002
{
1000
REACTOR
1002
}
  0
ARC
  5
3365
  8
AM_0
 10
264.39948031808308
 20
392.91751797038131
 30
0.0
 40
1.0
 50
0.0
 51
90.0
1001
GENIUS_GENODEF_13
1002
{
1000
HIER
1070
     0
1002
}
1002
{
1000
MANEDIT
1070
     0
1002
}
1002
{
1000
NOSEL
1070
     0
1002
}
1002
{
1000
BEHIND
1070
     0
1002
}
1002
{
1000
OTHER
1070
     0
1002
}
1002
{
1000
REACTOR
1002
}
1001
GENIUS_GENOBJ-N-FIL_13
1002
{
1000
OWNER
1000
GEN
1002
}
  0
LINE
  5
3366
  8
AM_0
 10
312.39948031808308
 20
344.91751797038131
 30
0.0
 11
312.39948031808308
 21
340.41751797038131
 31
0.0
  0
LINE
  5
3367
  8
AM_0
 10
313.39948031808308
 20
328.41751797038131
 30
0.0
 11
336.39948031808308
 21
328.41751797038131
 31
0.0
  0
LINE
  5
3368
  8
AM_0
 10
313.39948031808308
 20
333.91751797038131
 30
0.0
 11
336.39948031808308
 21
333.91751797038131
 31
0.0
  0
LINE
  5
3369
  8
AM_0
 10
313.39948031808308
 20
339.4175179703812
 30
0.0
 11
336.39948031808308
 21
339.4175179703812
 31
0.0
  0
LINE
  5
336A
  8
AM_0
 10
313.39948031808308
 20
324.71751797038121
 30
0.0
 11
336.39948031808308
 21
324.71751797038132
 31
0.0
  0
ARC
  5
336B
  8
AM_0
 10
313.39948031808308
 20
340.41751797038131
 30
0.0
 40
1.0
 50
180.0
 51
270.0
1001
GENIUS_GENODEF_13
1002
{
1000
HIER
1070
     0
1002
}
1002
{
1000
MANEDIT
1070
     0
1002
}
1002
{
1000
NOSEL
1070
     0
1002
}
1002
{
1000
BEHIND
1070
     0
1002
}
1002
{
1000
OTHER
1070
     0
1002
}
1002
{
1000
REACTOR
1002
}
1001
GENIUS_GENOBJ-N-FIL_13
1002
{
1000
OWNER
1000
GEN
1002
}
  0
ARC
  5
336C
  8
AM_0
 10
313.39948031808308
 20
332.9175179703812
 30
0.0
 40
1.0
 50
90.0
 51
180.0
1001
GENIUS_GENODEF_13
1002
{
1000
HIER
1070
     0
1002
}
1002
{
1000
MANEDIT
1070
     0
1002
}
1002
{
1000
NOSEL
1070
     0
1002
}
1002
{
1000
BEHIND
1070
     0
1002
}
1002
{
1000
OTHER
1070
     0
1002
}
1002
{
1000
REACTOR
1002
}
1001
GENIUS_GENOBJ-N-FIL_13
1002
{
1000
OWNER
1000
GEN
1002
}
  0
ARC
  5
336D
  8
AM_0
 10
313.39948031808308
 20
329.41751797038131
 30
0.0
 40
1.0
 50
180.0
 51
270.0
1001
GENIUS_GENODEF_13
1002
{
1000
HIER
1070
     0
1002
}
1002
{
1000
MANEDIT
1070
     0
1002
}
1002
{
1000
NOSEL
1070
     0
1002
}
1002
{
1000
BEHIND
1070
     0
1002
}
1002
{
1000
OTHER
1070
     0
1002
}
1002
{
1000
REACTOR
1002
}
1001
GENIUS_GENOBJ-N-FIL_13
1002
{
1000
OWNER
1000
GEN
1002
}
  0
LINE
  5
336E
  8
AM_0
 10
312.39948031808308
 20
332.9175179703812
 30
0.0
 11
312.39948031808308
 21
329.41751797038131
 31
0.0
  0
ARC
  5
336F
  8
AM_0
 10
313.39948031808308
 20
323.71751797038121
 30
0.0
 40
1.0
 50
90.0
 51
180.0
1001
GENIUS_GENODEF_13
1002
{
1000
HIER
1070
     0
1002
}
1002
{
1000
MANEDIT
1070
     0
1002
}
1002
{
1000
NOSEL
1070
     0
1002
}
1002
{
1000
BEHIND
1070
     0
1002
}
1002
{
1000
OTHER
1070
     0
1002
}
1002
{
1000
REACTOR
1002
}
1001
GENIUS_GENOBJ-N-FIL_13
1002
{
1000
OWNER
1000
GEN
1002
}
  0
LINE
  5
3370
  8
AM_0
 10
313.39948031808308
 20
345.91751797038131
 30
0.0
 11
336.39948031808308
 21
345.91751797038131
 31
0.0
  0
ARC
  5
3371
  8
AM_0
 10
313.39948031808308
 20
344.91751797038131
 30
0.0
 40
1.0
 50
90.0
 51
180.0
1001
GENIUS_GENOBJ-N-FIL_13
1002
{
1000
OWNER
1000
GEN
1002
}
1001
GENIUS_GENODEF_13
1002
{
1000
HIER
1070
     0
1002
}
1002
{
1000
MANEDIT
1070
     0
1002
}
1002
{
1000
NOSEL
1070
     0
1002
}
1002
{
1000
BEHIND
1070
     0
1002
}
1002
{
1000
OTHER
1070
     0
1002
}
1002
{
1000
REACTOR
1002
}
  0
ARC
  5
3372
  8
AM_0
 10
235.89948031808311
 20
399.91751797038108
 30
0.0
 40
2.0
 50
0.0
 51
90.0
1001
GENIUS_GENOBJ-N-FIL_13
1002
{
1000
OWNER
1000
GEN
1002
}
1001
GENIUS_GENODEF_13
1002
{
1000
HIER
1070
     0
1002
}
1002
{
1000
MANEDIT
1070
     0
1002
}
1002
{
1000
NOSEL
1070
     0
1002
}
1002
{
1000
BEHIND
1070
     0
1002
}
1002
{
1000
OTHER
1070
     0
1002
}
1002
{
1000
REACTOR
1002
}
  0
LINE
  5
3373
  8
AM_0N
 10
229.64698031808311
 20
398.17001797038131
 30
0.0
 11
228.42088512331199
 21
398.17001797038131
 31
0.0
1001
GENIUS_GENOREF_13
1005
0
  0
LINE
  5
3374
  8
AM_0N
 10
229.64698031808311
 20
397.6650179703812
 30
0.0
 11
228.42088512331199
 21
397.6650179703812
 31
0.0
1001
GENIUS_GENOREF_13
1005
0
  0
LINE
  5
3375
  8
AM_0N
 10
228.42088512331199
 20
397.6650179703812
 30
0.0
 11
228.42088512331199
 21
398.17001797038131
 31
0.0
1001
GENIUS_GENOREF_13
1005
0
  0
LINE
  5
3376
  8
AM_0N
 10
230.1519803180831
 20
399.39611316515231
 30
0.0
 11
230.1519803180831
 21
398.17001797038131
 31
0.0
1001
GENIUS_GENOREF_13
1005
0
  0
LINE
  5
3377
  8
AM_0N
 10
229.64698031808311
 20
399.39611316515231
 30
0.0
 11
229.64698031808311
 21
398.17001797038131
 31
0.0
1001
GENIUS_GENOREF_13
1005
0
  0
LINE
  5
3378
  8
AM_0N
 10
229.64698031808311
 20
397.6650179703812
 30
0.0
 11
229.64698031808311
 21
396.43892277561019
 31
0.0
1001
GENIUS_GENOREF_13
1005
0
  0
LINE
  5
3379
  8
AM_0N
 10
230.1519803180831
 20
397.6650179703812
 30
0.0
 11
230.1519803180831
 21
396.43892277561019
 31
0.0
1001
GENIUS_GENOREF_13
1005
0
  0
LINE
  5
337A
  8
AM_0N
 10
229.64698031808311
 20
396.43892277561019
 30
0.0
 11
230.1519803180831
 21
396.43892277561019
 31
0.0
1001
GENIUS_GENOREF_13
1005
0
  0
LINE
  5
337B
  8
AM_0N
 10
231.37807551285411
 20
398.17001797038131
 30
0.0
 11
230.1519803180831
 21
398.17001797038131
 31
0.0
1001
GENIUS_GENOREF_13
1005
0
  0
LINE
  5
337C
  8
AM_0N
 10
231.37807551285411
 20
397.6650179703812
 30
0.0
 11
230.1519803180831
 21
397.6650179703812
 31
0.0
1001
GENIUS_GENOREF_13
1005
0
  0
LINE
  5
337D
  8
AM_0N
 10
231.37807551285411
 20
397.6650179703812
 30
0.0
 11
231.37807551285411
 21
398.17001797038131
 31
0.0
1001
GENIUS_GENOREF_13
1005
0
  0
LINE
  5
337E
  8
AM_0N
 10
229.64698031808311
 20
399.39611316515231
 30
0.0
 11
230.1519803180831
 21
399.39611316515231
 31
0.0
1001
GENIUS_GENOREF_13
1005
0
  0
LINE
  5
337F
  8
AM_0
 10
405.05104031808298
 20
400.72331147038119
 30
0.0
 11
429.89950031808303
 21
356.35050947038133
 31
0.0
  0
LINE
  5
3380
  8
AM_0
 10
429.89950031808303
 20
324.80500547038122
 30
0.0
 11
429.89950031808303
 21
465.48339347038132
 31
0.0
  0
LINE
  5
3381
  8
AM_0
 10
390.89950031808303
 20
351.42195047038132
 30
0.0
 11
429.89950031808303
 21
351.42195047038132
 31
0.0
  0
LINE
  5
3382
  8
AM_0
 10
390.03907031808319
 20
327.29528747038131
 30
0.0
 11
427.18696031808298
 21
325.99804547038133
 31
0.0
  0
LINE
  5
3383
  8
AM_0
 10
337.39948031808308
 20
344.91751797038131
 30
0.0
 11
337.39948031808308
 21
340.41751797038131
 31
0.0
  0
LINE
  5
3384
  8
AM_0
 10
337.39948031808308
 20
332.9175179703812
 30
0.0
 11
337.39948031808308
 21
329.41751797038131
 31
0.0
  0
LINE
  5
3385
  8
AM_0
 10
365.89948031808308
 20
335.11164647038117
 30
0.0
 11
385.89949031808288
 21
335.11164647038117
 31
0.0
  0
ARC
  5
3386
  8
AM_0
 10
389.89951031808312
 20
323.29771247038133
 30
0.0
 40
4.000000199999997
 50
87.999999999996405
 51
180.00001000000091
  0
ARC
  5
3387
  8
AM_0
 10
390.89950031808303
 20
346.4219344703813
 30
0.0
 40
5.0000001000000003
 50
90.00000299999769
 51
180.00001000000091
  0
ARC
  5
3388
  8
AM_0
 10
427.04737031808293
 20
322.00047047038117
 30
0.0
 40
4.000000199999997
 50
31.072340999999
 51
87.999999999996405
  0
LINE
  5
3389
  8
AM_0
 10
365.89948031808308
 20
413.91749747038102
 30
0.0
 11
411.00253031808307
 21
413.91749747038102
 31
0.0
  0
LINE
  5
338A
  8
AM_0
 10
365.89948031808308
 20
400.72332947038109
 30
0.0
 11
405.05104031808298
 21
400.72332947038097
 31
0.0
  0
LINE
  5
338B
  8
AM_0
 10
391.28602031808299
 20
425.30400347038102
 30
0.0
 11
397.66237031808299
 21
413.91746747038098
 31
0.0
  0
LINE
  5
338C
  8
AM_0
 10
391.79482031808311
 20
459.01860347038109
 30
0.0
 11
424.62745031808288
 21
460.16514347038111
 31
0.0
  0
LINE
  5
338D
  8
AM_0
 10
392.40016031808318
 20
426.418137470381
 30
0.0
 11
427.31632031808277
 21
461.33424347038113
 31
0.0
  0
LINE
  5
338E
  8
AM_0
 10
358.89948031808302
 20
433.91751797038103
 30
0.0
 11
365.89948031808308
 21
430.91751797038103
 31
0.0
  0
LINE
  5
338F
  8
AM_0
 10
388.89949031808288
 20
456.0204034703811
 30
0.0
 11
388.89949031808288
 21
429.37416347038112
 31
0.0
  0
LINE
  5
3390
  8
AM_0
 10
365.89948031808308
 20
424.41749747038108
 30
0.0
 11
384.0797203180831
 21
425.05235447038109
 31
0.0
  0
ARC
  5
3391
  8
AM_0
 10
389.5717303180831
 20
429.24656747038108
 30
0.0
 40
4.000000199999997
 50
272.00000000000358
 51
314.99999999999312
  0
ARC
  5
3392
  8
AM_0
 10
385.89949031808288
 20
429.37416347038112
 30
0.0
 40
3.0
 50
309.62979000000752
 51
0.0
  0
ARC
  5
3393
  8
AM_0
 10
383.94013031808311
 20
429.04991147038118
 30
0.0
 40
4.000000199999997
 50
272.00000000000358
 51
309.62979000000752
  0
LINE
  5
3394
  8
AM_0
 10
387.81295031808298
 20
427.0635844703811
 30
0.0
 11
386.4914203180831
 21
425.96916347038109
 31
0.0
  0
LINE
  5
3395
  8
AM_0
 10
384.0797203180831
 20
425.05235447038109
 30
0.0
 11
389.71132031808298
 21
425.24901047038099
 31
0.0
  0
LINE
  5
3396
  8
AM_0
 10
347.39948031808302
 20
433.91751797038103
 30
0.0
 11
358.89948031808302
 21
433.91751797038103
 31
0.0
  0
ARC
  5
3397
  8
AM_0
 10
391.89949031808311
 20
456.0204034703811
 30
0.0
 40
3.0
 50
91.999997999994008
 51
180.00001000000091
  0
ARC
  5
3398
  8
AM_0
 10
411.00253031808307
 20
410.91749747038119
 30
0.0
 40
3.0
 50
314.99999999999312
 51
90.00000299999769
  0
LINE
  5
3399
  8
AM_0
 10
405.05104031808298
 20
400.72332947038097
 30
0.0
 11
413.12386031808308
 21
408.79617347038112
 31
0.0
  0
ARC
  5
339A
  8
AM_0
 10
425.90053031808287
 20
465.5754034703811
 30
0.0
 40
4.000000199999997
 50
314.99999999999312
 51
0.9319899800013384
  0
ARC
  5
339B
  8
AM_0
 10
424.48789031808309
 20
464.16270347038108
 30
0.0
 40
4.000000199999997
 50
272.00000000000358
 51
314.99999999999312
  0
LINE
  5
339C
  8
AM_0
 10
427.31632031808277
 20
461.33424347038113
 30
0.0
 11
428.72896031808301
 21
462.74697347038119
 31
0.0
  0
LINE
  5
339D
  8
AM_0
 10
609.39949031808305
 20
306.4174774703813
 30
0.0
 11
609.39949031808305
 21
423.9174664703811
 31
0.0
  0
LINE
  5
339E
  8
AM_0
 10
594.39949031808305
 20
309.00025847038131
 30
0.0
 11
594.39949031808305
 21
359.22820847038111
 31
0.0
  0
LINE
  5
339F
  8
AM_0
 10
496.39951031808312
 20
296.4174784703813
 30
0.0
 11
581.63644031808292
 21
294.1854664703813
 31
0.0
  0
LINE
  5
33A0
  8
AM_0
 10
474.39949031808322
 20
315.49969247038132
 30
0.0
 11
592.66300031808305
 21
315.49969247038132
 31
0.0
  0
ARC
  5
33A1
  8
AM_0
 10
477.39949031808311
 20
304.8940414703813
 30
0.0
 40
3.0
 50
179.999989999999
 51
268.00001000000509
  0
ARC
  5
33A2
  8
AM_0
 10
471.39949031808311
 20
318.31565747038132
 30
0.0
 40
3.0
 50
0.0
 51
87.999999999996405
  0
LINE
  5
33A3
  8
AM_0
 10
486.39949031808311
 20
315.49969247038132
 30
0.0
 11
486.39949031808311
 21
298.69805747038117
 31
0.0
  0
LINE
  5
33A4
  8
AM_0
 10
488.32975031808309
 20
296.69927747038122
 30
0.0
 11
496.39951031808312
 21
296.4174784703813
 31
0.0
  0
ARC
  5
33A5
  8
AM_0
 10
484.39951031808312
 20
299.6459464703812
 30
0.0
 40
2.00000007
 50
0.0
 51
87.999999999996405
  0
ARC
  5
33A6
  8
AM_0
 10
488.39950031808303
 20
298.69805747038117
 30
0.0
 40
2.00000007
 50
179.999989999999
 51
268.00001000000509
  0
LINE
  5
33A7
  8
AM_0
 10
477.29482031808288
 20
301.89526247038123
 30
0.0
 11
484.46932031808302
 21
301.64472647038122
 31
0.0
  0
LINE
  5
33A8
  8
AM_0
 10
581.63644031808292
 20
294.1854664703813
 30
0.0
 11
602.39950031808291
 21
306.1730164703813
 31
0.0
  0
LINE
  5
33A9
  8
AM_0
 10
597.50419031808315
 20
306.0020884703813
 30
0.0
 11
609.39952031808286
 21
306.4174774703813
 31
0.0
  0
ARC
  5
33AA
  8
AM_0
 10
597.39949031808305
 20
309.00025847038131
 30
0.0
 40
3.0
 50
179.999989999999
 51
271.9999899999948
  0
LINE
  5
33AB
  8
AM_0
 10
609.39949031808305
 20
318.9174784703813
 30
0.0
 11
613.39951031808312
 21
318.9174784703813
 31
0.0
  0
LINE
  5
33AC
  8
AM_0
 10
474.39949031808322
 20
335.53722947038119
 30
0.0
 11
592.66300031808305
 21
335.53722947038119
 31
0.0
  0
LINE
  5
33AE
  8
AM_0
 10
486.39949031808311
 20
335.53722947038119
 30
0.0
 11
486.39949031808311
 21
460.24959347038111
 31
0.0
  0
LINE
  5
33AF
  8
AM_0
 10
496.39951031808312
 20
426.10283147038109
 30
0.0
 11
496.40110031808291
 21
426.10283147038109
 31
0.0
  0
ARC
  5
33B0
  8
AM_0
 10
476.39950031808303
 20
464.2495534703811
 30
0.0
 40
2.00000007
 50
179.999989999999
 51
270.0
  0
LINE
  5
33B1
  8
AM_0
 10
475.87807031808302
 20
453.3001564703813
 30
0.0
 11
484.82857031808282
 21
453.3001564703813
 31
0.0
  0
ARC
  5
33B2
  8
AM_0
 10
484.39951031808312
 20
460.24959347038111
 30
0.0
 40
2.00000007
 50
0.0
 51
90.00000299999769
  0
LINE
  5
33B3
  8
AM_0
 10
476.39950031808303
 20
462.24957347038111
 30
0.0
 11
484.39951031808312
 21
462.24957347038111
 31
0.0
  0
ARC
  5
33B4
  8
AM_0
 10
617.65297031808291
 20
426.22224647038098
 30
0.0
 40
40.000001999999981
 50
174.0759799999995
 51
234.45534000000481
  0
LINE
  5
33B5
  8
AM_0
 10
601.39951031808312
 20
332.54949647038131
 30
0.0
 11
601.39951031808312
 21
423.9174664703811
 31
0.0
  0
ARC
  5
33B6
  8
AM_0
 10
597.39949031808305
 20
359.22820847038111
 30
0.0
 40
3.0
 50
90.00000299999769
 51
180.00001000000091
  0
ARC
  5
33B7
  8
AM_0
 10
598.39951031808312
 20
332.54949647038131
 30
0.0
 40
3.0
 50
272.00000000000358
 51
0.0
  0
LINE
  5
33B8
  8
AM_0
 10
596.68405031808311
 20
329.48777747038122
 30
0.0
 11
598.50421031808298
 21
329.55134447038131
 31
0.0
  0
LINE
  5
33B9
  8
AM_0
 10
597.39949031808305
 20
362.22820847038122
 30
0.0
 11
601.39951031808312
 21
362.22820847038122
 31
0.0
  0
LINE
  5
33BA
  8
AM_0
 10
597.39949031808305
 20
392.15322947038118
 30
0.0
 11
601.39951031808312
 21
392.15322947038118
 31
0.0
  0
ARC
  5
33BB
  8
AM_0
 10
597.39949031808305
 20
395.15322947038118
 30
0.0
 40
3.0
 50
179.999989999999
 51
270.0
  0
LINE
  5
33BC
  8
AM_0
 10
626.3994703180831
 20
439.9174654703811
 30
0.0
 11
626.3994703180831
 21
442.91746547038099
 31
0.0
  0
LINE
  5
33BD
  8
AM_0
 10
439.89949031808311
 20
469.41747347038103
 30
0.0
 11
471.50416031808288
 21
470.52114347038099
 31
0.0
  0
LINE
  5
33BE
  8
AM_0
 10
433.75990031808283
 20
469.7030734703813
 30
0.0
 11
439.89949031808311
 21
469.91745347038119
 31
0.0
  0
LINE
  5
33BF
  8
AM_0
 10
558.91000031808301
 20
498.427953470381
 30
0.0
 11
594.39949031808305
 21
533.91747347038086
 31
0.0
  0
LINE
  5
33C0
  8
AM_0
 10
474.39949031808322
 20
475.12191347038112
 30
0.0
 11
581.39296031808306
 21
475.12191347038112
 31
0.0
  0
LINE
  5
33C1
  8
AM_0
 10
557.49949031808285
 20
497.01744347038112
 30
0.0
 11
564.72967031808275
 21
495.8562034703811
 31
0.0
  0
LINE
  5
33C2
  8
AM_0
 10
496.39951031808312
 20
495.41751347038098
 30
0.0
 11
555.50536031808304
 21
496.96524347038098
 31
0.0
  0
ARC
  5
33C3
  8
AM_0
 10
476.39950031808303
 20
477.22014347038112
 30
0.0
 40
2.00000007
 50
90.00000299999769
 51
180.00001000000091
  0
ARC
  5
33C4
  8
AM_0
 10
477.39949031808311
 20
486.94152347038113
 30
0.0
 40
3.0
 50
91.999997999994008
 51
180.00001000000091
  0
ARC
  5
33C5
  8
AM_0
 10
471.39949031808311
 20
473.5193434703811
 30
0.0
 40
3.0
 50
272.00000000000358
 51
0.0
  0
LINE
  5
33C6
  8
AM_0
 10
486.39949031808311
 20
481.2201034703811
 30
0.0
 11
486.39949031808311
 21
493.13688347038101
 31
0.0
  0
ARC
  5
33C7
  8
AM_0
 10
484.39951031808312
 20
481.2201034703811
 30
0.0
 40
2.00000007
 50
270.0
 51
0.0
  0
LINE
  5
33C8
  8
AM_0
 10
476.39950031808303
 20
479.22015347038132
 30
0.0
 11
484.39951031808312
 21
479.22015347038132
 31
0.0
  0
LINE
  5
33C9
  8
AM_0
 10
488.32975031808309
 20
495.13566347038102
 30
0.0
 11
496.39951031808312
 21
495.41745347038108
 31
0.0
  0
ARC
  5
33CA
  8
AM_0
 10
484.39951031808312
 20
492.1890334703811
 30
0.0
 40
2.00000007
 50
272.00000000000358
 51
0.0
  0
ARC
  5
33CB
  8
AM_0
 10
488.39950031808303
 20
493.13688347038101
 30
0.0
 40
2.00000007
 50
91.999997999994008
 51
180.00001000000091
  0
LINE
  5
33CC
  8
AM_0
 10
477.29482031808288
 20
489.93972347038101
 30
0.0
 11
484.46932031808302
 21
490.190223470381
 31
0.0
  0
ARC
  5
33CD
  8
AM_0
 10
555.37447031808301
 20
501.96348347038111
 30
0.0
 40
5.0000001000000003
 50
271.50000000000267
 51
314.99999999999312
  0
ARC
  5
33D0
  8
AM_0
 10
597.39949031808305
 20
537.99660347038105
 30
0.0
 40
3.0
 50
91.999997999994008
 51
180.00001000000091
  0
LINE
  5
33D1
  8
AM_0
 10
594.39949031808305
 20
482.82822347038098
 30
0.0
 11
594.39949031808305
 21
537.99660347038105
 31
0.0
  0
ARC
  5
33D2
  8
AM_0
 10
561.39949031808305
 20
475.12191347038112
 30
0.0
 40
21.000000600000011
 50
354.07597999999962
 51
80.875525000003577
  0
LINE
  5
33D3
  8
AM_0
 10
597.39949031808305
 20
479.82822347038109
 30
0.0
 11
601.39951031808312
 21
479.82822347038109
 31
0.0
  0
ARC
  5
33D4
  8
AM_0
 10
597.39949031808305
 20
482.82822347038098
 30
0.0
 40
3.0
 50
179.999989999999
 51
270.0
  0
ARC
  5
33D5
  8
AM_0
 10
598.39951031808312
 20
514.51719347038124
 30
0.0
 40
3.0
 50
0.0
 51
91.999997999994008
  0
LINE
  5
33D6
  8
AM_0
 10
598.114930318083
 20
517.50912347038116
 30
0.0
 11
598.29484031808329
 21
517.51536347038109
 31
0.0
  0
LINE
  5
33D7
  8
AM_0
 10
609.39949031808305
 20
528.91749347038126
 30
0.0
 11
613.39951031808312
 21
528.91749347038126
 31
0.0
  0
LINE
  5
33D8
  8
AM_0
 10
597.29479031808307
 20
540.99477347038112
 30
0.0
 11
609.39952031808286
 21
541.41747347038086
 31
0.0
  0
ARC
  5
33DD
  8
AM_0
 10
921.57861648545429
 20
395.9174944703812
 30
0.0
 40
99.500004000000004
 50
125.863690000004
 51
150.26975999999769
  0
ARC
  5
33DE
  8
AM_0
 10
921.57861648545429
 20
423.9174664703811
 30
0.0
 40
48.0
 50
54.77685000000497
 51
125.22313999999371
  0
ARC
  5
33DF
  8
AM_0
 10
921.57861648545429
 20
395.9174944703812
 30
0.0
 40
99.500004000000004
 50
29.730243000000019
 51
54.136311999993161
  0
CIRCLE
  5
33E0
  8
AM_0
 10
921.57861648545429
 20
423.9174664703811
 30
0.0
 40
99.000003000000021
  0
CIRCLE
  5
33E1
  8
AM_0
 10
921.57861648545429
 20
423.9174664703811
 30
0.0
 40
105.00000300000001
  0
LINE
  5
33E2
  8
AM_0
 10
887.47467048545445
 20
463.67829347038111
 30
0.0
 11
858.24435348545444
 21
492.90861347038111
 31
0.0
  0
LINE
  5
33E3
  8
AM_0
 10
804.0786274854546
 20
453.91746647038121
 30
0.0
 11
807.49348248545425
 21
519.07677347038089
 31
0.0
  0
LINE
  5
33E4
  8
AM_0
 10
1039.0786264854539
 20
453.91749647038108
 30
0.0
 11
1035.6637714854539
 21
519.07677347038089
 31
0.0
  0
LINE
  5
33E5
  8
AM_0
 10
881.8178104854544
 20
458.02143347038123
 30
0.0
 11
852.58749348545405
 21
487.25175347038117
 31
0.0
  0
LINE
  5
33E6
  8
AM_0
 10
955.68255948545436
 20
463.67829347038111
 30
0.0
 11
984.91286148545441
 21
492.90858347038102
 31
0.0
  0
LINE
  5
33E7
  8
AM_0
 10
961.33941948545464
 20
458.02143347038123
 30
0.0
 11
990.56973048545456
 21
487.25172347038108
 31
0.0
  0
LINE
  5
33E8
  8
ﾁｭｳｼﾝｾﾝ
 10
921.57861648545429
 20
291.14673947038119
 30
0.0
 11
921.57861648545429
 21
547.01487347038085
 31
0.0
  0
LINE
  5
33EA
  8
ﾁｭｳｼﾝｾﾝ
 10
798.91093848545415
 20
423.9174664703811
 30
0.0
 11
1043.3883604854541
 21
423.9174664703811
 31
0.0
  0
ARC
  5
33EB
  8
AM_0
 10
827.46607848545443
 20
329.80492847038118
 30
0.0
 40
20.000000700000001
 50
183.00000999999969
 51
266.99999999999437
  0
ARC
  5
33EC
  8
ﾁｭｳｼﾝｾﾝ
 10
921.57861648545736
 20
423.91746647038372
 30
0.0
 40
135.00000300000349
 50
218.368390000007
 51
231.4849283267078
  0
LINE
  5
33EF
  8
AM_0
 10
671.39950031808291
 20
407.91749747038108
 30
0.0
 11
671.39950031808291
 21
442.91746547038099
 31
0.0
  0
LINE
  5
33F2
  8
AM_0
 10
804.0786274854546
 20
423.9174664703811
 30
0.0
 11
804.0786274854546
 21
393.91748147038118
 31
0.0
  0
LINE
  5
33F3
  8
AM_0
 10
804.0786274854546
 20
393.91748147038118
 30
0.0
 11
807.49345248545444
 21
328.75820747038119
 31
0.0
  0
LINE
  5
33F4
  8
AM_0
 10
804.0786274854546
 20
423.9174664703811
 30
0.0
 11
804.0786274854546
 21
453.91746647038121
 31
0.0
  0
CIRCLE
  5
33F5
  8
AM_0
 10
1017.0380464854539
 20
328.4580664703812
 30
0.0
 40
7.5000002999999982
  0
ARC
  5
33F6
  8
ﾁｭｳｼﾝｾﾝ
 10
921.57861648544861
 20
423.91746647038559
 30
0.0
 40
135.00000300000681
 50
307.3861636165401
 51
322.25634999999983
  0
CIRCLE
  5
33F7
  8
AM_0
 10
826.11918648545429
 20
328.4580664703812
 30
0.0
 40
7.5000002999999982
  0
ARC
  5
33F8
  8
AM_0
 10
1015.691181485454
 20
329.80492847038118
 30
0.0
 40
20.000000700000001
 50
273.00000000000563
 51
357.00000000000108
  0
LINE
  5
33F9
  8
ﾁｭｳｼﾝｾﾝ
 10
1006.831725802916
 20
338.6643845413916
 30
0.0
 11
1027.4071855160571
 21
318.08892700725937
 31
0.0
  0
LINE
  5
33FA
  8
ﾁｭｳｼﾝｾﾝ
 10
833.83003176597401
 20
336.16889675090079
 30
0.0
 11
817.59240274006015
 21
319.93126772498692
 31
0.0
  0
ARC
  5
33FB
  8
AM_0
 10
921.57861648545429
 20
395.9174944703812
 30
0.0
 40
99.500004000000004
 50
242.88566000000239
 51
297.11434999999369
  0
LINE
  5
33FC
  8
AM_0
 10
921.57861648545429
 20
306.4174774703813
 30
0.0
 11
951.5786164854544
 21
306.4174774703813
 31
0.0
  0
LINE
  5
33FD
  8
AM_0
 10
891.57861348545396
 20
306.4174774703813
 30
0.0
 11
826.41932748545446
 21
309.83233547038122
 31
0.0
  0
LINE
  5
33FE
  8
AM_0
 10
921.57861648545429
 20
306.4174774703813
 30
0.0
 11
891.57861348545396
 21
306.4174774703813
 31
0.0
  0
LINE
  5
33FF
  8
AM_0
 10
951.5786164854544
 20
306.4174774703813
 30
0.0
 11
1016.737905485454
 21
309.83233547038122
 31
0.0
  0
LINE
  5
3400
  8
ﾁｭｳｼﾝｾﾝ
 10
866.49616213950856
 20
367.91748047038129
 30
0.0
 11
976.66107083140014
 21
367.91748047038129
 31
0.0
  0
ARC
  5
3401
  8
AM_0
 10
921.57861648545429
 20
423.9174664703811
 30
0.0
 40
16.000000499999999
 50
108.2099599999986
 51
71.790052000004991
  0
ARC
  5
3402
  8
AM_0
 10
921.57861648545429
 20
423.9174664703811
 30
0.0
 40
16.000000499999999
 50
108.2099599999986
 51
71.790052000004991
  0
CIRCLE
  5
3403
  8
AM_0
 10
921.57861648545429
 20
423.9174664703811
 30
0.0
 40
29.000001000000001
  0
ARC
  5
3404
  8
AM_0
 10
921.57861648545429
 20
395.9174944703812
 30
0.0
 40
93.500003999999976
 50
162.14678999999711
 51
183.00788
  0
LINE
  5
3405
  8
AM_0
 10
873.57861348545441
 20
423.9174664703811
 30
0.0
 11
873.57861348545441
 21
385.91748047038118
 31
0.0
  0
ARC
  5
3406
  8
AM_0
 10
868.57863048545425
 20
385.91748047038118
 30
0.0
 40
5.0000001000000003
 50
270.0
 51
0.0
  0
LINE
  5
3407
  8
AM_0
 10
868.57863048545425
 20
380.9174944703812
 30
0.0
 11
835.60188348545455
 21
380.9174944703812
 31
0.0
  0
ARC
  5
3408
  8
AM_0
 10
835.60188348545455
 20
385.91748047038118
 30
0.0
 40
5.0000001000000003
 50
203.84446999999949
 51
270.0
  0
ARC
  5
3409
  8
AM_0
 10
921.57861648545429
 20
423.9174664703811
 30
0.0
 40
48.0
 50
144.77683999999911
 51
180.00001000000091
  0
ARC
  5
340A
  8
AM_0
 10
921.57861648545429
 20
423.9174664703811
 30
0.0
 40
89.000003999999961
 50
166.12423000000121
 51
179.57177000000021
  0
CIRCLE
  5
340B
  8
AM_0
 10
921.57861648545429
 20
423.9174664703811
 30
0.0
 40
2.75000007
  0
CIRCLE
  5
340C
  8
AM_5
 10
921.57861648545429
 20
423.9174664703811
 30
0.0
 40
4.000000199999997
  0
CIRCLE
  5
340D
  8
AM_0
 10
921.57861648545429
 20
423.9174664703811
 30
0.0
 40
2.75000007
  0
CIRCLE
  5
340E
  8
AM_0
 10
921.57861648545429
 20
423.9174664703811
 30
0.0
 40
2.75000007
  0
ARC
  5
340F
  8
AM_0
 10
878.28227448545431
 20
454.48588847038121
 30
0.0
 40
5.0000001000000003
 50
324.77685000000298
 51
45.000000999994569
  0
ARC
  5
3410
  8
AM_0
 10
891.0102094854542
 20
467.2138234703811
 30
0.0
 40
5.0000001000000003
 50
225.00000000000691
 51
305.22314999999492
  0
LINE
  5
3411
  8
AM_0
 10
916.57861548545441
 20
442.91746547038099
 30
0.0
 11
926.57863248545425
 21
442.91746547038099
 31
0.0
  0
LINE
  5
3412
  8
AM_0
 10
926.57863248545425
 20
434.91749747038119
 30
0.0
 11
926.57863248545425
 21
442.91746547038099
 31
0.0
  0
LINE
  5
3413
  8
AM_0
 10
916.57861548545441
 20
434.91749747038119
 30
0.0
 11
916.57861548545441
 21
442.91746547038099
 31
0.0
  0
LINE
  5
3414
  8
AM_0
 10
916.57861548545441
 20
434.91749747038119
 30
0.0
 11
926.57863248545425
 21
434.91749747038119
 31
0.0
  0
ARC
  5
3415
  8
AM_0
 10
921.57861648545429
 20
395.9174944703812
 30
0.0
 40
93.500003999999976
 50
356.99212
 51
17.85321299999984
  0
LINE
  5
3416
  8
AM_0
 10
1039.078623485454
 20
423.9174664703811
 30
0.0
 11
1039.078623485454
 21
393.91748147038118
 31
0.0
  0
LINE
  5
3417
  8
AM_0
 10
969.5786164854544
 20
423.9174664703811
 30
0.0
 11
969.5786164854544
 21
385.91748047038118
 31
0.0
  0
LINE
  5
3418
  8
AM_0
 10
974.57862648545438
 20
380.9174944703812
 30
0.0
 11
1007.555364485454
 21
380.9174944703812
 31
0.0
  0
ARC
  5
3419
  8
AM_0
 10
974.57862648545438
 20
385.91748047038118
 30
0.0
 40
5.0000001000000003
 50
179.999989999999
 51
270.0
  0
LINE
  5
341A
  8
AM_0
 10
1039.0786264854539
 20
393.91748147038118
 30
0.0
 11
1035.6637714854539
 21
328.75820747038119
 31
0.0
  0
ARC
  5
341B
  8
AM_0
 10
1007.555364485454
 20
385.91748047038118
 30
0.0
 40
5.0000001000000003
 50
270.0
 51
336.15553000000051
  0
ARC
  5
341C
  8
AM_0
 10
921.57861648545429
 20
423.9174664703811
 30
0.0
 40
48.0
 50
0.0
 51
35.223151999997171
  0
ARC
  5
341D
  8
AM_0
 10
952.14703848545446
 20
467.2138234703811
 30
0.0
 40
5.0000001000000003
 50
234.7768600000062
 51
314.99999999999312
  0
ARC
  5
341E
  8
AM_0
 10
964.87495848545416
 20
454.48588847038121
 30
0.0
 40
5.0000001000000003
 50
134.99999999999301
 51
215.22314999999691
  0
ARC
  5
341F
  8
AM_0
 10
921.57861648545429
 20
423.9174664703811
 30
0.0
 40
89.000003999999961
 50
0.4282278599984297
 51
13.875763999998069
  0
LINE
  5
3420
  8
AM_0
 10
1039.078623485454
 20
423.9174664703811
 30
0.0
 11
1039.078623485454
 21
453.91746647038121
 31
0.0
  0
ARC
  5
3423
  8
AM_0
 10
827.46607848545443
 20
518.03004347038075
 30
0.0
 40
20.000000700000001
 50
92.999998999995185
 51
176.9999900000002
  0
ARC
  5
3424
  8
ﾁｭｳｼﾝｾﾝ
 10
921.57861648545259
 20
423.91746647038212
 30
0.0
 40
135.00000299999769
 50
127.4062807621978
 51
142.2563499999998
  0
LINE
  5
3425
  8
ﾁｭｳｼﾝｾﾝ
 10
835.59049159524909
 20
509.90562074122062
 30
0.0
 11
816.31318143505632
 21
529.18295557312945
 31
0.0
  0
ARC
  5
3426
  8
AM_0
 10
921.57861648545429
 20
395.9174944703812
 30
0.0
 40
99.500004000000004
 50
58.838493999997567
 51
86.644179999996624
  0
LINE
  5
3427
  8
AM_0
 10
921.57861648545429
 20
541.41750347038112
 30
0.0
 11
951.5786164854544
 21
541.41750347038112
 31
0.0
  0
LINE
  5
3428
  8
AM_0
 10
891.57863148545425
 20
541.41747347038086
 30
0.0
 11
826.41935748545427
 21
538.00260347038125
 31
0.0
  0
ARC
  5
3429
  8
AM_0
 10
921.57861648545429
 20
395.9174944703812
 30
0.0
 40
99.500004000000004
 50
93.355817999997413
 51
121.1614999999983
  0
ARC
  5
342A
  8
AM_0
 10
861.7798924854543
 20
496.44414347038111
 30
0.0
 40
5.0000001000000003
 50
129.50581999999909
 51
225.00000000000691
  0
ARC
  5
342B
  8
AM_0
 10
849.05198748545445
 20
483.71619347038109
 30
0.0
 40
5.0000001000000003
 50
45.000000999994569
 51
140.49417999999881
  0
CIRCLE
  5
342C
  8
AM_0
 10
826.11918648545429
 20
519.37692347038114
 30
0.0
 40
7.5000002999999982
  0
LINE
  5
342E
  8
AM_0
 10
918.5786164854544
 20
504.43221347038087
 30
0.0
 11
918.5786164854544
 21
498.24171347038111
 31
0.0
  0
LINE
  5
342F
  8
AM_0
 10
924.5786164854544
 20
504.43221347038087
 30
0.0
 11
924.5786164854544
 21
498.24171347038111
 31
0.0
  0
ARC
  5
3431
  8
AM_0
 10
927.5786164854544
 20
498.24171347038111
 30
0.0
 40
3.0
 50
179.999989999999
 51
266.64419000000061
  0
ARC
  5
3432
  8
AM_0
 10
915.57861648545452
 20
498.24171347038111
 30
0.0
 40
3.0
 50
273.35582000000329
 51
0.0
  0
ARC
  5
3433
  8
AM_0
 10
915.57861648545452
 20
504.43221347038087
 30
0.0
 40
3.0
 50
0.0
 51
90.00000299999769
  0
ARC
  5
3434
  8
AM_0
 10
927.5786164854544
 20
504.43221347038087
 30
0.0
 40
3.0
 50
90.00000299999769
 51
180.00001000000091
  0
LINE
  5
3436
  8
AM_0
 10
921.57861648545429
 20
541.41750347038112
 30
0.0
 11
891.57861348545396
 21
541.41750347038112
 31
0.0
  0
ARC
  5
3437
  8
AM_0
 10
1015.691181485454
 20
518.03004347038075
 30
0.0
 40
20.000000700000001
 50
3.0000000999988461
 51
86.99999899999699
  0
LINE
  5
3438
  8
AM_0
 10
951.5786164854544
 20
541.41747347038086
 30
0.0
 11
1016.737896485454
 21
538.00263347038117
 31
0.0
  0
ARC
  5
3439
  8
AM_0
 10
994.10526648545431
 20
483.71619347038109
 30
0.0
 40
5.0000001000000003
 50
39.505818000001597
 51
134.99999999999301
  0
ARC
  5
343A
  8
AM_0
 10
981.37733748545452
 20
496.44414347038111
 30
0.0
 40
5.0000001000000003
 50
314.99999999999312
 51
50.494181999993828
  0
CIRCLE
  5
343B
  8
AM_0
 10
1017.0380464854539
 20
519.37692347038114
 30
0.0
 40
7.5000002999999982
  0
ARC
  5
343C
  8
ﾁｭｳｼﾝｾﾝ
 10
921.57861648545429
 20
423.9174664703811
 30
0.0
 40
135.00000299999999
 50
38.368393000006648
 51
52.25634600000393
  0
LINE
  5
343D
  8
ﾁｭｳｼﾝｾﾝ
 10
1007.800570976929
 20
510.1394324238729
 30
0.0
 11
1026.2821158277011
 21
528.62100343822556
 31
0.0
  0
POINT
  5
343E
  8
0
 10
146.5900943493497
 20
633.25757969524534
 30
0.0
1001
GENIUS_GENOLIS_13
1002
{
1000
ENT
1005
0
1005
3298
1005
3297
1002
}
1001
GENIUS_GENOENT_13
1002
{
1000
MYREF
1005
343E
1002
}
1002
{
1000
GRP
1005
0
1002
}
1001
GENIUS_GENOBJ-NBEHI-BHB_13
1002
{
1000
OWNER
1000
genbehi
1002
}
1001
GENIUS_GENBH_13
1002
{
1000
FGO
1005
0
1002
}
1001
GENIUS_GENODEF_13
1002
{
1000
HIER
1070
     1
1002
}
1002
{
1000
MANEDIT
1070
     1
1002
}
1002
{
1000
NOSEL
1070
     1
1002
}
1002
{
1000
BEHIND
1070
     0
1002
}
1002
{
1000
OTHER
1070
     1
1002
}
1002
{
1000
REACTOR
1002
}
  0
LINE
  5
35AA
  8
AM_0
 10
259.39049231808298
 20
302.31751797038118
 30
0.0
 11
347.39948031808302
 21
302.31751797038118
 31
0.0
  0
TEXT
  5
3936
  8
AM_0
 10
808.06294529353897
 20
780.43993502114756
 30
0.0
 40
15.0
  1
VX02-240SF~VX02-600SF
  0
ENDSEC
  0
EOF
