  0
SECTION
  2
HEADER
  9
$ACADVER
  1
AC1009
  9
$INSBASE
 10
0.0
 20
0.0
 30
0.0
  9
$EXTMIN
 10
141.36875500246919
 20
231.08519299213091
 30
-0.0015258207003583
  9
$EXTMAX
 10
1133.641512985505
 20
958.28044192632524
 30
0.0000000349246037
  9
$LIMMIN
 10
0.0
 20
0.0
  9
$LIMMAX
 10
1422.5
 20
925.0
  9
$ORTHOMODE
 70
     0
  9
$REGENMODE
 70
     1
  9
$FILLMODE
 70
     1
  9
$QTEXTMODE
 70
     0
  9
$MIRRTEXT
 70
     1
  9
$DRAGMODE
 70
     2
  9
$LTSCALE
 40
5.0
  9
$OSMODE
 70
   551
  9
$ATTMODE
 70
     1
  9
$TEXTSIZE
 40
2.5
  9
$TRACEWID
 40
1.0
  9
$TEXTSTYLE
  7
STANDARD
  9
$CLAYER
  8
AM_0
  9
$CELTYPE
  6
BYLAYER
  9
$CECOLOR
 62
   256
  9
$DIMSCALE
 40
5.0
  9
$DIMASZ
 40
2.5
  9
$DIMEXO
 40
1.0
  9
$DIMDLI
 40
8.0
  9
$DIMRND
 40
0.0
  9
$DIMDLE
 40
0.0
  9
$DIMEXE
 40
0.6
  9
$DIMTP
 40
0.1
  9
$DIMTM
 40
0.1
  9
$DIMTXT
 40
2.5
  9
$DIMCEN
 40
0.0
  9
$DIMTSZ
 40
0.0
  9
$DIMTOL
 70
     0
  9
$DIMLIM
 70
     0
  9
$DIMTIH
 70
     0
  9
$DIMTOH
 70
     0
  9
$DIMSE1
 70
     0
  9
$DIMSE2
 70
     0
  9
$DIMTAD
 70
     1
  9
$DIMZIN
 70
     8
  9
$DIMBLK
  1

  9
$DIMASO
 70
     1
  9
$DIMSHO
 70
     1
  9
$DIMPOST
  1

  9
$DIMAPOST
  1
"
  9
$DIMALT
 70
     0
  9
$DIMALTD
 70
     2
  9
$DIMALTF
 40
0.0393701
  9
$DIMLFAC
 40
1.0
  9
$DIMTOFL
 70
     1
  9
$DIMTVP
 40
0.0
  9
$DIMTIX
 70
     0
  9
$DIMSOXD
 70
     0
  9
$DIMSAH
 70
     0
  9
$DIMBLK1
  1

  9
$DIMBLK2
  1

  9
$DIMSTYLE
  2
AM_ISO
  9
$DIMCLRD
 70
   256
  9
$DIMCLRE
 70
   256
  9
$DIMCLRT
 70
     4
  9
$DIMTFAC
 40
0.71
  9
$DIMGAP
 40
0.8
  9
$LUNITS
 70
     2
  9
$LUPREC
 70
     2
  9
$SKETCHINC
 40
1.0
  9
$FILLETRAD
 40
25.0
  9
$AUNITS
 70
     0
  9
$AUPREC
 70
     0
  9
$MENU
  1
.
  9
$ELEVATION
 40
0.0
  9
$PELEVATION
 40
0.0
  9
$THICKNESS
 40
0.0
  9
$LIMCHECK
 70
     0
  9
$BLIPMODE
 70
     0
  9
$CHAMFERA
 40
10.0
  9
$CHAMFERB
 40
5.0
  9
$SKPOLY
 70
     0
  9
$TDCREATE
 40
2452065.7754935189
  9
$TDUPDATE
 40
2458541.5893849069
  9
$TDINDWG
 40
0.2791028935
  9
$TDUSRTIMER
 40
0.2791027083
  9
$USRTIMER
 70
     1
  9
$ANGBASE
 50
0.0
  9
$ANGDIR
 70
     0
  9
$PDMODE
 70
     0
  9
$PDSIZE
 40
0.0
  9
$PLINEWID
 40
0.0
  9
$COORDS
 70
     1
  9
$SPLFRAME
 70
     0
  9
$SPLINETYPE
 70
     6
  9
$SPLINESEGS
 70
     8
  9
$ATTDIA
 70
     1
  9
$ATTREQ
 70
     1
  9
$HANDLING
 70
     1
  9
$HANDSEED
  5
3B3C
  9
$SURFTAB1
 70
     6
  9
$SURFTAB2
 70
     6
  9
$SURFTYPE
 70
     6
  9
$SURFU
 70
     6
  9
$SURFV
 70
     6
  9
$UCSNAME
  2

  9
$UCSORG
 10
0.0
 20
0.0
 30
0.0
  9
$UCSXDIR
 10
1.0
 20
0.0
 30
0.0
  9
$UCSYDIR
 10
0.0
 20
1.0
 30
0.0
  9
$PUCSNAME
  2

  9
$PUCSORG
 10
0.0
 20
0.0
 30
0.0
  9
$PUCSXDIR
 10
1.0
 20
0.0
 30
0.0
  9
$PUCSYDIR
 10
0.0
 20
1.0
 30
0.0
  9
$USERI1
 70
     0
  9
$USERI2
 70
     0
  9
$USERI3
 70
     0
  9
$USERI4
 70
     0
  9
$USERI5
 70
     0
  9
$USERR1
 40
0.0
  9
$USERR2
 40
0.0
  9
$USERR3
 40
0.0
  9
$USERR4
 40
0.0
  9
$USERR5
 40
0.0
  9
$WORLDVIEW
 70
     1
  9
$SHADEDGE
 70
     3
  9
$SHADEDIF
 70
    70
  9
$TILEMODE
 70
     1
  9
$MAXACTVP
 70
    64
  9
$PLIMCHECK
 70
     0
  9
$PEXTMIN
 10
1.0000000000000000E+020
 20
1.0000000000000000E+020
 30
1.0000000000000000E+020
  9
$PEXTMAX
 10
-1.0000000000000000E+020
 20
-1.0000000000000000E+020
 30
-1.0000000000000000E+020
  9
$PLIMMIN
 10
0.0
 20
0.0
  9
$PLIMMAX
 10
420.0
 20
297.0
  9
$UNITMODE
 70
     0
  9
$VISRETAIN
 70
     1
  9
$PLINEGEN
 70
     0
  9
$PSLTSCALE
 70
     1
  0
ENDSEC
  0
SECTION
  2
TABLES
  0
TABLE
  2
VPORT
 70
     1
  0
VPORT
  2
*ACTIVE
 70
     0
 10
0.0
 20
0.0
 11
1.0
 21
1.0
 12
637.50513399398733
 22
594.68281745922809
 13
0.0
 23
0.0
 14
12.5
 24
12.5
 15
50.0
 25
50.0
 16
0.0
 26
0.0
 36
1.0
 17
0.0
 27
0.0
 37
0.0
 40
732.18743599781567
 41
1.7571592210767459
 42
50.0
 43
0.0
 44
0.0
 50
0.0
 51
0.0
 71
     0
 72
   100
 73
     1
 74
     3
 75
     0
 76
     0
 77
     0
 78
     0
  0
ENDTAB
  0
TABLE
  2
LTYPE
 70
    18
  0
LTYPE
  2
CONTINUOUS
 70
     0
  3
Solid line
 72
    65
 73
     0
 40
0.0
  0
LTYPE
  2
AM_ISO02W050
 70
     0
  3
__ __ __ __ __ __ __ __ __ __ __ __ __ __ __
 72
    65
 73
     2
 40
7.5
 49
6.0
 49
-1.5
  0
LTYPE
  2
AM_ISO08W050
 70
     0
  3
____ . ____ . ____ . ____ . ____ . ____ . ____
 72
    65
 73
     4
 40
18.0
 49
12.0
 49
-1.5
 49
3.0
 49
-1.5
  0
LTYPE
  2
AM_ISO09W050
 70
     0
  3
_____ . . _____ . . _____ . . ____ .. ____
 72
    65
 73
     6
 40
22.5
 49
12.0
 49
-1.5
 49
3.0
 49
-1.5
 49
3.0
 49
-1.5
  0
LTYPE
  2
AMCONSTR
 70
     0
  3
_______________________
 72
    65
 73
     2
 40
9999.0
 49
9999.0
 49
0.0
  0
LTYPE
  2
AM_ISO08W050X2
 70
     0
  3
__ . __ . __ . __ . __ . __
 72
    65
 73
     4
 40
9.0
 49
6.0
 49
-0.75
 49
1.5
 49
-0.75
  0
LTYPE
  2
AM_ISO02W050X2
 70
     0
  3
 _ _ _ _ _ _ _ _ _ _ _ _
 72
    65
 73
     2
 40
3.75
 49
3.0
 49
-0.75
  0
LTYPE
  2
AMZIGZAG
 70
     0
  3
/\/-/\/-/\/-/\/-/\/-/\/
 72
    65
 73
     2
 40
11.0001
 49
0.0001
 49
-11.0
  0
LTYPE
  2
CENTER
 70
     0
  3
__ . __
 72
    65
 73
     4
 40
7.0
 49
4.0
 49
-1.0
 49
1.0
 49
-1.0
  0
LTYPE
  2
PHANTOM2
 70
     0
  3
Phantom (.5x) ___ _ _ ___ _ _ ___ _ _ ___ _ _
 72
    65
 73
     6
 40
31.75
 49
15.875
 49
-3.174999999999998
 49
3.174999999999998
 49
-3.174999999999998
 49
3.174999999999998
 49
-3.174999999999998
  0
LTYPE
  2
GEN7
 70
     0
  3
____ . ____ . ____ . ____ . ____ . ____ . ____
 72
    65
 73
     4
 40
14.25
 49
9.75
 49
-1.5
 49
1.5
 49
-1.5
  0
LTYPE
  2
HIDDEN
 70
     0
  3
Hidden __ __ __ __ __ __ __ __ __ __ __ __ __ _
 72
    65
 73
     2
 40
9.5249999999999986
 49
6.349999999999997
 49
-3.174999999999998
  0
LTYPE
  2
CENTER2
 70
     0
  3
Center (.5x) ___ _ ___ _ ___ _ ___ _ ___ _ ___
 72
    65
 73
     4
 40
1.125
 49
0.75
 49
-0.125
 49
0.125
 49
-0.125
  0
LTYPE
  2
HIDDEN2
 70
     0
  3
Hidden (.5x) _ _ _ _ _ _ _ _ _ _ _ _ _ _ _ _ _
 72
    65
 73
     2
 40
0.1875
 49
0.125
 49
-0.0625
  0
LTYPE
  2
AMZIGZAG2
 70
     0
  3
/\/-/\/-/\/-/\/-/\/-/\/
 72
    65
 73
     2
 40
0.4401
 49
0.0001
 49
-0.4400000000000001
  0
LTYPE
  2
ACANSTGB
 70
     0
  3
__ . . __ . .
 72
    65
 73
     6
 40
0.35433070866
 49
0.15748031496
 49
-0.03937007874
 49
0.03937007874
 49
-0.03937007874
 49
0.03937007874
 49
-0.03937007874
  0
LTYPE
  2
ACANSTGL
 70
     0
  3
_ _ _ _ _
 72
    65
 73
     2
 40
0.11811023622
 49
0.07874015748
 49
-0.03937007874
  0
ENDTAB
  0
TABLE
  2
LAYER
 70
     8
  0
LAYER
  2
0
 70
     0
 62
     7
  6
CONTINUOUS
  0
LAYER
  2
AM_0
 70
     0
 62
     7
  6
CONTINUOUS
  0
LAYER
  2
AM_5
 70
     0
 62
     2
  6
CONTINUOUS
  0
LAYER
  2
DEFPOINTS
 70
     0
 62
     7
  6
CONTINUOUS
  0
LAYER
  2
ﾁｭｳｼﾝｾﾝ
 70
     0
 62
     1
  6
GEN7
  0
LAYER
  2
AM_0N
 70
     0
 62
     7
  6
CONTINUOUS
  0
LAYER
  2
AM_3N
 70
     0
 62
     3
  6
AM_ISO02W050
  0
LAYER
  2
ｽﾝﾎ_ｳｾﾝ
 70
     0
 62
     2
  6
CONTINUOUS
  0
ENDTAB
  0
TABLE
  2
STYLE
 70
     5
  0
STYLE
  2
STANDARD
 70
     0
 40
0.0
 41
0.8299999999999999
 50
0.0
 71
     0
 42
2.5
  3
txt.shx
  4
bigfont.shx
  0
STYLE
  2
ANNOTATIVE
 70
     0
 40
0.0
 41
1.0
 50
0.0
 71
     0
 42
0.2
  3
txt
  4

  0
STYLE
  2

 70
     1
 40
0.0
 41
1.0
 50
0.0
 71
     0
 42
2.5
  3
genltshp.shx
  4

  0
STYLE
  2
ACANSTS
 70
     0
 40
0.0
 41
1.0
 50
0.0
 71
     0
 42
2.5
  3
romans.shx
  4
extfont.shx
  0
STYLE
  2
ACANSGDT
 70
     0
 40
0.0
 41
1.0
 50
0.0
 71
     0
 42
2.5
  3
amgdt.shx
  4

  0
ENDTAB
  0
TABLE
  2
VIEW
 70
     6
  0
VIEW
  2
AM_VIEW1
 70
     0
 40
462.5
 10
416.07965009208078
 20
693.75
 41
832.15930018416213
 11
0.0
 21
0.0
 31
1.0
 12
0.0
 22
0.0
 32
0.0
 42
50.0
 43
0.0
 44
0.0
 50
0.0
 71
     0
  0
VIEW
  2
AM_VIEW2
 70
     0
 40
462.5
 10
1006.420349907919
 20
693.75
 41
832.15930018416213
 11
0.0
 21
0.0
 31
1.0
 12
0.0
 22
0.0
 32
0.0
 42
50.0
 43
0.0
 44
0.0
 50
0.0
 71
     0
  0
VIEW
  2
AM_VIEW3
 70
     0
 40
462.5
 10
416.07965009208078
 20
231.25
 41
832.15930018416213
 11
0.0
 21
0.0
 31
1.0
 12
0.0
 22
0.0
 32
0.0
 42
50.0
 43
0.0
 44
0.0
 50
0.0
 71
     0
  0
VIEW
  2
AM_VIEW4
 70
     0
 40
462.5
 10
1006.420349907919
 20
231.25
 41
832.15930018416213
 11
0.0
 21
0.0
 31
1.0
 12
0.0
 22
0.0
 32
0.0
 42
50.0
 43
0.0
 44
0.0
 50
0.0
 71
     0
  0
VIEW
  2
AM_VIEW5
 70
     0
 40
462.5
 10
711.24999999999966
 20
462.5
 41
832.15930018416179
 11
0.0
 21
0.0
 31
1.0
 12
0.0
 22
0.0
 32
0.0
 42
50.0
 43
0.0
 44
0.0
 50
0.0
 71
     0
  0
VIEW
  2
AM_VIEW6
 70
     0
 40
924.99075000000005
 10
711.24999999999966
 20
462.5
 41
1664.3019571823199
 11
0.0
 21
0.0
 31
1.0
 12
0.0
 22
0.0
 32
0.0
 42
50.0
 43
0.0
 44
0.0
 50
0.0
 71
     0
  0
ENDTAB
  0
TABLE
  2
UCS
 70
     0
  0
ENDTAB
  0
TABLE
  2
APPID
 70
    97
  0
APPID
  2
ACAD
 70
     0
  0
APPID
  2
ACADANNOTATIVE
 70
     0
  0
APPID
  2
MCAD_NO_VIS
 70
     0
  0
APPID
  2
ACAD_TEMP_GRAPHIC
 70
     0
  0
APPID
  2
ACATTRIBSERVICES
 70
     0
  0
APPID
  2
GENIUS_GENREC_14
 70
     0
  0
APPID
  2
GENIUS_GENOBJ-N-REC_13
 70
     0
  0
APPID
  2
GENIUS_GENODEF_13
 70
     0
  0
APPID
  2
GENIUS_GENOLIS_13
 70
     0
  0
APPID
  2
GENIUS_GENOBJ-N-TIT_13
 70
     0
  0
APPID
  2
GENIUS_GENOENT_13
 70
     0
  0
APPID
  2
GENIUS_GENTITLE_13
 70
     0
  0
APPID
  2
GENIUS_GENOREF_13
 70
     0
  0
APPID
  2
GENIUS_GENSCREG_15
 70
     0
  0
APPID
  2
GENIUS_GENOBJ-N-SDF_13
 70
     0
  0
APPID
  2
GENIUS_GENFIL_13
 70
     0
  0
APPID
  2
GENIUS_GENOBJ-N-CHA_13
 70
     0
  0
APPID
  2
GENIUS_GENDTOL_13
 70
     0
  0
APPID
  2
GENIUS_GENOBJ-N-FIL_13
 70
     0
  0
APPID
  2
AD_DRAW
 70
     0
  0
APPID
  2
DESIGNERASSEMBLIES
 70
     0
  0
APPID
  2
ASURF_PCURVE_APPNAME
 70
     0
  0
APPID
  2
GENIUS_GE3SECT_13
 70
     0
  0
APPID
  2
GENIUS_GENCFG_13
 70
     0
  0
APPID
  2
GENIUS_GE3CFG0_13
 70
     0
  0
APPID
  2
GENIUS_GENCFG0_13
 70
     0
  0
APPID
  2
GENIUS_GENCFG1_13
 70
     0
  0
APPID
  2
GENIUS_GENCFG2_13
 70
     0
  0
APPID
  2
GENIUS_GENCFG3_13
 70
     0
  0
APPID
  2
GENIUS_GENCFG4_13
 70
     0
  0
APPID
  2
GENIUS_GEVCFG0_13
 70
     0
  0
APPID
  2
GENIUS_GENHINW_13
 70
     0
  0
APPID
  2
GENIUS_FIRSTVISTXT_14
 70
     0
  0
APPID
  2
GENIUS_GENOBJ-N-LEADER_13
 70
     0
  0
APPID
  2
GEV_VCCNULL_SWITCH_OFF
 70
     0
  0
APPID
  2
GENIUS_GEFCFG0_13
 70
     0
  0
APPID
  2
GENIUS_GENZVEED_13
 70
     0
  0
APPID
  2
GENIUS_GENSCREG_13
 70
     0
  0
APPID
  2
GENIUS_DUMCFG0_13
 70
     0
  0
APPID
  2
GEVID936201362
 70
     0
  0
APPID
  2
GEVDC
 70
     0
  0
APPID
  2
GEVCON
 70
     0
  0
APPID
  2
VCC
 70
     0
  0
APPID
  2
GEVPT
 70
     0
  0
APPID
  2
GEVIT
 70
     0
  0
APPID
  2
GENBH
 70
     0
  0
APPID
  2
GEVMK
 70
     0
  0
APPID
  2
GENIUS_GENBH_13
 70
     0
  0
APPID
  2
GENIUS_GENOBJ-NBEHI-BHF_13
 70
     0
  0
APPID
  2
GENIUS_GENOBJ-NBEHI-BHB_13
 70
     0
  0
APPID
  2
GENIUS_GENOBJ-F-DESC_13
 70
     0
  0
APPID
  2
GENIUS_GEFDESC_14
 70
     0
  0
APPID
  2
GENIUS_GENOBJ-F-PART_13
 70
     0
  0
APPID
  2
GENIUS_GEFSTDP_13
 70
     0
  0
APPID
  2
GENIUS_GEFPARTINS_13
 70
     0
  0
APPID
  2
GENIUS_GENTRA_14
 70
     0
  0
APPID
  2
GENIUS_GENINF13_13
 70
     0
  0
APPID
  2
GENIUS_GENOBJ-N-INFOPT_13
 70
     0
  0
APPID
  2
GENIUS_GENOBJ-N-RSSYM_13
 70
     0
  0
APPID
  2
GENIUS_GENSYMENT_13
 70
     0
  0
APPID
  2
GENIUS_GENSCSYM_13
 70
     0
  0
APPID
  2
GENIUS_GEFINFNAM_13
 70
     0
  0
APPID
  2
GENIUS_GENOBJ-N-CEN_13
 70
     0
  0
APPID
  2
GENIUS_GENOBJ-N-CRS_13
 70
     0
  0
APPID
  2
GENIUS_GENOBJ-N-CRC_13
 70
     0
  0
APPID
  2
GENIUS_GENCRC_14
 70
     0
  0
APPID
  2
GEVID942827039
 70
     0
  0
APPID
  2
GEVID942827040
 70
     0
  0
APPID
  2
GEVID942827041
 70
     0
  0
APPID
  2
GENIUS_GENOBJ-F-SCPASSM_13
 70
     0
  0
APPID
  2
GENIUS_GENDIMSH_14
 70
     0
  0
APPID
  2
GEVID942827042
 70
     0
  0
APPID
  2
GEVID946020473
 70
     0
  0
APPID
  2
GEVID946020474
 70
     0
  0
APPID
  2
GEVID946020475
 70
     0
  0
APPID
  2
GENIUS_GENOBJ-N-HTC_13
 70
     0
  0
APPID
  2
GENIUS_GENHATCH_13
 70
     0
  0
APPID
  2
GEVID948854295
 70
     0
  0
APPID
  2
GEVID939402019
 70
     0
  0
APPID
  2
GEVID952919491
 70
     0
  0
APPID
  2
GEVID952919492
 70
     0
  0
APPID
  2
GENIUS_GEFWELD_13
 70
     0
  0
APPID
  2
GENIUS_GENOBJ-F-WELS_13
 70
     0
  0
APPID
  2
GEVID952919493
 70
     0
  0
APPID
  2
GENIUS_GENOBJ-N-RSBK_13
 70
     0
  0
APPID
  2
GENIUS_GENOBJ-N-LIB_13
 70
     0
  0
APPID
  2
GENIUS_GENSCALE_13
 70
     0
  0
APPID
  2
GEVID986376691
 70
     0
  0
APPID
  2
DCO15
 70
     0
  0
APPID
  2
ACADM_DIM_EDIT
 70
     0
  0
APPID
  2
AMDT_DM_ADJ
 70
     0
  0
APPID
  2
ACAD_DSTYLE_DIMJAG
 70
     0
  0
APPID
  2
ACAD_DSTYLE_DIMBREAK
 70
     0
  0
APPID
  2
ACAD_NAV_VCDISPLAY
 70
     0
  0
APPID
  2
ACADANNOPO
 70
     0
  0
APPID
  2
ACAD_EXEMPT_FROM_CAD_STANDARDS
 70
     0
  0
APPID
  2
ACAD_MLEADERVER
 70
     0
  0
ENDTAB
  0
TABLE
  2
DIMSTYLE
 70
     9
  0
DIMSTYLE
  2
STANDARD
 70
     0
  3

  4

  5

  6

  7

 40
1.0
 41
0.18
 42
0.0625
 43
0.38
 44
0.18
 45
0.0
 46
0.0
 47
0.0
 48
0.0
140
0.18
141
0.09
142
0.0
143
25.399999999999999
144
1.0
145
0.0
146
1.0
147
0.09
 71
     0
 72
     0
 73
     1
 74
     1
 75
     0
 76
     0
 77
     0
 78
     0
170
     0
171
     2
172
     0
173
     0
174
     0
175
     0
176
     0
177
     0
178
     0
  0
DIMSTYLE
  2
ANNOTATIVE
 70
     0
  3

  4

  5

  6

  7

 40
1.0
 41
0.18
 42
0.0625
 43
0.38
 44
0.18
 45
0.0
 46
0.0
 47
0.0
 48
0.0
140
0.18
141
0.09
142
0.0
143
25.399999999999999
144
1.0
145
0.0
146
1.0
147
0.09
 71
     0
 72
     0
 73
     1
 74
     1
 75
     0
 76
     0
 77
     0
 78
     0
170
     0
171
     2
172
     0
173
     0
174
     0
175
     0
176
     0
177
     0
178
     0
  0
DIMSTYLE
  2
AM_ISO
 70
     0
  3

  4
"
  5

  6

  7

 40
1.0
 41
2.5
 42
1.0
 43
8.0
 44
0.6
 45
0.0
 46
0.0
 47
0.1
 48
0.1
140
2.5
141
0.0
142
0.0
143
0.0393701
144
1.0
145
0.0
146
0.71
147
0.8
 71
     0
 72
     0
 73
     0
 74
     0
 75
     0
 76
     0
 77
     1
 78
     8
170
     0
171
     2
172
     1
173
     0
174
     0
175
     0
176
   256
177
   256
178
     4
  0
DIMSTYLE
  2
AM_ANSI
 70
     0
  3

  4
mm
  5

  6

  7

 40
1.0
 41
0.12
 42
0.05
 43
0.5
 44
0.1
 45
0.0
 46
0.0
 47
0.1
 48
0.1
140
0.12
141
0.0
142
0.0
143
25.399999999999999
144
1.0
145
0.0
146
0.71
147
0.06
 71
     0
 72
     0
 73
     1
 74
     1
 75
     0
 76
     0
 77
     0
 78
     7
170
     0
171
     2
172
     0
173
     0
174
     0
175
     0
176
   256
177
   256
178
     2
  0
DIMSTYLE
  2
AM_ANSI$3
 70
     0
  3

  4
mm
  5

  6

  7

 40
1.0
 41
0.12
 42
0.05
 43
0.5
 44
0.1
 45
0.0
 46
0.0
 47
0.1
 48
0.1
140
0.12
141
0.0
142
0.0
143
25.399999999999999
144
1.0
145
0.0
146
0.71
147
0.06
 71
     0
 72
     0
 73
     1
 74
     1
 75
     0
 76
     0
 77
     0
 78
     7
170
     0
171
     2
172
     0
173
     0
174
     0
175
     0
176
   256
177
   256
178
     2
  0
DIMSTYLE
  2
AM_ANSI$4
 70
     0
  3

  4
mm
  5

  6

  7

 40
1.0
 41
0.12
 42
0.05
 43
0.5
 44
0.1
 45
0.0
 46
0.0
 47
0.1
 48
0.1
140
0.12
141
0.0
142
0.0
143
25.399999999999999
144
1.0
145
0.0
146
0.71
147
0.06
 71
     0
 72
     0
 73
     1
 74
     1
 75
     0
 76
     0
 77
     0
 78
     7
170
     0
171
     2
172
     0
173
     0
174
     0
175
     0
176
   256
177
   256
178
     2
  0
DIMSTYLE
  2
AM_ANSI$7
 70
     0
  3

  4
mm
  5

  6

  7

 40
1.0
 41
0.12
 42
0.05
 43
0.5
 44
0.1
 45
0.0
 46
0.0
 47
0.1
 48
0.1
140
0.12
141
0.0
142
0.0
143
25.399999999999999
144
1.0
145
0.0
146
0.71
147
0.06
 71
     0
 72
     0
 73
     1
 74
     1
 75
     0
 76
     0
 77
     0
 78
     7
170
     0
171
     2
172
     0
173
     0
174
     0
175
     0
176
   256
177
   256
178
     2
  0
DIMSTYLE
  2
AM_ANSI$SF
 70
     0
  3

  4
mm
  5

  6

  7

 40
1.0
 41
0.12
 42
0.05
 43
0.5
 44
0.1
 45
0.0
 46
0.0
 47
0.1
 48
0.1
140
0.12
141
0.0
142
0.0
143
25.399999999999999
144
1.0
145
0.0
146
0.71
147
0.06
 71
     0
 72
     0
 73
     1
 74
     1
 75
     1
 76
     1
 77
     0
 78
     7
170
     0
171
     2
172
     0
173
     0
174
     0
175
     0
176
   256
177
   256
178
     2
  0
DIMSTYLE
  2
AM_ANSI$SH
 70
     0
  3

  4
mm
  5

  6
GENAXEH
  7

 40
1.0
 41
0.12
 42
0.05
 43
0.5
 44
0.1
 45
0.0
 46
0.0
 47
0.1
 48
0.1
140
0.12
141
0.0
142
0.0
143
25.399999999999999
144
1.0
145
0.0
146
0.71
147
0.06
 71
     0
 72
     0
 73
     1
 74
     1
 75
     1
 76
     1
 77
     0
 78
     7
170
     0
171
     2
172
     0
173
     1
174
     0
175
     0
176
   256
177
   256
178
     2
  0
ENDTAB
  0
ENDSEC
  0
SECTION
  2
BLOCKS
  0
BLOCK
  8
0
  2
$MODEL_SPACE
 70
     0
 10
0.0
 20
0.0
 30
0.0
  3
$MODEL_SPACE
  1

  0
ENDBLK
  5
39D7
  8
0
  0
BLOCK
 67
     1
  8
0
  2
$PAPER_SPACE
 70
     0
 10
0.0
 20
0.0
 30
0.0
  3
$PAPER_SPACE
  1

  0
ENDBLK
  5
39D3
 67
     1
  8
0
  0
BLOCK
  8
0
  2
*U2
 70
     1
 10
0.0
 20
0.0
 30
0.0
  3
*U2
  1

  0
TEXT
  5
382A
  8
AM_0
 10
865.10382388747485
 20
198.53874582664159
 30
0.0
 40
18.0
  1
VX02-K20SF
 41
0.8299999999999999
  0
ENDBLK
  5
382C
  8
0
  0
BLOCK
  8
0
  2
GENAXEH
 70
     0
 10
0.0
 20
0.0
 30
0.0
  3
GENAXEH
  1

  0
LINE
  5
3AA3
  8
0
 10
-1.0
 20
0.0
 30
0.0
 11
1.0
 21
0.0
 31
0.0
  0
ENDBLK
  5
3AA5
  8
0
  0
BLOCK
  8
0
  2
_ACMFILLEDHALF
 70
     0
 10
0.0
 20
0.0
 30
0.0
  3
_ACMFILLEDHALF
  1

  0
TRACE
  5
3AB3
  8
AM_0
 62
     0
 10
-0.8
 20
0.0
 30
0.0
 11
-1.0
 21
0.166666666
 31
0.0
 12
0.0
 22
0.0
 32
0.0
 13
0.0
 23
0.0
 33
0.0
  0
LINE
  5
3AB4
  8
AM_0
 62
     0
 10
-1.0
 20
0.0
 30
0.0
 11
-0.8
 21
0.0
 31
0.0
  0
ENDBLK
  5
3AB2
  8
0
  0
ENDSEC
  0
SECTION
  2
ENTITIES
  0
POLYLINE
  5
2958
  8
AM_0
 66
     1
 10
0.0
 20
0.0
 30
0.0
  0
VERTEX
  5
2959
  8
AM_0
 10
369.1325192968323
 20
861.18501683565091
 30
0.0
 42
-0.011693505
  0
VERTEX
  5
295A
  8
AM_0
 10
372.69540929683228
 20
865.68138683565076
 30
0.0
 42
-0.01121677
  0
VERTEX
  5
295B
  8
AM_0
 10
376.46028929683229
 20
870.01015683565095
 30
0.0
 42
-0.011000238
  0
VERTEX
  5
295C
  8
AM_0
 10
380.41238929683237
 20
874.16659683565081
 30
0.0
  0
SEQEND
  5
295D
  8
AM_0
  0
POLYLINE
  5
295E
  8
AM_0
 66
     1
 10
0.0
 20
0.0
 30
0.0
  0
VERTEX
  5
295F
  8
AM_0
 10
369.1325192968323
 20
770.34878683565091
 30
0.0
 42
0.011693477
  0
VERTEX
  5
2960
  8
AM_0
 10
372.69540929683228
 20
765.85242683565093
 30
0.0
 42
0.01121672
  0
VERTEX
  5
2961
  8
AM_0
 10
376.46028929683229
 20
761.52365683565085
 30
0.0
 42
0.011000161
  0
VERTEX
  5
2962
  8
AM_0
 10
380.41238929683237
 20
757.36721683565099
 30
0.0
  0
SEQEND
  5
2963
  8
AM_0
  0
LINE
  5
2964
  8
AM_0
 10
378.44406929683242
 20
757.43594683565095
 30
0.0
 11
326.01279929683238
 21
759.26687683565092
 31
0.0
  0
LINE
  5
2965
  8
AM_0
 10
326.01272929683222
 20
872.26687683565092
 30
0.0
 11
378.44406929683242
 21
874.09780683565089
 31
0.0
  0
LINE
  5
2966
  8
AM_0
 10
352.01272929683228
 20
802.76687683565092
 30
0.0
 11
383.3154092968324
 21
802.76687683565092
 31
0.0
  0
LINE
  5
2967
  8
AM_0
 10
352.01272929683228
 20
828.76687683565092
 30
0.0
 11
383.3154092968324
 21
828.76687683565092
 31
0.0
  0
LINE
  5
2968
  8
ﾁｭｳｼﾝｾﾝ
 10
141.42209896337479
 20
815.76687683565103
 30
0.0
 11
665.0267692968323
 21
815.76687683565103
 31
0.0
  0
ARC
  5
2978
  8
AM_0
 10
352.01272929683228
 20
805.76687683565081
 30
0.0
 40
3.0
 50
180.00001000000091
 51
270.0
  0
LINE
  5
2A27
  8
AM_0
 10
326.01272929683222
 20
783.82693683565094
 30
0.0
 11
362.10507929683229
 21
783.82693683565094
 31
0.0
  0
LINE
  5
2A28
  8
AM_0
 10
326.01272929683222
 20
769.76687683565092
 30
0.0
 11
367.35544929683238
 21
769.76687683565092
 31
0.0
  0
ARC
  5
2A41
  8
AM_0
 10
367.35544929683238
 20
772.76687683565092
 30
0.0
 40
3.0
 50
269.999989999999
 51
35.575751000001212
  0
POLYLINE
  5
2A42
  8
AM_0
 66
     1
 10
0.0
 20
0.0
 30
0.0
  0
VERTEX
  5
2A43
  8
AM_0
 10
352.98228929683228
 20
802.76715683565078
 30
0.0
  0
VERTEX
  5
2A44
  8
AM_0
 10
360.40956929683227
 20
783.82775683565092
 30
0.0
 42
-1.0
  0
SEQEND
  5
2A45
  8
AM_0
  0
ARC
  5
2A46
  8
AM_0
 10
362.10507929683229
 20
780.82693683565094
 30
0.0
 40
3.0
 50
30.468076999999099
 51
90.00000299999769
  0
POLYLINE
  5
2A47
  8
AM_0
 66
     1
 10
0.0
 20
0.0
 30
0.0
  0
VERTEX
  5
2A48
  8
AM_0
 10
364.69078929683229
 20
782.34812683565099
 30
0.0
 42
0.0058779346
  0
VERTEX
  5
2A49
  8
AM_0
 10
365.90040929683238
 20
780.34654683565088
 30
0.0
 42
0.0056588677
  0
VERTEX
  5
2A4A
  8
AM_0
 10
367.15588929683241
 20
778.37339683565085
 30
0.0
 42
0.0054619133
  0
VERTEX
  5
2A4B
  8
AM_0
 10
368.45492929683229
 20
776.42864683565097
 30
0.0
 42
0.0052861212
  0
VERTEX
  5
2A4C
  8
AM_0
 10
369.79545929683229
 20
774.5122468356509
 30
0.0
  0
SEQEND
  5
2A4D
  8
AM_0
  0
LINE
  5
2B2A
  8
AM_0
 10
326.01272929683222
 20
847.70681683565078
 30
0.0
 11
362.10507929683229
 21
847.70681683565078
 31
0.0
  0
LINE
  5
2B2B
  8
AM_0
 10
326.01272929683222
 20
861.76687683565092
 30
0.0
 11
367.35544929683238
 21
861.76687683565092
 31
0.0
  0
POLYLINE
  5
2B3C
  8
AM_0
 66
     1
 10
0.0
 20
0.0
 30
0.0
  0
VERTEX
  5
2B3D
  8
AM_0
 10
352.98228929683228
 20
828.76660683565092
 30
0.0
  0
VERTEX
  5
2B3E
  8
AM_0
 10
360.40956929683227
 20
847.70603683565093
 30
0.0
 42
-1.0
  0
SEQEND
  5
2B3F
  8
AM_0
  0
LINE
  5
2B40
  8
AM_0
 10
349.01272929683228
 20
805.76687683565081
 30
0.0
 11
349.01272929683228
 21
825.76687683565092
 31
0.0
  0
ARC
  5
2B41
  8
AM_0
 10
352.01272929683228
 20
825.76687683565092
 30
0.0
 40
3.0
 50
90.00000299999769
 51
180.00001000000091
  0
POLYLINE
  5
2B42
  8
AM_0
 66
     1
 10
0.0
 20
0.0
 30
0.0
  0
VERTEX
  5
2B43
  8
AM_0
 10
364.69078929683229
 20
849.18566683565075
 30
0.0
 42
-0.0058779314
  0
VERTEX
  5
2B44
  8
AM_0
 10
365.90040929683238
 20
851.18725683565083
 30
0.0
 42
-0.0056588672
  0
VERTEX
  5
2B45
  8
AM_0
 10
367.15588929683241
 20
853.16040683565086
 30
0.0
 42
-0.0054619156
  0
VERTEX
  5
2B46
  8
AM_0
 10
368.45492929683229
 20
855.10515683565086
 30
0.0
 42
-0.0052861264
  0
VERTEX
  5
2B47
  8
AM_0
 10
369.79545929683229
 20
857.02155683565093
 30
0.0
  0
SEQEND
  5
2B48
  8
AM_0
  0
ARC
  5
2B49
  8
AM_0
 10
362.10507929683229
 20
850.7068168356509
 30
0.0
 40
3.0
 50
269.999989999999
 51
329.53192000000138
  0
ARC
  5
2B4A
  8
AM_0
 10
367.35544929683238
 20
858.76687683565092
 30
0.0
 40
3.0
 50
324.42424000000028
 51
90.00000299999769
  0
POLYLINE
  5
2B51
  8
AM_0
 66
     1
 10
0.0
 20
0.0
 30
0.0
  0
VERTEX
  5
2B52
  8
AM_0
 10
538.37703929683255
 20
867.33139683565093
 30
0.0
 42
0.030646372
  0
VERTEX
  5
2B53
  8
AM_0
 10
533.9675092968323
 20
833.04798683565082
 30
0.0
 42
0.064801293
  0
VERTEX
  5
2B54
  8
AM_0
 10
538.37703929683255
 20
764.20233683565095
 30
0.0
  0
SEQEND
  5
2B55
  8
AM_0
  0
ARC
  5
2B56
  8
AM_0
 10
383.3154092968324
 20
799.76687683565092
 30
0.0
 40
3.0
 50
0.0
 51
90.00000299999769
  0
LINE
  5
2B57
  8
AM_0
 10
559.51279929683233
 20
676.77591683565095
 30
0.0
 11
559.51279929683233
 21
954.74124683565105
 31
0.0
  0
LINE
  5
2B58
  8
AM_0
 10
577.51279929683233
 20
673.26687683565092
 30
0.0
 11
577.51279929683233
 21
958.26687683565092
 31
0.0
  0
LINE
  5
2B59
  8
AM_0
 10
567.51279929683233
 20
704.80960683565092
 30
0.0
 11
567.51279929683233
 21
926.72415683565077
 31
0.0
  0
LINE
  5
2B5A
  8
AM_0
 10
581.51279929683233
 20
695.76687683565092
 30
0.0
 11
581.51279929683233
 21
935.76687683565092
 31
0.0
  0
LINE
  5
2B5B
  8
AM_0
 10
390.01272929683228
 20
746.47885683565084
 30
0.0
 11
390.01272929683228
 21
885.05490683565097
 31
0.0
  0
LINE
  5
2B5D
  8
AM_0
 10
400.01272929683222
 20
742.26687683565081
 30
0.0
 11
400.01272929683222
 21
889.26693683565088
 31
0.0
  0
LINE
  5
2B5E
  8
AM_0
 10
461.5127992968321
 20
676.0289068356509
 30
0.0
 11
461.5127992968321
 21
811.76687683565092
 31
0.0
  0
LINE
  5
2B5F
  8
AM_0
 10
653.51279929683233
 20
794.76687683565092
 30
0.0
 11
653.51279929683233
 21
836.76687683565092
 31
0.0
  0
LINE
  5
2B60
  8
AM_0
 10
583.51279929683233
 20
793.26687683565092
 30
0.0
 11
583.51279929683233
 21
838.26687683565092
 31
0.0
  0
LINE
  5
2B61
  8
AM_0
 10
448.51272929683211
 20
679.37991683565087
 30
0.0
 11
448.51272929683211
 21
806.22744683565088
 31
0.0
  0
LINE
  5
2B62
  8
AM_0
 10
434.51279929683221
 20
701.6589068356509
 30
0.0
 11
434.51279929683221
 21
811.76687683565092
 31
0.0
  0
LINE
  5
2B63
  8
AM_0
 10
557.36545929683246
 20
718.76321683565095
 30
0.0
 11
524.86264929683205
 21
738.20108683565093
 31
0.0
  0
LINE
  5
2B64
  8
AM_0
 10
557.07901929683214
 20
712.52029683565092
 30
0.0
 11
515.66055929683239
 21
737.29007683565078
 31
0.0
  0
LINE
  5
2B65
  8
AM_0
 10
461.5127992968321
 20
764.20236683565054
 30
0.0
 11
559.51279929683233
 21
764.20236683565054
 31
0.0
  0
LINE
  5
2B66
  8
AM_0
 10
461.5127992968321
 20
686.63650683565095
 30
0.0
 11
559.51279929683233
 21
683.21426683565085
 31
0.0
  0
LINE
  5
2B67
  8
AM_0
 10
461.5127992968321
 20
676.0289068356509
 30
0.0
 11
562.44638929683208
 21
673.79324683565085
 31
0.0
  0
LINE
  5
2B68
  8
AM_0
 10
517.20029929683233
 20
742.86477683565079
 30
0.0
 11
559.51279929683233
 21
742.86477683565079
 31
0.0
  0
ARC
  5
2B69
  8
AM_0
 10
451.51272929683228
 20
679.37991683565087
 30
0.0
 40
3.0
 50
179.999989999999
 51
268.00000999999861
  0
ARC
  5
2B6A
  8
AM_0
 10
445.5127992968321
 20
694.1391368356509
 30
0.0
 40
3.0
 50
0.0
 51
79.999998000001099
  0
ARC
  5
2B6B
  8
AM_0
 10
450.51279929683221
 20
689.02194683565097
 30
0.0
 40
2.0
 50
179.999989999999
 51
268.00000999999861
  0
LINE
  5
2B6C
  8
AM_0
 10
448.51272929683211
 20
764.20236683565054
 30
0.0
 11
461.5127992968321
 21
764.20236683565054
 31
0.0
  0
LINE
  5
2B6D
  8
AM_0
 10
448.51272929683211
 20
738.20108683565093
 30
0.0
 11
461.5127992968321
 21
738.20108683565093
 31
0.0
  0
ARC
  5
2B6E
  8
AM_0
 10
429.51279929683221
 20
736.23361683565099
 30
0.0
 40
5.0
 50
0.0
 51
87.999999999996248
  0
LINE
  5
2B6F
  8
AM_0
 10
436.99179929683208
 20
698.68789683565092
 30
0.0
 11
446.03372929683229
 21
697.09353683565075
 31
0.0
  0
ARC
  5
2B70
  8
AM_0
 10
437.51279929683221
 20
701.64230683565086
 30
0.0
 40
3.0
 50
179.999989999999
 51
260.00000000000148
  0
LINE
  5
2B71
  8
AM_0
 10
400.0127992968321
 20
742.26687683565081
 30
0.0
 11
429.68735929683231
 21
741.23062683565092
 31
0.0
  0
LINE
  5
2B72
  8
AM_0
 10
400.0127992968321
 20
776.29220683565097
 30
0.0
 11
434.51279929683221
 21
776.29220683565097
 31
0.0
  0
LINE
  5
2B73
  8
AM_0
 10
400.0127992968321
 20
754.18820683565093
 30
0.0
 11
434.51279929683221
 21
754.18820683565093
 31
0.0
  0
ARC
  5
2B74
  8
AM_0
 10
394.01272929683228
 20
746.47885683565084
 30
0.0
 40
4.0
 50
180.00001000000091
 51
267.99999999999631
  0
LINE
  5
2B75
  8
AM_0
 10
390.01272929683228
 20
754.18820683565093
 30
0.0
 11
400.01272929683222
 21
754.18820683565093
 31
0.0
  0
LINE
  5
2B76
  8
AM_0
 10
388.58578929683227
 20
749.19381683565075
 30
0.0
 11
381.80508929683242
 21
755.97445683565093
 31
0.0
  0
ARC
  5
2B77
  8
AM_0
 10
385.05020929683241
 20
745.65829683565084
 30
0.0
 40
5.0
 50
5.2307202000000732
 51
44.999998000001611
  0
ARC
  5
2B78
  8
AM_0
 10
378.26956929683229
 20
752.43899683565087
 30
0.0
 40
5.0
 50
44.999998000001611
 51
87.999999999996248
  0
LINE
  5
2B79
  8
AM_0
 10
393.87314929683242
 20
742.48123683565086
 30
0.0
 11
400.0127992968321
 21
742.26687683565081
 31
0.0
  0
LINE
  5
2B7A
  8
AM_0
 10
390.01272929683228
 20
776.29220683565097
 30
0.0
 11
400.01272929683222
 21
776.29220683565097
 31
0.0
  0
ARC
  5
2B7B
  8
AM_0
 10
513.30856929683227
 20
735.20108683565093
 30
0.0
 40
3.0
 50
59.11902300000196
 51
90.00000299999769
  0
ARC
  5
2B7C
  8
AM_0
 10
517.20029929683233
 20
739.8647768356509
 30
0.0
 40
3.0
 50
90.00000299999769
 51
239.11901999999989
  0
LINE
  5
2B7D
  8
AM_0
 10
451.40799929683237
 20
676.38180683565065
 30
0.0
 11
461.5127992968321
 21
676.0289068356509
 31
0.0
  0
LINE
  5
2B7E
  8
AM_0
 10
450.44302929683209
 20
687.02310683565088
 30
0.0
 11
461.51285929683218
 21
686.63650683565095
 31
0.0
  0
LINE
  5
2B7F
  8
AM_0
 10
461.5127992968321
 20
738.20108683565093
 30
0.0
 11
513.30856929683227
 21
738.20108683565093
 31
0.0
  0
ARC
  5
2B80
  8
AM_0
 10
562.51279929683233
 20
676.79251683565087
 30
0.0
 40
3.0
 50
179.999989999999
 51
268.00000999999861
  0
LINE
  5
2B81
  8
AM_0
 10
583.51279929683233
 20
794.76687683565092
 30
0.0
 11
653.51279929683233
 21
794.76687683565092
 31
0.0
  0
LINE
  5
2B82
  8
AM_0
 10
549.38138929683225
 20
742.86477683565079
 30
0.0
 11
559.51272929683228
 21
735.3067368356509
 31
0.0
  0
ARC
  5
2B83
  8
AM_0
 10
562.51279929683233
 20
704.80960683565092
 30
0.0
 40
5.0
 50
267.99999999999631
 51
0.0
  0
LINE
  5
2B84
  8
AM_0
 10
562.40805929683245
 20
673.79434683565103
 30
0.0
 11
577.51279929683233
 21
673.26687683565092
 31
0.0
  0
POLYLINE
  5
2B85
  8
AM_0
 66
     1
 10
0.0
 20
0.0
 30
0.0
  0
VERTEX
  5
2B86
  8
AM_0
 10
551.85389929683231
 20
715.6448968356508
 30
0.0
 42
0.0052467582
  0
VERTEX
  5
2B87
  8
AM_0
 10
554.2741192968324
 20
709.23506683565085
 30
0.0
 42
0.0052066449
  0
VERTEX
  5
2B88
  8
AM_0
 10
556.82779929683215
 20
702.87723683565093
 30
0.0
 42
0.0051740769
  0
VERTEX
  5
2B89
  8
AM_0
 10
559.51279929683233
 20
696.57400683565095
 30
0.0
  0
SEQEND
  5
2B8A
  8
AM_0
  0
ARC
  5
2B8B
  8
AM_0
 10
554.51279929683233
 20
708.22909683565092
 30
0.0
 40
5.0
 50
0.0
 51
59.11901699999779
  0
LINE
  5
2B8C
  8
AM_0
 10
577.51279929683233
 20
695.76687683565092
 30
0.0
 11
581.51279929683233
 21
695.76687683565092
 31
0.0
  0
ARC
  5
2B8D
  8
AM_0
 10
564.51279929683233
 20
749.63247683565078
 30
0.0
 40
5.0
 50
90.00000299999769
 51
180.00001000000091
  0
LINE
  5
2B8E
  8
AM_0
 10
581.51279929683233
 20
793.26687683565092
 30
0.0
 11
583.51279929683233
 21
793.26687683565092
 31
0.0
  0
LINE
  5
2B8F
  8
AM_0
 10
517.20029929683233
 20
888.66897683565094
 30
0.0
 11
559.51279929683233
 21
888.66897683565094
 31
0.0
  0
LINE
  5
2B90
  8
AM_0
 10
461.5127992968321
 20
867.33139683565093
 30
0.0
 11
559.51279929683233
 21
867.33139683565093
 31
0.0
  0
LINE
  5
2B91
  8
AM_0
 10
461.5127992968321
 20
944.89724683565078
 30
0.0
 11
559.5128592968324
 21
948.31942683565092
 31
0.0
  0
LINE
  5
2B92
  8
AM_0
 10
461.5127992968321
 20
955.50485683565091
 30
0.0
 11
562.44632929683235
 21
957.74057683565093
 31
0.0
  0
LINE
  5
2B93
  8
AM_0
 10
557.07907929683222
 20
919.0134568356508
 30
0.0
 11
515.66055929683239
 21
894.24368683565092
 31
0.0
  0
LINE
  5
2B94
  8
AM_0
 10
557.36539929683215
 20
912.77053683565077
 30
0.0
 11
524.86264929683205
 21
893.33267683565077
 31
0.0
  0
ARC
  5
2B95
  8
AM_0
 10
437.51279929683221
 20
929.89144683565098
 30
0.0
 40
3.0
 50
99.999999999998593
 51
180.00001000000091
  0
LINE
  5
2B96
  8
AM_0
 10
448.51272929683211
 20
825.30630683565084
 30
0.0
 11
448.51272929683211
 21
952.15377683565089
 31
0.0
  0
LINE
  5
2B97
  8
AM_0
 10
461.5127992968321
 20
819.76681683565096
 30
0.0
 11
461.5127992968321
 21
955.50485683565091
 31
0.0
  0
ARC
  5
2B98
  8
AM_0
 10
445.51285929683218
 20
815.76687683565103
 30
0.0
 40
10.0
 50
203.57826999999861
 51
336.4217200000013
  0
ARC
  5
2B99
  8
AM_0
 10
445.51285929683218
 20
815.76687683565103
 30
0.0
 40
10.0
 50
23.57803699999776
 51
156.42196000000081
  0
LINE
  5
2B9A
  8
AM_0
 10
429.01285929683218
 20
819.76681683565096
 30
0.0
 11
462.01285929683218
 21
819.76681683565096
 31
0.0
  0
LINE
  5
2B9B
  8
AM_0
 10
429.01285929683218
 20
811.76687683565092
 30
0.0
 11
462.01285929683218
 21
811.76687683565092
 31
0.0
  0
LINE
  5
2B9C
  8
AM_0
 10
448.51272929683211
 20
893.33267683565077
 30
0.0
 11
461.5127992968321
 21
893.33267683565077
 31
0.0
  0
LINE
  5
2B9D
  8
AM_0
 10
448.51272929683211
 20
867.33139683565093
 30
0.0
 11
461.5127992968321
 21
867.33139683565093
 31
0.0
  0
LINE
  5
2B9E
  8
AM_0
 10
434.51279929683221
 20
819.76681683565096
 30
0.0
 11
434.51279929683221
 21
929.908056835651
 31
0.0
  0
LINE
  5
2B9F
  8
AM_0
 10
400.0127992968321
 20
855.24154683565098
 30
0.0
 11
434.51279929683221
 21
855.24154683565098
 31
0.0
  0
LINE
  5
2BA0
  8
AM_0
 10
386.31540929683229
 20
804.99838683565088
 30
0.0
 11
386.31540929683229
 21
826.99893683565097
 31
0.0
  0
ARC
  5
2BA1
  8
AM_0
 10
383.3154092968324
 20
831.76687683565081
 30
0.0
 40
3.0
 50
269.999989999999
 51
0.0000006832429909
  0
LINE
  5
2BA2
  8
AM_0
 10
390.01272929683228
 20
855.24154683565098
 30
0.0
 11
400.01272929683222
 21
855.24154683565098
 31
0.0
  0
ARC
  5
2BA3
  8
AM_0
 10
429.01285929683218
 20
815.76687683565103
 30
0.0
 40
3.9999962
 50
90.00000299999769
 51
270.0
  0
LINE
  5
2BA4
  8
AM_0
 10
400.0127992968321
 20
889.26687683565092
 30
0.0
 11
429.68722929683219
 21
890.30313683565078
 31
0.0
  0
LINE
  5
2BA5
  8
AM_0
 10
400.0127992968321
 20
877.34549683565081
 30
0.0
 11
434.51279929683221
 21
877.34549683565081
 31
0.0
  0
ARC
  5
2BA6
  8
AM_0
 10
394.01272929683228
 20
885.05490683565097
 30
0.0
 40
4.0
 50
91.999998000000545
 51
180.00001000000091
  0
LINE
  5
2BA7
  8
AM_0
 10
390.01272929683228
 20
877.34555683565077
 30
0.0
 11
400.01272929683222
 21
877.34555683565077
 31
0.0
  0
ARC
  5
2BA8
  8
AM_0
 10
385.05020929683241
 20
885.87545683565088
 30
0.0
 40
5.0
 50
315.0
 51
354.76905999999752
  0
LINE
  5
2BA9
  8
AM_0
 10
381.80514929683233
 20
875.55923683565095
 30
0.0
 11
388.58578929683227
 21
882.33987683565101
 31
0.0
  0
ARC
  5
2BAA
  8
AM_0
 10
378.26956929683229
 20
879.09475683565086
 30
0.0
 40
5.0
 50
272.00000000000369
 51
315.0
  0
LINE
  5
2BAB
  8
AM_0
 10
393.87314929683242
 20
889.05246683565053
 30
0.0
 11
400.01272929683222
 21
889.26687683565092
 31
0.0
  0
ARC
  5
2BAC
  8
AM_0
 10
429.51279929683221
 20
895.30014683565093
 30
0.0
 40
5.0
 50
272.00000000000369
 51
0.0
  0
ARC
  5
2BAD
  8
AM_0
 10
462.01285929683218
 20
815.76687683565103
 30
0.0
 40
3.9999962
 50
270.0
 51
90.00000299999769
  0
LINE
  5
2BAE
  8
AM_0
 10
461.5127992968321
 20
893.33267683565077
 30
0.0
 11
513.30856929683227
 21
893.33267683565077
 31
0.0
  0
ARC
  5
2BAF
  8
AM_0
 10
517.20029929683233
 20
891.66897683565082
 30
0.0
 40
3.0
 50
120.8809700000043
 51
270.0
  0
ARC
  5
2BB0
  8
AM_0
 10
513.30856929683227
 20
896.33267683565089
 30
0.0
 40
3.0
 50
270.0
 51
300.88098000000019
  0
ARC
  5
2BB1
  8
AM_0
 10
451.51272929683228
 20
952.15377683565089
 30
0.0
 40
3.0
 50
91.999998000000545
 51
180.00001000000091
  0
ARC
  5
2BB2
  8
AM_0
 10
445.5127992968321
 20
937.3946268356508
 30
0.0
 40
3.0
 50
280.00001000000128
 51
0.0
  0
ARC
  5
2BB3
  8
AM_0
 10
450.51279929683221
 20
942.51187683565104
 30
0.0
 40
2.0
 50
91.999998000000545
 51
180.00001000000091
  0
LINE
  5
2BB4
  8
AM_0
 10
436.99185929683222
 20
932.84585683565092
 30
0.0
 11
446.03372929683229
 21
934.44021683565086
 31
0.0
  0
LINE
  5
2BB5
  8
AM_0
 10
450.44302929683209
 20
944.51065683565093
 30
0.0
 11
461.5127992968321
 21
944.89724683565078
 31
0.0
  0
LINE
  5
2BB6
  8
AM_0
 10
451.40805929683228
 20
955.15194683565085
 30
0.0
 11
461.5127992968321
 21
955.50479683565095
 31
0.0
  0
POLYLINE
  5
2BB7
  8
AM_0
 66
     1
 10
0.0
 20
0.0
 30
0.0
  0
VERTEX
  5
2BB8
  8
AM_0
 10
559.51279929683233
 20
934.95974683565078
 30
0.0
  0
VERTEX
  5
2BB9
  8
AM_0
 10
551.85396929683236
 20
915.88905683565088
 30
0.0
 42
-1.0
  0
SEQEND
  5
2BBA
  8
AM_0
  0
ARC
  5
2BBB
  8
AM_0
 10
562.51279929683233
 20
926.72415683565077
 30
0.0
 40
5.0
 50
0.0
 51
91.999998000000545
  0
LINE
  5
2BBC
  8
AM_0
 10
597.51279929683233
 20
821.76687683565081
 30
0.0
 11
653.51279929683233
 21
821.76687683565081
 31
0.0
  0
LINE
  5
2BBD
  8
AM_0
 10
597.51279929683233
 20
809.76687683565092
 30
0.0
 11
653.51279929683233
 21
809.76687683565092
 31
0.0
  0
LINE
  5
2BBE
  8
AM_0
 10
583.51279929683233
 20
836.76687683565092
 30
0.0
 11
653.51279929683233
 21
836.76687683565092
 31
0.0
  0
ARC
  5
2BBF
  8
AM_0
 10
597.51279929683233
 20
815.76687683565103
 30
0.0
 40
6.0000037999999991
 50
90.00000299999769
 51
270.0
  0
LINE
  5
2BC0
  8
AM_0
 10
597.51279929683233
 20
821.76687683565081
 30
0.0
 11
597.51279929683233
 21
809.76687683565092
 31
0.0
  0
LINE
  5
2BC1
  8
AM_0
 10
581.51279929683233
 20
838.26687683565092
 30
0.0
 11
583.51279929683233
 21
838.26687683565092
 31
0.0
  0
ARC
  5
2BC2
  8
AM_0
 10
564.51279929683233
 20
881.90127683565095
 30
0.0
 40
5.0
 50
179.999989999999
 51
270.0
  0
LINE
  5
2BC3
  8
AM_0
 10
549.38138929683225
 20
888.66897683565094
 30
0.0
 11
559.51279929683233
 21
896.22708683565077
 31
0.0
  0
ARC
  5
2BC4
  8
AM_0
 10
554.51279929683233
 20
923.30465683565103
 30
0.0
 40
5.0
 50
300.88098000000019
 51
0.0
  0
LINE
  5
2BC5
  8
AM_0
 10
562.40799929683214
 20
957.73947683565098
 30
0.0
 11
577.51279929683233
 21
958.26693683565099
 31
0.0
  0
ARC
  5
2BC6
  8
AM_0
 10
562.51279929683233
 20
954.74124683565105
 30
0.0
 40
3.0
 50
91.999998000000545
 51
180.00001000000091
  0
LINE
  5
2BC7
  8
AM_0
 10
577.51279929683233
 20
935.76687683565092
 30
0.0
 11
581.51279929683233
 21
935.76687683565092
 31
0.0
  0
LINE
  5
3144
  8
AM_0
 10
225.51272929683211
 20
750.1668768356509
 30
0.0
 11
307.51272929683222
 21
750.1668768356509
 31
0.0
  0
LINE
  5
3145
  8
AM_0
 10
164.01272929683219
 20
881.36687683565083
 30
0.0
 11
307.51272929683222
 21
881.36687683565083
 31
0.0
  0
LINE
  5
3146
  8
AM_0
 10
146.51272929683219
 20
832.76687683565103
 30
0.0
 11
146.51272929683219
 21
798.76687683565092
 31
0.0
  0
LINE
  5
3147
  8
AM_0
 10
157.51272929683219
 20
868.86874470703015
 30
0.0
 11
157.51272929683219
 21
762.66500896427135
 31
0.0
  0
ARC
  5
3148
  8
AM_0
 10
1096.6988531066511
 20
815.76687683565012
 30
0.0
 40
940.68612380981915
 50
176.76392470776139
 51
183.2360752922385
  0
LINE
  5
3149
  8
AM_0
 10
164.51272929683219
 20
881.36687683565083
 30
0.0
 11
164.51272929683219
 21
750.1668768356509
 31
0.0
  0
LINE
  5
314A
  8
AM_0
 10
162.01272929683219
 20
879.36687683565094
 30
0.0
 11
162.01272929683219
 21
752.1668768356509
 31
0.0
  0
LINE
  5
314B
  8
AM_0
 10
225.51272929683211
 20
753.50790386247195
 30
0.0
 11
225.51272929683211
 21
736.70687760671262
 31
0.0
  0
LINE
  5
314C
  8
AM_0
 10
167.51272929683219
 20
753.50790386247195
 30
0.0
 11
167.51272929683219
 21
736.70687760671262
 31
0.0
  0
LINE
  5
314D
  8
AM_0
 10
223.51272929683211
 20
734.70687760671262
 30
0.0
 11
169.51272929683219
 21
734.70687760671262
 31
0.0
  0
ARC
  5
314E
  8
AM_0
 10
169.51272929683219
 20
736.70687760671262
 30
0.0
 40
2.0
 50
180.0
 51
270.0
1001
GENIUS_GENOBJ-N-FIL_13
1002
{
1000
OWNER
1000
GEN
1002
}
1001
GENIUS_GENODEF_13
1002
{
1000
HIER
1070
     0
1002
}
1002
{
1000
MANEDIT
1070
     0
1002
}
1002
{
1000
NOSEL
1070
     0
1002
}
1002
{
1000
BEHIND
1070
     0
1002
}
1002
{
1000
OTHER
1070
     0
1002
}
1002
{
1000
REACTOR
1002
}
  0
ARC
  5
314F
  8
AM_0
 10
223.51272929683211
 20
736.70687760671262
 30
0.0
 40
2.0
 50
270.0
 51
0.0
1001
GENIUS_GENOBJ-N-FIL_13
1002
{
1000
OWNER
1000
GEN
1002
}
1001
GENIUS_GENODEF_13
1002
{
1000
HIER
1070
     0
1002
}
1002
{
1000
MANEDIT
1070
     0
1002
}
1002
{
1000
NOSEL
1070
     0
1002
}
1002
{
1000
BEHIND
1070
     0
1002
}
1002
{
1000
OTHER
1070
     0
1002
}
1002
{
1000
REACTOR
1002
}
  0
LINE
  5
3150
  8
AM_0
 10
182.01272929683199
 20
755.50790386247195
 30
0.0
 11
169.51272929683219
 21
755.50790386247195
 31
0.0
  0
LINE
  5
3151
  8
AM_0
 10
223.51272929683211
 20
738.11447860541932
 30
0.0
 11
169.51272929683219
 21
738.11447860541932
 31
0.0
  0
ARC
  5
3152
  8
AM_0
 10
169.51272929683219
 20
753.50790386247195
 30
0.0
 40
2.0
 50
90.0
 51
180.0
1001
GENIUS_GENOBJ-N-FIL_13
1002
{
1000
OWNER
1000
GEN
1002
}
1001
GENIUS_GENODEF_13
1002
{
1000
HIER
1070
     0
1002
}
1002
{
1000
MANEDIT
1070
     0
1002
}
1002
{
1000
NOSEL
1070
     0
1002
}
1002
{
1000
BEHIND
1070
     0
1002
}
1002
{
1000
OTHER
1070
     0
1002
}
1002
{
1000
REACTOR
1002
}
  0
ARC
  5
3153
  8
AM_0
 10
169.51272929683219
 20
740.11447860541932
 30
0.0
 40
2.0
 50
180.0
 51
270.0
1001
GENIUS_GENODEF_13
1002
{
1000
HIER
1070
     0
1002
}
1002
{
1000
MANEDIT
1070
     0
1002
}
1002
{
1000
NOSEL
1070
     0
1002
}
1002
{
1000
BEHIND
1070
     0
1002
}
1002
{
1000
OTHER
1070
     0
1002
}
1002
{
1000
REACTOR
1002
}
1001
GENIUS_GENOBJ-N-FIL_13
1002
{
1000
OWNER
1000
GEN
1002
}
  0
ARC
  5
3154
  8
AM_0
 10
164.01272929683219
 20
752.1668768356509
 30
0.0
 40
2.0
 50
180.0
 51
270.0
1001
GENIUS_GENOBJ-N-FIL_13
1002
{
1000
OWNER
1000
GEN
1002
}
1001
GENIUS_GENODEF_13
1002
{
1000
HIER
1070
     0
1002
}
1002
{
1000
MANEDIT
1070
     0
1002
}
1002
{
1000
NOSEL
1070
     0
1002
}
1002
{
1000
BEHIND
1070
     0
1002
}
1002
{
1000
OTHER
1070
     0
1002
}
1002
{
1000
REACTOR
1002
}
  0
LINE
  5
3155
  8
AM_0
 10
164.01272929683219
 20
750.1668768356509
 30
0.0
 11
167.51272929683219
 21
750.16687683565033
 31
0.0
  0
ARC
  5
3156
  8
AM_0
 10
159.51272929683219
 20
762.66500896427135
 30
0.0
 40
2.0
 50
180.0
 51
228.36646066343241
1001
GENIUS_GENODEF_13
1002
{
1000
HIER
1070
     0
1002
}
1002
{
1000
MANEDIT
1070
     0
1002
}
1002
{
1000
NOSEL
1070
     0
1002
}
1002
{
1000
BEHIND
1070
     0
1002
}
1002
{
1000
OTHER
1070
     0
1002
}
1002
{
1000
REACTOR
1002
}
1001
GENIUS_GENOBJ-N-FIL_13
1002
{
1000
OWNER
1000
GEN
1002
}
  0
LINE
  5
3157
  8
AM_0
 10
161.34145697449199
 20
758.3635633443979
 30
0.0
 11
158.18400161917239
 21
761.17019032690382
 31
0.0
  0
ARC
  5
3158
  8
AM_0
 10
160.01272929683219
 20
756.86874470703015
 30
0.0
 40
2.0
 50
0.0
 51
48.36646066343252
1001
GENIUS_GENOBJ-N-FIL_13
1002
{
1000
OWNER
1000
GEN
1002
}
1001
GENIUS_GENODEF_13
1002
{
1000
HIER
1070
     0
1002
}
1002
{
1000
MANEDIT
1070
     0
1002
}
1002
{
1000
NOSEL
1070
     0
1002
}
1002
{
1000
BEHIND
1070
     0
1002
}
1002
{
1000
OTHER
1070
     0
1002
}
1002
{
1000
REACTOR
1002
}
  0
ARC
  5
3159
  8
AM_0
 10
149.51272929683219
 20
798.76687683565092
 30
0.0
 40
3.0
 50
180.0
 51
270.0
1001
GENIUS_GENODEF_13
1002
{
1000
HIER
1070
     0
1002
}
1002
{
1000
MANEDIT
1070
     0
1002
}
1002
{
1000
NOSEL
1070
     0
1002
}
1002
{
1000
BEHIND
1070
     0
1002
}
1002
{
1000
OTHER
1070
     0
1002
}
1002
{
1000
REACTOR
1002
}
1001
GENIUS_GENOBJ-N-FIL_13
1002
{
1000
OWNER
1000
GEN
1002
}
  0
LINE
  5
315A
  8
AM_0
 10
149.51272929683219
 20
795.76687683565092
 30
0.0
 11
156.2253640978744
 21
795.76687683565092
 31
0.0
  0
LINE
  5
315B
  8
AM_0
 10
223.51272929683211
 20
755.50790386247195
 30
0.0
 11
198.01272929683211
 21
755.50790386247195
 31
0.0
  0
LINE
  5
315C
  8
AM_0N
 10
192.72627585153251
 20
754.93613216293375
 30
0.0
 11
192.81272929683209
 21
755.92429956446301
 31
0.0
1001
GENIUS_GENOREF_13
1005
0
  0
LINE
  5
315D
  8
AM_0N
 10
187.29918274213171
 20
754.93613216293375
 30
0.0
 11
187.21272929683209
 21
755.92429956446301
 31
0.0
1001
GENIUS_GENOREF_13
1005
0
  0
LINE
  5
315E
  8
AM_3N
  6
AM_ISO02W050X2
 10
191.51272929683199
 20
753.75460355737823
 30
0.0
 11
190.01272929683211
 21
755.64201358593709
 31
0.0
1001
GENIUS_GENOREF_13
1005
0
  0
LINE
  5
315F
  8
AM_3N
  6
AM_ISO02W050X2
 10
189.76022929683199
 20
753.5306792595137
 30
0.0
 11
189.76022929683199
 21
755.32429956446276
 31
0.0
1001
GENIUS_GENOREF_13
1005
0
  0
LINE
  5
3160
  8
AM_3N
  6
AM_ISO02W050X2
 10
190.2652292968321
 20
753.5306792595137
 30
0.0
 11
190.2652292968321
 21
755.32429956446276
 31
0.0
1001
GENIUS_GENOREF_13
1005
0
  0
LINE
  5
3161
  8
AM_3N
  6
AM_ISO02W050X2
 10
188.51272929683199
 20
753.75460355737823
 30
0.0
 11
190.01272929683211
 21
755.64201358593709
 31
0.0
1001
GENIUS_GENOREF_13
1005
0
  0
LINE
  5
3162
  8
AM_0
 10
182.01272929683199
 20
759.47608385618184
 30
0.0
 11
182.01272929683199
 21
746.61728090295594
 31
0.0
  0
LINE
  5
3163
  8
AM_0
 10
186.01272929683211
 20
755.9242995644629
 30
0.0
 11
186.01272929683211
 21
746.61728090295594
 31
0.0
  0
LINE
  5
3164
  8
AM_0
 10
194.0127292968323
 20
755.92429956446301
 30
0.0
 11
194.0127292968323
 21
746.61728090295594
 31
0.0
  0
LINE
  5
3165
  8
AM_0
 10
198.01272929683211
 20
759.47608385618184
 30
0.0
 11
198.01272929683211
 21
746.61728090295594
 31
0.0
  0
LINE
  5
3166
  8
AM_0
 10
186.01272929683211
 20
746.61728090295594
 30
0.0
 11
182.01272929683199
 21
746.61728090295594
 31
0.0
  0
ARC
  5
3167
  8
AM_0N
 10
190.01272929683211
 20
758.52429956446304
 30
0.0
 40
5.0
 50
246.4528627629243
 51
293.54713723707567
1001
GENIUS_GENOREF_13
1005
0
  0
ARC
  5
3168
  8
AM_0N
 10
191.53084221382241
 20
755.04071905423143
 30
0.0
 40
1.1999999999999991
 50
293.54713723707567
 51
355.00000000000023
1001
GENIUS_GENOREF_13
1005
0
  0
ARC
  5
3169
  8
AM_0N
 10
188.49461637984189
 20
755.04071905423143
 30
0.0
 40
1.1999999999999991
 50
184.99999999999969
 51
246.4528627629243
1001
GENIUS_GENOREF_13
1005
0
  0
LINE
  5
316A
  8
AM_0
 10
198.01272929683211
 20
746.61728090295594
 30
0.0
 11
194.0127292968323
 21
746.61728090295594
 31
0.0
  0
LINE
  5
316B
  8
AM_0
 10
194.0127292968323
 20
751.89334370146526
 30
0.0
 11
186.01272929683211
 21
751.89334370146526
 31
0.0
  0
LINE
  5
316C
  8
AM_0N
 10
182.01272929683199
 20
755.92429956446301
 30
0.0
 11
198.01272929683211
 21
755.92429956446301
 31
0.0
1001
GENIUS_GENOREF_13
1005
0
  0
LINE
  5
316D
  8
AM_0
 10
198.01272929683211
 20
759.47608385618184
 30
0.0
 11
182.01272929683199
 21
759.47608385618184
 31
0.0
1001
GENIUS_GENOREF_13
1005
317E
  0
LINE
  5
316E
  8
AM_3N
  6
AM_ISO02W050X2
 10
190.2652292968321
 20
755.32429956446276
 30
0.0
 11
189.76022929683199
 21
755.32429956446276
 31
0.0
1001
GENIUS_GENOREF_13
1005
0
  0
ARC
  5
316F
  8
AM_0
 10
223.51272929683211
 20
753.50790386247195
 30
0.0
 40
2.0
 50
0.0
 51
90.0
1001
GENIUS_GENODEF_13
1002
{
1000
HIER
1070
     0
1002
}
1002
{
1000
MANEDIT
1070
     0
1002
}
1002
{
1000
NOSEL
1070
     0
1002
}
1002
{
1000
BEHIND
1070
     0
1002
}
1002
{
1000
OTHER
1070
     0
1002
}
1002
{
1000
REACTOR
1002
}
1001
GENIUS_GENOBJ-N-FIL_13
1002
{
1000
OWNER
1000
GEN
1002
}
  0
ARC
  5
3170
  8
AM_0
 10
223.51272929683211
 20
740.11447860541932
 30
0.0
 40
2.0
 50
270.0
 51
0.0
1001
GENIUS_GENOBJ-N-FIL_13
1002
{
1000
OWNER
1000
GEN
1002
}
1001
GENIUS_GENODEF_13
1002
{
1000
HIER
1070
     0
1002
}
1002
{
1000
MANEDIT
1070
     0
1002
}
1002
{
1000
NOSEL
1070
     0
1002
}
1002
{
1000
BEHIND
1070
     0
1002
}
1002
{
1000
OTHER
1070
     0
1002
}
1002
{
1000
REACTOR
1002
}
  0
ARC
  5
3171
  8
AM_0
 10
164.01272929683219
 20
879.36687683565094
 30
0.0
 40
2.0
 50
90.0
 51
180.0
1001
GENIUS_GENOBJ-N-FIL_13
1002
{
1000
OWNER
1000
GEN
1002
}
1001
GENIUS_GENODEF_13
1002
{
1000
HIER
1070
     0
1002
}
1002
{
1000
MANEDIT
1070
     0
1002
}
1002
{
1000
NOSEL
1070
     0
1002
}
1002
{
1000
BEHIND
1070
     0
1002
}
1002
{
1000
OTHER
1070
     0
1002
}
1002
{
1000
REACTOR
1002
}
  0
ARC
  5
3172
  8
AM_0
 10
149.51272929683219
 20
832.76687683565103
 30
0.0
 40
3.0
 50
90.0
 51
180.0
1001
GENIUS_GENOBJ-N-FIL_13
1002
{
1000
OWNER
1000
GEN
1002
}
1001
GENIUS_GENODEF_13
1002
{
1000
HIER
1070
     0
1002
}
1002
{
1000
MANEDIT
1070
     0
1002
}
1002
{
1000
NOSEL
1070
     0
1002
}
1002
{
1000
BEHIND
1070
     0
1002
}
1002
{
1000
OTHER
1070
     0
1002
}
1002
{
1000
REACTOR
1002
}
  0
LINE
  5
3173
  8
AM_0
 10
149.51272929683219
 20
835.76687683565092
 30
0.0
 11
156.2253640978744
 21
835.76687683565092
 31
0.0
  0
ARC
  5
3174
  8
AM_0
 10
159.51272929683219
 20
868.86874470703015
 30
0.0
 40
2.0
 50
131.63353933656751
 51
180.0
1001
GENIUS_GENODEF_13
1002
{
1000
HIER
1070
     0
1002
}
1002
{
1000
MANEDIT
1070
     0
1002
}
1002
{
1000
NOSEL
1070
     0
1002
}
1002
{
1000
BEHIND
1070
     0
1002
}
1002
{
1000
OTHER
1070
     0
1002
}
1002
{
1000
REACTOR
1002
}
1001
GENIUS_GENOBJ-N-FIL_13
1002
{
1000
OWNER
1000
GEN
1002
}
  0
ARC
  5
3175
  8
AM_0
 10
160.01272929683219
 20
874.66500896427135
 30
0.0
 40
2.0
 50
311.63353933656748
 51
0.0
1001
GENIUS_GENOBJ-N-FIL_13
1002
{
1000
OWNER
1000
GEN
1002
}
1001
GENIUS_GENODEF_13
1002
{
1000
HIER
1070
     0
1002
}
1002
{
1000
MANEDIT
1070
     0
1002
}
1002
{
1000
NOSEL
1070
     0
1002
}
1002
{
1000
BEHIND
1070
     0
1002
}
1002
{
1000
OTHER
1070
     0
1002
}
1002
{
1000
REACTOR
1002
}
  0
LINE
  5
3176
  8
AM_0
 10
161.34145697449199
 20
873.17019032690393
 30
0.0
 11
158.18400161917239
 21
870.36356334439779
 31
0.0
  0
LINE
  5
3177
  8
AM_0
 10
319.01272929683222
 20
881.76687683565103
 30
0.0
 11
319.01272929683222
 21
749.76687683565092
 31
0.0
  0
LINE
  5
3178
  8
AM_0
 10
307.51272929683222
 20
881.76687683565103
 30
0.0
 11
307.51272929683222
 21
749.76687683565092
 31
0.0
  0
LINE
  5
3179
  8
AM_0
 10
307.51272929683222
 20
749.76687683565092
 30
0.0
 11
319.01272929683222
 21
749.76687683565092
 31
0.0
  0
LINE
  5
317A
  8
AM_0
 10
326.01272929683222
 20
752.76687683565092
 30
0.0
 11
319.01272929683222
 21
749.76687683565092
 31
0.0
  0
LINE
  5
317B
  8
AM_0
 10
319.01272929683222
 20
881.76687683565103
 30
0.0
 11
326.01272929683222
 21
878.76687683565092
 31
0.0
  0
LINE
  5
317C
  8
AM_0
 10
307.51272929683222
 20
881.76687683565103
 30
0.0
 11
319.01272929683222
 21
881.76687683565103
 31
0.0
  0
LINE
  5
317D
  8
AM_0
 10
326.01272929683222
 20
878.76687683565092
 30
0.0
 11
326.01272929683222
 21
752.76687683565092
 31
0.0
  0
POINT
  5
317E
  8
0
 10
40.138490695523842
 20
260.46603041889853
 30
0.0
1001
GENIUS_GENOLIS_13
1002
{
1000
ENT
1005
0
1005
0
1005
0
1005
316D
1002
}
1001
GENIUS_GENOENT_13
1002
{
1000
MYREF
1005
317E
1002
}
1002
{
1000
GRP
1005
0
1002
}
1001
GENIUS_GENOBJ-NBEHI-BHB_13
1002
{
1000
OWNER
1000
genbehi
1002
}
1001
GENIUS_GENBH_13
1002
{
1000
FGO
1005
0
1002
}
1001
GENIUS_GENODEF_13
1002
{
1000
HIER
1070
     1
1002
}
1002
{
1000
MANEDIT
1070
     1
1002
}
1002
{
1000
NOSEL
1070
     1
1002
}
1002
{
1000
BEHIND
1070
     0
1002
}
1002
{
1000
OTHER
1070
     1
1002
}
1002
{
1000
REACTOR
1002
}
  0
LINE
  5
342D
  8
AM_0
 10
581.51279929683233
 20
421.23700735832449
 30
0.0
 11
581.51279929683233
 21
541.23700235832428
 31
0.0
  0
LINE
  5
342E
  8
AM_0
 10
567.51279929683255
 20
421.23700735832449
 30
0.0
 11
567.51279929683255
 21
532.19430235832431
 31
0.0
  0
LINE
  5
342F
  8
AM_0
 10
558.37829929683255
 20
439.58994235832438
 30
0.0
 11
542.12534929683238
 21
488.72595735832459
 31
0.0
  0
LINE
  5
3430
  8
AM_0
 10
577.51279929683255
 20
278.73700235832462
 30
0.0
 11
577.51279929683255
 21
563.73700235832405
 31
0.0
  0
LINE
  5
3431
  8
AM_0
 10
559.5128492968322
 20
442.72385235832451
 30
0.0
 11
559.5128492968322
 21
560.21135235832458
 31
0.0
  0
LINE
  5
3432
  8
AM_0
 10
461.5127992968321
 20
253.2370023583245
 30
0.0
 11
461.5127992968321
 21
513.23700235832405
 31
0.0
  0
LINE
  5
3433
  8
AM_0
 10
448.51279929683221
 20
255.6223473583245
 30
0.0
 11
448.51279929683221
 21
510.85170235832419
 31
0.0
  0
LINE
  5
3434
  8
AM_0
 10
434.5128492968322
 20
269.11246235832448
 30
0.0
 11
434.5128492968322
 21
511.23700235832428
 31
0.0
  0
LINE
  5
3435
  8
AM_0
 10
164.01269929683269
 20
420.83703985832449
 30
0.0
 11
307.51269929683258
 21
420.83703985832449
 31
0.0
  0
LINE
  5
3437
  8
AM_0
 10
164.01269929683241
 20
289.63703985832421
 30
0.0
 11
211.51269929683261
 21
289.63703985832421
 31
0.0
  0
LINE
  5
3438
  8
ﾁｭｳｼﾝｾﾝ
 10
428.48254600429181
 20
355.2370023583245
 30
0.0
 11
141.42209896337471
 21
355.2370023583245
 31
0.0
  0
LINE
  5
344A
  8
ﾁｭｳｼﾝｾﾝ
 10
215.51269929683261
 20
336.55741106669137
 30
0.0
 11
215.51269929683261
 21
231.11383000879249
 31
0.0
  0
ARC
  5
344B
  8
AM_0
 10
1096.6988231066521
 20
355.23703985832429
 30
0.0
 40
940.68612380981915
 50
176.76392470776159
 51
183.2360752922383
  0
LINE
  5
344C
  8
AM_0
 10
157.51269929683261
 20
408.33890772970392
 30
0.0
 11
157.51269929683261
 21
302.13517198694501
 31
0.0
  0
LINE
  5
344D
  8
AM_0
 10
162.01269929683269
 20
418.8370398583246
 30
0.0
 11
162.01269929683261
 21
291.63703985832421
 31
0.0
  0
LINE
  5
344E
  8
AM_0
 10
164.51269929683261
 20
420.83703985832449
 30
0.0
 11
164.51269929683261
 21
289.63703985832421
 31
0.0
  0
ARC
  5
3450
  8
AM_0
 10
164.01269929683241
 20
291.63703985832421
 30
0.0
 40
2.0
 50
180.0
 51
270.0
1001
GENIUS_GENOBJ-N-FIL_13
1002
{
1000
OWNER
1000
GEN
1002
}
1001
GENIUS_GENODEF_13
1002
{
1000
HIER
1070
     0
1002
}
1002
{
1000
MANEDIT
1070
     0
1002
}
1002
{
1000
NOSEL
1070
     0
1002
}
1002
{
1000
BEHIND
1070
     0
1002
}
1002
{
1000
OTHER
1070
     0
1002
}
1002
{
1000
REACTOR
1002
}
  0
ARC
  5
3451
  8
AM_0
 10
159.51269929683261
 20
302.13517198694501
 30
0.0
 40
2.0
 50
180.0
 51
228.36646066343951
1001
GENIUS_GENODEF_13
1002
{
1000
HIER
1070
     0
1002
}
1002
{
1000
MANEDIT
1070
     0
1002
}
1002
{
1000
NOSEL
1070
     0
1002
}
1002
{
1000
BEHIND
1070
     0
1002
}
1002
{
1000
OTHER
1070
     0
1002
}
1002
{
1000
REACTOR
1002
}
1001
GENIUS_GENOBJ-N-FIL_13
1002
{
1000
OWNER
1000
GEN
1002
}
  0
LINE
  5
3452
  8
AM_0
 10
161.34142697449241
 20
297.83372636707128
 30
0.0
 11
158.18397161917281
 21
300.64035334957771
 31
0.0
  0
ARC
  5
3453
  8
AM_0
 10
160.01269929683241
 20
296.33890772970392
 30
0.0
 40
2.0
 50
0.0
 51
48.366460663439533
1001
GENIUS_GENOBJ-N-FIL_13
1002
{
1000
OWNER
1000
GEN
1002
}
1001
GENIUS_GENODEF_13
1002
{
1000
HIER
1070
     0
1002
}
1002
{
1000
MANEDIT
1070
     0
1002
}
1002
{
1000
NOSEL
1070
     0
1002
}
1002
{
1000
BEHIND
1070
     0
1002
}
1002
{
1000
OTHER
1070
     0
1002
}
1002
{
1000
REACTOR
1002
}
  0
LINE
  5
3454
  8
AM_0
 10
210.8026482968325
 20
241.0205311441708
 30
0.0
 11
210.7966212968324
 21
247.31725304417091
 31
0.0
  0
LINE
  5
3455
  8
AM_0
 10
213.79815429683251
 20
239.64467105832429
 30
0.0
 11
213.79212729683249
 21
245.9413929583244
 31
0.0
  0
LINE
  5
3456
  8
AM_0
 10
217.22419929683269
 20
245.9439549583243
 30
0.0
 11
217.23018429683259
 21
239.6472036583244
 31
0.0
  0
LINE
  5
3457
  8
AM_0
 10
220.21376229683261
 20
241.0205311441708
 30
0.0
 11
220.21978929683269
 21
247.31725304417091
 31
0.0
  0
LINE
  5
3458
  8
AM_0
 10
212.5188102968325
 20
241.0182883441708
 30
0.0
 11
213.79684065017369
 21
241.01710638031031
 31
0.0
  0
ARC
  5
3459
  8
ｽﾝﾎ_ｳｾﾝ
 10
212.5171932968326
 20
236.61289994417089
 30
0.0
 40
1.5050001119999981
 50
34.081774240380142
 51
298.9087048605341
  0
ARC
  5
345A
  8
AM_0
 10
212.5576392968328
 20
236.61296504417081
 30
0.0
 40
2.3091486599999991
 50
164.90527199999909
 51
290.87219614688911
  0
LINE
  5
345B
  8
AM_0
 10
211.36305429683259
 20
241.01935724417081
 30
0.0
 11
210.80269029683271
 21
241.02051014417091
 31
0.0
  0
LINE
  5
345C
  8
AM_0
 10
211.36305429683259
 20
241.01937824417089
 30
0.0
 11
210.3281952968326
 21
237.21433364417081
 31
0.0
  0
LINE
  5
345D
  8
AM_0
 10
211.36305429683259
 20
241.01935724417081
 30
0.0
 11
212.5188102968325
 21
241.0182883441708
 31
0.0
  0
LINE
  5
345E
  8
AM_0
 10
219.6533562968325
 20
241.01935724417081
 30
0.0
 11
218.49760029683259
 21
241.0182883441708
 31
0.0
  0
ARC
  5
345F
  8
ｽﾝﾎ_ｳｾﾝ
 10
218.49921729683251
 20
236.61289994417089
 30
0.0
 40
1.5050001119999981
 50
241.0912951394659
 51
145.91822575961979
  0
LINE
  5
3460
  8
AM_0
 10
214.35856029683259
 20
239.6435181583243
 30
0.0
 11
213.32370129683261
 21
235.8384735583243
 31
0.0
  0
LINE
  5
3461
  8
AM_0
 10
216.6700512968325
 20
239.64136985832431
 30
0.0
 11
217.76982129683279
 21
235.8839553583243
 31
0.0
  0
ARC
  5
3462
  8
AM_0
 10
215.55314529683281
 20
235.23710495832441
 30
0.0
 40
2.3091486599999991
 50
164.90527199999909
 51
16.267320000000009
  0
CIRCLE
  5
3463
  8
ｽﾝﾎ_ｳｾﾝ
 10
215.51269929683261
 20
235.23703985832449
 30
0.0
 40
1.5050001119999981
  0
LINE
  5
3464
  8
AM_0
 10
215.5143162968325
 20
239.6424282583244
 30
0.0
 11
216.6700932968327
 21
239.64135935832431
 31
0.0
  0
LINE
  5
3465
  8
AM_0
 10
214.0764577815907
 20
239.64407755961679
 30
0.0
 11
214.22276444898009
 21
239.1442141395417
 31
0.0
  0
LINE
  5
3466
  8
AM_0
 10
213.67454529683241
 20
241.01722994417079
 30
0.0
 11
213.79724177355411
 21
240.59803182026101
 31
0.0
  0
LINE
  5
3467
  8
AM_0
 10
214.35856029683259
 20
239.64349715832441
 30
0.0
 11
215.5143162968325
 21
239.6424282583244
 31
0.0
  0
LINE
  5
3468
  8
AM_0
 10
214.35856029683259
 20
239.64349715832441
 30
0.0
 11
213.7981962968328
 21
239.6446500583244
 31
0.0
  0
LINE
  5
3469
  8
AM_0
 10
216.93995281207461
 20
239.64407755961679
 30
0.0
 11
216.793646144685
 21
239.1442141395417
 31
0.0
  0
LINE
  5
346A
  8
AM_0
 10
218.49760029683259
 20
241.0182883441708
 30
0.0
 11
217.21956994349151
 21
241.01710638031031
 31
0.0
  0
LINE
  5
346B
  8
AM_0
 10
217.34186529683279
 20
241.01722994417079
 30
0.0
 11
217.21916882011121
 21
240.59803182026101
 31
0.0
  0
LINE
  5
346C
  8
AM_0
 10
217.23022629683251
 20
239.64723515832429
 30
0.0
 11
216.6700932968327
 21
239.64139295832439
 31
0.0
  0
LINE
  5
346D
  8
AM_0
 10
219.6533562968325
 20
241.01937824417089
 30
0.0
 11
220.6882152968326
 21
237.21433364417081
 31
0.0
  0
LINE
  5
346E
  8
AM_0
 10
219.6533562968325
 20
241.01935724417081
 30
0.0
 11
220.21372029683269
 21
241.02051014417091
 31
0.0
  0
ARC
  5
346F
  8
AM_0
 10
218.4587712968324
 20
236.61296504417081
 30
0.0
 40
2.3091486599999991
 50
249.12780385311081
 51
15.094728000000879
  0
LINE
  5
347F
  8
AM_0
 10
210.7966212968324
 20
247.31725304417091
 30
0.0
 11
214.22869450942051
 21
247.31853929417079
 31
0.0
  0
LINE
  5
3480
  8
AM_0
 10
211.51269929683261
 20
335.23703985832452
 30
0.0
 11
211.51269929683261
 21
247.31752141121029
 31
0.0
  0
LINE
  5
3481
  8
AM_0
 10
220.21978929683269
 20
247.31725304417091
 30
0.0
 11
216.78771608424469
 21
247.31853929417079
 31
0.0
  0
LINE
  5
3482
  8
AM_0
 10
217.720566036695
 20
335.23703985832452
 30
0.0
 11
217.50371129683251
 21
247.3182709581578
 31
0.0
  0
LINE
  5
3483
  8
AM_0
 10
213.51269929683261
 20
335.23703985832452
 30
0.0
 11
213.51269929683261
 21
247.3182709581578
 31
0.0
  0
LINE
  5
3484
  8
AM_0
 10
214.51269929683261
 20
335.23703985832452
 30
0.0
 11
214.51269929683261
 21
245.9419391208321
 31
0.0
  0
LINE
  5
3485
  8
AM_0
 10
216.51269929683261
 20
335.23703985832452
 30
0.0
 11
216.51269929683261
 21
245.9434259777513
 31
0.0
  0
LINE
  5
3486
  8
AM_0
 10
213.7921692968325
 20
245.94140345832429
 30
0.0
 11
217.22424129683259
 21
245.9439549583243
 31
0.0
  0
LINE
  5
3487
  8
AM_0
 10
214.22869329683269
 20
247.31981504417081
 30
0.0
 11
214.2300031540658
 21
245.94172895647429
 31
0.0
  0
LINE
  5
3488
  8
AM_0
 10
216.7877172968324
 20
247.31981504417081
 30
0.0
 11
216.7864074395994
 21
245.94172895647429
 31
0.0
  0
LINE
  5
3489
  8
AM_0
 10
219.50371129683251
 20
335.23703985832452
 30
0.0
 11
219.50371129683251
 21
247.31752141121029
 31
0.0
  0
LINE
  5
348A
  8
AM_0
 10
190.51269929683261
 20
315.73703985832452
 30
0.0
 11
211.51269929683261
 21
315.73703985832452
 31
0.0
  0
LINE
  5
348B
  8
AM_0
 10
190.51269929683261
 20
321.23703985832452
 30
0.0
 11
211.51269929683261
 21
321.23703985832452
 31
0.0
  0
LINE
  5
348C
  8
AM_0
 10
190.51269929683261
 20
295.53703985832442
 30
0.0
 11
211.51269929683261
 21
295.53703985832442
 31
0.0
  0
LINE
  5
348D
  8
AM_0
 10
190.51269929683261
 20
292.93703985832451
 30
0.0
 11
211.51269929683261
 21
292.93703985832451
 31
0.0
  0
LINE
  5
348E
  8
AM_0
 10
190.51269929683261
 20
299.03703985832442
 30
0.0
 11
211.51269929683261
 21
299.03703985832442
 31
0.0
  0
LINE
  5
348F
  8
AM_0
 10
190.51269929683261
 20
303.33703985832449
 30
0.0
 11
211.51269929683261
 21
303.33703985832449
 31
0.0
  0
LINE
  5
3490
  8
AM_0
 10
190.51269929683261
 20
312.03703985832442
 30
0.0
 11
211.51269929683261
 21
312.03703985832448
 31
0.0
  0
LINE
  5
3491
  8
AM_0
 10
190.51269929683261
 20
306.83703985832449
 30
0.0
 11
211.51269929683261
 21
306.83703985832449
 31
0.0
  0
ARC
  5
3492
  8
AM_0
 10
190.51269929683261
 20
307.83703985832449
 30
0.0
 40
1.0
 50
180.0
 51
270.0
1001
GENIUS_GENOBJ-N-FIL_13
1002
{
1000
OWNER
1000
GEN
1002
}
1001
GENIUS_GENODEF_13
1002
{
1000
HIER
1070
     0
1002
}
1002
{
1000
MANEDIT
1070
     0
1002
}
1002
{
1000
NOSEL
1070
     0
1002
}
1002
{
1000
BEHIND
1070
     0
1002
}
1002
{
1000
OTHER
1070
     0
1002
}
1002
{
1000
REACTOR
1002
}
  0
ARC
  5
3493
  8
AM_0
 10
190.51269929683261
 20
300.03703985832431
 30
0.0
 40
1.0
 50
180.0
 51
270.0
1001
GENIUS_GENOBJ-N-FIL_13
1002
{
1000
OWNER
1000
GEN
1002
}
1001
GENIUS_GENODEF_13
1002
{
1000
HIER
1070
     0
1002
}
1002
{
1000
MANEDIT
1070
     0
1002
}
1002
{
1000
NOSEL
1070
     0
1002
}
1002
{
1000
BEHIND
1070
     0
1002
}
1002
{
1000
OTHER
1070
     0
1002
}
1002
{
1000
REACTOR
1002
}
  0
ARC
  5
3494
  8
AM_0
 10
190.51269929683261
 20
294.53703985832442
 30
0.0
 40
1.0
 50
90.0
 51
180.0
1001
GENIUS_GENOBJ-N-FIL_13
1002
{
1000
OWNER
1000
GEN
1002
}
1001
GENIUS_GENODEF_13
1002
{
1000
HIER
1070
     0
1002
}
1002
{
1000
MANEDIT
1070
     0
1002
}
1002
{
1000
NOSEL
1070
     0
1002
}
1002
{
1000
BEHIND
1070
     0
1002
}
1002
{
1000
OTHER
1070
     0
1002
}
1002
{
1000
REACTOR
1002
}
  0
LINE
  5
3495
  8
AM_0
 10
189.51269929683261
 20
294.53703985832442
 30
0.0
 11
189.51269929683261
 21
293.93703985832451
 31
0.0
  0
ARC
  5
3496
  8
AM_0
 10
190.51269929683261
 20
302.33703985832449
 30
0.0
 40
1.0
 50
90.0
 51
180.0
1001
GENIUS_GENODEF_13
1002
{
1000
HIER
1070
     0
1002
}
1002
{
1000
MANEDIT
1070
     0
1002
}
1002
{
1000
NOSEL
1070
     0
1002
}
1002
{
1000
BEHIND
1070
     0
1002
}
1002
{
1000
OTHER
1070
     0
1002
}
1002
{
1000
REACTOR
1002
}
1001
GENIUS_GENOBJ-N-FIL_13
1002
{
1000
OWNER
1000
GEN
1002
}
  0
LINE
  5
3497
  8
AM_0
 10
189.51269929683261
 20
302.33703985832449
 30
0.0
 11
189.51269929683261
 21
300.03703985832431
 31
0.0
  0
ARC
  5
3498
  8
AM_0
 10
190.51269929683261
 20
293.93703985832451
 30
0.0
 40
1.0
 50
180.0
 51
270.0
1001
GENIUS_GENODEF_13
1002
{
1000
HIER
1070
     0
1002
}
1002
{
1000
MANEDIT
1070
     0
1002
}
1002
{
1000
NOSEL
1070
     0
1002
}
1002
{
1000
BEHIND
1070
     0
1002
}
1002
{
1000
OTHER
1070
     0
1002
}
1002
{
1000
REACTOR
1002
}
1001
GENIUS_GENOBJ-N-FIL_13
1002
{
1000
OWNER
1000
GEN
1002
}
  0
ARC
  5
3499
  8
AM_0
 10
190.51269929683261
 20
320.23703985832452
 30
0.0
 40
1.0
 50
90.0
 51
180.0
1001
GENIUS_GENODEF_13
1002
{
1000
HIER
1070
     0
1002
}
1002
{
1000
MANEDIT
1070
     0
1002
}
1002
{
1000
NOSEL
1070
     0
1002
}
1002
{
1000
BEHIND
1070
     0
1002
}
1002
{
1000
OTHER
1070
     0
1002
}
1002
{
1000
REACTOR
1002
}
1001
GENIUS_GENOBJ-N-FIL_13
1002
{
1000
OWNER
1000
GEN
1002
}
  0
ARC
  5
349A
  8
AM_0
 10
190.51269929683261
 20
316.73703985832452
 30
0.0
 40
1.0
 50
180.0
 51
270.0
1001
GENIUS_GENODEF_13
1002
{
1000
HIER
1070
     0
1002
}
1002
{
1000
MANEDIT
1070
     0
1002
}
1002
{
1000
NOSEL
1070
     0
1002
}
1002
{
1000
BEHIND
1070
     0
1002
}
1002
{
1000
OTHER
1070
     0
1002
}
1002
{
1000
REACTOR
1002
}
1001
GENIUS_GENOBJ-N-FIL_13
1002
{
1000
OWNER
1000
GEN
1002
}
  0
LINE
  5
349B
  8
AM_0
 10
189.51269929683261
 20
320.23703985832452
 30
0.0
 11
189.51269929683261
 21
316.73703985832452
 31
0.0
  0
LINE
  5
349C
  8
AM_0
 10
189.51269929683261
 20
311.03703985832442
 30
0.0
 11
189.51269929683261
 21
307.83703985832449
 31
0.0
  0
ARC
  5
349D
  8
AM_0
 10
190.51269929683261
 20
311.03703985832442
 30
0.0
 40
1.0
 50
90.0
 51
180.0
1001
GENIUS_GENODEF_13
1002
{
1000
HIER
1070
     0
1002
}
1002
{
1000
MANEDIT
1070
     0
1002
}
1002
{
1000
NOSEL
1070
     0
1002
}
1002
{
1000
BEHIND
1070
     0
1002
}
1002
{
1000
OTHER
1070
     0
1002
}
1002
{
1000
REACTOR
1002
}
1001
GENIUS_GENOBJ-N-FIL_13
1002
{
1000
OWNER
1000
GEN
1002
}
  0
LINE
  5
34AA
  8
AM_0
 10
168.51269929683261
 20
381.23703985832452
 30
0.0
 11
224.51269929683261
 21
381.23703985832452
 31
0.0
1001
GENIUS_GENOREF_13
1005
35F4
  0
LINE
  5
34AB
  8
AM_0
 10
168.51269929683261
 20
335.23703985832452
 30
0.0
 11
224.51269929683261
 21
335.23703985832452
 31
0.0
  0
LINE
  5
34AC
  8
AM_0
 10
146.51269929683241
 20
372.23703985832452
 30
0.0
 11
146.51269929683241
 21
338.23703985832441
 31
0.0
  0
LINE
  5
34AD
  8
AM_0
 10
167.51269929683261
 20
380.23703985832452
 30
0.0
 11
167.51269929683261
 21
336.23703985832452
 31
0.0
  0
LINE
  5
34AE
  8
AM_0
 10
149.51269929683261
 20
335.23703985832452
 30
0.0
 11
156.22533409787479
 21
335.23703985832452
 31
0.0
  0
ARC
  5
34AF
  8
AM_0
 10
149.51269929683261
 20
338.23703985832441
 30
0.0
 40
3.0
 50
180.0
 51
270.0
1001
GENIUS_GENODEF_13
1002
{
1000
HIER
1070
     0
1002
}
1002
{
1000
MANEDIT
1070
     0
1002
}
1002
{
1000
NOSEL
1070
     0
1002
}
1002
{
1000
BEHIND
1070
     0
1002
}
1002
{
1000
OTHER
1070
     0
1002
}
1002
{
1000
REACTOR
1002
}
1001
GENIUS_GENOBJ-N-FIL_13
1002
{
1000
OWNER
1000
GEN
1002
}
  0
ARC
  5
34B0
  8
AM_0
 10
168.51269929683261
 20
336.23703985832452
 30
0.0
 40
1.0
 50
180.0
 51
270.0
1001
GENIUS_GENOBJ-N-FIL_13
1002
{
1000
OWNER
1000
GEN
1002
}
1001
GENIUS_GENODEF_13
1002
{
1000
HIER
1070
     0
1002
}
1002
{
1000
MANEDIT
1070
     0
1002
}
1002
{
1000
NOSEL
1070
     0
1002
}
1002
{
1000
BEHIND
1070
     0
1002
}
1002
{
1000
OTHER
1070
     0
1002
}
1002
{
1000
REACTOR
1002
}
  0
ARC
  5
34B1
  8
AM_0
 10
149.51269929683261
 20
372.23703985832452
 30
0.0
 40
3.0
 50
90.0
 51
180.0
1001
GENIUS_GENOBJ-N-FIL_13
1002
{
1000
OWNER
1000
GEN
1002
}
1001
GENIUS_GENODEF_13
1002
{
1000
HIER
1070
     0
1002
}
1002
{
1000
MANEDIT
1070
     0
1002
}
1002
{
1000
NOSEL
1070
     0
1002
}
1002
{
1000
BEHIND
1070
     0
1002
}
1002
{
1000
OTHER
1070
     0
1002
}
1002
{
1000
REACTOR
1002
}
  0
LINE
  5
34B2
  8
AM_0
 10
149.51269929683261
 20
375.23703985832452
 30
0.0
 11
156.22533409787479
 21
375.23703985832452
 31
0.0
  0
ARC
  5
34B3
  8
AM_0
 10
168.51269929683261
 20
380.23703985832452
 30
0.0
 40
1.0
 50
90.0
 51
180.0
1001
GENIUS_GENODEF_13
1002
{
1000
HIER
1070
     0
1002
}
1002
{
1000
MANEDIT
1070
     0
1002
}
1002
{
1000
NOSEL
1070
     0
1002
}
1002
{
1000
BEHIND
1070
     0
1002
}
1002
{
1000
OTHER
1070
     0
1002
}
1002
{
1000
REACTOR
1002
}
1001
GENIUS_GENOBJ-N-FIL_13
1002
{
1000
OWNER
1000
GEN
1002
}
  0
LINE
  5
34B4
  8
AM_0
 10
225.51269929683261
 20
380.23703985832452
 30
0.0
 11
225.51269929683261
 21
336.23703985832452
 31
0.0
  0
LINE
  5
34B5
  8
AM_0
 10
184.01269929683261
 20
327.23703985832452
 30
0.0
 11
196.01269929683261
 21
327.23703985832452
 31
0.0
  0
LINE
  5
34B6
  8
AM_0
 10
182.01269929683261
 20
329.23703985832452
 30
0.0
 11
182.01269929683261
 21
335.23703985832452
 31
0.0
  0
ARC
  5
34B7
  8
AM_0
 10
184.01269929683261
 20
329.23703985832452
 30
0.0
 40
2.0
 50
180.0
 51
270.0
1001
GENIUS_GENOBJ-N-FIL_13
1002
{
1000
OWNER
1000
GEN
1002
}
1001
GENIUS_GENODEF_13
1002
{
1000
HIER
1070
     0
1002
}
1002
{
1000
MANEDIT
1070
     0
1002
}
1002
{
1000
NOSEL
1070
     0
1002
}
1002
{
1000
BEHIND
1070
     0
1002
}
1002
{
1000
OTHER
1070
     0
1002
}
1002
{
1000
REACTOR
1002
}
  0
LINE
  5
34B8
  8
AM_0
 10
198.01269929683261
 20
329.23703985832452
 30
0.0
 11
198.01269929683261
 21
335.23703985832452
 31
0.0
  0
ARC
  5
34B9
  8
AM_0
 10
196.01269929683261
 20
329.23703985832452
 30
0.0
 40
2.0
 50
270.0
 51
0.0
1001
GENIUS_GENOBJ-N-FIL_13
1002
{
1000
OWNER
1000
GEN
1002
}
1001
GENIUS_GENODEF_13
1002
{
1000
HIER
1070
     0
1002
}
1002
{
1000
MANEDIT
1070
     0
1002
}
1002
{
1000
NOSEL
1070
     0
1002
}
1002
{
1000
BEHIND
1070
     0
1002
}
1002
{
1000
OTHER
1070
     0
1002
}
1002
{
1000
REACTOR
1002
}
  0
LINE
  5
34BA
  8
AM_0N
 10
189.76019929683261
 20
331.48953985832452
 30
0.0
 11
188.53410410206141
 21
331.48953985832452
 31
0.0
  0
LINE
  5
34BB
  8
AM_0N
 10
189.76019929683261
 20
330.9845398583243
 30
0.0
 11
188.53410410206141
 21
330.9845398583243
 31
0.0
  0
LINE
  5
34BC
  8
AM_0N
 10
188.53410410206141
 20
331.48953985832452
 30
0.0
 11
188.53410410206141
 21
330.9845398583243
 31
0.0
  0
LINE
  5
34BD
  8
AM_0
 10
194.0126992968323
 20
327.23703985832452
 30
0.0
 11
194.0126992968323
 21
335.23703985832452
 31
0.0
  0
LINE
  5
34BE
  8
AM_0N
 10
190.26519929683261
 20
331.48953985832452
 30
0.0
 11
190.26519929683261
 21
332.71563505309553
 31
0.0
  0
LINE
  5
34BF
  8
AM_0N
 10
189.76019929683261
 20
331.48953985832452
 30
0.0
 11
189.76019929683261
 21
332.71563505309553
 31
0.0
  0
LINE
  5
34C0
  8
AM_0N
 10
189.76019929683261
 20
329.75844466355341
 30
0.0
 11
190.26519929683261
 21
329.75844466355341
 31
0.0
  0
LINE
  5
34C1
  8
AM_0N
 10
191.49129449160361
 20
331.48953985832452
 30
0.0
 11
191.49129449160361
 21
330.9845398583243
 31
0.0
  0
LINE
  5
34C2
  8
AM_0N
 10
191.49129449160361
 20
331.48953985832452
 30
0.0
 11
190.26519929683261
 21
331.48953985832452
 31
0.0
  0
LINE
  5
34C3
  8
AM_0N
 10
191.49129449160361
 20
330.9845398583243
 30
0.0
 11
190.26519929683261
 21
330.9845398583243
 31
0.0
  0
LINE
  5
34C4
  8
AM_0N
 10
189.76019929683261
 20
329.75844466355341
 30
0.0
 11
189.76019929683261
 21
330.9845398583243
 31
0.0
  0
LINE
  5
34C5
  8
AM_0N
 10
190.26519929683261
 20
329.75844466355341
 30
0.0
 11
190.26519929683261
 21
330.9845398583243
 31
0.0
  0
LINE
  5
34C6
  8
AM_0N
 10
189.76019929683261
 20
332.71563505309553
 30
0.0
 11
190.26519929683261
 21
332.71563505309553
 31
0.0
  0
LINE
  5
34C7
  8
AM_0
 10
186.0126992968323
 20
327.23703985832452
 30
0.0
 11
186.0126992968323
 21
335.23703985832452
 31
0.0
  0
CIRCLE
  5
34C8
  8
AM_0N
 10
190.01269929683261
 20
331.23703985832452
 30
0.0
 40
2.799999999999998
  0
ARC
  5
34CA
  8
AM_0
 10
224.51269929683261
 20
336.23703985832452
 30
0.0
 40
1.0
 50
270.0
 51
0.0
1001
GENIUS_GENOBJ-N-FIL_13
1002
{
1000
OWNER
1000
GEN
1002
}
1001
GENIUS_GENODEF_13
1002
{
1000
HIER
1070
     0
1002
}
1002
{
1000
MANEDIT
1070
     0
1002
}
1002
{
1000
NOSEL
1070
     0
1002
}
1002
{
1000
BEHIND
1070
     0
1002
}
1002
{
1000
OTHER
1070
     0
1002
}
1002
{
1000
REACTOR
1002
}
  0
LINE
  5
34CE
  8
AM_0
 10
184.01269929683261
 20
389.23703985832452
 30
0.0
 11
196.01269929683261
 21
389.23703985832452
 31
0.0
1001
GENIUS_GENOREF_13
1005
35F4
  0
LINE
  5
34CF
  8
AM_0
 10
182.01269929683261
 20
387.23703985832452
 30
0.0
 11
182.01269929683261
 21
381.23703985832452
 31
0.0
  0
ARC
  5
34D0
  8
AM_0
 10
184.01269929683261
 20
387.23703985832452
 30
0.0
 40
2.0
 50
90.0
 51
180.0
1001
GENIUS_GENOBJ-N-FIL_13
1002
{
1000
OWNER
1000
GEN
1002
}
1001
GENIUS_GENODEF_13
1002
{
1000
HIER
1070
     0
1002
}
1002
{
1000
MANEDIT
1070
     0
1002
}
1002
{
1000
NOSEL
1070
     0
1002
}
1002
{
1000
BEHIND
1070
     0
1002
}
1002
{
1000
OTHER
1070
     0
1002
}
1002
{
1000
REACTOR
1002
}
  0
LINE
  5
34D1
  8
AM_0
 10
198.01269929683261
 20
387.23703985832452
 30
0.0
 11
198.01269929683261
 21
381.23703985832452
 31
0.0
  0
ARC
  5
34D2
  8
AM_0
 10
196.01269929683261
 20
387.23703985832452
 30
0.0
 40
2.0
 50
0.0
 51
90.0
1001
GENIUS_GENOBJ-N-FIL_13
1002
{
1000
OWNER
1000
GEN
1002
}
1001
GENIUS_GENODEF_13
1002
{
1000
HIER
1070
     0
1002
}
1002
{
1000
MANEDIT
1070
     0
1002
}
1002
{
1000
NOSEL
1070
     0
1002
}
1002
{
1000
BEHIND
1070
     0
1002
}
1002
{
1000
OTHER
1070
     0
1002
}
1002
{
1000
REACTOR
1002
}
  0
LINE
  5
34D3
  8
AM_0N
 10
189.76019929683261
 20
385.48953985832452
 30
0.0
 11
188.53410410206141
 21
385.48953985832452
 31
0.0
1001
GENIUS_GENOREF_13
1005
0
  0
LINE
  5
34D4
  8
AM_0N
 10
189.76019929683261
 20
384.9845398583243
 30
0.0
 11
188.53410410206141
 21
384.9845398583243
 31
0.0
1001
GENIUS_GENOREF_13
1005
0
  0
LINE
  5
34D5
  8
AM_0N
 10
188.53410410206141
 20
384.9845398583243
 30
0.0
 11
188.53410410206141
 21
385.48953985832452
 31
0.0
1001
GENIUS_GENOREF_13
1005
0
  0
LINE
  5
34D6
  8
AM_0N
 10
190.26519929683261
 20
386.71563505309553
 30
0.0
 11
190.26519929683261
 21
385.48953985832452
 31
0.0
1001
GENIUS_GENOREF_13
1005
0
  0
LINE
  5
34D7
  8
AM_0N
 10
189.76019929683261
 20
386.71563505309553
 30
0.0
 11
189.76019929683261
 21
385.48953985832452
 31
0.0
1001
GENIUS_GENOREF_13
1005
0
  0
LINE
  5
34D8
  8
AM_0
 10
194.0126992968323
 20
389.23703985832452
 30
0.0
 11
194.0126992968323
 21
381.23703985832452
 31
0.0
  0
LINE
  5
34D9
  8
AM_0N
 10
189.76019929683261
 20
384.9845398583243
 30
0.0
 11
189.76019929683261
 21
383.75844466355352
 31
0.0
1001
GENIUS_GENOREF_13
1005
0
  0
LINE
  5
34DA
  8
AM_0N
 10
190.26519929683261
 20
384.9845398583243
 30
0.0
 11
190.26519929683261
 21
383.75844466355352
 31
0.0
1001
GENIUS_GENOREF_13
1005
0
  0
LINE
  5
34DB
  8
AM_0N
 10
189.76019929683261
 20
383.75844466355352
 30
0.0
 11
190.26519929683261
 21
383.75844466355352
 31
0.0
1001
GENIUS_GENOREF_13
1005
0
  0
LINE
  5
34DC
  8
AM_0N
 10
191.49129449160361
 20
385.48953985832452
 30
0.0
 11
190.26519929683261
 21
385.48953985832452
 31
0.0
1001
GENIUS_GENOREF_13
1005
0
  0
LINE
  5
34DD
  8
AM_0N
 10
191.49129449160361
 20
384.9845398583243
 30
0.0
 11
190.26519929683261
 21
384.9845398583243
 31
0.0
1001
GENIUS_GENOREF_13
1005
0
  0
LINE
  5
34DE
  8
AM_0N
 10
191.49129449160361
 20
384.9845398583243
 30
0.0
 11
191.49129449160361
 21
385.48953985832452
 31
0.0
1001
GENIUS_GENOREF_13
1005
0
  0
LINE
  5
34DF
  8
AM_0N
 10
189.76019929683261
 20
386.71563505309553
 30
0.0
 11
190.26519929683261
 21
386.71563505309553
 31
0.0
1001
GENIUS_GENOREF_13
1005
0
  0
LINE
  5
34E0
  8
AM_0
 10
186.0126992968323
 20
389.23703985832452
 30
0.0
 11
186.0126992968323
 21
381.23703985832452
 31
0.0
  0
CIRCLE
  5
34E1
  8
AM_0N
 10
190.01269929683261
 20
385.23703985832452
 30
0.0
 40
2.799999999999998
1001
GENIUS_GENOREF_13
1005
0
  0
ARC
  5
34E2
  8
AM_0
 10
224.51269929683261
 20
380.23703985832452
 30
0.0
 40
1.0
 50
0.0
 51
90.0
1001
GENIUS_GENODEF_13
1002
{
1000
HIER
1070
     0
1002
}
1002
{
1000
MANEDIT
1070
     0
1002
}
1002
{
1000
NOSEL
1070
     0
1002
}
1002
{
1000
BEHIND
1070
     0
1002
}
1002
{
1000
OTHER
1070
     0
1002
}
1002
{
1000
REACTOR
1002
}
1001
GENIUS_GENOBJ-N-FIL_13
1002
{
1000
OWNER
1000
GEN
1002
}
  0
ARC
  5
34E3
  8
AM_0
 10
159.51269929683261
 20
408.33890772970392
 30
0.0
 40
2.0
 50
131.6335393365604
 51
180.0
1001
GENIUS_GENODEF_13
1002
{
1000
HIER
1070
     0
1002
}
1002
{
1000
MANEDIT
1070
     0
1002
}
1002
{
1000
NOSEL
1070
     0
1002
}
1002
{
1000
BEHIND
1070
     0
1002
}
1002
{
1000
OTHER
1070
     0
1002
}
1002
{
1000
REACTOR
1002
}
1001
GENIUS_GENOBJ-N-FIL_13
1002
{
1000
OWNER
1000
GEN
1002
}
  0
LINE
  5
34E4
  8
AM_0
 10
161.34142697449241
 20
412.64035334957759
 30
0.0
 11
158.18397161917281
 21
409.83372636707111
 31
0.0
  0
ARC
  5
34E5
  8
AM_0
 10
160.01269929683241
 20
414.13517198694478
 30
0.0
 40
2.0
 50
311.63353933656049
 51
0.0
1001
GENIUS_GENOBJ-N-FIL_13
1002
{
1000
OWNER
1000
GEN
1002
}
1001
GENIUS_GENODEF_13
1002
{
1000
HIER
1070
     0
1002
}
1002
{
1000
MANEDIT
1070
     0
1002
}
1002
{
1000
NOSEL
1070
     0
1002
}
1002
{
1000
BEHIND
1070
     0
1002
}
1002
{
1000
OTHER
1070
     0
1002
}
1002
{
1000
REACTOR
1002
}
  0
ARC
  5
34E6
  8
AM_0
 10
164.01269929683269
 20
418.8370398583246
 30
0.0
 40
2.0
 50
90.0
 51
180.0
1001
GENIUS_GENOBJ-N-FIL_13
1002
{
1000
OWNER
1000
GEN
1002
}
1001
GENIUS_GENODEF_13
1002
{
1000
HIER
1070
     0
1002
}
1002
{
1000
MANEDIT
1070
     0
1002
}
1002
{
1000
NOSEL
1070
     0
1002
}
1002
{
1000
BEHIND
1070
     0
1002
}
1002
{
1000
OTHER
1070
     0
1002
}
1002
{
1000
REACTOR
1002
}
  0
ARC
  5
34E7
  8
AM_0
 10
445.5127992968321
 20
261.60928735832448
 30
0.0
 40
3.0000000500000001
 50
0.0
 51
79.999998000001099
  0
ARC
  5
34E8
  8
AM_0
 10
450.51279929683221
 20
255.6223473583245
 30
0.0
 40
2.0000000500000001
 50
179.999989999999
 51
268.00001000000509
  0
LINE
  5
34E9
  8
AM_0
 10
448.51279929683221
 20
393.2180223583245
 30
0.0
 11
567.51279929683255
 21
393.2180223583245
 31
0.0
  0
LINE
  5
34EA
  8
AM_0
 10
448.51279929683221
 20
373.25601735832453
 30
0.0
 11
567.51279929683255
 21
373.25601735832453
 31
0.0
  0
LINE
  5
34EB
  8
AM_0
 10
448.51279929683221
 20
275.97653735832449
 30
0.0
 11
563.33624929683231
 21
275.97653735832449
 31
0.0
  0
LINE
  5
34EC
  8
AM_0
 10
448.51279929683221
 20
261.5197173583245
 30
0.0
 11
538.29644929683241
 21
261.5197173583245
 31
0.0
  0
LINE
  5
34ED
  8
ﾁｭｳｼﾝｾﾝ
 10
418.73362086506881
 20
421.23700735832449
 30
0.0
 11
657.98419929683234
 21
421.23700735832449
 31
0.0
  0
LINE
  5
34EE
  8
AM_0
 10
319.01269929683258
 20
421.23703985832418
 30
0.0
 11
319.01269929683258
 21
289.23703985832452
 31
0.0
  0
LINE
  5
34EF
  8
AM_0
 10
307.51269929683258
 20
421.23703985832418
 30
0.0
 11
307.51269929683258
 21
289.23703985832452
 31
0.0
  0
LINE
  5
34F0
  8
AM_0
 10
346.01274929683251
 20
333.74145735832451
 30
0.0
 11
346.01274929683251
 21
303.29819235832451
 31
0.0
  0
LINE
  5
34F1
  8
AM_0
 10
326.01269929683258
 20
292.23703985832452
 30
0.0
 11
326.01269929683258
 21
418.23703985832452
 31
0.0
  0
LINE
  5
34F2
  8
AM_0
 10
400.01274929683228
 20
309.23703235832448
 30
0.0
 11
400.01274929683228
 21
457.23703735832419
 31
0.0
  0
LINE
  5
34F3
  8
AM_0
 10
390.01274929683251
 20
312.12451735832462
 30
0.0
 11
390.01274929683251
 21
452.80292235832451
 31
0.0
  0
LINE
  5
34F4
  8
AM_0
 10
326.01269929683258
 20
322.43118735832462
 30
0.0
 11
346.01274929683251
 21
322.43118735832462
 31
0.0
  0
LINE
  5
34F5
  8
AM_0
 10
326.01269929683258
 20
309.23703235832448
 30
0.0
 11
346.01274929683251
 21
309.23703235832448
 31
0.0
  0
LINE
  5
34F6
  8
AM_0
 10
326.01269929683258
 20
298.73700235832462
 30
0.0
 11
342.15234929683243
 21
299.30063235832449
 31
0.0
  0
LINE
  5
34F7
  8
AM_0
 10
273.51269929683258
 20
315.73703985832452
 30
0.0
 11
296.51269929683258
 21
315.73703985832452
 31
0.0
  0
LINE
  5
34F8
  8
AM_0
 10
273.51269929683258
 20
321.23703985832452
 30
0.0
 11
296.51269929683258
 21
321.23703985832452
 31
0.0
  0
LINE
  5
34F9
  8
AM_0
 10
273.51269929683258
 20
295.53703985832442
 30
0.0
 11
296.51269929683258
 21
295.53703985832442
 31
0.0
  0
LINE
  5
34FA
  8
AM_0
 10
273.51269929683258
 20
299.03703985832442
 30
0.0
 11
296.51269929683258
 21
299.03703985832442
 31
0.0
  0
LINE
  5
34FB
  8
AM_0
 10
273.51269929683258
 20
303.33703985832449
 30
0.0
 11
296.51269929683258
 21
303.33703985832449
 31
0.0
  0
LINE
  5
34FC
  8
AM_0
 10
273.51269929683258
 20
306.83703985832449
 30
0.0
 11
296.51269929683258
 21
306.83703985832449
 31
0.0
  0
LINE
  5
34FD
  8
AM_0
 10
273.51269929683258
 20
312.03703985832442
 30
0.0
 11
296.51269929683258
 21
312.03703985832448
 31
0.0
  0
LINE
  5
34FE
  8
AM_0
 10
273.51269929683258
 20
292.93703985832451
 30
0.0
 11
296.51269929683258
 21
292.93703985832451
 31
0.0
  0
ARC
  5
34FF
  8
AM_0
 10
273.51269929683258
 20
307.83703985832449
 30
0.0
 40
1.0
 50
180.0
 51
270.0
1001
GENIUS_GENOBJ-N-FIL_13
1002
{
1000
OWNER
1000
GEN
1002
}
1001
GENIUS_GENODEF_13
1002
{
1000
HIER
1070
     0
1002
}
1002
{
1000
MANEDIT
1070
     0
1002
}
1002
{
1000
NOSEL
1070
     0
1002
}
1002
{
1000
BEHIND
1070
     0
1002
}
1002
{
1000
OTHER
1070
     0
1002
}
1002
{
1000
REACTOR
1002
}
  0
ARC
  5
3500
  8
AM_0
 10
273.51269929683258
 20
300.03703985832431
 30
0.0
 40
1.0
 50
180.0
 51
270.0
1001
GENIUS_GENOBJ-N-FIL_13
1002
{
1000
OWNER
1000
GEN
1002
}
1001
GENIUS_GENODEF_13
1002
{
1000
HIER
1070
     0
1002
}
1002
{
1000
MANEDIT
1070
     0
1002
}
1002
{
1000
NOSEL
1070
     0
1002
}
1002
{
1000
BEHIND
1070
     0
1002
}
1002
{
1000
OTHER
1070
     0
1002
}
1002
{
1000
REACTOR
1002
}
  0
ARC
  5
3501
  8
AM_0
 10
273.51269929683258
 20
294.53703985832442
 30
0.0
 40
1.0
 50
90.0
 51
180.0
1001
GENIUS_GENOBJ-N-FIL_13
1002
{
1000
OWNER
1000
GEN
1002
}
1001
GENIUS_GENODEF_13
1002
{
1000
HIER
1070
     0
1002
}
1002
{
1000
MANEDIT
1070
     0
1002
}
1002
{
1000
NOSEL
1070
     0
1002
}
1002
{
1000
BEHIND
1070
     0
1002
}
1002
{
1000
OTHER
1070
     0
1002
}
1002
{
1000
REACTOR
1002
}
  0
LINE
  5
3502
  8
AM_0
 10
272.51269929683258
 20
294.53703985832442
 30
0.0
 11
272.51269929683258
 21
293.93703985832451
 31
0.0
  0
ARC
  5
3503
  8
AM_0
 10
273.51269929683258
 20
302.33703985832449
 30
0.0
 40
1.0
 50
90.0
 51
180.0
1001
GENIUS_GENODEF_13
1002
{
1000
HIER
1070
     0
1002
}
1002
{
1000
MANEDIT
1070
     0
1002
}
1002
{
1000
NOSEL
1070
     0
1002
}
1002
{
1000
BEHIND
1070
     0
1002
}
1002
{
1000
OTHER
1070
     0
1002
}
1002
{
1000
REACTOR
1002
}
1001
GENIUS_GENOBJ-N-FIL_13
1002
{
1000
OWNER
1000
GEN
1002
}
  0
LINE
  5
3504
  8
AM_0
 10
272.51269929683258
 20
302.33703985832449
 30
0.0
 11
272.51269929683258
 21
300.03703985832431
 31
0.0
  0
ARC
  5
3505
  8
AM_0
 10
273.51269929683258
 20
293.93703985832451
 30
0.0
 40
1.0
 50
180.0
 51
270.0
1001
GENIUS_GENODEF_13
1002
{
1000
HIER
1070
     0
1002
}
1002
{
1000
MANEDIT
1070
     0
1002
}
1002
{
1000
NOSEL
1070
     0
1002
}
1002
{
1000
BEHIND
1070
     0
1002
}
1002
{
1000
OTHER
1070
     0
1002
}
1002
{
1000
REACTOR
1002
}
1001
GENIUS_GENOBJ-N-FIL_13
1002
{
1000
OWNER
1000
GEN
1002
}
  0
ARC
  5
3506
  8
AM_0
 10
273.51269929683258
 20
320.23703985832452
 30
0.0
 40
1.0
 50
90.0
 51
180.0
1001
GENIUS_GENODEF_13
1002
{
1000
HIER
1070
     0
1002
}
1002
{
1000
MANEDIT
1070
     0
1002
}
1002
{
1000
NOSEL
1070
     0
1002
}
1002
{
1000
BEHIND
1070
     0
1002
}
1002
{
1000
OTHER
1070
     0
1002
}
1002
{
1000
REACTOR
1002
}
1001
GENIUS_GENOBJ-N-FIL_13
1002
{
1000
OWNER
1000
GEN
1002
}
  0
ARC
  5
3507
  8
AM_0
 10
273.51269929683258
 20
316.73703985832452
 30
0.0
 40
1.0
 50
180.0
 51
270.0
1001
GENIUS_GENODEF_13
1002
{
1000
HIER
1070
     0
1002
}
1002
{
1000
MANEDIT
1070
     0
1002
}
1002
{
1000
NOSEL
1070
     0
1002
}
1002
{
1000
BEHIND
1070
     0
1002
}
1002
{
1000
OTHER
1070
     0
1002
}
1002
{
1000
REACTOR
1002
}
1001
GENIUS_GENOBJ-N-FIL_13
1002
{
1000
OWNER
1000
GEN
1002
}
  0
LINE
  5
3508
  8
AM_0
 10
272.51269929683258
 20
320.23703985832452
 30
0.0
 11
272.51269929683258
 21
316.73703985832452
 31
0.0
  0
LINE
  5
3509
  8
AM_0
 10
272.51269929683258
 20
311.03703985832442
 30
0.0
 11
272.51269929683258
 21
307.83703985832449
 31
0.0
  0
ARC
  5
350A
  8
AM_0
 10
273.51269929683258
 20
311.03703985832442
 30
0.0
 40
1.0
 50
90.0
 51
180.0
1001
GENIUS_GENODEF_13
1002
{
1000
HIER
1070
     0
1002
}
1002
{
1000
MANEDIT
1070
     0
1002
}
1002
{
1000
NOSEL
1070
     0
1002
}
1002
{
1000
BEHIND
1070
     0
1002
}
1002
{
1000
OTHER
1070
     0
1002
}
1002
{
1000
REACTOR
1002
}
1001
GENIUS_GENOBJ-N-FIL_13
1002
{
1000
OWNER
1000
GEN
1002
}
  0
LINE
  5
350B
  8
AM_0
 10
326.01269929683258
 20
292.23703985832452
 30
0.0
 11
319.01269929683258
 21
289.23703985832452
 31
0.0
  0
LINE
  5
350C
  8
AM_0
 10
307.51269929683258
 20
289.23703985832452
 30
0.0
 11
319.01269929683258
 21
289.23703985832452
 31
0.0
  0
ARC
  5
350D
  8
AM_0
 10
296.51269929683258
 20
307.83703985832449
 30
0.0
 40
1.0
 50
270.0
 51
0.0
1001
GENIUS_GENODEF_13
1002
{
1000
HIER
1070
     0
1002
}
1002
{
1000
MANEDIT
1070
     0
1002
}
1002
{
1000
NOSEL
1070
     0
1002
}
1002
{
1000
BEHIND
1070
     0
1002
}
1002
{
1000
OTHER
1070
     0
1002
}
1002
{
1000
REACTOR
1002
}
1001
GENIUS_GENOBJ-N-FIL_13
1002
{
1000
OWNER
1000
GEN
1002
}
  0
ARC
  5
350E
  8
AM_0
 10
296.51269929683258
 20
300.03703985832431
 30
0.0
 40
1.0
 50
270.0
 51
0.0
1001
GENIUS_GENODEF_13
1002
{
1000
HIER
1070
     0
1002
}
1002
{
1000
MANEDIT
1070
     0
1002
}
1002
{
1000
NOSEL
1070
     0
1002
}
1002
{
1000
BEHIND
1070
     0
1002
}
1002
{
1000
OTHER
1070
     0
1002
}
1002
{
1000
REACTOR
1002
}
1001
GENIUS_GENOBJ-N-FIL_13
1002
{
1000
OWNER
1000
GEN
1002
}
  0
LINE
  5
350F
  8
AM_0
 10
297.51269929683258
 20
294.53703985832442
 30
0.0
 11
297.51269929683258
 21
293.93703985832451
 31
0.0
  0
ARC
  5
3510
  8
AM_0
 10
296.51269929683258
 20
294.53703985832442
 30
0.0
 40
1.0
 50
0.0
 51
90.0
1001
GENIUS_GENODEF_13
1002
{
1000
HIER
1070
     0
1002
}
1002
{
1000
MANEDIT
1070
     0
1002
}
1002
{
1000
NOSEL
1070
     0
1002
}
1002
{
1000
BEHIND
1070
     0
1002
}
1002
{
1000
OTHER
1070
     0
1002
}
1002
{
1000
REACTOR
1002
}
1001
GENIUS_GENOBJ-N-FIL_13
1002
{
1000
OWNER
1000
GEN
1002
}
  0
LINE
  5
3511
  8
AM_0
 10
297.51269929683258
 20
302.33703985832449
 30
0.0
 11
297.51269929683258
 21
300.03703985832431
 31
0.0
  0
ARC
  5
3512
  8
AM_0
 10
296.51269929683258
 20
302.33703985832449
 30
0.0
 40
1.0
 50
0.0
 51
90.0
1001
GENIUS_GENODEF_13
1002
{
1000
HIER
1070
     0
1002
}
1002
{
1000
MANEDIT
1070
     0
1002
}
1002
{
1000
NOSEL
1070
     0
1002
}
1002
{
1000
BEHIND
1070
     0
1002
}
1002
{
1000
OTHER
1070
     0
1002
}
1002
{
1000
REACTOR
1002
}
1001
GENIUS_GENOBJ-N-FIL_13
1002
{
1000
OWNER
1000
GEN
1002
}
  0
ARC
  5
3513
  8
AM_0
 10
296.51269929683258
 20
293.93703985832451
 30
0.0
 40
1.0
 50
270.0
 51
0.0
1001
GENIUS_GENOBJ-N-FIL_13
1002
{
1000
OWNER
1000
GEN
1002
}
1001
GENIUS_GENODEF_13
1002
{
1000
HIER
1070
     0
1002
}
1002
{
1000
MANEDIT
1070
     0
1002
}
1002
{
1000
NOSEL
1070
     0
1002
}
1002
{
1000
BEHIND
1070
     0
1002
}
1002
{
1000
OTHER
1070
     0
1002
}
1002
{
1000
REACTOR
1002
}
  0
ARC
  5
3514
  8
AM_0
 10
296.51269929683258
 20
320.23703985832452
 30
0.0
 40
1.0
 50
0.0
 51
90.0
1001
GENIUS_GENOBJ-N-FIL_13
1002
{
1000
OWNER
1000
GEN
1002
}
1001
GENIUS_GENODEF_13
1002
{
1000
HIER
1070
     0
1002
}
1002
{
1000
MANEDIT
1070
     0
1002
}
1002
{
1000
NOSEL
1070
     0
1002
}
1002
{
1000
BEHIND
1070
     0
1002
}
1002
{
1000
OTHER
1070
     0
1002
}
1002
{
1000
REACTOR
1002
}
  0
ARC
  5
3515
  8
AM_0
 10
296.51269929683258
 20
316.73703985832452
 30
0.0
 40
1.0
 50
270.0
 51
0.0
1001
GENIUS_GENODEF_13
1002
{
1000
HIER
1070
     0
1002
}
1002
{
1000
MANEDIT
1070
     0
1002
}
1002
{
1000
NOSEL
1070
     0
1002
}
1002
{
1000
BEHIND
1070
     0
1002
}
1002
{
1000
OTHER
1070
     0
1002
}
1002
{
1000
REACTOR
1002
}
1001
GENIUS_GENOBJ-N-FIL_13
1002
{
1000
OWNER
1000
GEN
1002
}
  0
LINE
  5
3516
  8
AM_0
 10
297.51269929683258
 20
320.23703985832452
 30
0.0
 11
297.51269929683258
 21
316.73703985832452
 31
0.0
  0
LINE
  5
3517
  8
AM_0
 10
297.51269929683258
 20
311.03703985832459
 30
0.0
 11
297.51269929683258
 21
307.83703985832449
 31
0.0
  0
ARC
  5
3518
  8
AM_0
 10
296.51269929683258
 20
311.03703985832459
 30
0.0
 40
1.0
 50
0.0
 51
90.0
1001
GENIUS_GENODEF_13
1002
{
1000
HIER
1070
     0
1002
}
1002
{
1000
MANEDIT
1070
     0
1002
}
1002
{
1000
NOSEL
1070
     0
1002
}
1002
{
1000
BEHIND
1070
     0
1002
}
1002
{
1000
OTHER
1070
     0
1002
}
1002
{
1000
REACTOR
1002
}
1001
GENIUS_GENOBJ-N-FIL_13
1002
{
1000
OWNER
1000
GEN
1002
}
  0
ARC
  5
3519
  8
AM_0
 10
394.01274929683251
 20
313.4489773583245
 30
0.0
 40
4.000000049999997
 50
211.07234000000261
 51
267.99999999999642
  0
LINE
  5
351A
  8
AM_0
 10
390.01274929683251
 20
321.6583623583245
 30
0.0
 11
434.5128492968322
 21
321.6583623583245
 31
0.0
  0
LINE
  5
351B
  8
AM_0
 10
350.15249929683227
 20
314.61481235832463
 30
0.0
 11
387.30029929683241
 21
313.31757235832453
 31
0.0
  0
ARC
  5
351C
  8
AM_0
 10
342.01284929683243
 20
303.29819235832451
 30
0.0
 40
4.000000049999997
 50
272.00000000000358
 51
0.0
  0
ARC
  5
351D
  8
AM_0
 10
350.01274929683251
 20
310.61725235832461
 30
0.0
 40
4.000000049999997
 50
87.999999999996405
 51
180.00001000000091
  0
ARC
  5
351E
  8
AM_0
 10
387.1606492968325
 20
309.32001235832462
 30
0.0
 40
4.000000049999997
 50
31.072340999999
 51
87.999999999996405
  0
ARC
  5
351F
  8
AM_0
 10
437.51279929683221
 20
269.11246235832448
 30
0.0
 40
3.0000000500000001
 50
179.999989999999
 51
259.999999999995
  0
LINE
  5
3520
  8
AM_0
 10
436.99184929683253
 20
266.15805235832448
 30
0.0
 11
446.0337492968323
 21
264.56369235832449
 31
0.0
  0
LINE
  5
3521
  8
AM_0
 10
407.75134929683207
 20
300.49744235832452
 30
0.0
 11
431.77424929683252
 21
298.39569735832453
 31
0.0
  0
ARC
  5
3522
  8
AM_0
 10
402.0128492968322
 20
306.66534735832448
 30
0.0
 40
3.0000000500000001
 50
0.0
 51
87.999999999996405
  0
LINE
  5
3523
  8
AM_0
 10
405.01274929683223
 20
303.48599735832448
 30
0.0
 11
405.01274929683223
 21
321.2370023583245
 31
0.0
  0
ARC
  5
3524
  8
AM_0
 10
408.01274929683228
 20
303.48599735832448
 30
0.0
 40
3.0000000500000001
 50
179.999989999999
 51
265.00000000000028
  0
LINE
  5
3525
  8
AM_0
 10
393.87324929683251
 20
309.45142235832452
 30
0.0
 11
400.01289929683219
 21
309.2370023583245
 31
0.0
  0
LINE
  5
3526
  8
AM_0
 10
400.01274929683228
 20
309.7370023583245
 30
0.0
 11
402.11749929683219
 21
309.66351735832461
 31
0.0
  0
ARC
  5
3527
  8
AM_0
 10
431.51279929683233
 20
295.40710735832459
 30
0.0
 40
3.0000000500000001
 50
0.0
 51
84.999996999998572
  0
LINE
  5
3528
  8
AM_0
 10
326.01269929683258
 20
401.23700735832449
 30
0.0
 11
371.11579929683239
 21
401.23700735832449
 31
0.0
  0
LINE
  5
3529
  8
AM_0
 10
326.01269929683258
 20
388.04285235832452
 30
0.0
 11
365.16424929683228
 21
388.04285235832452
 31
0.0
  0
LINE
  5
352A
  8
AM_0
 10
326.01269929683258
 20
411.73703735832453
 30
0.0
 11
344.1929492968323
 21
412.37189235832432
 31
0.0
  0
LINE
  5
352B
  8
AM_0
 10
273.51269929683258
 20
326.73703985832452
 30
0.0
 11
296.51269929683258
 21
326.73703985832452
 31
0.0
  0
LINE
  5
352C
  8
AM_0
 10
273.51269929683258
 20
333.23703985832452
 30
0.0
 11
296.51269929683258
 21
333.23703985832452
 31
0.0
  0
LINE
  5
352D
  8
AM_0
 10
272.51269929683258
 20
332.23703985832452
 30
0.0
 11
272.51269929683258
 21
327.73703985832441
 31
0.0
  0
ARC
  5
352E
  8
AM_0
 10
273.51269929683258
 20
327.73703985832441
 30
0.0
 40
1.0
 50
180.0
 51
270.0
1001
GENIUS_GENODEF_13
1002
{
1000
HIER
1070
     0
1002
}
1002
{
1000
MANEDIT
1070
     0
1002
}
1002
{
1000
NOSEL
1070
     0
1002
}
1002
{
1000
BEHIND
1070
     0
1002
}
1002
{
1000
OTHER
1070
     0
1002
}
1002
{
1000
REACTOR
1002
}
1001
GENIUS_GENOBJ-N-FIL_13
1002
{
1000
OWNER
1000
GEN
1002
}
  0
ARC
  5
352F
  8
AM_0
 10
273.51269929683258
 20
332.23703985832452
 30
0.0
 40
1.0
 50
90.0
 51
180.0
1001
GENIUS_GENOBJ-N-FIL_13
1002
{
1000
OWNER
1000
GEN
1002
}
1001
GENIUS_GENODEF_13
1002
{
1000
HIER
1070
     0
1002
}
1002
{
1000
MANEDIT
1070
     0
1002
}
1002
{
1000
NOSEL
1070
     0
1002
}
1002
{
1000
BEHIND
1070
     0
1002
}
1002
{
1000
OTHER
1070
     0
1002
}
1002
{
1000
REACTOR
1002
}
  0
LINE
  5
3530
  8
AM_0
 10
297.51269929683258
 20
332.23703985832452
 30
0.0
 11
297.51269929683258
 21
327.73703985832441
 31
0.0
  0
ARC
  5
3531
  8
AM_0
 10
296.51269929683258
 20
327.73703985832441
 30
0.0
 40
1.0
 50
270.0
 51
0.0
1001
GENIUS_GENODEF_13
1002
{
1000
HIER
1070
     0
1002
}
1002
{
1000
MANEDIT
1070
     0
1002
}
1002
{
1000
NOSEL
1070
     0
1002
}
1002
{
1000
BEHIND
1070
     0
1002
}
1002
{
1000
OTHER
1070
     0
1002
}
1002
{
1000
REACTOR
1002
}
1001
GENIUS_GENOBJ-N-FIL_13
1002
{
1000
OWNER
1000
GEN
1002
}
  0
ARC
  5
3532
  8
AM_0
 10
296.51269929683258
 20
332.23703985832452
 30
0.0
 40
1.0
 50
0.0
 51
90.0
1001
GENIUS_GENOBJ-N-FIL_13
1002
{
1000
OWNER
1000
GEN
1002
}
1001
GENIUS_GENODEF_13
1002
{
1000
HIER
1070
     0
1002
}
1002
{
1000
MANEDIT
1070
     0
1002
}
1002
{
1000
NOSEL
1070
     0
1002
}
1002
{
1000
BEHIND
1070
     0
1002
}
1002
{
1000
OTHER
1070
     0
1002
}
1002
{
1000
REACTOR
1002
}
  0
LINE
  5
3533
  8
AM_0
 10
307.51269929683258
 20
421.23703985832418
 30
0.0
 11
319.01269929683258
 21
421.23703985832418
 31
0.0
  0
LINE
  5
3534
  8
AM_0
 10
319.01269929683258
 20
421.23703985832418
 30
0.0
 11
326.01269929683258
 21
418.23703985832429
 31
0.0
  0
ARC
  5
3536
  8
AM_0
 10
371.11579929683239
 20
398.23700735832472
 30
0.0
 40
3.0000000500000001
 50
314.99999999999312
 51
90.00000299999769
  0
LINE
  5
3537
  8
AM_0
 10
390.01274929683251
 20
343.76233235832473
 30
0.0
 11
434.5128492968322
 21
343.76233235832473
 31
0.0
  0
LINE
  5
3538
  8
AM_0
 10
365.16424929683228
 20
388.04288235832479
 30
0.0
 11
390.01274929683251
 21
343.67010735832469
 31
0.0
  0
LINE
  5
3539
  8
AM_0
 10
351.01274929683251
 20
338.74145735832451
 30
0.0
 11
390.01274929683251
 21
338.74145735832451
 31
0.0
  0
ARC
  5
353A
  8
AM_0
 10
351.01274929683251
 20
333.74145735832451
 30
0.0
 40
5.0
 50
90.00000299999769
 51
180.00001000000091
  0
LINE
  5
353B
  8
AM_0
 10
365.16429929683233
 20
388.04282235832449
 30
0.0
 11
373.23719929683227
 21
396.11566735832452
 31
0.0
  0
ARC
  5
353C
  8
AM_0
 10
394.01274929683251
 20
453.02506235832459
 30
0.0
 40
4.000000049999997
 50
91.999997999994008
 51
180.93197999999961
  0
LINE
  5
353D
  8
AM_0
 10
390.01274929683251
 20
444.8156473583245
 30
0.0
 11
434.5128492968322
 21
444.8156473583245
 31
0.0
  0
LINE
  5
353E
  8
AM_0
 10
390.01274929683251
 20
422.71167735832461
 30
0.0
 11
434.5128492968322
 21
422.71167735832461
 31
0.0
  0
LINE
  5
353F
  8
AM_0
 10
349.01274929683251
 20
443.33994235832449
 30
0.0
 11
349.01274929683251
 21
416.69370235832451
 31
0.0
  0
LINE
  5
3540
  8
AM_0
 10
352.51344929683228
 20
413.7376473583243
 30
0.0
 11
387.42959929683241
 21
448.65375235832431
 31
0.0
  0
ARC
  5
3541
  8
AM_0
 10
346.01274929683251
 20
416.69370235832451
 30
0.0
 40
3.0000000500000001
 50
309.62979000000752
 51
0.0
  0
ARC
  5
3542
  8
AM_0
 10
349.68499929683242
 20
416.56610735832447
 30
0.0
 40
4.000000049999997
 50
272.00000000000358
 51
314.99999999999312
  0
LINE
  5
3543
  8
AM_0
 10
351.39924929683252
 20
412.62357235832462
 30
0.0
 11
357.77564929683228
 21
401.23706735832428
 31
0.0
  0
ARC
  5
3544
  8
AM_0
 10
344.05339929683242
 20
416.36945235832422
 30
0.0
 40
4.000000049999997
 50
272.00000000000358
 51
309.62979000000752
  0
LINE
  5
3545
  8
AM_0
 10
347.92624929683251
 20
414.38312235832427
 30
0.0
 11
346.60469929683228
 21
413.28870235832437
 31
0.0
  0
LINE
  5
3546
  8
AM_0
 10
344.1929492968323
 20
412.37189235832432
 30
0.0
 11
349.82449929683253
 21
412.56854735832451
 31
0.0
  0
LINE
  5
3547
  8
AM_0
 10
351.90804929683247
 20
446.33814235832438
 30
0.0
 11
384.74069929683242
 21
447.48468735832449
 31
0.0
  0
ARC
  5
3548
  8
AM_0
 10
352.01284929683243
 20
443.33994235832449
 30
0.0
 40
3.0000000500000001
 50
91.999997999994008
 51
180.00001000000091
  0
ARC
  5
3549
  8
AM_0
 10
386.01379929683242
 20
452.89493235832458
 30
0.0
 40
4.000000049999997
 50
314.99999999999312
 51
0.9319899800013384
  0
ARC
  5
354A
  8
AM_0
 10
384.60114929683272
 20
451.4822123583242
 30
0.0
 40
4.000000049999997
 50
272.00000000000358
 51
314.99999999999312
  0
LINE
  5
354B
  8
AM_0
 10
387.42959929683241
 20
448.65375235832431
 30
0.0
 11
388.84229929683238
 21
450.06647235832452
 31
0.0
  0
LINE
  5
354C
  8
AM_0
 10
400.0126992968323
 20
456.73703735832453
 30
0.0
 11
429.68719929683232
 21
457.77329235832451
 31
0.0
  0
LINE
  5
354D
  8
AM_0
 10
393.87314929683248
 20
457.0226223583245
 30
0.0
 11
400.0126992968323
 21
457.23700735832432
 31
0.0
  0
ARC
  5
354E
  8
AM_0
 10
429.51284929683231
 20
462.77023735832449
 30
0.0
 40
5.0
 50
272.00000000000358
 51
0.0
  0
LINE
  5
354F
  8
AM_0
 10
567.51279929683255
 20
421.23700735832449
 30
0.0
 11
567.51279929683255
 21
310.2796973583246
 31
0.0
  0
LINE
  5
3550
  8
AM_0
 10
581.51279929683233
 20
421.23700735832449
 30
0.0
 11
581.51279929683233
 21
301.23700235832462
 31
0.0
  0
LINE
  5
3551
  8
AM_0
 10
559.5128492968322
 20
281.21503235832449
 30
0.0
 11
559.5128492968322
 21
329.73016735832448
 31
0.0
  0
ARC
  5
3552
  8
AM_0
 10
562.51279929683255
 20
281.21503235832449
 30
0.0
 40
3.0000000500000001
 50
179.999989999999
 51
271.9999899999948
  0
LINE
  5
3553
  8
AM_0
 10
521.24129929683238
 20
251.67299235832451
 30
0.0
 11
567.51279929683255
 21
278.38785235832449
 31
0.0
  0
LINE
  5
3554
  8
AM_0
 10
450.44299929683223
 20
253.62353735832451
 30
0.0
 11
461.5128492968322
 21
253.23697235832461
 31
0.0
  0
LINE
  5
3555
  8
AM_0
 10
461.5127992968321
 20
253.23698735832451
 30
0.0
 11
521.24134929683225
 21
251.67294735832451
 31
0.0
  0
LINE
  5
3556
  8
AM_0
 10
489.5128492968322
 20
300.4327423583245
 30
0.0
 11
559.5128492968322
 21
300.4327423583245
 31
0.0
  0
LINE
  5
3557
  8
AM_0
 10
489.5128492968322
 20
319.87503735832451
 30
0.0
 11
559.5128492968322
 21
319.87503735832451
 31
0.0
  0
ARC
  5
3558
  8
AM_0
 10
489.5128492968322
 20
310.1539023583245
 30
0.0
 40
9.7211409999999994
 50
90.00000299999769
 51
270.0
  0
LINE
  5
3559
  8
AM_0
 10
489.5128492968322
 20
302.27939235832463
 30
0.0
 11
489.5128492968322
 21
318.37939735832452
 31
0.0
  0
LINE
  5
355A
  8
AM_0
 10
562.61739929683245
 20
278.21686235832448
 30
0.0
 11
577.51269929683235
 21
278.73700235832462
 31
0.0
  0
ARC
  5
355B
  8
AM_0
 10
562.51279929683255
 20
310.2796973583246
 30
0.0
 40
5.0
 50
267.99999999999642
 51
0.0
  0
LINE
  5
355C
  8
AM_0
 10
577.51279929683255
 20
301.23700235832462
 30
0.0
 11
581.51279929683233
 21
301.23700235832462
 31
0.0
  0
ARC
  5
355D
  8
AM_0
 10
564.51284929683231
 20
329.73016735832448
 30
0.0
 40
5.0
 50
90.00000299999769
 51
180.00001000000091
  0
ARC
  5
355E
  8
AM_0
 10
563.12534929683238
 20
441.16016235832421
 30
0.0
 40
5.0
 50
198.30292000000031
 51
270.0
  0
LINE
  5
355F
  8
AM_0
 10
583.51279929683233
 20
442.23703735832453
 30
0.0
 11
653.51279929683233
 21
442.23703735832453
 31
0.0
  0
LINE
  5
3560
  8
AM_0
 10
583.51279929683233
 20
400.23700735832449
 30
0.0
 11
653.51279929683233
 21
400.23700735832449
 31
0.0
  0
LINE
  5
3561
  8
AM_0
 10
597.51279929683255
 20
445.23700735832449
 30
0.0
 11
653.51279929683233
 21
445.23700735832449
 31
0.0
  0
LINE
  5
3562
  8
AM_0
 10
583.51279929683233
 20
398.73700735832472
 30
0.0
 11
583.51279929683233
 21
443.73700735832432
 31
0.0
  0
LINE
  5
3563
  8
AM_0
 10
581.51279929683233
 20
398.73700735832472
 30
0.0
 11
583.51279929683233
 21
398.73700735832472
 31
0.0
  0
LINE
  5
3564
  8
AM_0
 10
563.12534929683238
 20
436.16016235832433
 30
0.0
 11
567.51279929683255
 21
436.16016235832433
 31
0.0
  0
LINE
  5
3565
  8
AM_0
 10
581.51279929683233
 20
443.73700735832432
 30
0.0
 11
583.51279929683233
 21
443.73700735832432
 31
0.0
  0
LINE
  5
3566
  8
AM_0
 10
597.51279929683255
 20
445.23700735832449
 30
0.0
 11
597.51279929683255
 21
442.23703735832453
 31
0.0
  0
LINE
  5
3567
  8
AM_0
 10
653.51279929683233
 20
400.23700735832449
 30
0.0
 11
653.51279929683233
 21
445.23700735832449
 31
0.0
  0
ARC
  5
3568
  8
AM_0
 10
445.5127992968321
 20
533.73700235832405
 30
0.0
 40
20.500000500000009
 50
304.61363999999708
 51
235.38635000000221
  0
CIRCLE
  5
3569
  8
AM_0
 10
445.5127992968321
 20
533.73700235832405
 30
0.0
 40
12.5
  0
ARC
  5
356A
  8
AM_0
 10
445.5127992968321
 20
504.86475235832449
 30
0.0
 40
3.0000000500000001
 50
280.000000000005
 51
0.0
  0
ARC
  5
356B
  8
AM_0
 10
450.51279929683221
 20
510.85170235832419
 30
0.0
 40
2.0000000500000001
 50
91.999997999994008
 51
180.00001000000091
  0
LINE
  5
356C
  8
AM_0
 10
448.51279929683221
 20
504.95430235832453
 30
0.0
 11
524.42329929683217
 21
504.95430235832453
 31
0.0
  0
LINE
  5
356D
  8
AM_0
 10
448.51279929683221
 20
490.49753735832451
 30
0.0
 11
510.57429929683218
 21
490.49753735832451
 31
0.0
  0
LINE
  5
356E
  8
AM_0
 10
445.5126992968323
 20
521.23705235832449
 30
0.0
 11
453.01614929683251
 21
519.85170235832425
 31
0.0
  0
LINE
  5
356F
  8
AM_0
 10
437.69564929683219
 20
519.73705235832415
 30
0.0
 11
453.32984929683238
 21
519.73705235832415
 31
0.0
  0
LINE
  5
3570
  8
AM_0
 10
435.18989929683221
 20
512.73705235832449
 30
0.0
 11
449.84549929683249
 21
512.73705235832449
 31
0.0
  0
ARC
  5
3571
  8
AM_0
 10
437.51279929683221
 20
497.36157735832461
 30
0.0
 40
3.0000000500000001
 50
100.000000000005
 51
180.00001000000091
  0
LINE
  5
3572
  8
AM_0
 10
436.99184929683253
 20
500.31590235832431
 30
0.0
 11
446.0337492968323
 21
501.91030235832449
 31
0.0
  0
ARC
  5
3573
  8
AM_0
 10
431.59579929683218
 20
513.5735023583245
 30
0.0
 40
4.000000049999997
 50
347.9293300000017
 51
55.386359000001512
  0
ARC
  5
3574
  8
AM_0
 10
436.5127992968321
 20
511.23700235832428
 30
0.0
 40
2.0000000500000001
 50
131.40962000000329
 51
180.00001000000091
  0
ARC
  5
3575
  8
AM_0
 10
438.19094929683229
 20
518.86830235832429
 30
0.0
 40
1.0
 50
100.4607199999961
 51
164.99999000000179
  0
LINE
  5
3576
  8
AM_0
 10
438.00939929683233
 20
519.85170235832425
 30
0.0
 11
445.51284929683243
 21
521.23700235832405
 31
0.0
  0
LINE
  5
3577
  8
AM_0
 10
435.51279929683233
 20
512.73700235832416
 30
0.0
 11
437.22499929683249
 21
519.12715235832422
 31
0.0
  0
ARC
  5
3579
  8
AM_0
 10
554.51284929683231
 20
528.77480235832456
 30
0.0
 40
5.0
 50
300.88098000000019
 51
0.0
  0
ARC
  5
357A
  8
AM_0
 10
562.51279929683255
 20
560.21135235832458
 30
0.0
 40
3.0000000500000001
 50
91.999997999994008
 51
180.00001000000091
  0
ARC
  5
357B
  8
AM_0
 10
554.51284929683231
 20
543.30805235832418
 30
0.0
 40
5.0
 50
314.99999999999312
 51
0.0
  0
LINE
  5
357C
  8
AM_0
 10
461.5127992968321
 20
513.23700235832405
 30
0.0
 11
531.40099929683254
 21
515.06715235832439
 31
0.0
  0
ARC
  5
357D
  8
AM_0
 10
452.83469929683218
 20
518.86830235832429
 30
0.0
 40
1.0
 50
15.000000000000741
 51
79.539280999995569
  0
ARC
  5
357E
  8
AM_0
 10
459.42969929683221
 20
513.5735023583245
 30
0.0
 40
4.000000049999997
 50
124.6136499999978
 51
187.86824999999911
  0
LINE
  5
357F
  8
AM_0
 10
455.43574929683223
 20
513.02480235832445
 30
0.0
 11
453.8005992968325
 21
519.12715235832422
 31
0.0
  0
LINE
  5
3580
  8
AM_0
 10
459.5128492968322
 20
513.16720235832418
 30
0.0
 11
459.5128492968322
 21
513.23705235832449
 31
0.0
  0
LINE
  5
3581
  8
AM_0
 10
450.4429492968323
 20
512.85055235832431
 30
0.0
 11
461.51269929683218
 21
513.23705235832449
 31
0.0
  0
LINE
  5
3582
  8
AM_0
 10
459.5128492968322
 20
513.23705235832449
 30
0.0
 11
461.5127992968321
 21
513.23705235832449
 31
0.0
  0
LINE
  5
3583
  8
AM_0
 10
557.36544929683225
 20
518.2406523583245
 30
0.0
 11
515.60729929683225
 21
493.26776735832459
 31
0.0
  0
LINE
  5
3584
  8
AM_0
 10
557.07904929683207
 20
524.48360235832445
 30
0.0
 11
520.02014929683219
 21
502.32100235832422
 31
0.0
  0
LINE
  5
3585
  8
AM_0
 10
513.01279929683233
 20
488.7259273583245
 30
0.0
 11
540.46579929683219
 21
488.7259273583245
 31
0.0
  0
ARC
  5
3586
  8
AM_0
 10
491.7125992968322
 20
515.03210235832455
 30
0.0
 40
30.946884499999999
 50
307.55230999999731
 51
335.59612999999888
  0
ARC
  5
3587
  8
AM_0
 10
513.01279929683233
 20
493.7259273583245
 30
0.0
 40
5.0
 50
229.76333000000639
 51
270.0
  0
LINE
  5
3588
  8
AM_0
 10
543.45554929683215
 20
489.71832735832447
 30
0.0
 11
559.51279929683255
 21
501.6972023583246
 31
0.0
  0
ARC
  5
3589
  8
AM_0
 10
540.46579929683219
 20
493.7259273583245
 30
0.0
 40
5.0
 50
270.0
 51
306.72321000000551
  0
ARC
  5
358A
  8
AM_0
 10
531.27009929683231
 20
520.06535235832439
 30
0.0
 40
5.0
 50
271.50000000000267
 51
314.99999999999312
  0
LINE
  5
358B
  8
AM_0
 10
534.80569929683247
 20
516.52985235832432
 30
0.0
 11
558.04834929683238
 21
539.77255235832445
 31
0.0
  0
LINE
  5
358C
  8
AM_0
 10
534.72049929683237
 20
511.1123523583243
 30
0.0
 11
533.39509929683231
 21
515.11935235832425
 31
0.0
  0
ARC
  5
358E
  8
AM_0
 10
562.51279929683255
 20
532.19430235832431
 30
0.0
 40
5.0
 50
0.0
 51
91.999997999994008
  0
LINE
  5
358F
  8
AM_0
 10
577.51279929683255
 20
541.23700235832428
 30
0.0
 11
581.51279929683233
 21
541.23700235832428
 31
0.0
  0
LINE
  5
3590
  8
AM_0
 10
562.40804929683236
 20
563.20955235832434
 30
0.0
 11
577.51279929683255
 21
563.73700235832405
 31
0.0
  0
CIRCLE
  5
3594
  8
AM_0
 10
937.31382388747477
 20
421.23700735832449
 30
0.0
 40
120.0
  0
CIRCLE
  5
3595
  8
AM_0
 10
937.31382388747477
 20
421.23700735832449
 30
0.0
 40
113.0
  0
ARC
  5
3596
  8
AM_0
 10
897.53940888747479
 20
475.15360235832418
 30
0.0
 40
5.0
 50
225.00000000000691
 51
306.41631999999822
  0
ARC
  5
3597
  8
AM_0
 10
977.08823888747486
 20
475.15360235832418
 30
0.0
 40
5.0
 50
233.58368000000169
 51
314.99999999999312
  0
ARC
  5
3598
  8
AM_0
 10
937.31382388747477
 20
383.23700735832449
 30
0.0
 40
122.0
 50
22.571976999999329
 51
55.326819999998243
  0
ARC
  5
3599
  8
AM_0
 10
937.31382388747477
 20
383.23700735832449
 30
0.0
 40
122.0
 50
124.67318000000169
 51
157.4280199999998
  0
LINE
  5
359A
  8
ﾁｭｳｼﾝｾﾝ
 10
937.31382388747477
 20
568.39078179120065
 30
0.0
 11
937.31382388747477
 21
249.60877184796331
 31
0.0
  0
LINE
  5
359B
  8
AM_0
 10
1016.888803887475
 20
493.7409423583245
 30
0.0
 11
987.69483388747494
 21
464.54697235832452
 31
0.0
  0
LINE
  5
359C
  8
AM_0
 10
857.7388388874748
 20
493.7409423583245
 30
0.0
 11
886.93283888747453
 21
464.5469423583242
 31
0.0
  0
LINE
  5
359D
  8
AM_0
 10
794.81380888747481
 20
471.23700735832449
 30
0.0
 11
794.81380888747481
 21
421.23700735832449
 31
0.0
  0
LINE
  5
359E
  8
AM_0
 10
1079.813838887475
 20
471.23700735832449
 30
0.0
 11
1079.813838887475
 21
421.23700735832449
 31
0.0
  0
ARC
  5
35A0
  8
ﾁｭｳｼﾝｾﾝ
 10
937.31382388747716
 20
421.23700735832148
 30
0.0
 40
170.00000499999641
 50
305.8174912857769
 51
321.01461
  0
ARC
  5
35A1
  8
AM_0
 10
1042.8363438874751
 20
398.23700735832449
 30
0.0
 40
5.0
 50
270.0
 51
347.70395000000082
  0
LINE
  5
35A2
  8
ﾁｭｳｼﾝｾﾝ
 10
788.64802377726392
 20
421.23700735832449
 30
0.0
 11
1085.7102561247041
 21
421.23700735832449
 31
0.0
  0
LINE
  5
35A3
  8
AM_0
 10
1058.985668887475
 20
281.23987235832448
 30
0.0
 11
987.31382388747477
 21
278.73703235832443
 31
0.0
  0
CIRCLE
  5
35A4
  8
AM_0
 10
817.10565888747476
 20
301.02887235832441
 30
0.0
 40
9.5
  0
ARC
  5
35A5
  8
ﾁｭｳｼﾝｾﾝ
 10
937.31382388747136
 20
421.23700735832148
 30
0.0
 40
170.00000499999561
 50
218.7196975924565
 51
231.01461
  0
LINE
  5
35A6
  8
ﾁｭｳｼﾝｾﾝ
 10
806.15417482069643
 20
290.07737268362882
 30
0.0
 11
827.89110644980656
 21
311.81431691007742
 31
0.0
  0
LINE
  5
35A7
  8
AM_0
 10
815.64200888747484
 20
281.23984235832438
 30
0.0
 11
887.31381888747455
 21
278.7370023583245
 31
0.0
  0
LINE
  5
35A8
  8
AM_0
 10
797.31670888747453
 20
299.56518735832452
 30
0.0
 11
794.81380888747481
 21
371.23703735832453
 31
0.0
  0
ARC
  5
35A9
  8
AM_0
 10
816.30506388747483
 20
300.22827735832442
 30
0.0
 40
19.000000499999999
 50
182.0000000000004
 51
267.99999999999642
  0
LINE
  5
35AD
  8
AM_0
 10
794.81380888747481
 20
371.2370023583245
 30
0.0
 11
794.81380888747481
 21
421.23700735832449
 31
0.0
  0
ARC
  5
35AE
  8
AM_0
 10
937.31382388747477
 20
383.23700735832449
 30
0.0
 40
130.0
 50
246.63104000000291
 51
293.368959999997
  0
LINE
  5
35AF
  8
AM_0
 10
887.31381888747455
 20
278.7370023583245
 30
0.0
 11
937.31382388747477
 21
278.7370023583245
 31
0.0
  0
LINE
  5
35B0
  8
AM_0
 10
874.90198388747456
 20
260.99444735832452
 30
0.0
 11
885.74921388747475
 21
263.90094235832453
 31
0.0
  0
LINE
  5
35B1
  8
AM_0
 10
862.65454888747479
 20
268.06552735832452
 30
0.0
 11
859.53519388747486
 21
279.70709735832452
 31
0.0
  0
ARC
  5
35B2
  8
AM_0
 10
872.31381888747455
 20
270.65372235832439
 30
0.0
 40
10.0
 50
195.0000099999981
 51
284.99999999999437
  0
LINE
  5
35B3
  8
AM_0
 10
987.31382388747477
 20
278.7370023583245
 30
0.0
 11
937.31382388747477
 21
278.7370023583245
 31
0.0
  0
LINE
  5
35B4
  8
AM_0
 10
1011.973123887474
 20
268.06549235832438
 30
0.0
 11
1015.092478887475
 21
279.70703735832438
 31
0.0
  0
ARC
  5
35B5
  8
AM_0
 10
1002.313823887475
 20
270.65372235832439
 30
0.0
 40
10.0
 50
255.0000000000056
 51
344.99999999999932
  0
LINE
  5
35B6
  8
AM_0
 10
999.7256888874748
 20
260.99444735832452
 30
0.0
 11
988.87842888747434
 21
263.90094235832453
 31
0.0
  0
LINE
  5
35B7
  8
ﾁｭｳｼﾝｾﾝ
 10
871.5770196545584
 20
355.2370023583245
 30
0.0
 11
1003.050628120391
 21
355.2370023583245
 31
0.0
  0
CIRCLE
  5
35B8
  8
AM_0
 10
937.31382388747477
 20
421.23700735832449
 30
0.0
 40
41.000000499999992
  0
CIRCLE
  5
35B9
  8
AM_5
 10
937.31382388747477
 20
421.23700735832449
 30
0.0
 40
5.0
  0
ARC
  5
35BA
  8
AM_0
 10
937.31382388747477
 20
421.23700735832449
 30
0.0
 40
20.9999985
 50
106.60155000000501
 51
73.398452000004994
  0
LINE
  5
35BB
  8
AM_0
 10
931.31382388747465
 20
437.2370373583243
 30
0.0
 11
943.31382388747431
 21
437.2370373583243
 31
0.0
  0
LINE
  5
35BC
  8
AM_0
 10
931.31382388747465
 20
445.23700735832421
 30
0.0
 11
943.31382388747431
 21
445.23700735832421
 31
0.0
  0
ARC
  5
35BD
  8
AM_0
 10
867.31381888747478
 20
401.23700735832449
 30
0.0
 40
8.0
 50
270.0
 51
0.0
  0
LINE
  5
35BE
  8
AM_0
 10
831.79132888747483
 20
393.23700735832449
 30
0.0
 11
867.31381888747478
 21
393.23700735832449
 31
0.0
  0
ARC
  5
35BF
  8
AM_0
 10
831.79132888747483
 20
398.23700735832449
 30
0.0
 40
5.0
 50
192.2960399999989
 51
270.0
  0
ARC
  5
35C0
  8
AM_0
 10
937.31382388747477
 20
421.23700735832449
 30
0.0
 40
61.999994999999998
 50
142.1149900000006
 51
180.00001000000091
  0
LINE
  5
35C1
  8
AM_0
 10
875.31381888747478
 20
421.23700735832449
 30
0.0
 11
875.31381888747478
 21
401.23700735832449
 31
0.0
  0
ARC
  5
35C2
  8
AM_0
 10
883.39728888747493
 20
461.0114523583245
 30
0.0
 40
5.0
 50
323.58368000000172
 51
45.000000999994569
  0
LINE
  5
35C3
  8
AM_0
 10
931.31382388747465
 20
445.23700735832421
 30
0.0
 11
931.31382388747465
 21
437.2370373583243
 31
0.0
  0
ARC
  5
35C4
  8
AM_0
 10
1007.313823887475
 20
401.23700735832449
 30
0.0
 40
8.0
 50
179.999989999999
 51
270.0
  0
LINE
  5
35C5
  8
AM_0
 10
1042.8363438874751
 20
393.23700735832449
 30
0.0
 11
1007.313823887475
 21
393.23700735832449
 31
0.0
  0
ARC
  5
35C6
  8
AM_0
 10
937.31382388747477
 20
421.23700735832449
 30
0.0
 40
61.999994999999998
 50
0.0
 51
36.416318000003173
  0
CIRCLE
  5
35C7
  8
AM_0
 10
937.31382388747477
 20
421.23700735832449
 30
0.0
 40
3.5000000500000001
  0
LINE
  5
35C8
  8
AM_0
 10
943.31382388747431
 20
445.23700735832421
 30
0.0
 11
943.31382388747431
 21
437.2370373583243
 31
0.0
  0
ARC
  5
35C9
  8
AM_0
 10
991.23038888747442
 20
461.0114523583245
 30
0.0
 40
5.0
 50
134.99999999999301
 51
216.41631999999831
  0
LINE
  5
35CA
  8
AM_0
 10
999.31382388747443
 20
421.23700735832449
 30
0.0
 11
999.31382388747443
 21
401.23700735832449
 31
0.0
  0
LINE
  5
35CB
  8
AM_0
 10
1077.3109988874751
 20
299.56518735832452
 30
0.0
 11
1079.813838887475
 21
371.23703735832453
 31
0.0
  0
ARC
  5
35CC
  8
AM_0
 10
1058.3225838874739
 20
300.22827735832442
 30
0.0
 40
19.000000499999999
 50
272.00000000000358
 51
357.99999999999949
  0
LINE
  5
35CD
  8
ﾁｭｳｼﾝｾﾝ
 10
1069.9119246297009
 20
288.638919911019
 30
0.0
 11
1045.555568028404
 21
312.99528998424643
 31
0.0
  0
CIRCLE
  5
35CE
  8
AM_0
 10
1057.521983887475
 20
301.02887235832441
 30
0.0
 40
9.5
  0
LINE
  5
35CF
  8
AM_0
 10
1079.813838887475
 20
371.2370023583245
 30
0.0
 11
1079.813838887475
 21
421.23700735832449
 31
0.0
  0
LINE
  5
35D1
  8
AM_0
 10
1058.985668887475
 20
561.23420235832441
 30
0.0
 11
987.31385388747435
 21
563.73700235832405
 31
0.0
  0
ARC
  5
35D3
  8
ﾁｭｳｼﾝｾﾝ
 10
937.31382388747193
 20
421.23700735832688
 30
0.0
 40
170.00000499999621
 50
126.14926595409609
 51
141.01461
  0
CIRCLE
  5
35D4
  8
AM_0
 10
817.10565888747476
 20
541.44515235832432
 30
0.0
 40
9.5
  0
LINE
  5
35D5
  8
ﾁｭｳｼﾝｾﾝ
 10
805.79462245484069
 20
552.75623705700059
 30
0.0
 11
828.32487042467585
 21
530.22598257821164
 31
0.0
  0
LINE
  5
35D6
  8
AM_0
 10
815.64200888747484
 20
561.23420235832441
 30
0.0
 11
887.31385388747435
 21
563.73700235832405
 31
0.0
  0
LINE
  5
35D7
  8
AM_0
 10
797.31660888747479
 20
542.90880235832435
 30
0.0
 11
794.81380888747481
 21
471.23703735832453
 31
0.0
  0
ARC
  5
35D8
  8
AM_0
 10
816.30506388747483
 20
542.24575235832435
 30
0.0
 40
19.000000499999999
 50
91.999997999994008
 51
177.9999999999994
  0
ARC
  5
35D9
  8
AM_0
 10
937.31382388747477
 20
421.23700735832449
 30
0.0
 40
61.999994999999998
 50
53.583681000000588
 51
126.41631999999819
  0
ARC
  5
35DA
  8
AM_0
 10
928.81382388747431
 20
528.90200235832435
 30
0.0
 40
5.0
 50
0.0
 51
94.514060999993546
  0
ARC
  5
35DB
  8
AM_0
 10
928.81382388747431
 20
509.95225235832447
 30
0.0
 40
5.0
 50
273.83763000000209
 51
0.0
  0
LINE
  5
35DC
  8
AM_0
 10
887.31381888747455
 20
563.73700235832405
 30
0.0
 11
937.31382388747477
 21
563.73700235832405
 31
0.0
  0
ARC
  5
35DD
  8
AM_0
 10
937.31382388747477
 20
383.23700735832449
 30
0.0
 40
122.0
 50
93.837626000003567
 51
119.8569400000037
  0
LINE
  5
35DE
  8
AM_0
 10
864.80991388747475
 20
500.81200235832409
 30
0.0
 11
894.00391388747482
 21
471.61801735832449
 31
0.0
  0
ARC
  5
35DF
  8
AM_0
 10
868.34543888747476
 20
504.34755235832438
 30
0.0
 40
5.0
 50
129.6872199999944
 51
225.00000000000691
  0
ARC
  5
35E0
  8
AM_0
 10
854.20328388747475
 20
490.20539235832427
 30
0.0
 40
5.0
 50
45.000000999994569
 51
140.31278000000091
  0
ARC
  5
35E4
  8
AM_0
 10
937.31382388747477
 20
383.23700735832449
 30
0.0
 40
122.0
 50
60.143059999996296
 51
86.162372000003657
  0
LINE
  5
35E5
  8
AM_0
 10
1009.817728887475
 20
500.81200235832409
 30
0.0
 11
980.62375888747431
 21
471.6180473583243
 31
0.0
  0
ARC
  5
35E6
  8
AM_0
 10
945.81382388747431
 20
509.95225235832447
 30
0.0
 40
5.0
 50
179.999989999999
 51
266.16235999999441
  0
LINE
  5
35E7
  8
AM_0
 10
940.81382388747477
 20
528.90200235832435
 30
0.0
 11
940.81382388747477
 21
509.95225235832447
 31
0.0
  0
LINE
  5
35E8
  8
AM_0
 10
933.81382388747477
 20
528.90200235832435
 30
0.0
 11
933.81382388747477
 21
509.95225235832447
 31
0.0
  0
ARC
  5
35E9
  8
AM_0
 10
945.81382388747431
 20
528.90200235832435
 30
0.0
 40
5.0
 50
85.485944000000941
 51
180.00001000000091
  0
ARC
  5
35EA
  8
AM_0
 10
1006.282238887475
 20
504.34755235832438
 30
0.0
 40
5.0
 50
314.99999999999312
 51
50.312775000000542
  0
ARC
  5
35EB
  8
AM_0
 10
1020.424358887475
 20
490.20539235832427
 30
0.0
 40
5.0
 50
39.687224000002047
 51
134.99999999999301
  0
LINE
  5
35EC
  8
AM_0
 10
987.31382388747477
 20
563.73700235832405
 30
0.0
 11
937.31382388747477
 21
563.73700235832405
 31
0.0
  0
CIRCLE
  5
35EE
  8
AM_0
 10
1057.521983887475
 20
541.44515235832432
 30
0.0
 40
9.5
  0
ARC
  5
35EF
  8
ﾁｭｳｼﾝｾﾝ
 10
937.31382388746499
 20
421.23700735831488
 30
0.0
 40
170.0000050000134
 50
38.903106396343432
 51
51.014604000000709
  0
LINE
  5
35F0
  8
AM_0
 10
1077.3109988874751
 20
542.90880235832435
 30
0.0
 11
1079.813838887475
 21
471.23703735832453
 31
0.0
  0
LINE
  5
35F1
  8
ﾁｭｳｼﾝｾﾝ
 10
1067.2840573559581
 20
551.20728175500506
 30
0.0
 11
1046.782946210988
 21
530.70614150742495
 31
0.0
  0
ARC
  5
35F2
  8
AM_0
 10
1058.3225838874739
 20
542.24575235832435
 30
0.0
 40
19.000000499999999
 50
2.0000000000004712
 51
87.999999999996405
  0
POINT
  5
35F4
  8
0
 10
110.66838468772769
 20
648.13762203302008
 30
0.0
1001
GENIUS_GENOLIS_13
1002
{
1000
ENT
1005
0
1005
34AA
1005
34CE
1002
}
1001
GENIUS_GENOENT_13
1002
{
1000
MYREF
1005
35F4
1002
}
1002
{
1000
GRP
1005
0
1002
}
1001
GENIUS_GENOBJ-NBEHI-BHB_13
1002
{
1000
OWNER
1000
genbehi
1002
}
1001
GENIUS_GENBH_13
1002
{
1000
FGO
1005
0
1002
}
1001
GENIUS_GENODEF_13
1002
{
1000
HIER
1070
     1
1002
}
1002
{
1000
MANEDIT
1070
     1
1002
}
1002
{
1000
NOSEL
1070
     1
1002
}
1002
{
1000
BEHIND
1070
     0
1002
}
1002
{
1000
OTHER
1070
     1
1002
}
1002
{
1000
REACTOR
1002
}
  0
LINE
  5
375B
  8
AM_0
 10
219.50371129683251
 20
289.63703985832421
 30
0.0
 11
307.51269929683258
 21
289.63703985832421
 31
0.0
  0
TEXT
  5
3ADB
  8
AM_0
 10
826.0792422982563
 20
840.88332988799925
 30
0.0
 40
15.0
  1
VX02-800SF~VX02-K20SF
  0
ENDSEC
  0
EOF
