  0
SECTION
  2
HEADER
  9
$ACADVER
  1
AC1015
  9
$ACADMAINTVER
 70
    20
  9
$DWGCODEPAGE
  3
ANSI_932
  9
$INSBASE
 10
0.0
 20
0.0
 30
0.0
  9
$EXTMIN
 10
218.1155112743324
 20
197.175065608666
 30
-0.0015258207003583
  9
$EXTMAX
 10
657.7847002456951
 20
534.8616040519691
 30
0.0000000349246037
  9
$LIMMIN
 10
0.0
 20
0.0
  9
$LIMMAX
 10
853.5
 20
555.0000000000001
  9
$ORTHOMODE
 70
     0
  9
$REGENMODE
 70
     1
  9
$FILLMODE
 70
     1
  9
$QTEXTMODE
 70
     0
  9
$MIRRTEXT
 70
     1
  9
$LTSCALE
 40
3.0
  9
$ATTMODE
 70
     1
  9
$TEXTSIZE
 40
2.5
  9
$TRACEWID
 40
1.0
  9
$TEXTSTYLE
  7
STANDARD
  9
$CLAYER
  8
AM_0
  9
$CELTYPE
  6
ByLayer
  9
$CECOLOR
 62
   256
  9
$CELTSCALE
 40
1.0
  9
$DISPSILH
 70
     0
  9
$DIMSCALE
 40
1.0
  9
$DIMASZ
 40
2.5
  9
$DIMEXO
 40
1.0
  9
$DIMDLI
 40
8.0
  9
$DIMRND
 40
0.0
  9
$DIMDLE
 40
0.0
  9
$DIMEXE
 40
0.6
  9
$DIMTP
 40
0.1
  9
$DIMTM
 40
0.1
  9
$DIMTXT
 40
2.5
  9
$DIMCEN
 40
0.0
  9
$DIMTSZ
 40
0.0
  9
$DIMTOL
 70
     0
  9
$DIMLIM
 70
     0
  9
$DIMTIH
 70
     0
  9
$DIMTOH
 70
     0
  9
$DIMSE1
 70
     0
  9
$DIMSE2
 70
     0
  9
$DIMTAD
 70
     1
  9
$DIMZIN
 70
     8
  9
$DIMBLK
  1

  9
$DIMASO
 70
     1
  9
$DIMSHO
 70
     1
  9
$DIMPOST
  1

  9
$DIMAPOST
  1
"
  9
$DIMALT
 70
     0
  9
$DIMALTD
 70
     2
  9
$DIMALTF
 40
0.0393701
  9
$DIMLFAC
 40
1.0
  9
$DIMTOFL
 70
     1
  9
$DIMTVP
 40
0.0
  9
$DIMTIX
 70
     0
  9
$DIMSOXD
 70
     0
  9
$DIMSAH
 70
     0
  9
$DIMBLK1
  1

  9
$DIMBLK2
  1

  9
$DIMSTYLE
  2
AM_ISO
  9
$DIMCLRD
 70
   256
  9
$DIMCLRE
 70
   256
  9
$DIMCLRT
 70
     4
  9
$DIMTFAC
 40
0.71
  9
$DIMGAP
 40
0.8
  9
$DIMJUST
 70
     0
  9
$DIMSD1
 70
     0
  9
$DIMSD2
 70
     0
  9
$DIMTOLJ
 70
     0
  9
$DIMTZIN
 70
     8
  9
$DIMALTZ
 70
     0
  9
$DIMALTTZ
 70
     0
  9
$DIMUPT
 70
     0
  9
$DIMDEC
 70
     2
  9
$DIMTDEC
 70
     2
  9
$DIMALTU
 70
     2
  9
$DIMALTTD
 70
     2
  9
$DIMTXSTY
  7
STANDARD
  9
$DIMAUNIT
 70
     0
  9
$DIMADEC
 70
     0
  9
$DIMALTRND
 40
0.0
  9
$DIMAZIN
 70
     2
  9
$DIMDSEP
 70
    46
  9
$DIMATFIT
 70
     3
  9
$DIMFRAC
 70
     0
  9
$DIMLDRBLK
  1

  9
$DIMLUNIT
 70
     2
  9
$DIMLWD
 70
    -1
  9
$DIMLWE
 70
    -1
  9
$DIMTMOVE
 70
     0
  9
$LUNITS
 70
     2
  9
$LUPREC
 70
     2
  9
$SKETCHINC
 40
1.0
  9
$FILLETRAD
 40
5.0
  9
$AUNITS
 70
     0
  9
$AUPREC
 70
     0
  9
$MENU
  1
.
  9
$ELEVATION
 40
0.0
  9
$PELEVATION
 40
0.0
  9
$THICKNESS
 40
0.0
  9
$LIMCHECK
 70
     0
  9
$CHAMFERA
 40
6.0
  9
$CHAMFERB
 40
3.0
  9
$CHAMFERC
 40
20.0
  9
$CHAMFERD
 40
0.0
  9
$SKPOLY
 70
     0
  9
$TDCREATE
 40
2452065.605619213
  9
$TDUCREATE
 40
2452065.230619213
  9
$TDUPDATE
 40
2454770.727867766
  9
$TDUUPDATE
 40
2454770.352867766
  9
$TDINDWG
 40
0.4186890162
  9
$TDUSRTIMER
 40
0.4186884722
  9
$USRTIMER
 70
     1
  9
$ANGBASE
 50
0.0
  9
$ANGDIR
 70
     0
  9
$PDMODE
 70
     0
  9
$PDSIZE
 40
0.0
  9
$PLINEWID
 40
0.0
  9
$SPLFRAME
 70
     0
  9
$SPLINETYPE
 70
     6
  9
$SPLINESEGS
 70
     8
  9
$HANDSEED
  5
3466
  9
$SURFTAB1
 70
     6
  9
$SURFTAB2
 70
     6
  9
$SURFTYPE
 70
     6
  9
$SURFU
 70
     6
  9
$SURFV
 70
     6
  9
$UCSBASE
  2

  9
$UCSNAME
  2

  9
$UCSORG
 10
0.0
 20
0.0
 30
0.0
  9
$UCSXDIR
 10
1.0
 20
0.0
 30
0.0
  9
$UCSYDIR
 10
0.0
 20
1.0
 30
0.0
  9
$UCSORTHOREF
  2

  9
$UCSORTHOVIEW
 70
     0
  9
$UCSORGTOP
 10
0.0
 20
0.0
 30
0.0
  9
$UCSORGBOTTOM
 10
0.0
 20
0.0
 30
0.0
  9
$UCSORGLEFT
 10
0.0
 20
0.0
 30
0.0
  9
$UCSORGRIGHT
 10
0.0
 20
0.0
 30
0.0
  9
$UCSORGFRONT
 10
0.0
 20
0.0
 30
0.0
  9
$UCSORGBACK
 10
0.0
 20
0.0
 30
0.0
  9
$PUCSBASE
  2

  9
$PUCSNAME
  2

  9
$PUCSORG
 10
0.0
 20
0.0
 30
0.0
  9
$PUCSXDIR
 10
1.0
 20
0.0
 30
0.0
  9
$PUCSYDIR
 10
0.0
 20
1.0
 30
0.0
  9
$PUCSORTHOREF
  2

  9
$PUCSORTHOVIEW
 70
     0
  9
$PUCSORGTOP
 10
0.0
 20
0.0
 30
0.0
  9
$PUCSORGBOTTOM
 10
0.0
 20
0.0
 30
0.0
  9
$PUCSORGLEFT
 10
0.0
 20
0.0
 30
0.0
  9
$PUCSORGRIGHT
 10
0.0
 20
0.0
 30
0.0
  9
$PUCSORGFRONT
 10
0.0
 20
0.0
 30
0.0
  9
$PUCSORGBACK
 10
0.0
 20
0.0
 30
0.0
  9
$USERI1
 70
     0
  9
$USERI2
 70
     0
  9
$USERI3
 70
     0
  9
$USERI4
 70
     0
  9
$USERI5
 70
     0
  9
$USERR1
 40
0.0
  9
$USERR2
 40
0.0
  9
$USERR3
 40
0.0
  9
$USERR4
 40
0.0
  9
$USERR5
 40
0.0
  9
$WORLDVIEW
 70
     1
  9
$SHADEDGE
 70
     3
  9
$SHADEDIF
 70
    70
  9
$TILEMODE
 70
     1
  9
$MAXACTVP
 70
    64
  9
$PINSBASE
 10
0.0
 20
0.0
 30
0.0
  9
$PLIMCHECK
 70
     0
  9
$PEXTMIN
 10
1.000000000000000E+20
 20
1.000000000000000E+20
 30
1.000000000000000E+20
  9
$PEXTMAX
 10
-1.000000000000000E+20
 20
-1.000000000000000E+20
 30
-1.000000000000000E+20
  9
$PLIMMIN
 10
0.0
 20
0.0
  9
$PLIMMAX
 10
420.0
 20
297.0
  9
$UNITMODE
 70
     0
  9
$VISRETAIN
 70
     1
  9
$PLINEGEN
 70
     0
  9
$PSLTSCALE
 70
     1
  9
$TREEDEPTH
 70
  3020
  9
$CMLSTYLE
  2
Standard
  9
$CMLJUST
 70
     0
  9
$CMLSCALE
 40
20.0
  9
$PROXYGRAPHICS
 70
     1
  9
$MEASUREMENT
 70
     1
  9
$CELWEIGHT
370
    -1
  9
$ENDCAPS
280
     0
  9
$JOINSTYLE
280
     0
  9
$LWDISPLAY
290
     0
  9
$INSUNITS
 70
     4
  9
$HYPERLINKBASE
  1

  9
$STYLESHEET
  1
ACAD1.CTB
  9
$XEDIT
290
     1
  9
$CEPSNTYPE
380
     0
  9
$PSTYLEMODE
290
     1
  9
$FINGERPRINTGUID
  2
{91B11402-3528-11D5-BE34-000255C217F4}
  9
$VERSIONGUID
  2
{230175E9-6CE6-4FE5-A0E0-EC61D683A0B9}
  9
$EXTNAMES
290
     1
  9
$PSVPSCALE
 40
0.0
  9
$OLESTARTUP
290
     0
  0
ENDSEC
  0
SECTION
  2
CLASSES
  0
CLASS
  1
ACDBDICTIONARYWDFLT
  2
AcDbDictionaryWithDefault
  3
ObjectDBX Classes
 90
        0
280
     0
281
     0
  0
CLASS
  1
ACDBPLACEHOLDER
  2
AcDbPlaceHolder
  3
ObjectDBX Classes
 90
        0
280
     0
281
     0
  0
CLASS
  1
LAYOUT
  2
AcDbLayout
  3
ObjectDBX Classes
 90
        0
280
     0
281
     0
  0
CLASS
  1
AMGSETTINGSOBJ
  2
AmgSettingsObj
  3
"AcadM|Product Description: AutoCAD Mechanical 2000|Company: Autodesk"
 90
        0
280
     0
281
     0
  0
CLASS
  1
ACME_DOCUMENT
  2
AcMeDbDoc
  3
AcMeServices
 90
        0
280
     0
281
     0
  0
CLASS
  1
ACMESCOPE
  2
AcMeScope
  3
AcMeServices
 90
        0
280
     0
281
     0
  0
CLASS
  1
ACMECOMMANDHISTORY
  2
AcMeCommandHistory
  3
AcMeServices
 90
        0
280
     0
281
     0
  0
CLASS
  1
DICTIONARYVAR
  2
AcDbDictionaryVar
  3
ObjectDBX Classes
 90
        0
280
     0
281
     0
  0
CLASS
  1
ACIMSYSVARMAN
  2
AcImSysVarManager
  3
AcMeServices
 90
        0
280
     0
281
     0
  0
CLASS
  1
ACIMREALSYSVAR
  2
AcImRealSysVar
  3
AcMeServices
 90
        0
280
     0
281
     0
  0
CLASS
  1
ACIMINTSYSVAR
  2
AcImIntSysVar
  3
AcMeServices
 90
        0
280
     0
281
     0
  0
CLASS
  1
ACMEDRAWINGMAN
  2
AcMeDrawingMan
  3
AcMeServices
 90
        0
280
     0
281
     0
  0
CLASS
  1
ACMEVIEW
  2
AcMeView
  3
AcMeServices
 90
        0
280
     0
281
     0
  0
CLASS
  1
ACDBENTITYCACHE
  2
AcMeEntityCache
  3
AcMeServices
 90
        0
280
     0
281
     0
  0
CLASS
  1
GSMANAGER
  2
AcMeGSManager
  3
AcMeServices
 90
        0
280
     0
281
     0
  0
CLASS
  1
AMDTINTERNALREACTOR
  2
AmdtInternalReactor
  3
AcMeServices
 90
        0
280
     0
281
     0
  0
CLASS
  1
ACMESTATEMGR
  2
AcMeStateMgr
  3
AcMeServices
 90
        0
280
     0
281
     0
  0
CLASS
  1
ACGREFMASTER
  2
AcGrefMaster
  3
AcAttribServices
 90
        0
280
     0
281
     0
  0
CLASS
  1
ACME_DATABASE
  2
AcMeDbDatabase
  3
AcMeServices
 90
        0
280
     0
281
     0
  0
CLASS
  1
ACRFINSADJUSTERMGR
  2
AcRfInsAdjusterMgr
  3
AcMeServices
 90
        0
280
     0
281
     0
  0
CLASS
  1
ACGREFACADMASTER
  2
AcGrefacadMaster
  3
AcGrefServices
 90
        0
280
     0
281
     0
  0
CLASS
  1
AMIMASTER
  2
AmiMaster
  3
AmiServices
 90
        0
280
     0
281
     0
  0
CLASS
  1
ACMDATADICTIONARY
  2
AcmDataDictionary
  3
"AcmSymBB|Product Description: AutoCAD Mechanical 2004 DX|Company: Autodesk"
 90
        0
280
     0
281
     0
  0
CLASS
  1
ACMDATAENTRYBLOCK
  2
AcmDataEntryBlock
  3
"AcmSymBB|Product Description: AutoCAD Mechanical 2004 DX|Company: Autodesk"
 90
    32768
280
     0
281
     0
  0
CLASS
  1
ACIMSTRSYSVAR
  2
AcImStrSysVar
  3
AcMeServices
 90
        0
280
     0
281
     0
  0
CLASS
  1
ACMSTANDARDISO
  2
AcmStandardISO
  3
"Amdt_StdImp|Product Description: AutoCAD Mechanical 2004 DX|Company: Autodesk"
 90
        0
280
     0
281
     0
  0
CLASS
  1
AMGOBJPROPCFG
  2
AmgObjPropCfg
  3
"AmgLay|Product Description: AutoCAD Mechanical 2000|Company: Autodesk"
 90
        1
280
     0
281
     0
  0
CLASS
  1
AMDTEDGESTANDARDISO
  2
AmdtEdgeStdISO
  3
"Amdt_StdImp|Product Description: AutoCAD Mechanical 2004 DX|Company: Autodesk"
 90
    32768
280
     0
281
     0
  0
CLASS
  1
ACMSURFSTANDARDISO
  2
AcmSurfTextStdISO
  3
"Amdt_StdImp|Product Description: AutoCAD Mechanical 2004 DX|Company: Autodesk"
 90
        0
280
     0
281
     0
  0
CLASS
  1
ACMFCFSTANDARDISO
  2
AcmFCFStdISO
  3
"Amdt_StdImp|Product Description: AutoCAD Mechanical 2004 DX|Company: Autodesk"
 90
        0
280
     0
281
     0
  0
CLASS
  1
ACMWELDSTANDARDISO
  2
AcmWeldingStdISO
  3
"Amdt_StdImp|Product Description: AutoCAD Mechanical 2004 DX|Company: Autodesk"
 90
        0
280
     0
281
     0
  0
CLASS
  1
ACMIDSTANDARDISO
  2
AcmIdStdISO
  3
"Amdt_StdImp|Product Description: AutoCAD Mechanical 2004 DX|Company: Autodesk"
 90
        0
280
     0
281
     0
  0
CLASS
  1
ACMDATUMSTANDARDISO
  2
AcmDatumStdISO
  3
"Amdt_StdImp|Product Description: AutoCAD Mechanical 2004 DX|Company: Autodesk"
 90
        0
280
     0
281
     0
  0
CLASS
  1
ACMBOMSTANDARDISO
  2
AcmBOMStdISO
  3
"Amdt_StdImp|Product Description: AutoCAD Mechanical 2004 DX|Company: Autodesk"
 90
        0
280
     0
281
     0
  0
CLASS
  1
ACMDETAILSTANDARDISO
  2
AmdtDetailSymStdISO
  3
"Amdt_StdImp|Product Description: AutoCAD Mechanical 2004 DX|Company: Autodesk"
 90
        0
280
     0
281
     0
  0
CLASS
  1
ACMSECTIONSTANDARDISO
  2
AmdtSectionSymStdISO
  3
"Amdt_StdImp|Product Description: AutoCAD Mechanical 2004 DX|Company: Autodesk"
 90
        0
280
     0
281
     0
  0
CLASS
  1
ACMCENTERLINESTANDARDISO
  2
AmdtCenterLineStdISO
  3
"Amdt_StdImp|Product Description: AutoCAD Mechanical 2004 DX|Company: Autodesk"
 90
        0
280
     0
281
     0
  0
CLASS
  1
ACAMGLAYSTD
  2
AcAmgLayStd
  3
"AcAmgLayStd|Product Description: AutoCAD Mechanical 2000|Company: Autodesk"
 90
        0
280
     0
281
     0
  0
CLASS
  1
ACAMGDIMSTD
  2
AcAmgDimStd
  3
"AcAmgDimStd|Product Description: AutoCAD Mechanical 2000|Company: Autodesk"
 90
        0
280
     0
281
     0
  0
CLASS
  1
ACAMGTITLESTD
  2
AcAmgTitleStd
  3
"TITLEAPP"
 90
        0
280
     0
281
     0
  0
CLASS
  1
ACAMGFILTERDAT
  2
AcAmgFilterDat
  3
"AcadM|Product Description: AutoCAD Mechanical 2000|Company: Autodesk"
 90
    32768
280
     0
281
     0
  0
CLASS
  1
AMDTFORMULAUPDATEDISPATCHER
  2
AmdtFormulaUpdateDispatcher
  3
AcMeServices
 90
    32768
280
     0
281
     0
  0
CLASS
  1
LAYER_INDEX
  2
AcDbLayerIndex
  3
ObjectDBX Classes
 90
    32768
280
     0
281
     0
  0
CLASS
  1
IDBUFFER
  2
AcDbIdBuffer
  3
ObjectDBX Classes
 90
    32768
280
     0
281
     0
  0
CLASS
  1
PLOTSETTINGS
  2
AcDbPlotSettings
  3
ObjectDBX Classes
 90
        0
280
     0
281
     0
  0
CLASS
  1
ACMSTANDARDANSI
  2
AcmStandardANSI
  3
"Amdt_StdImp|Product Description: AutoCAD Mechanical 2004 DX|Company: Autodesk"
 90
        0
280
     0
281
     0
  0
CLASS
  1
ACMSURFSTANDARDANSI
  2
AcmSurfTextStdANSI
  3
"Amdt_StdImp|Product Description: AutoCAD Mechanical 2004 DX|Company: Autodesk"
 90
        0
280
     0
281
     0
  0
CLASS
  1
ACMFCFSTANDARDANSI
  2
AcmFCFStdANSI
  3
"Amdt_StdImp|Product Description: AutoCAD Mechanical 2004 DX|Company: Autodesk"
 90
        0
280
     0
281
     0
  0
CLASS
  1
ACMWELDSTANDARDANSI
  2
AcmWeldingStdANSI
  3
"Amdt_StdImp|Product Description: AutoCAD Mechanical 2004 DX|Company: Autodesk"
 90
        0
280
     0
281
     0
  0
CLASS
  1
ACMIDSTANDARDANSI
  2
AcmIdStdANSI
  3
"Amdt_StdImp|Product Description: AutoCAD Mechanical 2004 DX|Company: Autodesk"
 90
        0
280
     0
281
     0
  0
CLASS
  1
ACMDATUMSTANDARDANSI
  2
AcmDatumStdANSI
  3
"Amdt_StdImp|Product Description: AutoCAD Mechanical 2004 DX|Company: Autodesk"
 90
        0
280
     0
281
     0
  0
CLASS
  1
ACMBOMSTANDARDANSI
  2
AcmBOMStdANSI
  3
"Amdt_StdImp|Product Description: AutoCAD Mechanical 2004 DX|Company: Autodesk"
 90
        0
280
     0
281
     0
  0
CLASS
  1
ACMDETAILSTANDARDANSI
  2
AmdtDetailSymStdANSI
  3
"Amdt_StdImp|Product Description: AutoCAD Mechanical 2004 DX|Company: Autodesk"
 90
        0
280
     0
281
     0
  0
CLASS
  1
ACMSECTIONSTANDARDANSI
  2
AmdtSectionSymStdANSI
  3
"Amdt_StdImp|Product Description: AutoCAD Mechanical 2004 DX|Company: Autodesk"
 90
        0
280
     0
281
     0
  0
CLASS
  1
ACMCENTERLINESTANDARDANSI
  2
AmdtCenterLineStdANSI
  3
"Amdt_StdImp|Product Description: AutoCAD Mechanical 2004 DX|Company: Autodesk"
 90
        0
280
     0
281
     0
  0
CLASS
  1
ACMSTANDARDJIS
  2
AcmStandardJIS
  3
"Amdt_StdImp|Product Description: AutoCAD Mechanical 2004 DX|Company: Autodesk"
 90
        0
280
     0
281
     0
  0
CLASS
  1
ACMSURFSTANDARDJIS
  2
AcmSurfTextStdJIS
  3
"Amdt_StdImp|Product Description: AutoCAD Mechanical 2004 DX|Company: Autodesk"
 90
        0
280
     0
281
     0
  0
CLASS
  1
ACMFCFSTANDARDJIS
  2
AcmFCFStdJIS
  3
"Amdt_StdImp|Product Description: AutoCAD Mechanical 2004 DX|Company: Autodesk"
 90
    32768
280
     0
281
     0
  0
CLASS
  1
ACMWELDSTANDARDJIS
  2
AcmWeldingStdJIS
  3
"Amdt_StdImp|Product Description: AutoCAD Mechanical 2004 DX|Company: Autodesk"
 90
        0
280
     0
281
     0
  0
CLASS
  1
ACMIDSTANDARDJIS
  2
AcmIdStdJIS
  3
"Amdt_StdImp|Product Description: AutoCAD Mechanical 2004 DX|Company: Autodesk"
 90
        0
280
     0
281
     0
  0
CLASS
  1
ACMDATUMSTANDARDJIS
  2
AcmDatumStdJIS
  3
"Amdt_StdImp|Product Description: AutoCAD Mechanical 2004 DX|Company: Autodesk"
 90
        0
280
     0
281
     0
  0
CLASS
  1
ACMBOMSTANDARDJIS
  2
AcmBOMStdJIS
  3
"Amdt_StdImp|Product Description: AutoCAD Mechanical 2004 DX|Company: Autodesk"
 90
        0
280
     0
281
     0
  0
CLASS
  1
ACMDETAILSTANDARDJIS
  2
AmdtDetailSymStdJIS
  3
"Amdt_StdImp|Product Description: AutoCAD Mechanical 2004 DX|Company: Autodesk"
 90
        0
280
     0
281
     0
  0
CLASS
  1
ACMSECTIONSTANDARDJIS
  2
AmdtSectionSymStdJIS
  3
"Amdt_StdImp|Product Description: AutoCAD Mechanical 2004 DX|Company: Autodesk"
 90
        0
280
     0
281
     0
  0
CLASS
  1
ACMCENTERLINESTANDARDJIS
  2
AmdtCenterLineStdJIS
  3
"Amdt_StdImp|Product Description: AutoCAD Mechanical 2004 DX|Company: Autodesk"
 90
        0
280
     0
281
     0
  0
CLASS
  1
TABLESTYLE
  2
AcDbTableStyle
  3
ObjectDBX Classes
 90
     2047
280
     0
281
     0
  0
CLASS
  1
AM_DRAWING_MGR
  2
AcDmDwgMgr
  3
AcMechDwgViewMgmt
 90
        0
280
     0
281
     0
  0
CLASS
  1
AM_DWG_DOCUMENT
  2
AcDmDwgDocument
  3
AcMechDwgViewMgmt
 90
        0
280
     0
281
     0
  0
CLASS
  1
AM_DWG_SHEET
  2
AcDmSheet
  3
AcMechDwgViewMgmt
 90
        0
280
     0
281
     0
  0
CLASS
  1
AM_VIEWDIMPARMAP
  2
AcDmViewDimParMap
  3
AcMechDwgViewMgmt
 90
        0
280
     0
281
     0
  0
CLASS
  1
AM_DWGMGR_NAME
  2
AcDmDwgMgrName
  3
AcMechDwgViewMgmt
 90
        0
280
     0
281
     0
  0
CLASS
  1
AMDTMENUSTATEMGR
  2
AmdtMenuStateMgr
  3
McadcomServices
 90
        0
280
     0
281
     0
  0
CLASS
  1
AMDTMCOMMENUSTATE
  2
AmdtMcomMenuState
  3
McadcomServices
 90
        0
280
     0
281
     0
  0
CLASS
  1
MAPIAMMOUDLE
  2
MApiAmModule
  3
MApiAmServices
 90
        0
280
     0
281
     0
  0
CLASS
  1
AMDTADMENUSTATE
  2
AmdtAdMenuState
  3
DesignerServices
 90
        0
280
     0
281
     0
  0
CLASS
  1
ADAPPL
  2
AcAdAppl
  3
DesignerServices
 90
        0
280
     0
281
     0
  0
CLASS
  1
DEPMGR
  2
AcAdDepMgr
  3
DesignerServices
 90
        0
280
     0
281
     0
  0
CLASS
  1
PARAMMGR
  2
AcAdParamMgr
  3
DesignerServices
 90
        0
280
     0
281
     0
  0
CLASS
  1
PARAMSCOPE
  2
AcAdParamScope
  3
DesignerServices
 90
        0
280
     0
281
     0
  0
CLASS
  1
NAMEDAPPL
  2
AcAdNamedAppl
  3
DesignerServices
 90
        0
280
     0
281
     0
  0
CLASS
  1
AMDTDMMENUSTATE
  2
AmdtDmMenuState
  3
AcMechDwgViewMgmt
 90
        0
280
     0
281
     0
  0
CLASS
  1
AMDTAMMENUSTATE
  2
AmdtAmMenuState
  3
DesignerAssemblies
 90
        0
280
     0
281
     0
  0
CLASS
  1
ACAMPROJECT
  2
AcAmProject
  3
DesignerAssemblies
 90
        0
280
     0
281
     0
  0
CLASS
  1
ACAMGRCOMPDEF
  2
AcAmGrCompDef
  3
DesignerAssemblies
 90
        0
280
     0
281
     0
  0
CLASS
  1
ACCMCONTEXT
  2
AcCmContext
  3
DesignerAssemblies
 90
        0
280
     0
281
     0
  0
CLASS
  1
ACAMCOMPDEF
  2
AcAmCompDef
  3
DesignerAssemblies
 90
        0
280
     0
281
     0
  0
CLASS
  1
ACAMCOMPDEFMGR
  2
AcAmCompDefMgr
  3
DesignerAssemblies
 90
        0
280
     0
281
     0
  0
CLASS
  1
AMCONTEXTMGR
  2
AcAmContextMgr
  3
DesignerAssemblies
 90
        0
280
     0
281
     0
  0
CLASS
  1
ACAMCONTEXTMODELER
  2
AcAmContextModeler
  3
DesignerAssemblies
 90
        0
280
     0
281
     0
  0
CLASS
  1
ACMTHREADLINESTANDARDISO
  2
AmdtThreadLineStdISO
  3
"Amdt_StdImp|Product Description: AutoCAD Mechanical 2004 DX|Company: Autodesk"
 90
        0
280
     0
281
     0
  0
CLASS
  1
ACMNOTESTANDARDISO
  2
AmdtNoteStdISO
  3
"Amdt_StdImp|Product Description: AutoCAD Mechanical 2004 DX|Company: Autodesk"
 90
        0
280
     0
281
     0
  0
CLASS
  1
AMDTNOTETEMPLATEDB
  2
AmdtNoteTemplateDB
  3
AMDT_STDIMP_MODULE_NAME
 90
        0
280
     0
281
     0
  0
CLASS
  1
ACMTHREADLINESTANDARDANSI
  2
AmdtThreadLineStdANSI
  3
"Amdt_StdImp|Product Description: AutoCAD Mechanical 2004 DX|Company: Autodesk"
 90
        0
280
     0
281
     0
  0
CLASS
  1
ACMNOTESTANDARDANSI
  2
AmdtNoteStdANSI
  3
"Amdt_StdImp|Product Description: AutoCAD Mechanical 2004 DX|Company: Autodesk"
 90
        0
280
     0
281
     0
  0
CLASS
  1
ACMTHREADLINESTANDARDJIS
  2
AmdtThreadLineStdJIS
  3
"Amdt_StdImp|Product Description: AutoCAD Mechanical 2004 DX|Company: Autodesk"
 90
        0
280
     0
281
     0
  0
CLASS
  1
ACMNOTESTANDARDJIS
  2
AmdtNoteStdJIS
  3
"Amdt_StdImp|Product Description: AutoCAD Mechanical 2004 DX|Company: Autodesk"
 90
        0
280
     0
281
     0
  0
CLASS
  1
CATALOGSTATE
  2
AcAmCatalogState
  3
DesignerAssemblies
 90
        0
280
     0
281
     0
  0
CLASS
  1
ACAMGRCOMPDEFSET
  2
AcAmGrCompDefSet
  3
DesignerAssemblies
 90
        0
280
     0
281
     0
  0
CLASS
  1
AMDTBROWSERDBTAB
  2
AmdtBrowserDbTab
  3
McadcomServices
 90
        0
280
     0
281
     0
  0
CLASS
  1
CBROWSERAPPOBJECT
  2
CBrowserAppObject
  3
McadcomServices
 90
        0
280
     0
281
     0
  0
CLASS
  1
DM_PLACEHOLDER
  2
AcDmSelsetPlaceholder
  3
AcMechDwgViewMgmt
 90
        0
280
     0
281
     0
  0
CLASS
  1
DIMASSOC
  2
AcDbDimAssoc
  3
"AcDbDimAssoc|Product Desc:     AcDim ARX App For Dimension|Company:          Autodesk, Inc.|WEB Address:      www.autodesk.com"
 90
    32768
280
     0
281
     0
  0
CLASS
  1
SORTENTSTABLE
  2
AcDbSortentsTable
  3
ObjectDBX Classes
 90
        0
280
     0
281
     0
  0
CLASS
  1
STDPART2D
  2
AmgStdPart
  3
"AmgStdPart|Product Description: AutoCAD Mechanical 2000|Company: Autodesk"
 90
    33791
280
     0
281
     1
  0
CLASS
  1
AMDTNOTE
  2
AmdtNote
  3
"AcmSymBB|Product Description: AutoCAD Mechanical 2004 DX|Company: Autodesk"
 90
    33791
280
     0
281
     1
  0
CLASS
  1
ACRFATTGENMGR
  2
AcRfAttGeneralMgr
  3
AcAttribServices
 90
        0
280
     0
281
     0
  0
CLASS
  1
AMDTEDGESTANDARDISO13715
  2
AmdtEdgeStdISO13715
  3
"Amdt_StdImp|Product Description: AutoCAD Mechanical 2004 DX|Company: Autodesk"
 90
        0
280
     0
281
     0
  0
CLASS
  1
ACAMGHOLECHARTSTDISO
  2
AcAmgHoleChartStdISO
  3
ACMSYMBB_MODULE_NAME
 90
        0
280
     0
281
     0
  0
CLASS
  1
ACAMGHOLECHARTSTDANSI
  2
AcAmgHoleChartStdANSI
  3
ACMSYMBB_MODULE_NAME
 90
        0
280
     0
281
     0
  0
CLASS
  1
ACMFCFSTANDARDJIS98
  2
AcmFCFStdJIS98
  3
"Amdt_StdImp|Product Description: AutoCAD Mechanical 2004 DX|Company: Autodesk"
 90
        0
280
     0
281
     0
  0
CLASS
  1
ACAMGHOLECHARTSTDJIS
  2
AcAmgHoleChartStdJIS
  3
ACMSYMBB_MODULE_NAME
 90
        0
280
     0
281
     0
  0
ENDSEC
  0
SECTION
  2
TABLES
  0
TABLE
  2
VPORT
  5
8
330
0
100
AcDbSymbolTable
 70
    40
  0
VPORT
  5
344F
330
8
100
AcDbSymbolTableRecord
100
AcDbViewportTableRecord
  2
*Active
 70
     0
 10
0.0
 20
0.0
 11
1.0
 21
1.0
 12
437.9501057600138
 22
366.0183348303176
 13
0.0
 23
0.0
 14
7.5
 24
7.5
 15
30.0
 25
30.0
 16
0.0
 26
0.0
 36
1.0
 17
0.0
 27
0.0
 37
0.0
 40
340.1604324978328
 41
1.475550122249388
 42
50.0
 43
0.0
 44
0.0
 50
0.0
 51
0.0
 71
     0
 72
   100
 73
     1
 74
     3
 75
     0
 76
     0
 77
     0
 78
     0
281
     0
 65
     0
110
0.0
120
0.0
130
0.0
111
1.0
121
0.0
131
0.0
112
0.0
122
1.0
132
0.0
 79
     0
146
0.0
  0
ENDTAB
  0
TABLE
  2
LTYPE
  5
5
330
0
100
AcDbSymbolTable
 70
    20
  0
LTYPE
  5
14
330
5
100
AcDbSymbolTableRecord
100
AcDbLinetypeTableRecord
  2
ByBlock
 70
     0
  3

 72
    65
 73
     0
 40
0.0
  0
LTYPE
  5
15
330
5
100
AcDbSymbolTableRecord
100
AcDbLinetypeTableRecord
  2
ByLayer
 70
     0
  3

 72
    65
 73
     0
 40
0.0
  0
LTYPE
  5
16
330
5
100
AcDbSymbolTableRecord
100
AcDbLinetypeTableRecord
  2
Continuous
 70
     0
  3
Solid line
 72
    65
 73
     0
 40
0.0
  0
LTYPE
  5
6D6
330
5
100
AcDbSymbolTableRecord
100
AcDbLinetypeTableRecord
  2
GEN3B
 70
     0
  3
 - - - - -
 72
    65
 73
     2
 40
1.0
 49
0.5
 74
     0
 49
-0.5
 74
     0
  0
LTYPE
  5
6D8
330
5
100
AcDbSymbolTableRecord
100
AcDbLinetypeTableRecord
  2
GEN7A
 70
     0
  3
__ . __ . __
 72
    65
 73
     4
 40
7.375
 49
4.75
 74
     0
 49
-0.875
 74
     0
 49
0.875
 74
     0
 49
-0.875
 74
     0
  0
LTYPE
  5
2F7A
330
5
100
AcDbSymbolTableRecord
100
AcDbLinetypeTableRecord
  2
HIDDEN
 70
     0
  3
Hidden __ __ __ __ __ __ __ __ __ __ __ __ __ _
 72
    65
 73
     2
 40
9.524999999999996
 49
6.349999999999997
 74
     0
 49
-3.174999999999998
 74
     0
  0
LTYPE
  5
2F7B
330
5
100
AcDbSymbolTableRecord
100
AcDbLinetypeTableRecord
  2
PHANTOM2
 70
     0
  3
Phantom (.5x) ___ _ _ ___ _ _ ___ _ _ ___ _ _
 72
    65
 73
     6
 40
31.75
 49
15.875
 74
     0
 49
-3.174999999999998
 74
     0
 49
3.174999999999998
 74
     0
 49
-3.174999999999998
 74
     0
 49
3.174999999999998
 74
     0
 49
-3.174999999999998
 74
     0
  0
LTYPE
  5
2F7C
330
5
100
AcDbSymbolTableRecord
100
AcDbLinetypeTableRecord
  2
CENTER
 70
     0
  3
Center ____ _ ____ _ ____ _ ____ _ ____ _ ____
 72
    65
 73
     4
 40
50.8
 49
31.75
 74
     0
 49
-6.349999999999997
 74
     0
 49
6.349999999999997
 74
     0
 49
-6.349999999999997
 74
     0
  0
LTYPE
  5
2FA9
330
5
100
AcDbSymbolTableRecord
100
AcDbLinetypeTableRecord
  2
AM_ISO02W050
 70
     0
  3
__ __ __ __ __ __ __ __ __ __ __ __ __ __ __
 72
    65
 73
     2
 40
7.5
 49
6.0
 74
     0
 49
-1.5
 74
     0
  0
LTYPE
  5
2FAA
330
5
100
AcDbSymbolTableRecord
100
AcDbLinetypeTableRecord
  2
AM_ISO08W050
 70
     0
  3
____ . ____ . ____ . ____ . ____ . ____ . ____
 72
    65
 73
     4
 40
18.0
 49
12.0
 74
     0
 49
-1.5
 74
     0
 49
3.0
 74
     0
 49
-1.5
 74
     0
  0
LTYPE
  5
2FAB
330
5
100
AcDbSymbolTableRecord
100
AcDbLinetypeTableRecord
  2
AM_ISO09W050
 70
     0
  3
_____ . . _____ . . _____ . . ____ .. ____
 72
    65
 73
     6
 40
22.5
 49
12.0
 74
     0
 49
-1.5
 74
     0
 49
3.0
 74
     0
 49
-1.5
 74
     0
 49
3.0
 74
     0
 49
-1.5
 74
     0
  0
LTYPE
  5
2FAC
330
5
100
AcDbSymbolTableRecord
100
AcDbLinetypeTableRecord
  2
Amconstr
 70
     0
  3
_______________________
 72
    65
 73
     2
 40
9999.0
 49
9999.0
 74
     0
 49
0.0
 74
     0
  0
LTYPE
  5
2FAD
330
5
100
AcDbSymbolTableRecord
100
AcDbLinetypeTableRecord
  2
AM_ISO08W050x2
 70
     0
  3
__ . __ . __ . __ . __ . __
 72
    65
 73
     4
 40
9.0
 49
6.0
 74
     0
 49
-0.75
 74
     0
 49
1.5
 74
     0
 49
-0.75
 74
     0
  0
LTYPE
  5
2FAE
330
5
100
AcDbSymbolTableRecord
100
AcDbLinetypeTableRecord
  2
AM_ISO02W050x2
 70
     0
  3
 _ _ _ _ _ _ _ _ _ _ _ _
 72
    65
 73
     2
 40
3.75
 49
3.0
 74
     0
 49
-0.75
 74
     0
  0
LTYPE
  5
2FB1
330
5
100
AcDbSymbolTableRecord
100
AcDbLinetypeTableRecord
  2
Amzigzag
 70
     0
  3
/\/-/\/-/\/-/\/-/\/-/\/
 72
    65
 73
     2
 40
11.0001
 49
0.0001
 74
     4
 75
   135
340
2FB0
 46
0.04
 50
0.0
 44
0.0
 45
0.0
 49
-11.0
 74
     0
  0
LTYPE
  5
2FC0
330
5
100
AcDbSymbolTableRecord
100
AcDbLinetypeTableRecord
  2
ACISOWELD
 70
     0
  3
_ _ _ _ _
 72
    65
 73
     2
 40
2.0
 49
2.0
 74
     0
 49
-1.0
 74
     0
  0
LTYPE
  5
2FC1
330
5
100
AcDbSymbolTableRecord
100
AcDbLinetypeTableRecord
  2
ACISOTGB
 70
     0
  3
__ . . __ . .
 72
    65
 73
     6
 40
9.0
 49
4.0
 74
     0
 49
-1.0
 74
     0
 49
1.0
 74
     0
 49
-1.0
 74
     0
 49
1.0
 74
     0
 49
-1.0
 74
     0
  0
LTYPE
  5
2FC2
330
5
100
AcDbSymbolTableRecord
100
AcDbLinetypeTableRecord
  2
ACISOTGL
 70
     0
  3
_ _ _ _ _
 72
    65
 73
     2
 40
3.0
 49
2.0
 74
     0
 49
-1.0
 74
     0
  0
LTYPE
  5
3134
330
5
100
AcDbSymbolTableRecord
100
AcDbLinetypeTableRecord
  2
ACANSTGB
 70
     0
  3
__ . . __ . .
 72
    65
 73
     6
 40
0.35433070866
 49
0.15748031496
 74
     0
 49
-0.03937007874
 74
     0
 49
0.03937007874
 74
     0
 49
-0.03937007874
 74
     0
 49
0.03937007874
 74
     0
 49
-0.03937007874
 74
     0
  0
LTYPE
  5
3135
330
5
100
AcDbSymbolTableRecord
100
AcDbLinetypeTableRecord
  2
ACANSTGL
 70
     0
  3
_ _ _ _ _
 72
    65
 73
     2
 40
0.11811023622
 49
0.07874015748
 74
     0
 49
-0.03937007874
 74
     0
  0
LTYPE
  5
32AD
330
5
100
AcDbSymbolTableRecord
100
AcDbLinetypeTableRecord
  2
ACJISTGB
 70
     0
  3
__ . . __ . .
 72
    65
 73
     6
 40
9.0
 49
4.0
 74
     0
 49
-1.0
 74
     0
 49
1.0
 74
     0
 49
-1.0
 74
     0
 49
1.0
 74
     0
 49
-1.0
 74
     0
  0
LTYPE
  5
32AE
330
5
100
AcDbSymbolTableRecord
100
AcDbLinetypeTableRecord
  2
ACJISTGL
 70
     0
  3
_ _ _ _ _
 72
    65
 73
     2
 40
3.0
 49
2.0
 74
     0
 49
-1.0
 74
     0
  0
ENDTAB
  0
TABLE
  2
LAYER
  5
2
102
{ACAD_XDICTIONARY
360
2D9C
102
}
330
0
100
AcDbSymbolTable
 70
    10
  0
LAYER
  5
10
330
2
100
AcDbSymbolTableRecord
100
AcDbLayerTableRecord
  2
0
 70
     0
 62
     7
  6
Continuous
370
    -3
390
F
  0
LAYER
  5
124
330
2
100
AcDbSymbolTableRecord
100
AcDbLayerTableRecord
  2
Defpoints
 70
     0
 62
     7
  6
Continuous
290
     0
370
    -3
390
F
  0
LAYER
  5
6FC
330
2
100
AcDbSymbolTableRecord
100
AcDbLayerTableRecord
  2
ｶｸﾚｾﾝ2
 70
     0
 62
     3
  6
GEN3B
370
    -3
390
F
  0
LAYER
  5
6FF
330
2
100
AcDbSymbolTableRecord
100
AcDbLayerTableRecord
  2
ﾁｭｳｼﾝｾﾝ1
 70
     0
 62
     1
  6
GEN7A
370
    -3
390
F
  0
LAYER
  5
71D
330
2
100
AcDbSymbolTableRecord
100
AcDbLayerTableRecord
  2
AM_0
 70
     0
 62
     7
  6
Continuous
370
    50
390
F
  0
LAYER
  5
72B
330
2
100
AcDbSymbolTableRecord
100
AcDbLayerTableRecord
  2
AM_4
 70
     0
 62
     2
  6
Continuous
370
    35
390
F
  0
LAYER
  5
1A93
330
2
100
AcDbSymbolTableRecord
100
AcDbLayerTableRecord
  2
図面枠-ｷｲﾛ
 70
     0
 62
     2
  6
Continuous
370
    -3
390
F
  0
LAYER
  5
32AF
330
2
100
AcDbSymbolTableRecord
100
AcDbLayerTableRecord
  2
AM_7
 70
     0
 62
     4
  6
AM_ISO08W050
370
    25
390
F
  0
ENDTAB
  0
TABLE
  2
STYLE
  5
3
330
0
100
AcDbSymbolTable
 70
     8
  0
STYLE
  5
11
330
3
100
AcDbSymbolTableRecord
100
AcDbTextStyleTableRecord
  2
STANDARD
 70
     0
 40
0.0
 41
0.8299999999999998
 50
0.0
 71
     0
 42
2.5
  3
t.shx
  4
bigfont.shx
  0
STYLE
  5
2FB0
330
3
100
AcDbSymbolTableRecord
100
AcDbTextStyleTableRecord
  2

 70
     1
 40
0.0
 41
1.0
 50
0.0
 71
     0
 42
2.5
  3
ltypeshp.shx
  4

  0
STYLE
  5
2FB2
330
3
100
AcDbSymbolTableRecord
100
AcDbTextStyleTableRecord
  2
ACISOTS
 70
     0
 40
1.0
 41
1.0
 50
0.0
 71
     0
 42
2.5
  3
isocp.shx
  4
extfont.shx
  0
STYLE
  5
2FBF
330
3
100
AcDbSymbolTableRecord
100
AcDbTextStyleTableRecord
  2
ACISOGDT
 70
     0
 40
0.0
 41
1.0
 50
0.0
 71
     0
 42
2.5
  3
amgdt.shx
  4

  0
STYLE
  5
3136
330
3
100
AcDbSymbolTableRecord
100
AcDbTextStyleTableRecord
  2
ACANSTS
 70
     0
 40
1.0
 41
1.0
 50
0.0
 71
     0
 42
0.2
  3
romans.shx
  4
extfont.shx
  0
STYLE
  5
3137
330
3
100
AcDbSymbolTableRecord
100
AcDbTextStyleTableRecord
  2
ACANSGDT
 70
     0
 40
0.0
 41
1.0
 50
0.0
 71
     0
 42
0.2
  3
amgdtans.shx
  4

  0
STYLE
  5
32B0
330
3
100
AcDbSymbolTableRecord
100
AcDbTextStyleTableRecord
  2
ACJISGDT
 70
     0
 40
0.0
 41
1.0
 50
0.0
 71
     0
 42
2.5
  3
amgdt.shx
  4

  0
STYLE
  5
32B1
330
3
100
AcDbSymbolTableRecord
100
AcDbTextStyleTableRecord
  2
ACJISTS
 70
     0
 40
1.0
 41
1.0
 50
0.0
 71
     0
 42
2.5
  3
isocp.shx
  4
extfont.shx
  0
ENDTAB
  0
TABLE
  2
VIEW
  5
6
330
0
100
AcDbSymbolTable
 70
     6
  0
VIEW
  5
C2
330
6
100
AcDbSymbolTableRecord
100
AcDbViewTableRecord
  2
AM_VIEW1
 70
     0
 40
277.5000000000001
 10
249.6477900552487
 20
416.2500000000001
 41
499.2955801104971
 11
0.0
 21
0.0
 31
1.0
 12
0.0
 22
0.0
 32
0.0
 42
50.0
 43
0.0
 44
0.0
 50
0.0
 71
     0
281
     0
 72
     0
  0
VIEW
  5
C3
330
6
100
AcDbSymbolTableRecord
100
AcDbViewTableRecord
  2
AM_VIEW2
 70
     0
 40
277.5000000000001
 10
603.8522099447512
 20
416.2500000000001
 41
499.2955801104971
 11
0.0
 21
0.0
 31
1.0
 12
0.0
 22
0.0
 32
0.0
 42
50.0
 43
0.0
 44
0.0
 50
0.0
 71
     0
281
     0
 72
     0
  0
VIEW
  5
C4
330
6
100
AcDbSymbolTableRecord
100
AcDbViewTableRecord
  2
AM_VIEW3
 70
     0
 40
277.5000000000001
 10
249.6477900552487
 20
138.75
 41
499.2955801104971
 11
0.0
 21
0.0
 31
1.0
 12
0.0
 22
0.0
 32
0.0
 42
50.0
 43
0.0
 44
0.0
 50
0.0
 71
     0
281
     0
 72
     0
  0
VIEW
  5
C5
330
6
100
AcDbSymbolTableRecord
100
AcDbViewTableRecord
  2
AM_VIEW4
 70
     0
 40
277.5000000000001
 10
603.8522099447512
 20
138.75
 41
499.2955801104971
 11
0.0
 21
0.0
 31
1.0
 12
0.0
 22
0.0
 32
0.0
 42
50.0
 43
0.0
 44
0.0
 50
0.0
 71
     0
281
     0
 72
     0
  0
VIEW
  5
C6
330
6
100
AcDbSymbolTableRecord
100
AcDbViewTableRecord
  2
AM_VIEW5
 70
     0
 40
277.5000000000001
 10
426.75
 20
277.5000000000001
 41
499.2955801104971
 11
0.0
 21
0.0
 31
1.0
 12
0.0
 22
0.0
 32
0.0
 42
50.0
 43
0.0
 44
0.0
 50
0.0
 71
     0
281
     0
 72
     0
  0
VIEW
  5
C7
330
6
100
AcDbSymbolTableRecord
100
AcDbViewTableRecord
  2
AM_VIEW6
 70
     0
 40
554.9944500000001
 10
426.75
 20
277.5
 41
998.5811743093924
 11
0.0
 21
0.0
 31
1.0
 12
0.0
 22
0.0
 32
0.0
 42
50.0
 43
0.0
 44
0.0
 50
0.0
 71
     0
281
     0
 72
     0
  0
ENDTAB
  0
TABLE
  2
UCS
  5
7
330
0
100
AcDbSymbolTable
 70
     0
  0
ENDTAB
  0
TABLE
  2
APPID
  5
9
330
0
100
AcDbSymbolTable
 70
    95
  0
APPID
  5
12
330
9
100
AcDbSymbolTableRecord
100
AcDbRegAppTableRecord
  2
ACAD
 70
     0
  0
APPID
  5
30
330
9
100
AcDbSymbolTableRecord
100
AcDbRegAppTableRecord
  2
MCAD_NO_VIS
 70
     0
  0
APPID
  5
31
330
9
100
AcDbSymbolTableRecord
100
AcDbRegAppTableRecord
  2
ACAD_TEMP_GRAPHIC
 70
     0
  0
APPID
  5
44
330
9
100
AcDbSymbolTableRecord
100
AcDbRegAppTableRecord
  2
ACATTRIBSERVICES
 70
     0
  0
APPID
  5
8D
330
9
100
AcDbSymbolTableRecord
100
AcDbRegAppTableRecord
  2
GENIUS_GENREC_14
 70
     0
  0
APPID
  5
8E
330
9
100
AcDbSymbolTableRecord
100
AcDbRegAppTableRecord
  2
GENIUS_GENOBJ-N-REC_13
 70
     0
  0
APPID
  5
8F
330
9
100
AcDbSymbolTableRecord
100
AcDbRegAppTableRecord
  2
GENIUS_GENODEF_13
 70
     0
  0
APPID
  5
BD
330
9
100
AcDbSymbolTableRecord
100
AcDbRegAppTableRecord
  2
GENIUS_GENOLIS_13
 70
     0
  0
APPID
  5
BE
330
9
100
AcDbSymbolTableRecord
100
AcDbRegAppTableRecord
  2
GENIUS_GENOBJ-N-TIT_13
 70
     0
  0
APPID
  5
BF
330
9
100
AcDbSymbolTableRecord
100
AcDbRegAppTableRecord
  2
GENIUS_GENOENT_13
 70
     0
  0
APPID
  5
C0
330
9
100
AcDbSymbolTableRecord
100
AcDbRegAppTableRecord
  2
GENIUS_GENTITLE_13
 70
     0
  0
APPID
  5
C1
330
9
100
AcDbSymbolTableRecord
100
AcDbRegAppTableRecord
  2
GENIUS_GENOREF_13
 70
     0
  0
APPID
  5
C8
330
9
100
AcDbSymbolTableRecord
100
AcDbRegAppTableRecord
  2
GENIUS_GENSCREG_15
 70
     0
  0
APPID
  5
C9
330
9
100
AcDbSymbolTableRecord
100
AcDbRegAppTableRecord
  2
GENIUS_GENOBJ-N-SDF_13
 70
     0
  0
APPID
  5
103
330
9
100
AcDbSymbolTableRecord
100
AcDbRegAppTableRecord
  2
GENIUS_GENFIL_13
 70
     0
  0
APPID
  5
104
330
9
100
AcDbSymbolTableRecord
100
AcDbRegAppTableRecord
  2
GENIUS_GENOBJ-N-CHA_13
 70
     0
  0
APPID
  5
13E
330
9
100
AcDbSymbolTableRecord
100
AcDbRegAppTableRecord
  2
GENIUS_GENDTOL_13
 70
     0
  0
APPID
  5
187
330
9
100
AcDbSymbolTableRecord
100
AcDbRegAppTableRecord
  2
GENIUS_GENOBJ-N-FIL_13
 70
     0
  0
APPID
  5
75A
330
9
100
AcDbSymbolTableRecord
100
AcDbRegAppTableRecord
  2
AD_DRAW
 70
     0
  0
APPID
  5
75B
330
9
100
AcDbSymbolTableRecord
100
AcDbRegAppTableRecord
  2
DESIGNERASSEMBLIES
 70
     0
  0
APPID
  5
75C
330
9
100
AcDbSymbolTableRecord
100
AcDbRegAppTableRecord
  2
ASURF_PCURVE_APPNAME
 70
     0
  0
APPID
  5
75D
330
9
100
AcDbSymbolTableRecord
100
AcDbRegAppTableRecord
  2
GENIUS_GE3SECT_13
 70
     0
  0
APPID
  5
75E
330
9
100
AcDbSymbolTableRecord
100
AcDbRegAppTableRecord
  2
GENIUS_GENCFG_13
 70
     0
  0
APPID
  5
75F
330
9
100
AcDbSymbolTableRecord
100
AcDbRegAppTableRecord
  2
GENIUS_GE3CFG0_13
 70
     0
  0
APPID
  5
760
330
9
100
AcDbSymbolTableRecord
100
AcDbRegAppTableRecord
  2
GENIUS_GENCFG0_13
 70
     0
  0
APPID
  5
761
330
9
100
AcDbSymbolTableRecord
100
AcDbRegAppTableRecord
  2
GENIUS_GENCFG1_13
 70
     0
  0
APPID
  5
762
330
9
100
AcDbSymbolTableRecord
100
AcDbRegAppTableRecord
  2
GENIUS_GENCFG2_13
 70
     0
  0
APPID
  5
763
330
9
100
AcDbSymbolTableRecord
100
AcDbRegAppTableRecord
  2
GENIUS_GENCFG3_13
 70
     0
  0
APPID
  5
764
330
9
100
AcDbSymbolTableRecord
100
AcDbRegAppTableRecord
  2
GENIUS_GENCFG4_13
 70
     0
  0
APPID
  5
765
330
9
100
AcDbSymbolTableRecord
100
AcDbRegAppTableRecord
  2
GENIUS_GEVCFG0_13
 70
     0
  0
APPID
  5
766
330
9
100
AcDbSymbolTableRecord
100
AcDbRegAppTableRecord
  2
GENIUS_GENHINW_13
 70
     0
  0
APPID
  5
767
330
9
100
AcDbSymbolTableRecord
100
AcDbRegAppTableRecord
  2
GENIUS_FIRSTVISTXT_14
 70
     0
  0
APPID
  5
768
330
9
100
AcDbSymbolTableRecord
100
AcDbRegAppTableRecord
  2
GENIUS_GENOBJ-N-LEADER_13
 70
     0
  0
APPID
  5
769
330
9
100
AcDbSymbolTableRecord
100
AcDbRegAppTableRecord
  2
GEV_VCCNULL_SWITCH_OFF
 70
     0
  0
APPID
  5
76A
330
9
100
AcDbSymbolTableRecord
100
AcDbRegAppTableRecord
  2
GENIUS_GEFCFG0_13
 70
     0
  0
APPID
  5
76B
330
9
100
AcDbSymbolTableRecord
100
AcDbRegAppTableRecord
  2
GENIUS_GENZVEED_13
 70
     0
  0
APPID
  5
76C
330
9
100
AcDbSymbolTableRecord
100
AcDbRegAppTableRecord
  2
GENIUS_GENSCREG_13
 70
     0
  0
APPID
  5
76D
330
9
100
AcDbSymbolTableRecord
100
AcDbRegAppTableRecord
  2
GENIUS_DUMCFG0_13
 70
     0
  0
APPID
  5
76E
330
9
100
AcDbSymbolTableRecord
100
AcDbRegAppTableRecord
  2
GEVID936201362
 70
     0
  0
APPID
  5
76F
330
9
100
AcDbSymbolTableRecord
100
AcDbRegAppTableRecord
  2
GEVDC
 70
     0
  0
APPID
  5
770
330
9
100
AcDbSymbolTableRecord
100
AcDbRegAppTableRecord
  2
GEVCON
 70
     0
  0
APPID
  5
771
330
9
100
AcDbSymbolTableRecord
100
AcDbRegAppTableRecord
  2
VCC
 70
     0
  0
APPID
  5
772
330
9
100
AcDbSymbolTableRecord
100
AcDbRegAppTableRecord
  2
GEVPT
 70
     0
  0
APPID
  5
773
330
9
100
AcDbSymbolTableRecord
100
AcDbRegAppTableRecord
  2
GEVIT
 70
     0
  0
APPID
  5
774
330
9
100
AcDbSymbolTableRecord
100
AcDbRegAppTableRecord
  2
GENBH
 70
     0
  0
APPID
  5
775
330
9
100
AcDbSymbolTableRecord
100
AcDbRegAppTableRecord
  2
GEVMK
 70
     0
  0
APPID
  5
776
330
9
100
AcDbSymbolTableRecord
100
AcDbRegAppTableRecord
  2
GENIUS_GENBH_13
 70
     0
  0
APPID
  5
777
330
9
100
AcDbSymbolTableRecord
100
AcDbRegAppTableRecord
  2
GENIUS_GENOBJ-NBEHI-BHF_13
 70
     0
  0
APPID
  5
778
330
9
100
AcDbSymbolTableRecord
100
AcDbRegAppTableRecord
  2
GENIUS_GENOBJ-NBEHI-BHB_13
 70
     0
  0
APPID
  5
779
330
9
100
AcDbSymbolTableRecord
100
AcDbRegAppTableRecord
  2
GENIUS_GENOBJ-F-DESC_13
 70
     0
  0
APPID
  5
77A
330
9
100
AcDbSymbolTableRecord
100
AcDbRegAppTableRecord
  2
GENIUS_GEFDESC_14
 70
     0
  0
APPID
  5
77B
330
9
100
AcDbSymbolTableRecord
100
AcDbRegAppTableRecord
  2
GENIUS_GENOBJ-F-PART_13
 70
     0
  0
APPID
  5
77C
330
9
100
AcDbSymbolTableRecord
100
AcDbRegAppTableRecord
  2
GENIUS_GEFSTDP_13
 70
     0
  0
APPID
  5
77D
330
9
100
AcDbSymbolTableRecord
100
AcDbRegAppTableRecord
  2
GENIUS_GEFPARTINS_13
 70
     0
  0
APPID
  5
77E
330
9
100
AcDbSymbolTableRecord
100
AcDbRegAppTableRecord
  2
GENIUS_GENTRA_14
 70
     0
  0
APPID
  5
77F
330
9
100
AcDbSymbolTableRecord
100
AcDbRegAppTableRecord
  2
GENIUS_GENINF13_13
 70
     0
  0
APPID
  5
780
330
9
100
AcDbSymbolTableRecord
100
AcDbRegAppTableRecord
  2
GENIUS_GENOBJ-N-INFOPT_13
 70
     0
  0
APPID
  5
781
330
9
100
AcDbSymbolTableRecord
100
AcDbRegAppTableRecord
  2
GENIUS_GENOBJ-N-RSSYM_13
 70
     0
  0
APPID
  5
782
330
9
100
AcDbSymbolTableRecord
100
AcDbRegAppTableRecord
  2
GENIUS_GENSYMENT_13
 70
     0
  0
APPID
  5
783
330
9
100
AcDbSymbolTableRecord
100
AcDbRegAppTableRecord
  2
GENIUS_GENSCSYM_13
 70
     0
  0
APPID
  5
784
330
9
100
AcDbSymbolTableRecord
100
AcDbRegAppTableRecord
  2
GENIUS_GEFINFNAM_13
 70
     0
  0
APPID
  5
785
330
9
100
AcDbSymbolTableRecord
100
AcDbRegAppTableRecord
  2
GENIUS_GENOBJ-N-CEN_13
 70
     0
  0
APPID
  5
786
330
9
100
AcDbSymbolTableRecord
100
AcDbRegAppTableRecord
  2
GENIUS_GENOBJ-N-CRS_13
 70
     0
  0
APPID
  5
787
330
9
100
AcDbSymbolTableRecord
100
AcDbRegAppTableRecord
  2
GENIUS_GENOBJ-N-CRC_13
 70
     0
  0
APPID
  5
788
330
9
100
AcDbSymbolTableRecord
100
AcDbRegAppTableRecord
  2
GENIUS_GENCRC_14
 70
     0
  0
APPID
  5
789
330
9
100
AcDbSymbolTableRecord
100
AcDbRegAppTableRecord
  2
GEVID942827039
 70
     0
  0
APPID
  5
78A
330
9
100
AcDbSymbolTableRecord
100
AcDbRegAppTableRecord
  2
GEVID942827040
 70
     0
  0
APPID
  5
78B
330
9
100
AcDbSymbolTableRecord
100
AcDbRegAppTableRecord
  2
GEVID942827041
 70
     0
  0
APPID
  5
78C
330
9
100
AcDbSymbolTableRecord
100
AcDbRegAppTableRecord
  2
GENIUS_GENOBJ-F-SCPASSM_13
 70
     0
  0
APPID
  5
78D
330
9
100
AcDbSymbolTableRecord
100
AcDbRegAppTableRecord
  2
GENIUS_GENDIMSH_14
 70
     0
  0
APPID
  5
78E
330
9
100
AcDbSymbolTableRecord
100
AcDbRegAppTableRecord
  2
GEVID942827042
 70
     0
  0
APPID
  5
78F
330
9
100
AcDbSymbolTableRecord
100
AcDbRegAppTableRecord
  2
GEVID946020473
 70
     0
  0
APPID
  5
790
330
9
100
AcDbSymbolTableRecord
100
AcDbRegAppTableRecord
  2
GEVID946020474
 70
     0
  0
APPID
  5
791
330
9
100
AcDbSymbolTableRecord
100
AcDbRegAppTableRecord
  2
GEVID946020475
 70
     0
  0
APPID
  5
792
330
9
100
AcDbSymbolTableRecord
100
AcDbRegAppTableRecord
  2
GENIUS_GENOBJ-N-HTC_13
 70
     0
  0
APPID
  5
793
330
9
100
AcDbSymbolTableRecord
100
AcDbRegAppTableRecord
  2
GENIUS_GENHATCH_13
 70
     0
  0
APPID
  5
794
330
9
100
AcDbSymbolTableRecord
100
AcDbRegAppTableRecord
  2
GEVID948854295
 70
     0
  0
APPID
  5
795
330
9
100
AcDbSymbolTableRecord
100
AcDbRegAppTableRecord
  2
GEVID939402019
 70
     0
  0
APPID
  5
796
330
9
100
AcDbSymbolTableRecord
100
AcDbRegAppTableRecord
  2
GEVID952919491
 70
     0
  0
APPID
  5
797
330
9
100
AcDbSymbolTableRecord
100
AcDbRegAppTableRecord
  2
GEVID952919492
 70
     0
  0
APPID
  5
798
330
9
100
AcDbSymbolTableRecord
100
AcDbRegAppTableRecord
  2
GENIUS_GEFWELD_13
 70
     0
  0
APPID
  5
799
330
9
100
AcDbSymbolTableRecord
100
AcDbRegAppTableRecord
  2
GENIUS_GENOBJ-F-WELS_13
 70
     0
  0
APPID
  5
79A
330
9
100
AcDbSymbolTableRecord
100
AcDbRegAppTableRecord
  2
GEVID952919493
 70
     0
  0
APPID
  5
79B
330
9
100
AcDbSymbolTableRecord
100
AcDbRegAppTableRecord
  2
GENIUS_GENOBJ-N-RSBK_13
 70
     0
  0
APPID
  5
79C
330
9
100
AcDbSymbolTableRecord
100
AcDbRegAppTableRecord
  2
GENIUS_GENOBJ-N-LIB_13
 70
     0
  0
APPID
  5
79D
330
9
100
AcDbSymbolTableRecord
100
AcDbRegAppTableRecord
  2
GENIUS_GENSCALE_13
 70
     0
  0
APPID
  5
79E
330
9
100
AcDbSymbolTableRecord
100
AcDbRegAppTableRecord
  2
GEVID986376691
 70
     0
  0
APPID
  5
79F
330
9
100
AcDbSymbolTableRecord
100
AcDbRegAppTableRecord
  2
DCO15
 70
     0
  0
APPID
  5
1A97
330
9
100
AcDbSymbolTableRecord
100
AcDbRegAppTableRecord
  2
GEVID988070561
 70
     0
  0
APPID
  5
1A98
330
9
100
AcDbSymbolTableRecord
100
AcDbRegAppTableRecord
  2
GEVID988070562
 70
     0
  0
APPID
  5
1A99
330
9
100
AcDbSymbolTableRecord
100
AcDbRegAppTableRecord
  2
GEVID988070563
 70
     0
  0
APPID
  5
2201
330
9
100
AcDbSymbolTableRecord
100
AcDbRegAppTableRecord
  2
ACADM_DIM_EDIT
 70
     0
  0
APPID
  5
2202
330
9
100
AcDbSymbolTableRecord
100
AcDbRegAppTableRecord
  2
AMDT_DM_ADJ
 70
     0
  0
APPID
  5
222C
330
9
100
AcDbSymbolTableRecord
100
AcDbRegAppTableRecord
  2
ACAD_PSEXT
 70
     0
  0
APPID
  5
222D
330
9
100
AcDbSymbolTableRecord
100
AcDbRegAppTableRecord
  2
GENIUS_GENCEN_19
 70
     0
  0
ENDTAB
  0
TABLE
  2
DIMSTYLE
  5
A
330
0
100
AcDbSymbolTable
 70
    23
100
AcDbDimStyleTable
 71
     1
340
6C
  0
DIMSTYLE
105
6C
330
A
100
AcDbSymbolTableRecord
100
AcDbDimStyleTableRecord
  2
AM_ISO
 70
     0
  4
"
 41
2.5
 42
1.0
 43
8.0
 44
0.6
 47
0.1
 48
0.1
 73
     0
 74
     0
 77
     1
 78
     8
 79
     2
140
2.5
141
0.0
143
0.0393701
146
0.71
147
0.8
172
     1
176
   256
177
   256
178
     4
271
     2
272
     2
283
     0
284
     8
340
11
371
    -1
372
    -1
  0
DIMSTYLE
105
70
330
A
100
AcDbSymbolTableRecord
100
AcDbDimStyleTableRecord
  2
AM_ISO$7
 70
     0
  4
"
 41
2.5
 42
1.0
 43
8.0
 44
0.6
 47
0.1
 48
0.1
 73
     0
 74
     0
 77
     1
 78
     8
 79
     2
140
2.5
141
0.0
143
0.0393701
146
0.71
147
0.8
172
     1
176
   256
177
   256
178
     4
271
     2
272
     2
283
     0
284
     8
340
11
371
    -1
372
    -1
  0
DIMSTYLE
105
740
330
A
100
AcDbSymbolTableRecord
100
AcDbDimStyleTableRecord
  2
STANDARD
 70
     0
340
11
  0
DIMSTYLE
105
2FCC
330
A
100
AcDbSymbolTableRecord
100
AcDbDimStyleTableRecord
  2
AM_ISO$3
 70
     0
  4
"
 41
2.5
 42
1.0
 43
8.0
 44
0.6
 47
0.1
 48
0.1
 73
     0
 77
     1
 78
     8
 79
     2
140
2.5
141
0.0
143
0.0393701
146
0.71
147
0.8
176
   256
177
   256
178
     4
271
     2
272
     2
283
     0
284
     8
288
     1
289
     0
340
11
371
    -1
372
    -1
  0
DIMSTYLE
105
2FCD
330
A
100
AcDbSymbolTableRecord
100
AcDbDimStyleTableRecord
  2
AM_ISO$4
 70
     0
  4
"
 41
2.5
 42
1.0
 43
8.0
 44
0.6
 47
0.1
 48
0.1
 73
     0
 77
     1
 78
     8
 79
     2
140
2.5
141
0.0
143
0.0393701
146
0.71
147
0.8
176
   256
177
   256
178
     4
271
     2
272
     2
283
     0
284
     8
288
     1
289
     0
340
11
371
    -1
372
    -1
  0
DIMSTYLE
105
2FCE
330
A
100
AcDbSymbolTableRecord
100
AcDbDimStyleTableRecord
  2
AM_ISO$6
 70
     0
  4
"
 41
2.5
 42
1.0
 43
8.0
 44
0.6
 47
0.1
 48
0.1
 73
     0
 74
     0
 78
     8
 79
     2
140
2.5
141
0.0
143
0.0393701
146
0.71
147
0.8
172
     1
176
   256
177
   256
178
     4
271
     2
272
     2
283
     0
284
     8
340
11
371
    -1
372
    -1
  0
DIMSTYLE
105
2FCF
330
A
100
AcDbSymbolTableRecord
100
AcDbDimStyleTableRecord
  2
AM_ISO$SF
 70
     0
  4
"
 41
2.5
 42
1.0
 43
8.0
 44
0.6
 47
0.1
 48
0.1
 73
     0
 74
     0
 75
     1
 76
     1
 77
     1
 78
     8
 79
     2
140
2.5
141
0.0
143
0.0393701
146
0.71
147
0.8
172
     1
176
   256
177
   256
178
     4
271
     2
272
     2
283
     0
284
     8
340
11
371
    -1
372
    -1
  0
DIMSTYLE
105
2FD4
330
A
100
AcDbSymbolTableRecord
100
AcDbDimStyleTableRecord
  2
AM_ISO$SH
 70
     0
  4
"
 41
2.5
 42
1.0
 43
8.0
 44
0.6
 47
0.1
 48
0.1
 73
     0
 74
     0
 75
     1
 76
     1
 77
     1
 78
     8
 79
     2
140
2.5
141
0.0
143
0.0393701
144
2.0
146
0.71
147
0.8
172
     1
173
     1
176
   256
177
   256
178
     4
271
     2
272
     2
283
     0
284
     8
340
11
343
2FD0
371
    -1
372
    -1
  0
DIMSTYLE
105
3138
330
A
100
AcDbSymbolTableRecord
100
AcDbDimStyleTableRecord
  2
AM_ANSI
 70
     0
  4
mm
 41
0.1
 42
0.05
 43
0.5
 44
0.1
 47
0.1
 48
0.1
 78
     7
140
0.12
141
0.0
146
0.71
147
0.06
176
   256
177
   256
178
     2
279
     2
340
11
  0
DIMSTYLE
105
3139
330
A
100
AcDbSymbolTableRecord
100
AcDbDimStyleTableRecord
  2
AM_ANSI$3
 70
     0
  4
mm
 41
0.1
 42
0.05
 43
0.5
 44
0.1
 47
0.1
 48
0.1
 78
     7
140
0.12
141
0.0
146
0.71
147
0.06
176
   256
177
   256
178
     2
279
     2
340
11
  0
DIMSTYLE
105
313A
330
A
100
AcDbSymbolTableRecord
100
AcDbDimStyleTableRecord
  2
AM_ANSI$4
 70
     0
  4
mm
 41
0.1
 42
0.05
 43
0.5
 44
0.1
 47
0.1
 48
0.1
 78
     7
140
0.12
141
0.0
146
0.71
147
0.06
176
   256
177
   256
178
     2
279
     2
340
11
  0
DIMSTYLE
105
313B
330
A
100
AcDbSymbolTableRecord
100
AcDbDimStyleTableRecord
  2
AM_ANSI$7
 70
     0
  4
mm
 41
0.1
 42
0.05
 43
0.5
 44
0.1
 47
0.1
 48
0.1
 78
     7
140
0.24
141
0.0
146
0.71
147
0.06
176
   256
177
   256
178
     2
279
     2
340
11
  0
DIMSTYLE
105
313C
330
A
100
AcDbSymbolTableRecord
100
AcDbDimStyleTableRecord
  2
AM_ANSI$SF
 70
     0
  4
mm
 41
0.1
 42
0.05
 43
0.5
 44
0.1
 47
0.1
 48
0.1
 75
     1
 76
     1
 78
     7
140
0.12
141
0.0
146
0.71
147
0.06
176
   256
177
   256
178
     2
279
     2
340
11
  0
DIMSTYLE
105
313D
330
A
100
AcDbSymbolTableRecord
100
AcDbDimStyleTableRecord
  2
AM_ANSI$SH
 70
     0
  4
mm
 41
0.1
 42
0.05
 43
0.5
 44
0.1
 47
0.1
 48
0.1
 75
     1
 76
     1
 78
     7
140
0.12
141
0.0
146
0.71
147
0.06
173
     1
176
   256
177
   256
178
     2
279
     2
340
11
  0
DIMSTYLE
105
32B2
102
{ACAD_REACTORS
330
32C3
102
}
330
A
100
AcDbSymbolTableRecord
100
AcDbDimStyleTableRecord
  2
AM_JIS
 70
     0
  4
"
 41
2.0
 42
1.0
 43
8.0
 44
1.0
 47
0.1
 48
0.1
 73
     0
 74
     0
 77
     3
 78
     8
 79
     2
140
2.5
141
0.0
143
0.0393701
146
0.71
147
1.5
172
     1
176
     2
177
     2
178
     4
271
     2
272
     2
283
     0
284
     8
340
11
371
    35
372
    35
  0
DIMSTYLE
105
32B3
330
A
100
AcDbSymbolTableRecord
100
AcDbDimStyleTableRecord
  2
AM_JIS$3
 70
     0
  4
"
 41
2.0
 42
1.0
 43
10.0
 44
1.0
 47
0.1
 48
0.1
 73
     0
 77
     3
 78
     8
 79
     2
140
2.5
141
0.0
143
0.0393701
146
0.71
147
1.5
176
     2
177
     2
178
     4
271
     2
272
     3
274
     4
283
     0
284
     8
288
     1
289
     0
340
11
371
    35
372
    35
  0
DIMSTYLE
105
32B4
330
A
100
AcDbSymbolTableRecord
100
AcDbDimStyleTableRecord
  2
AM_JIS$4
 70
     0
  4
"
 41
2.0
 42
1.0
 43
10.0
 44
1.0
 47
0.1
 48
0.1
 73
     0
 74
     0
 77
     3
 78
     8
 79
     2
140
2.5
141
0.0
143
0.0393701
146
0.71
147
1.5
176
     2
177
     2
178
     4
271
     2
272
     2
283
     0
284
     8
288
     1
289
     0
340
11
371
    35
372
    35
  0
DIMSTYLE
105
32B5
330
A
100
AcDbSymbolTableRecord
100
AcDbDimStyleTableRecord
  2
AM_JIS$6
 70
     0
  4
"
 41
2.0
 42
1.0
 43
10.0
 44
1.0
 47
0.1
 48
0.1
 73
     0
 74
     0
 78
     8
 79
     2
140
2.5
141
0.0
143
0.0393701
146
0.71
147
1.5
172
     1
176
     2
177
     2
178
     4
271
     2
272
     3
274
     4
283
     0
284
     8
340
11
371
    35
372
    35
  0
DIMSTYLE
105
32B6
330
A
100
AcDbSymbolTableRecord
100
AcDbDimStyleTableRecord
  2
AM_JIS$7
 70
     0
  4
"
 41
2.0
 42
1.0
 43
10.0
 44
1.0
 47
0.1
 48
0.1
 73
     0
 74
     0
 77
     3
 78
     8
 79
     2
140
2.5
141
0.0
143
0.0393701
146
0.71
147
1.5
172
     1
176
     2
177
     2
178
     4
271
     2
272
     3
274
     4
283
     0
284
     8
340
11
343
32A7
344
32A7
371
    35
372
    35
  0
DIMSTYLE
105
32B7
330
A
100
AcDbSymbolTableRecord
100
AcDbDimStyleTableRecord
  2
AM_JIS$SF
 70
     0
  4
"
 41
2.0
 42
1.0
 43
10.0
 44
1.0
 47
0.1
 48
0.1
 73
     0
 74
     0
 75
     1
 76
     1
 77
     3
 78
     8
 79
     2
140
2.5
141
0.0
143
0.0393701
146
0.71
147
1.5
172
     1
176
     2
177
     2
178
     4
271
     2
272
     3
274
     4
283
     0
284
     8
340
11
371
    35
372
    35
  0
DIMSTYLE
105
32B8
330
A
100
AcDbSymbolTableRecord
100
AcDbDimStyleTableRecord
  2
AM_JIS$SH
 70
     0
  4
"
 41
2.0
 42
1.0
 43
10.0
 44
1.0
 47
0.1
 48
0.1
 73
     0
 74
     0
 75
     1
 76
     1
 77
     3
 78
     8
 79
     2
140
2.5
141
0.0
143
0.0393701
144
2.0
146
0.71
147
1.5
172
     1
173
     1
176
     2
177
     2
178
     4
271
     2
272
     3
274
     4
283
     0
284
     8
340
11
343
2FD0
371
    35
372
    35
  0
ENDTAB
  0
TABLE
  2
BLOCK_RECORD
  5
1
330
0
100
AcDbSymbolTable
 70
     7
  0
BLOCK_RECORD
  5
1F
102
{ACAD_XDICTIONARY
360
CC
102
}
330
1
100
AcDbSymbolTableRecord
100
AcDbBlockTableRecord
  2
*Model_Space
340
22
  0
BLOCK_RECORD
  5
1B
330
1
100
AcDbSymbolTableRecord
100
AcDbBlockTableRecord
  2
*Paper_Space
340
1E
  0
BLOCK_RECORD
  5
23
330
1
100
AcDbSymbolTableRecord
100
AcDbBlockTableRecord
  2
*Paper_Space0
340
26
  0
BLOCK_RECORD
  5
2FD0
330
1
100
AcDbSymbolTableRecord
100
AcDbBlockTableRecord
  2
GENAXEH
340
0
  0
BLOCK_RECORD
  5
32A7
330
1
100
AcDbSymbolTableRecord
100
AcDbBlockTableRecord
  2
_Open30
340
0
  0
ENDTAB
  0
ENDSEC
  0
SECTION
  2
BLOCKS
  0
BLOCK
  5
20
330
1F
100
AcDbEntity
  8
0
100
AcDbBlockBegin
  2
*Model_Space
 70
     0
 10
0.0
 20
0.0
 30
0.0
  3
*Model_Space
  1

  0
ENDBLK
  5
21
330
1F
100
AcDbEntity
  8
0
100
AcDbBlockEnd
  0
BLOCK
  5
1C
330
1B
100
AcDbEntity
 67
     1
  8
0
100
AcDbBlockBegin
  2
*Paper_Space
 70
     0
 10
0.0
 20
0.0
 30
0.0
  3
*Paper_Space
  1

  0
ENDBLK
  5
1D
330
1B
100
AcDbEntity
 67
     1
  8
0
100
AcDbBlockEnd
  0
BLOCK
  5
24
330
23
100
AcDbEntity
  8
0
100
AcDbBlockBegin
  2
*Paper_Space0
 70
     0
 10
0.0
 20
0.0
 30
0.0
  3
*Paper_Space0
  1

  0
ENDBLK
  5
25
330
23
100
AcDbEntity
  8
0
100
AcDbBlockEnd
  0
BLOCK
  5
2FD2
330
2FD0
100
AcDbEntity
  8
0
100
AcDbBlockBegin
  2
GENAXEH
 70
     0
 10
0.0
 20
0.0
 30
0.0
  3
GENAXEH
  1

  0
LINE
  5
2FD1
330
2FD0
100
AcDbEntity
  8
0
100
AcDbLine
 10
-1.0
 20
0.0
 30
0.0
 11
1.0
 21
0.0
 31
0.0
  0
ENDBLK
  5
2FD3
330
2FD0
100
AcDbEntity
  8
0
100
AcDbBlockEnd
  0
BLOCK
  5
32A8
330
32A7
100
AcDbEntity
  8
0
100
AcDbBlockBegin
  2
_Open30
 70
     0
 10
0.0
 20
0.0
 30
0.0
  3
_Open30
  1

  0
LINE
  5
32A9
330
32A7
100
AcDbEntity
  8
0
  6
ByBlock
 62
     0
370
    -2
100
AcDbLine
 10
-1.0
 20
0.26794919
 30
0.0
 11
0.0
 21
0.0
 31
0.0
  0
LINE
  5
32AA
330
32A7
100
AcDbEntity
  8
0
  6
ByBlock
 62
     0
370
    -2
100
AcDbLine
 10
0.0
 20
0.0
 30
0.0
 11
-1.0
 21
-0.26794919
 31
0.0
  0
LINE
  5
32AB
330
32A7
100
AcDbEntity
  8
0
  6
ByBlock
 62
     0
370
    -2
100
AcDbLine
 10
0.0
 20
0.0
 30
0.0
 11
-1.0
 21
0.0
 31
0.0
  0
ENDBLK
  5
32AC
330
32A7
100
AcDbEntity
  8
0
100
AcDbBlockEnd
  0
ENDSEC
  0
SECTION
  2
ENTITIES
  0
LINE
  5
1AB8
330
1F
100
AcDbEntity
  8
ﾁｭｳｼﾝｾﾝ1
100
AcDbLine
 10
218.135893704934
 20
268.1988932211865
 30
0.0
 11
307.8378086013084
 21
268.1988932211865
 31
0.0
  0
LINE
  5
1BDF
330
1F
100
AcDbEntity
  8
AM_0
100
AcDbLine
 10
369.8742386013084
 20
304.2247382211865
 30
0.0
 11
369.8742386013084
 21
266.1730442211865
 31
0.0
  0
LINE
  5
1BE0
330
1F
100
AcDbEntity
  8
AM_0
100
AcDbLine
 10
367.8741986013087
 20
313.1989082211865
 30
0.0
 11
367.8741986013087
 21
213.3892892211865
 31
0.0
  0
ARC
  5
1BE1
330
1F
100
AcDbEntity
  8
AM_0
100
AcDbCircle
 10
324.8742386013085
 20
302.6641052211865
 30
0.0
 40
1.000000019999996
100
AcDbArc
 50
0.0
 51
90.00000300000095
  0
LINE
  5
1BE2
330
1F
100
AcDbEntity
  8
AM_0
100
AcDbLine
 10
325.8741986013086
 20
301.7773562211865
 30
0.0
 11
325.8741986013086
 21
311.3243882211865
 31
0.0
  0
LINE
  5
1BE3
330
1F
100
AcDbEntity
  8
AM_0
100
AcDbLine
 10
321.8742386013084
 20
312.8243582211865
 30
0.0
 11
321.8742386013084
 21
300.2773532211865
 31
0.0
  0
LINE
  5
1BE4
330
1F
100
AcDbEntity
  8
AM_0
100
AcDbLine
 10
294.8742386013084
 20
312.1988882211865
 30
0.0
 11
294.8742386013084
 21
293.9816072211865
 31
0.0
  0
LINE
  5
1BE5
330
1F
100
AcDbEntity
  8
AM_0
100
AcDbLine
 10
303.8742386013084
 20
308.0725082211865
 30
0.0
 11
303.8742386013084
 21
268.1988932211865
 31
0.0
  0
LINE
  5
1BE9
330
1F
100
AcDbEntity
  8
AM_0
100
AcDbLine
 10
320.8742486013087
 20
316.4208482211865
 30
0.0
 11
320.8742486013087
 21
297.0371192211865
 31
0.0
  0
LINE
  5
1BEA
330
1F
100
AcDbEntity
  8
AM_0
100
AcDbLine
 10
357.8742386013084
 20
322.0711982211865
 30
0.0
 11
357.8742386013084
 21
236.9663162211864
 31
0.0
  0
LINE
  5
1BED
330
1F
100
AcDbEntity
  8
AM_0
100
AcDbLine
 10
309.8742386013084
 20
328.1989082211865
 30
0.0
 11
309.8742386013084
 21
218.1989072211865
 31
0.0
  0
ARC
  5
1BEE
330
1F
100
AcDbEntity
  8
AM_0
100
AcDbCircle
 10
349.8741986013087
 20
293.1163142211865
 30
0.0
 40
5.000000099999998
100
AcDbArc
 50
90.00000300000095
 51
180.00001
  0
LINE
  5
1BEF
330
1F
100
AcDbEntity
  8
AM_0
100
AcDbLine
 10
352.8741986013086
 20
231.9663032211865
 30
0.0
 11
344.8742486013086
 21
231.9663032211865
 31
0.0
  0
ARC
  5
1BF0
330
1F
100
AcDbEntity
  8
AM_0
100
AcDbCircle
 10
349.8741986013087
 20
215.1988772211865
 30
0.0
 40
5.000000099999998
100
AcDbArc
 50
180.00001
 51
270.0
  0
ARC
  5
1BF1
330
1F
100
AcDbEntity
  8
AM_0
100
AcDbCircle
 10
348.8742386013084
 20
200.1988772211865
 30
0.0
 40
1.000000019999996
100
AcDbArc
 50
0.0
 51
90.00000300000095
  0
LINE
  5
1BF2
330
1F
100
AcDbEntity
  8
ﾁｭｳｼﾝｾﾝ1
100
AcDbLine
 10
298.5248186013084
 20
285.1988942211865
 30
0.0
 11
401.6077286013085
 21
285.1988942211865
 31
0.0
  0
LINE
  5
1BF3
330
1F
100
AcDbEntity
  8
AM_0
100
AcDbLine
 10
334.6599386013084
 20
292.5382202211864
 30
0.0
 11
322.8742286013086
 21
210.1988612211865
 31
0.0
  0
LINE
  5
1BF4
330
1F
100
AcDbEntity
  8
AM_0
100
AcDbLine
 10
322.8741986013087
 20
296.8297532211865
 30
0.0
 11
322.8741986013087
 21
210.1988912211865
 31
0.0
  0
LINE
  5
1BF5
330
1F
100
AcDbEntity
  8
AM_0
100
AcDbLine
 10
303.8742386013084
 20
210.1988912211865
 30
0.0
 11
303.8742386013084
 21
268.1988932211865
 31
0.0
  0
LINE
  5
1BF6
330
1F
100
AcDbEntity
  8
AM_0
100
AcDbLine
 10
344.8742486013086
 20
215.1988772211865
 30
0.0
 11
344.8742486013086
 21
293.1163142211865
 31
0.0
  0
LINE
  5
1BF7
330
1F
100
AcDbEntity
  8
AM_0
100
AcDbLine
 10
312.8537186013084
 20
244.0242092211865
 30
0.0
 11
309.1860086013086
 21
212.8483352211865
 31
0.0
  0
ARC
  5
1BFC
330
1F
100
AcDbEntity
  8
AM_0
100
AcDbCircle
 10
302.3742386013084
 20
210.2663192211865
 30
0.0
 40
1.500000029999999
100
AcDbArc
 50
0.0
 51
88.49999700000074
  0
ARC
  5
1BFD
330
1F
100
AcDbEntity
  8
AM_0
100
AcDbCircle
 10
306.2064986013083
 20
213.1988912211864
 30
0.0
 40
3.0
100
AcDbArc
 50
270.0
 51
353.29016
  0
ARC
  5
1BFE
330
1F
100
AcDbEntity
  8
AM_0
100
AcDbCircle
 10
288.3742286013086
 20
208.6988912211864
 30
0.0
 40
1.500000029999999
100
AcDbArc
 50
90.00000300000095
 51
180.00001
  0
LINE
  5
1BFF
330
1F
100
AcDbEntity
  8
AM_0
100
AcDbLine
 10
285.8742386013084
 20
212.1988772211865
 30
0.0
 11
302.4135386013085
 21
211.7657852211865
 31
0.0
  0
LINE
  5
1C00
330
1F
100
AcDbEntity
  8
AM_0
100
AcDbLine
 10
306.2064986013083
 20
210.1988912211865
 30
0.0
 11
288.3742286013086
 21
210.1988912211865
 31
0.0
  0
LINE
  5
1C01
330
1F
100
AcDbEntity
  8
AM_0
100
AcDbLine
 10
306.8742386013084
 20
200.1988772211865
 30
0.0
 11
306.8742386013084
 21
200.1988772211865
 31
0.0
  0
ARC
  5
1C02
330
1F
100
AcDbEntity
  8
AM_0
100
AcDbCircle
 10
307.8742286013086
 20
200.1988772211865
 30
0.0
 40
1.000000019999996
100
AcDbArc
 50
90.00000300000095
 51
180.00001
  0
LINE
  5
1C03
330
1F
100
AcDbEntity
  8
AM_0
100
AcDbLine
 10
286.8742286013086
 20
200.1988772211865
 30
0.0
 11
306.8742386013084
 21
200.1988772211865
 31
0.0
  0
LINE
  5
1C04
330
1F
100
AcDbEntity
  8
ﾁｭｳｼﾝｾﾝ1
 48
0.7
100
AcDbLine
 10
296.8742486013086
 20
197.5903412211866
 30
0.0
 11
296.8742486013086
 21
213.3892892211865
 31
0.0
  0
LINE
  5
1C05
330
1F
100
AcDbEntity
  8
ｶｸﾚｾﾝ2
 48
1.5
100
AcDbLine
 10
301.8742286013087
 20
200.1988772211865
 30
0.0
 11
301.8742286013087
 21
210.1988912211865
 31
0.0
  0
LINE
  5
1C06
330
1F
100
AcDbEntity
  8
ｶｸﾚｾﾝ2
 48
1.5
100
AcDbLine
 10
291.8742386013084
 20
200.1988772211865
 30
0.0
 11
291.8742386013084
 21
210.1988912211865
 31
0.0
  0
LINE
  5
1C07
330
1F
100
AcDbEntity
  8
AM_0
100
AcDbLine
 10
286.8742286013086
 20
200.1988772211865
 30
0.0
 11
286.8742286013086
 21
208.6988912211864
 31
0.0
  0
LINE
  5
1C08
330
1F
100
AcDbEntity
  8
AM_0
100
AcDbLine
 10
307.8742286013086
 20
201.1988912211865
 30
0.0
 11
348.8742386013084
 21
201.1988912211865
 31
0.0
  0
ARC
  5
1C24
330
1F
100
AcDbEntity
  8
AM_0
100
AcDbCircle
 10
324.8742386013085
 20
301.7773562211865
 30
0.0
 40
1.000000019999996
100
AcDbArc
 50
270.0
 51
0.0
  0
ARC
  5
1C25
330
1F
100
AcDbEntity
  8
AM_0
100
AcDbCircle
 10
339.6094886013085
 20
291.8297522211865
 30
0.0
 40
5.000000099999998
100
AcDbArc
 50
90.00000300000095
 51
171.8542400000002
  0
LINE
  5
1C26
330
1F
100
AcDbEntity
  8
AM_0
100
AcDbLine
 10
320.8742486013087
 20
300.2773532211865
 30
0.0
 11
321.8742386013084
 21
300.2773532211865
 31
0.0
  0
ARC
  5
1C27
330
1F
100
AcDbEntity
  8
AM_0
100
AcDbCircle
 10
321.8742386013084
 20
297.0371192211865
 30
0.0
 40
1.000000019999996
100
AcDbArc
 50
179.99999
 51
270.0
  0
LINE
  5
1C28
330
1F
100
AcDbEntity
  8
AM_0
100
AcDbLine
 10
285.8742386013084
 20
300.1363322211865
 30
0.0
 11
294.8742386013084
 21
300.1363322211865
 31
0.0
  0
LINE
  5
1C29
330
1F
100
AcDbEntity
  8
AM_0
100
AcDbLine
 10
294.8742386013084
 20
293.9816072211865
 30
0.0
 11
303.8742386013084
 21
293.9816072211865
 31
0.0
  0
ARC
  5
1C2A
330
1F
100
AcDbEntity
  8
AM_0
100
AcDbCircle
 10
309.8742386013084
 20
244.3747502211865
 30
0.0
 40
3.0
100
AcDbArc
 50
353.29016
 51
0.0
  0
LINE
  5
1C2B
330
1F
100
AcDbEntity
  8
AM_0
100
AcDbLine
 10
312.8742386013084
 20
272.9497172211865
 30
0.0
 11
312.8742386013084
 21
244.3747502211865
 31
0.0
  0
ARC
  5
1C2C
330
1F
100
AcDbEntity
  8
AM_0
100
AcDbCircle
 10
321.8742386013084
 20
295.0371212211864
 30
0.0
 40
1.000000019999996
100
AcDbArc
 50
0.0
 51
90.00000300000095
  0
LINE
  5
1C2D
330
1F
100
AcDbEntity
  8
AM_0
100
AcDbLine
 10
321.8742386013084
 20
300.7773242211865
 30
0.0
 11
324.8742386013085
 21
300.7773242211865
 31
0.0
  0
LINE
  5
1C2E
330
1F
100
AcDbEntity
  8
AM_0
100
AcDbLine
 10
322.8741986013087
 20
296.8297532211865
 30
0.0
 11
346.5260186013085
 21
296.8297532211865
 31
0.0
  0
LINE
  5
1C2F
330
1F
100
AcDbEntity
  8
AM_0
100
AcDbLine
 10
285.8742386013084
 20
236.2614542211864
 30
0.0
 11
303.8742386013084
 21
236.2614542211864
 31
0.0
  0
LINE
  5
1C30
330
1F
100
AcDbEntity
  8
AM_0
100
AcDbLine
 10
285.8742386013084
 20
222.1988912211864
 30
0.0
 11
303.8742386013084
 21
222.1988912211864
 31
0.0
  0
ARC
  5
1C31
330
1F
100
AcDbEntity
  8
AM_0
100
AcDbCircle
 10
368.3742386013084
 20
208.6988912211864
 30
0.0
 40
1.500000029999999
100
AcDbArc
 50
0.0
 51
90.00000300000095
  0
ARC
  5
1C32
330
1F
100
AcDbEntity
  8
AM_0
100
AcDbCircle
 10
372.8742386013085
 20
213.3892892211865
 30
0.0
 40
5.000000099999998
100
AcDbArc
 50
179.99999
 51
226.1869299999994
  0
LINE
  5
1C33
330
1F
100
AcDbEntity
  8
AM_0
100
AcDbLine
 10
369.8742386013084
 20
200.1988772211865
 30
0.0
 11
369.8742386013084
 21
208.6988912211864
 31
0.0
  0
LINE
  5
1C34
330
1F
100
AcDbEntity
  8
ｶｸﾚｾﾝ2
 48
1.5
100
AcDbLine
 10
364.8741986013086
 20
200.1988772211865
 30
0.0
 11
364.8741986013086
 21
210.1988912211865
 31
0.0
  0
LINE
  5
1C35
330
1F
100
AcDbEntity
  8
AM_0
100
AcDbLine
 10
349.8741986013087
 20
200.1988772211865
 30
0.0
 11
349.8741986013087
 21
200.1988772211865
 31
0.0
  0
LINE
  5
1C36
330
1F
100
AcDbEntity
  8
ﾁｭｳｼﾝｾﾝ1
 48
0.7
100
AcDbLine
 10
359.8742186013085
 20
197.5903412211865
 30
0.0
 11
359.8742186013086
 21
213.1011602211866
 31
0.0
  0
LINE
  5
1C37
330
1F
100
AcDbEntity
  8
ｶｸﾚｾﾝ2
 48
1.5
100
AcDbLine
 10
354.8742386013084
 20
200.1988772211865
 30
0.0
 11
354.8742386013084
 21
210.1988912211865
 31
0.0
  0
LINE
  5
1C38
330
1F
100
AcDbEntity
  8
AM_0
100
AcDbLine
 10
349.8741986013087
 20
200.1988772211865
 30
0.0
 11
369.8742386013084
 21
200.1988772211865
 31
0.0
  0
LINE
  5
1C39
330
1F
100
AcDbEntity
  8
AM_0
100
AcDbLine
 10
368.3742386013084
 20
210.1988912211865
 30
0.0
 11
349.8741986013087
 21
210.1988912211865
 31
0.0
  0
LINE
  5
1C3A
330
1F
100
AcDbEntity
  8
AM_0
100
AcDbLine
 10
369.8742386013084
 20
295.1988932211865
 30
0.0
 11
371.8742186013086
 21
295.1988932211865
 31
0.0
  0
LINE
  5
1C3B
330
1F
100
AcDbEntity
  8
AM_0
100
AcDbLine
 10
371.8742186013086
 20
295.1988932211865
 30
0.0
 11
371.8742186013086
 21
285.1988942211865
 31
0.0
  0
LINE
  5
1C3C
330
1F
100
AcDbEntity
  8
AM_0
100
AcDbLine
 10
377.8742186013086
 20
294.6988952211865
 30
0.0
 11
377.8742186013086
 21
297.1988932211866
 31
0.0
  0
LINE
  5
1C3D
330
1F
100
AcDbEntity
  8
AM_0
100
AcDbLine
 10
371.8742186013086
 20
294.6988952211865
 30
0.0
 11
399.8742386013084
 21
294.6988952211865
 31
0.0
  0
LINE
  5
1C3F
330
1F
100
AcDbEntity
  8
AM_0
100
AcDbLine
 10
369.8742386013084
 20
275.1988922211865
 30
0.0
 11
371.8742186013086
 21
275.1988922211865
 31
0.0
  0
ARC
  5
1C40
330
1F
100
AcDbEntity
  8
AM_0
100
AcDbCircle
 10
368.8742486013087
 20
266.1730442211865
 30
0.0
 40
1.000000019999996
100
AcDbArc
 50
271.4999999999994
 51
0.0
  0
LINE
  5
1C41
330
1F
100
AcDbEntity
  8
AM_0
100
AcDbLine
 10
368.8480586013086
 20
265.1720072211865
 30
0.0
 11
368.9003786013085
 21
265.1733812211865
 31
0.0
  0
ARC
  5
1C42
330
1F
100
AcDbEntity
  8
AM_0
100
AcDbCircle
 10
368.8742486013087
 20
264.1723412211864
 30
0.0
 40
1.000000019999996
100
AcDbArc
 50
91.50000100000154
 51
180.00001
  0
LINE
  5
1C43
330
1F
100
AcDbEntity
  8
AM_0
100
AcDbLine
 10
371.8742186013086
 20
275.6988932211865
 30
0.0
 11
399.8742386013084
 21
275.6988932211865
 31
0.0
  0
LINE
  5
1C44
330
1F
100
AcDbEntity
  8
AM_0
100
AcDbLine
 10
371.8742186013086
 20
275.1988922211865
 30
0.0
 11
371.8742186013086
 21
285.1988942211865
 31
0.0
  0
LINE
  5
1C45
330
1F
100
AcDbEntity
  8
AM_0
100
AcDbLine
 10
399.8742386013084
 20
275.6988932211865
 30
0.0
 11
399.8742386013084
 21
297.1988932211865
 31
0.0
  0
LINE
  5
1C46
330
1F
100
AcDbEntity
  8
AM_0
100
AcDbLine
 10
357.8742386013084
 20
298.1163122211865
 30
0.0
 11
349.8741986013087
 21
298.1163122211865
 31
0.0
  0
ARC
  5
1C47
330
1F
100
AcDbEntity
  8
AM_0
100
AcDbCircle
 10
352.8741986013086
 20
236.9663162211864
 30
0.0
 40
5.000000099999998
100
AcDbArc
 50
270.0
 51
0.0
  0
LINE
  5
1C48
330
1F
100
AcDbEntity
  8
AM_0
100
AcDbLine
 10
309.8742386013084
 20
328.1988782211864
 30
0.0
 11
353.0051186013086
 21
327.0694382211865
 31
0.0
  0
LINE
  5
1C49
330
1F
100
AcDbEntity
  8
AM_0
100
AcDbLine
 10
325.8741986013086
 20
311.7202982211864
 30
0.0
 11
352.8741986013086
 21
311.7202982211864
 31
0.0
  0
ARC
  5
1C50
330
1F
100
AcDbEntity
  8
AM_0
100
AcDbCircle
 10
321.8742386013084
 20
316.4208482211865
 30
0.0
 40
1.000000019999996
100
AcDbArc
 50
90.00000300000095
 51
180.00001
  0
ARC
  5
1C51
330
1F
100
AcDbEntity
  8
AM_0
100
AcDbCircle
 10
302.3742386013084
 20
326.1314882211865
 30
0.0
 40
1.500000029999999
100
AcDbArc
 50
271.4999999999994
 51
0.0
  0
ARC
  5
1C52
330
1F
100
AcDbEntity
  8
AM_0
100
AcDbCircle
 10
305.3742386013084
 20
326.5805582211865
 30
0.0
 40
1.500000029999999
100
AcDbArc
 50
91.50000100000154
 51
180.00001
  0
LINE
  5
1C53
330
1F
100
AcDbEntity
  8
AM_0
100
AcDbLine
 10
305.3349986013087
 20
328.0800482211865
 30
0.0
 11
309.8742386013084
 21
328.1989382211865
 31
0.0
  0
LINE
  5
1C54
330
1F
100
AcDbEntity
  8
AM_0
100
AcDbLine
 10
285.8742386013084
 20
324.1988882211865
 30
0.0
 11
302.4134786013086
 21
324.6319982211864
 31
0.0
  0
LINE
  5
1C55
330
1F
100
AcDbEntity
  8
AM_0
100
AcDbLine
 10
285.8742386013084
 20
314.1988982211865
 30
0.0
 11
303.8742386013084
 21
314.1988982211865
 31
0.0
  0
ARC
  5
1C56
330
1F
100
AcDbEntity
  8
AM_0
100
AcDbCircle
 10
321.8742386013084
 20
318.4208882211865
 30
0.0
 40
1.000000019999996
100
AcDbArc
 50
270.0
 51
0.0
  0
ARC
  5
1C57
330
1F
100
AcDbEntity
  8
AM_0
100
AcDbCircle
 10
324.8742386013085
 20
311.3243882211865
 30
0.0
 40
1.000000019999996
100
AcDbArc
 50
0.0
 51
90.00000300000095
  0
ARC
  5
1C58
330
1F
100
AcDbEntity
  8
AM_0
100
AcDbCircle
 10
324.8742386013085
 20
308.4376082211865
 30
0.0
 40
1.000000019999996
100
AcDbArc
 50
0.0
 51
90.00000300000095
  0
ARC
  5
1C59
330
1F
100
AcDbEntity
  8
AM_0
100
AcDbCircle
 10
324.8742386013085
 20
310.4375882211865
 30
0.0
 40
1.000000019999996
100
AcDbArc
 50
270.0
 51
0.0
  0
ARC
  5
1C5A
330
1F
100
AcDbEntity
  8
AM_0
100
AcDbCircle
 10
324.8742386013085
 20
304.6641182211863
 30
0.0
 40
1.000000019999996
100
AcDbArc
 50
270.0
 51
0.0
  0
LINE
  5
1C5B
330
1F
100
AcDbEntity
  8
AM_0
100
AcDbLine
 10
320.8742486013087
 20
312.8243582211865
 30
0.0
 11
321.8742386013084
 21
312.8243582211865
 31
0.0
  0
LINE
  5
1C5C
330
1F
100
AcDbEntity
  8
AM_0
100
AcDbLine
 10
294.8742386013084
 20
312.1988882211865
 30
0.0
 11
303.8742386013084
 21
312.1988882211865
 31
0.0
  0
LINE
  5
1C5D
330
1F
100
AcDbEntity
  8
AM_0
100
AcDbLine
 10
294.8742386013084
 20
310.8057482211865
 30
0.0
 11
320.8742486013087
 21
310.8057482211865
 31
0.0
  0
LINE
  5
1C5E
330
1F
100
AcDbEntity
  8
AM_0
100
AcDbLine
 10
321.8742386013084
 20
309.4375982211865
 30
0.0
 11
324.8742386013085
 21
309.4375982211865
 31
0.0
  0
LINE
  5
1C5F
330
1F
100
AcDbEntity
  8
AM_0
100
AcDbLine
 10
321.8742386013084
 20
303.6640742211865
 30
0.0
 11
324.8742386013085
 21
303.6640742211865
 31
0.0
  0
LINE
  5
1C60
330
1F
100
AcDbEntity
  8
AM_0
100
AcDbLine
 10
321.8742386013084
 20
312.3243482211865
 30
0.0
 11
324.8742386013085
 21
312.3243482211865
 31
0.0
  0
LINE
  5
1C61
330
1F
100
AcDbEntity
  8
AM_0
100
AcDbLine
 10
335.2742486013085
 20
311.7202982211864
 30
0.0
 11
322.8742886013084
 21
327.8584682211865
 31
0.0
  0
LINE
  5
1C62
330
1F
100
AcDbEntity
  8
AM_0
100
AcDbLine
 10
322.8741986013087
 20
327.7537382211865
 30
0.0
 11
322.8741986013087
 21
312.3243482211865
 31
0.0
  0
LINE
  5
1C63
330
1F
100
AcDbEntity
  8
AM_0
100
AcDbLine
 10
303.8742386013084
 20
326.5805582211865
 30
0.0
 11
303.8742386013084
 21
312.1988882211865
 31
0.0
  0
ARC
  5
1C64
330
1F
100
AcDbEntity
  8
AM_0
100
AcDbCircle
 10
368.8742486013087
 20
304.2247382211865
 30
0.0
 40
1.000000019999996
100
AcDbArc
 50
0.0
 51
88.49999700000074
  0
LINE
  5
1C65
330
1F
100
AcDbEntity
  8
AM_0
100
AcDbLine
 10
368.8480586013086
 20
305.2257482211865
 30
0.0
 11
368.9004086013083
 21
305.2243682211865
 31
0.0
  0
ARC
  5
1C66
330
1F
100
AcDbEntity
  8
AM_0
100
AcDbCircle
 10
368.8742486013087
 20
306.2254082211865
 30
0.0
 40
1.000000019999996
100
AcDbArc
 50
179.99999
 51
268.5000099999988
  0
ARC
  5
1C67
330
1F
100
AcDbEntity
  8
AM_0
100
AcDbCircle
 10
365.8742486013086
 20
313.1989082211865
 30
0.0
 40
2.00000007
100
AcDbArc
 50
0.0
 51
90.00000300000095
  0
ARC
  5
1C68
330
1F
100
AcDbEntity
  8
AM_0
100
AcDbCircle
 10
352.8741986013086
 20
322.0711982211865
 30
0.0
 40
5.000000099999998
100
AcDbArc
 50
0.0
 51
88.49999700000074
  0
ARC
  5
1C69
330
1F
100
AcDbEntity
  8
AM_0
100
AcDbCircle
 10
352.8741986013086
 20
306.7202882211865
 30
0.0
 40
5.000000099999998
100
AcDbArc
 50
0.0
 51
90.00000300000095
  0
ARC
  5
1C6A
330
1F
100
AcDbEntity
  8
AM_0
100
AcDbCircle
 10
362.8742486013087
 20
320.1988682211864
 30
0.0
 40
5.000000099999998
100
AcDbArc
 50
180.00001
 51
270.0
  0
LINE
  5
1C6B
330
1F
100
AcDbEntity
  8
AM_0
100
AcDbLine
 10
362.8742486013087
 20
315.1988882211865
 30
0.0
 11
365.8742486013086
 21
315.1988882211865
 31
0.0
  0
LINE
  5
1C6C
330
1F
100
AcDbEntity
  8
AM_0
100
AcDbLine
 10
632.4016946013085
 20
303.6641042211865
 30
0.0
 11
637.4016956013082
 21
300.7773542211864
 31
0.0
  0
CIRCLE
  5
1C6D
330
1F
100
AcDbEntity
  8
AM_0
100
AcDbCircle
 10
637.4016956013082
 20
306.5508482211865
 30
0.0
 40
4.9999998
  0
LINE
  5
1C6E
330
1F
100
AcDbEntity
  8
AM_0
100
AcDbLine
 10
637.4017106013085
 20
300.7773542211864
 30
0.0
 11
642.4017116013084
 21
303.6641042211865
 31
0.0
  0
ARC
  5
1C6F
330
1F
100
AcDbEntity
  8
AM_0
100
AcDbCircle
 10
638.9884106013083
 20
307.7683682211865
 30
0.0
 40
11.0000004
100
AcDbArc
 50
149.8422100000008
 51
285.1636500000005
  0
LINE
  5
1C70
330
1F
100
AcDbEntity
  8
AM_0
100
AcDbLine
 10
532.4391836013086
 20
303.6641042211865
 30
0.0
 11
537.4391816013086
 21
300.7773542211864
 31
0.0
  0
LINE
  5
1C71
330
1F
100
AcDbEntity
  8
AM_0
100
AcDbLine
 10
537.4391816013086
 20
300.7773842211865
 30
0.0
 11
542.4391826013085
 21
303.6641342211865
 31
0.0
  0
CIRCLE
  5
1C72
330
1F
100
AcDbEntity
  8
AM_0
100
AcDbCircle
 10
537.4391816013086
 20
306.5508482211865
 30
0.0
 40
4.9999998
  0
ARC
  5
1C73
330
1F
100
AcDbEntity
  8
AM_0
100
AcDbCircle
 10
535.8524816013085
 20
307.7683682211865
 30
0.0
 40
11.0000004
100
AcDbArc
 50
254.8363599999996
 51
30.15779499999998
  0
ARC
  5
1C74
330
1F
100
AcDbEntity
  8
AM_0
100
AcDbCircle
 10
587.4204476013086
 20
285.1988942211865
 30
0.0
 40
20.0000007
100
AcDbArc
 50
90.00000300000095
 51
270.0
  0
ARC
  5
1C75
330
1F
100
AcDbEntity
  8
AM_0
100
AcDbCircle
 10
587.4204476013086
 20
285.1988942211865
 30
0.0
 40
20.0000007
100
AcDbArc
 50
270.0
 51
90.00000300000095
  0
ARC
  5
1C76
330
1F
100
AcDbEntity
  8
AM_0
100
AcDbCircle
 10
627.4204466013085
 20
298.1988932211865
 30
0.0
 40
20.0000007
100
AcDbArc
 50
6.402379800000026
 51
61.92751500000034
  0
ARC
  5
1C77
330
1F
100
AcDbEntity
  8
AM_0
100
AcDbCircle
 10
587.4204476013086
 20
272.6988932211865
 30
0.0
 40
42.500001
100
AcDbArc
 50
0.0
 51
180.00001
  0
LINE
  5
1C78
330
1F
100
AcDbEntity
  8
ﾁｭｳｼﾝｾﾝ1
100
AcDbLine
 10
587.4204476013086
 20
200.6988902211864
 30
0.0
 11
587.4204476013086
 21
334.562676588386
 31
0.0
  0
ARC
  5
1C79
330
1F
100
AcDbEntity
  8
AM_0
100
AcDbCircle
 10
547.4204456013084
 20
298.1988932211865
 30
0.0
 40
20.0000007
100
AcDbArc
 50
118.0724800000003
 51
173.5976199999998
  0
LINE
  5
1C7A
330
1F
100
AcDbEntity
  8
AM_0
100
AcDbLine
 10
617.4204476013086
 20
219.6988772211865
 30
0.0
 11
557.4204446013084
 21
219.6988772211865
 31
0.0
  0
LINE
  5
1C7B
330
1F
100
AcDbEntity
  8
AM_0
100
AcDbLine
 10
626.4204476013086
 20
201.1988912211865
 30
0.0
 11
587.4204476013086
 21
201.1988912211865
 31
0.0
  0
LINE
  5
1C7C
330
1F
100
AcDbEntity
  8
ﾁｭｳｼﾝｾﾝ1
100
AcDbLine
 10
649.1552816013085
 20
268.1988932211865
 30
0.0
 11
525.9159386013085
 21
268.1988932211865
 31
0.0
  0
ARC
  5
1C7D
330
1F
100
AcDbEntity
  8
AM_0
100
AcDbCircle
 10
596.4065456013083
 20
216.6988772211865
 30
0.0
 40
3.0
100
AcDbArc
 50
90.00000300000095
 51
183.1847399999998
  0
ARC
  5
1C7E
330
1F
100
AcDbEntity
  8
AM_0
100
AcDbCircle
 10
578.4343316013083
 20
216.6988772211865
 30
0.0
 40
3.0
100
AcDbArc
 50
356.8152600000001
 51
90.00000300000095
  0
ARC
  5
1C7F
330
1F
100
AcDbEntity
  8
AM_0
100
AcDbCircle
 10
587.4204476013086
 20
216.1988912211864
 30
0.0
 40
6.000000299999999
100
AcDbArc
 50
176.8152699999999
 51
3.184736000000023
  0
ARC
  5
1C80
330
1F
100
AcDbEntity
  8
AM_0
100
AcDbCircle
 10
557.4204446013084
 20
214.6988912211865
 30
0.0
 40
5.000000099999998
100
AcDbArc
 50
90.00000300000095
 51
180.00001
  0
LINE
  5
1C81
330
1F
100
AcDbEntity
  8
AM_0
100
AcDbLine
 10
544.9204466013084
 20
272.6988932211865
 30
0.0
 11
544.9204466013084
 21
213.1988912211864
 31
0.0
  0
LINE
  5
1C82
330
1F
100
AcDbEntity
  8
AM_0
100
AcDbLine
 10
517.4204486013086
 20
210.1988762211865
 30
0.0
 11
527.5451786013086
 21
300.4290572211865
 31
0.0
  0
LINE
  5
1C83
330
1F
100
AcDbEntity
  8
AM_0
100
AcDbLine
 10
517.4204786013085
 20
210.1988612211865
 30
0.0
 11
528.1681286013085
 21
277.6413362211865
 31
0.0
  0
ARC
  5
1C84
330
1F
100
AcDbEntity
  8
AM_0
100
AcDbCircle
 10
549.4204466013085
 20
205.6988912211865
 30
0.0
 40
3.0
100
AcDbArc
 50
270.0
 51
0.0
  0
LINE
  5
1C85
330
1F
100
AcDbEntity
  8
AM_0
100
AcDbLine
 10
548.4204446013084
 20
201.1988912211865
 30
0.0
 11
587.4204476013086
 21
201.1988912211865
 31
0.0
  0
ARC
  5
1C86
330
1F
100
AcDbEntity
  8
AM_0
100
AcDbCircle
 10
541.9204436013085
 20
213.1988912211864
 30
0.0
 40
3.0
100
AcDbArc
 50
270.0
 51
0.0
  0
LINE
  5
1C87
330
1F
100
AcDbEntity
  8
AM_0
100
AcDbLine
 10
529.9204586013082
 20
210.1988912211865
 30
0.0
 11
545.4204446013084
 21
210.1988912211865
 31
0.0
  0
ARC
  5
1C88
330
1F
100
AcDbEntity
  8
AM_0
100
AcDbCircle
 10
548.4204446013084
 20
201.6988772211865
 30
0.0
 40
1.000000019999996
100
AcDbArc
 50
90.00000300000095
 51
180.00001
  0
ARC
  5
1C89
330
1F
100
AcDbEntity
  8
AM_0
100
AcDbCircle
 10
548.4204446013084
 20
200.1988772211865
 30
0.0
 40
1.000000019999996
100
AcDbArc
 50
90.00000300000095
 51
180.00001
  0
LINE
  5
1C8A
330
1F
100
AcDbEntity
  8
AM_0
100
AcDbLine
 10
547.4204456013084
 20
208.1988902211864
 30
0.0
 11
547.4204456013084
 21
200.1988772211865
 31
0.0
  0
LINE
  5
1C8B
330
1F
100
AcDbEntity
  8
AM_0
100
AcDbLine
 10
548.4204446013084
 20
202.6988912211865
 30
0.0
 11
549.4204466013085
 21
202.6988912211865
 31
0.0
  0
ARC
  5
1C8C
330
1F
100
AcDbEntity
  8
AM_0
100
AcDbCircle
 10
545.4204446013084
 20
208.1988902211864
 30
0.0
 40
2.00000007
100
AcDbArc
 50
0.0
 51
90.00000300000095
  0
LINE
  5
1C8D
330
1F
100
AcDbEntity
  8
ｶｸﾚｾﾝ2
 48
1.5
100
AcDbLine
 10
534.9204446013084
 20
210.1988912211865
 30
0.0
 11
534.9204446013084
 21
200.1988772211865
 31
0.0
  0
LINE
  5
1C8E
330
1F
100
AcDbEntity
  8
ﾁｭｳｼﾝｾﾝ1
 48
0.7
100
AcDbLine
 10
529.9204586013082
 20
213.1011602211865
 30
0.0
 11
529.9204586013082
 21
197.5903412211865
 31
0.0
  0
ARC
  5
1C8F
330
1F
100
AcDbEntity
  8
AM_0
100
AcDbCircle
 10
518.9204486013086
 20
208.6988912211864
 30
0.0
 40
1.500000029999999
100
AcDbArc
 50
90.00000300000095
 51
180.00001
  0
LINE
  5
1C90
330
1F
100
AcDbEntity
  8
ｶｸﾚｾﾝ2
 48
1.5
100
AcDbLine
 10
524.9204486013086
 20
210.1988912211865
 30
0.0
 11
524.9204486013086
 21
200.1988772211865
 31
0.0
  0
LINE
  5
1C91
330
1F
100
AcDbEntity
  8
AM_0
100
AcDbLine
 10
517.4204486013086
 20
210.1988912211865
 30
0.0
 11
517.4204486013086
 21
200.1988772211865
 31
0.0
  0
LINE
  5
1C92
330
1F
100
AcDbEntity
  8
AM_0
100
AcDbLine
 10
518.9204486013086
 20
210.1988912211865
 30
0.0
 11
529.9204586013082
 21
210.1988912211865
 31
0.0
  0
LINE
  5
1C93
330
1F
100
AcDbEntity
  8
AM_0
100
AcDbLine
 10
517.4204486013086
 20
200.1988772211865
 30
0.0
 11
547.4204456013084
 21
200.1988772211865
 31
0.0
  0
LINE
  5
1C94
330
1F
100
AcDbEntity
  8
AM_0
100
AcDbLine
 10
616.5295016013085
 20
212.8812182211865
 30
0.0
 11
611.5295006013085
 21
215.7679682211864
 31
0.0
  0
LINE
  5
1C95
330
1F
100
AcDbEntity
  8
AM_0
100
AcDbLine
 10
611.5295006013085
 20
204.2209712211865
 30
0.0
 11
616.5295166013085
 21
207.1077212211865
 31
0.0
  0
LINE
  5
1C96
330
1F
100
AcDbEntity
  8
AM_0
100
AcDbLine
 10
616.5295016013085
 20
207.1077212211865
 30
0.0
 11
616.5295016013085
 21
212.8812482211865
 31
0.0
  0
LINE
  5
1C97
330
1F
100
AcDbEntity
  8
AM_0
100
AcDbLine
 10
606.5294876013084
 20
212.8812482211865
 30
0.0
 11
606.5294876013084
 21
207.1077212211865
 31
0.0
  0
LINE
  5
1C98
330
1F
100
AcDbEntity
  8
AM_0
100
AcDbLine
 10
568.3113746013082
 20
212.8812182211865
 30
0.0
 11
563.3113766013085
 21
215.7679682211864
 31
0.0
  0
LINE
  5
1C99
330
1F
100
AcDbEntity
  8
AM_0
100
AcDbLine
 10
563.3114066013082
 20
215.7679682211864
 30
0.0
 11
558.3114056013084
 21
212.8812182211865
 31
0.0
  0
LINE
  5
1C9A
330
1F
100
AcDbEntity
  8
AM_0
100
AcDbLine
 10
563.3114066013082
 20
204.2209712211865
 30
0.0
 11
568.3114076013086
 21
207.1077212211865
 31
0.0
  0
LINE
  5
1C9B
330
1F
100
AcDbEntity
  8
AM_0
100
AcDbLine
 10
558.3113756013083
 20
207.1077212211865
 30
0.0
 11
563.3113766013085
 21
204.2209712211865
 31
0.0
  0
LINE
  5
1C9C
330
1F
100
AcDbEntity
  8
AM_0
100
AcDbLine
 10
568.3113746013082
 20
207.1077212211865
 30
0.0
 11
568.3113746013082
 21
212.8812482211865
 31
0.0
  0
LINE
  5
1C9D
330
1F
100
AcDbEntity
  8
AM_0
100
AcDbLine
 10
552.4204466013085
 20
214.6988912211865
 30
0.0
 11
552.4204466013085
 21
205.6988912211865
 31
0.0
  0
LINE
  5
1C9E
330
1F
100
AcDbEntity
  8
AM_0
100
AcDbLine
 10
558.3114056013084
 20
212.8812482211865
 30
0.0
 11
558.3114056013084
 21
207.1077212211865
 31
0.0
  0
CIRCLE
  5
1C9F
330
1F
100
AcDbEntity
  8
AM_0
100
AcDbCircle
 10
563.3113766013085
 20
209.9945012211865
 30
0.0
 40
4.9999998
  0
CIRCLE
  5
1CA0
330
1F
100
AcDbEntity
  8
AM_0
100
AcDbCircle
 10
611.5295006013085
 20
209.9945012211865
 30
0.0
 40
4.9999998
  0
LINE
  5
1CA1
330
1F
100
AcDbEntity
  8
AM_0
100
AcDbLine
 10
606.5295026013085
 20
207.1077212211865
 30
0.0
 11
611.5295006013085
 21
204.2209712211865
 31
0.0
  0
LINE
  5
1CA2
330
1F
100
AcDbEntity
  8
AM_0
100
AcDbLine
 10
611.5295156013086
 20
215.7679832211865
 30
0.0
 11
606.5295026013085
 21
212.8812332211865
 31
0.0
  0
ARC
  5
1CA3
330
1F
100
AcDbEntity
  8
AM_0
100
AcDbCircle
 10
536.4845006013085
 20
293.7826352211865
 30
0.0
 40
3.0
100
AcDbArc
 50
92.58744900000086
 51
153.3308499999994
  0
ARC
  5
1CA4
330
1F
100
AcDbEntity
  8
AM_0
100
AcDbCircle
 10
540.4204436013085
 20
292.4343062211865
 30
0.0
 40
5.000000099999998
100
AcDbArc
 50
106.5886099999999
 51
180.00001
  0
LINE
  5
1CA5
330
1F
100
AcDbEntity
  8
AM_0
100
AcDbLine
 10
535.4204456013084
 20
292.4343062211865
 30
0.0
 11
535.4204456013084
 21
250.1988932211865
 31
0.0
  0
ARC
  5
1CA6
330
1F
100
AcDbEntity
  8
AM_0
100
AcDbCircle
 10
567.4204466013085
 20
250.1988932211865
 30
0.0
 40
32.000001
100
AcDbArc
 50
179.99999
 51
225.3217400000003
  0
ARC
  5
1CAD
330
1F
100
AcDbEntity
  8
AM_0
100
AcDbCircle
 10
587.4204476013086
 20
268.1988932211865
 30
0.0
 40
60.00000299999999
100
AcDbArc
 50
171.1247899999998
 51
172.4492599999999
  0
ARC
  5
1CBA
330
1F
100
AcDbEntity
  8
AM_0
100
AcDbCircle
 10
531.6672716013082
 20
292.3254512211865
 30
0.0
 40
5.000000099999998
100
AcDbArc
 50
74.83635400000022
 51
173.5976199999998
  0
ARC
  5
1CBB
330
1F
100
AcDbEntity
  8
AM_0
100
AcDbCircle
 10
587.4204476013086
 20
268.1988932211865
 30
0.0
 40
60.00000299999999
100
AcDbArc
 50
153.3308499999994
 51
170.9454599999997
  0
LINE
  5
1CBC
330
1F
100
AcDbEntity
  8
AM_0
100
AcDbLine
 10
590.4204476013086
 20
291.1988942211865
 30
0.0
 11
590.4204476013086
 21
297.1988942211865
 31
0.0
  0
CIRCLE
  5
1CBD
330
1F
100
AcDbEntity
  8
AM_0
100
AcDbCircle
 10
587.4204476013086
 20
285.1988942211865
 30
0.0
 40
2.49999984
  0
LINE
  5
1CBE
330
1F
100
AcDbEntity
  8
AM_0
100
AcDbLine
 10
584.4204476013086
 20
297.1988942211865
 30
0.0
 11
584.4204476013086
 21
291.1988942211865
 31
0.0
  0
LINE
  5
1CBF
330
1F
100
AcDbEntity
  8
AM_0
100
AcDbLine
 10
584.4204476013086
 20
291.1988942211865
 30
0.0
 11
590.4204476013086
 21
291.1988942211865
 31
0.0
  0
LINE
  5
1CC0
330
1F
100
AcDbEntity
  8
AM_0
100
AcDbLine
 10
590.4204476013086
 20
297.1988942211865
 30
0.0
 11
584.4204476013086
 21
297.1988942211865
 31
0.0
  0
CIRCLE
  5
1CC1
330
1F
100
AcDbEntity
  8
AM_4
100
AcDbCircle
 10
587.4204476013086
 20
285.1988942211865
 30
0.0
 40
3.0
  0
ARC
  5
1CC2
330
1F
100
AcDbEntity
  8
AM_0
100
AcDbCircle
 10
587.4204476013086
 20
285.1988942211865
 30
0.0
 40
9.500000399999999
100
AcDbArc
 50
108.4084799999998
 51
71.5915120000008
  0
LINE
  5
1CC3
330
1F
100
AcDbEntity
  8
ﾁｭｳｼﾝｾﾝ1
100
AcDbLine
 10
561.6711776013085
 20
285.1988942211865
 30
0.0
 11
612.0808616013085
 21
285.1988942211865
 31
0.0
  0
ARC
  5
1CC4
330
1F
100
AcDbEntity
  8
AM_0
100
AcDbCircle
 10
617.4204476013086
 20
214.6988912211865
 30
0.0
 40
5.000000099999998
100
AcDbArc
 50
0.0
 51
90.00000300000095
  0
LINE
  5
1CC5
330
1F
100
AcDbEntity
  8
AM_0
100
AcDbLine
 10
657.4204346013085
 20
210.1988762211865
 30
0.0
 11
647.2957076013085
 21
300.4290872211865
 31
0.0
  0
LINE
  5
1CC6
330
1F
100
AcDbEntity
  8
AM_0
100
AcDbLine
 10
657.4204496013085
 20
210.1988612211865
 30
0.0
 11
646.6727816013082
 21
277.6413362211865
 31
0.0
  0
LINE
  5
1CC7
330
1F
100
AcDbEntity
  8
AM_0
100
AcDbLine
 10
629.9204336013082
 20
272.6988932211865
 30
0.0
 11
629.9204336013082
 21
213.1988912211864
 31
0.0
  0
ARC
  5
1CC8
330
1F
100
AcDbEntity
  8
AM_0
100
AcDbCircle
 10
655.9204496013085
 20
208.6988912211864
 30
0.0
 40
1.500000029999999
100
AcDbArc
 50
0.0
 51
90.00000300000095
  0
LINE
  5
1CC9
330
1F
100
AcDbEntity
  8
AM_0
100
AcDbLine
 10
657.4204496013085
 20
210.1988912211865
 30
0.0
 11
657.4204496013085
 21
200.1988772211865
 31
0.0
  0
ARC
  5
1CCA
330
1F
100
AcDbEntity
  8
AM_0
100
AcDbCircle
 10
632.9204336013082
 20
213.1988912211864
 30
0.0
 40
3.0
100
AcDbArc
 50
179.99999
 51
270.0
  0
LINE
  5
1CCB
330
1F
100
AcDbEntity
  8
AM_0
100
AcDbLine
 10
644.9204336013082
 20
210.1988912211865
 30
0.0
 11
629.4204476013086
 21
210.1988912211865
 31
0.0
  0
ARC
  5
1CCC
330
1F
100
AcDbEntity
  8
AM_0
100
AcDbCircle
 10
626.4204476013086
 20
201.6988772211865
 30
0.0
 40
1.000000019999996
100
AcDbArc
 50
0.0
 51
90.00000300000095
  0
ARC
  5
1CCD
330
1F
100
AcDbEntity
  8
AM_0
100
AcDbCircle
 10
626.4204476013086
 20
200.1988772211865
 30
0.0
 40
1.000000019999996
100
AcDbArc
 50
0.0
 51
90.00000300000095
  0
LINE
  5
1CCE
330
1F
100
AcDbEntity
  8
AM_0
100
AcDbLine
 10
626.4204476013086
 20
202.6988912211865
 30
0.0
 11
625.4204336013081
 21
202.6988912211865
 31
0.0
  0
LINE
  5
1CCF
330
1F
100
AcDbEntity
  8
AM_0
100
AcDbLine
 10
627.4204466013085
 20
200.1988772211865
 30
0.0
 11
627.4204466013085
 21
208.1988902211864
 31
0.0
  0
ARC
  5
1CD0
330
1F
100
AcDbEntity
  8
AM_0
100
AcDbCircle
 10
625.4204336013081
 20
205.6988912211865
 30
0.0
 40
3.0
100
AcDbArc
 50
179.99999
 51
270.0
  0
LINE
  5
1CD1
330
1F
100
AcDbEntity
  8
ﾁｭｳｼﾝｾﾝ1
 48
0.7
100
AcDbLine
 10
644.9204336013082
 20
213.1307312211865
 30
0.0
 11
644.9204336013082
 21
197.1875522211865
 31
0.0
  0
LINE
  5
1CD2
330
1F
100
AcDbEntity
  8
ｶｸﾚｾﾝ2
 48
1.5
100
AcDbLine
 10
639.9204476013084
 20
210.1988912211865
 30
0.0
 11
639.9204476013084
 21
200.1988772211865
 31
0.0
  0
LINE
  5
1CD3
330
1F
100
AcDbEntity
  8
ｶｸﾚｾﾝ2
 48
1.5
100
AcDbLine
 10
649.9204496013085
 20
210.1988912211865
 30
0.0
 11
649.9204496013085
 21
200.1988772211865
 31
0.0
  0
ARC
  5
1CD4
330
1F
100
AcDbEntity
  8
AM_0
100
AcDbCircle
 10
629.4204476013086
 20
208.1988902211864
 30
0.0
 40
2.00000007
100
AcDbArc
 50
90.00000300000095
 51
180.00001
  0
LINE
  5
1CD5
330
1F
100
AcDbEntity
  8
AM_0
100
AcDbLine
 10
622.4204336013082
 20
214.6988912211865
 30
0.0
 11
622.4204336013082
 21
205.6988912211865
 31
0.0
  0
LINE
  5
1CD6
330
1F
100
AcDbEntity
  8
AM_0
100
AcDbLine
 10
655.9204496013085
 20
210.1988912211865
 30
0.0
 11
644.9204336013082
 21
210.1988912211865
 31
0.0
  0
LINE
  5
1CD7
330
1F
100
AcDbEntity
  8
AM_0
100
AcDbLine
 10
657.4204496013085
 20
200.1988772211865
 30
0.0
 11
627.4204466013085
 21
200.1988772211865
 31
0.0
  0
ARC
  5
1CD8
330
1F
100
AcDbEntity
  8
AM_0
100
AcDbCircle
 10
643.1736386013085
 20
292.3254512211865
 30
0.0
 40
5.000000099999998
100
AcDbArc
 50
6.402379800000026
 51
105.1636400000004
  0
ARC
  5
1CD9
330
1F
100
AcDbEntity
  8
AM_0
100
AcDbCircle
 10
634.4204336013082
 20
292.4343062211865
 30
0.0
 40
5.000000099999998
100
AcDbArc
 50
0.0
 51
73.41138499999843
  0
ARC
  5
1CDA
330
1F
100
AcDbEntity
  8
AM_0
100
AcDbCircle
 10
638.3564066013081
 20
293.7826352211865
 30
0.0
 40
3.0
100
AcDbArc
 50
26.669157
 51
87.41254899999928
  0
LINE
  5
1CDB
330
1F
100
AcDbEntity
  8
AM_0
100
AcDbLine
 10
639.4204466013085
 20
292.4343062211865
 30
0.0
 11
639.4204466013085
 21
250.1988932211865
 31
0.0
  0
ARC
  5
1CDC
330
1F
100
AcDbEntity
  8
AM_0
100
AcDbCircle
 10
587.4204476013086
 20
268.1988932211865
 30
0.0
 40
60.00000299999999
100
AcDbArc
 50
9.054541900000199
 51
26.669157
  0
ARC
  5
1CDD
330
1F
100
AcDbEntity
  8
AM_0
100
AcDbCircle
 10
607.4204306013085
 20
250.1988932211865
 30
0.0
 40
32.000001
100
AcDbArc
 50
314.6782599999997
 51
0.0
  0
ARC
  5
1CDE
330
1F
100
AcDbEntity
  8
AM_0
100
AcDbCircle
 10
587.4204476013086
 20
223.1988902211865
 30
0.0
 40
105.000003
100
AcDbArc
 50
61.92751500000034
 51
118.0724800000003
  0
ARC
  5
1CDF
330
1F
100
AcDbEntity
  8
AM_0
100
AcDbCircle
 10
587.4204476013086
 20
268.1988932211865
 30
0.0
 40
60.00000299999999
100
AcDbArc
 50
48.33084500000107
 51
131.6691500000001
  0
ARC
  5
1CE0
330
1F
100
AcDbEntity
  8
AM_0
100
AcDbCircle
 10
549.5252426013085
 20
310.7776682211865
 30
0.0
 40
3.0
100
AcDbArc
 50
131.6691500000001
 51
192.4125499999998
  0
LINE
  5
1CE1
330
1F
100
AcDbEntity
  8
AM_0
100
AcDbLine
 10
542.4391826013085
 20
303.6641042211865
 30
0.0
 11
542.4391826013085
 21
309.4375982211865
 31
0.0
  0
LINE
  5
1CE2
330
1F
100
AcDbEntity
  8
AM_0
100
AcDbLine
 10
532.4391836013086
 20
309.4375982211865
 30
0.0
 11
532.4391836013086
 21
303.6641042211865
 31
0.0
  0
LINE
  5
1CE3
330
1F
100
AcDbEntity
  8
AM_0
100
AcDbLine
 10
537.4391816013086
 20
312.3243782211865
 30
0.0
 11
532.4391836013086
 21
309.4376282211865
 31
0.0
  0
LINE
  5
1CE4
330
1F
100
AcDbEntity
  8
AM_0
100
AcDbLine
 10
542.4391526013086
 20
309.4375982211865
 30
0.0
 11
537.4391816013086
 21
312.3243482211865
 31
0.0
  0
ARC
  5
1CE5
330
1F
100
AcDbEntity
  8
AM_0
100
AcDbCircle
 10
549.6868016013086
 20
315.8065382211864
 30
0.0
 40
5.000000099999998
100
AcDbArc
 50
112.1687999999999
 51
210.1577899999992
  0
LINE
  5
1CEE
330
1F
100
AcDbEntity
  8
AM_0
100
AcDbLine
 10
642.4017116013084
 20
303.6641042211865
 30
0.0
 11
642.4017116013084
 21
309.4375982211865
 31
0.0
  0
LINE
  5
1CEF
330
1F
100
AcDbEntity
  8
AM_0
100
AcDbLine
 10
637.4017106013085
 20
312.3243482211865
 30
0.0
 11
632.4017096013082
 21
309.4375982211865
 31
0.0
  0
LINE
  5
1CF0
330
1F
100
AcDbEntity
  8
AM_0
100
AcDbLine
 10
632.4016946013085
 20
309.4375982211865
 30
0.0
 11
632.4016946013085
 21
303.6641042211865
 31
0.0
  0
LINE
  5
1CF1
330
1F
100
AcDbEntity
  8
AM_0
100
AcDbLine
 10
642.4016936013082
 20
309.4375982211865
 30
0.0
 11
637.4016956013082
 21
312.3243482211865
 31
0.0
  0
ARC
  5
1CF2
330
1F
100
AcDbEntity
  8
AM_0
100
AcDbCircle
 10
625.3156496013085
 20
310.7776682211865
 30
0.0
 40
3.0
100
AcDbArc
 50
347.5874500000001
 51
48.33084500000107
  0
ARC
  5
1CF3
330
1F
100
AcDbEntity
  8
AM_0
100
AcDbCircle
 10
625.1540906013085
 20
315.8065382211864
 30
0.0
 40
5.000000099999998
100
AcDbArc
 50
329.8421999999994
 51
67.83120300000111
  0
LINE
  5
311A
330
1F
100
AcDbEntity
  8
AM_0
100
AcDbLine
 10
377.8742186013086
 20
297.1988932211865
 30
0.0
 11
399.8742386013084
 21
297.1988932211865
 31
0.0
  0
LINE
  5
31F7
330
1F
100
AcDbEntity
  8
0
  6
Continuous
 62
     7
100
AcDbLine
 10
369.8742386013084
 20
454.340653966829
 30
0.0
 11
371.8742386013084
 21
454.340653966829
 31
0.0
  0
LINE
  5
31F8
330
1F
100
AcDbEntity
  8
0
  6
Continuous
 62
     7
100
AcDbLine
 10
369.8742386013084
 20
474.3406539668289
 30
0.0
 11
371.8742386013084
 21
474.3406539668289
 31
0.0
  0
LINE
  5
31F9
330
1F
100
AcDbEntity
  8
0
  6
Continuous
 62
     7
100
AcDbLine
 10
368.8480886013085
 20
444.3137639668291
 30
0.0
 11
368.9004286013085
 21
444.3151339668291
 31
0.0
  0
LINE
  5
31FA
330
1F
100
AcDbEntity
  8
0
  6
Continuous
 62
     7
100
AcDbLine
 10
368.8480886013085
 20
484.3675039668291
 30
0.0
 11
368.9004286013085
 21
484.366133966829
 31
0.0
  0
LINE
  5
31FB
330
1F
100
AcDbEntity
  8
0
  6
Continuous
 62
     7
100
AcDbLine
 10
377.8742386013084
 20
461.3406239668291
 30
0.0
 11
377.8742386013084
 21
467.340623966829
 31
0.0
  0
LINE
  5
31FC
330
1F
100
AcDbEntity
  8
0
  6
Continuous
 62
     7
100
AcDbLine
 10
369.8742386013084
 20
483.366493966829
 30
0.0
 11
369.8742386013084
 21
445.314803966829
 31
0.0
  0
LINE
  5
31FD
330
1F
100
AcDbEntity
  8
0
  6
Continuous
 62
     7
100
AcDbLine
 10
371.8742386013084
 20
454.840653966829
 30
0.0
 11
399.8742386013084
 21
454.840653966829
 31
0.0
  0
LINE
  5
31FE
330
1F
100
AcDbEntity
  8
0
  6
Continuous
 62
     7
100
AcDbLine
 10
371.8742386013084
 20
473.840653966829
 30
0.0
 11
399.8742386013084
 21
473.840653966829
 31
0.0
  0
LINE
  5
31FF
330
1F
100
AcDbEntity
  8
0
  6
Continuous
 62
     7
100
AcDbLine
 10
399.8742386013084
 20
454.840653966829
 30
0.0
 11
399.8742386013084
 21
473.840653966829
 31
0.0
  0
LINE
  5
3200
330
1F
100
AcDbEntity
  8
0
  6
Continuous
 62
     7
100
AcDbLine
 10
371.8742386013084
 20
454.340653966829
 30
0.0
 11
371.8742386013084
 21
474.3406539668289
 31
0.0
  0
LINE
  5
3201
330
1F
100
AcDbEntity
  8
0
  6
Continuous
 62
     7
100
AcDbLine
 10
377.8742386013084
 20
461.3406239668291
 30
0.0
 11
399.8742386013084
 21
461.3406239668291
 31
0.0
  0
LINE
  5
3202
330
1F
100
AcDbEntity
  8
0
  6
Continuous
 62
     7
100
AcDbLine
 10
377.8742386013084
 20
467.340623966829
 30
0.0
 11
399.8742386013084
 21
467.340623966829
 31
0.0
  0
LINE
  5
3203
330
1F
100
AcDbEntity
  8
0
  6
Continuous
 62
     7
100
AcDbLine
 10
344.8742386013084
 20
398.3367139668292
 30
0.0
 11
344.8742386013084
 21
407.4698639668291
 31
0.0
  0
LINE
  5
3204
330
1F
100
AcDbEntity
  8
0
  6
Continuous
 62
     7
100
AcDbLine
 10
354.8742386013084
 20
415.524973966829
 30
0.0
 11
354.8742386013084
 21
513.1562939668291
 31
0.0
  0
LINE
  5
3205
330
1F
100
AcDbEntity
  8
0
  6
Continuous
 62
     7
100
AcDbLine
 10
349.7433486013085
 20
412.468123966829
 30
0.0
 11
351.9527886013084
 21
412.5259839668289
 31
0.0
  0
LINE
  5
3206
330
1F
100
AcDbEntity
  8
0
  6
Continuous
 62
     7
100
AcDbLine
 10
311.8480886013084
 20
398.2903239668289
 30
0.0
 11
309.9004286013084
 21
398.3413539668291
 31
0.0
  0
LINE
  5
3207
330
1F
100
AcDbEntity
  8
0
  6
Continuous
 62
     7
100
AcDbLine
 10
312.8742386013084
 20
396.3675339668291
 30
0.0
 11
312.8742386013084
 21
402.366133966829
 31
0.0
  0
LINE
  5
3208
330
1F
100
AcDbEntity
  8
0
  6
Continuous
 62
     7
100
AcDbLine
 10
308.8742386013084
 20
395.340983966829
 30
0.0
 11
308.8742386013084
 21
397.341653966829
 31
0.0
  0
LINE
  5
3209
330
1F
100
AcDbEntity
  8
ﾁｭｳｼﾝｾﾝ1
 48
0.7
100
AcDbLine
 10
359.8742386013084
 20
396.8406239668291
 30
0.0
 11
359.8742386013084
 21
416.8406239668289
 31
0.0
  0
LINE
  5
320A
330
1F
100
AcDbEntity
  8
0
  6
Continuous
 62
     7
100
AcDbLine
 10
365.0051586013087
 20
395.7842839668292
 30
0.0
 11
309.8742686013084
 21
394.3406239668291
 31
0.0
  0
LINE
  5
320B
330
1F
100
AcDbEntity
  8
0
  6
Continuous
 62
     7
100
AcDbLine
 10
309.8742386013086
 20
394.340653966829
 30
0.0
 11
291.7433786013084
 21
394.8154139668292
 31
0.0
  0
LINE
  5
320C
330
1F
100
AcDbEntity
  8
0
  6
Continuous
 62
     7
100
AcDbLine
 10
367.8742386013084
 20
503.577743966829
 30
0.0
 11
367.8742386013084
 21
421.898723966829
 31
0.0
  0
LINE
  5
320D
330
1F
100
AcDbEntity
  8
0
  6
Continuous
 62
     7
100
AcDbLine
 10
309.8742386013086
 20
404.3406239668289
 30
0.0
 11
309.8742386013086
 21
524.3406539668292
 31
0.0
  0
LINE
  5
320E
330
1F
100
AcDbEntity
  8
ﾁｭｳｼﾝｾﾝ1
 48
0.7
100
AcDbLine
 10
287.3373136013086
 20
406.840623966829
 30
0.0
 11
306.4111636013086
 21
406.840623966829
 31
0.0
  0
LINE
  5
320F
330
1F
100
AcDbEntity
  8
ﾁｭｳｼﾝｾﾝ1
 48
0.7
100
AcDbLine
 10
296.8742386013086
 20
396.8406239668291
 30
0.0
 11
296.8742386013086
 21
416.8406239668289
 31
0.0
  0
LINE
  5
3210
330
1F
100
AcDbEntity
  8
0
  6
Continuous
 62
     7
100
AcDbLine
 10
359.7433786013084
 20
421.968153966829
 30
0.0
 11
364.9527886013084
 21
422.104563966829
 31
0.0
  0
LINE
  5
3211
330
1F
100
AcDbEntity
  8
0
  6
Continuous
 62
     7
100
AcDbLine
 10
369.8742386013084
 20
400.7825739668291
 30
0.0
 11
369.8742386013084
 21
417.8987239668291
 31
0.0
  0
LINE
  5
3212
330
1F
100
AcDbEntity
  8
0
  6
Continuous
 62
     7
100
AcDbLine
 10
286.8742386013084
 20
399.8137039668289
 30
0.0
 11
286.8742386013084
 21
407.8144339668289
 31
0.0
  0
LINE
  5
3213
330
1F
100
AcDbEntity
  8
ﾁｭｳｼﾝｾﾝ1
 48
0.7
100
AcDbLine
 10
351.4621286013084
 20
406.840623966829
 30
0.0
 11
368.2863486013083
 21
406.840623966829
 31
0.0
  0
LINE
  5
3214
330
1F
100
AcDbEntity
  8
0
  6
Continuous
 62
     7
100
AcDbLine
 10
309.8742386013086
 20
404.340653966829
 30
0.0
 11
318.3354486013085
 21
404.5622039668291
 31
0.0
  0
LINE
  5
3215
330
1F
100
AcDbEntity
  8
0
  6
Continuous
 62
     7
100
AcDbLine
 10
344.8742386013084
 20
530.3445539668291
 30
0.0
 11
344.8742386013084
 21
521.2114039668291
 31
0.0
  0
LINE
  5
3216
330
1F
100
AcDbEntity
  8
0
  6
Continuous
 62
     7
100
AcDbLine
 10
349.7433786013084
 20
516.213143966829
 30
0.0
 11
351.9527886013084
 21
516.155283966829
 31
0.0
  0
LINE
  5
3217
330
1F
100
AcDbEntity
  8
0
  6
Continuous
 62
     7
100
AcDbLine
 10
311.8480886013084
 20
530.3909439668291
 30
0.0
 11
309.9004586013084
 21
530.3399439668291
 31
0.0
  0
LINE
  5
3218
330
1F
100
AcDbEntity
  8
0
  6
Continuous
 62
     7
100
AcDbLine
 10
312.8742386013084
 20
532.3137639668291
 30
0.0
 11
312.8742386013084
 21
526.315133966829
 31
0.0
  0
LINE
  5
3219
330
1F
100
AcDbEntity
  8
0
  6
Continuous
 62
     7
100
AcDbLine
 10
308.8742386013084
 20
533.340313966829
 30
0.0
 11
308.8742386013084
 21
531.3396139668291
 31
0.0
  0
LINE
  5
321A
330
1F
100
AcDbEntity
  8
ﾁｭｳｼﾝｾﾝ1
 48
0.7
100
AcDbLine
 10
359.8742386013084
 20
531.8406539668292
 30
0.0
 11
359.8742386013084
 21
511.8406539668291
 31
0.0
  0
LINE
  5
321B
330
1F
100
AcDbEntity
  8
0
  6
Continuous
 62
     7
100
AcDbLine
 10
365.0051286013085
 20
532.8970139668292
 30
0.0
 11
309.8742686013084
 21
534.3406539668292
 31
0.0
  0
LINE
  5
321C
330
1F
100
AcDbEntity
  8
0
  6
Continuous
 62
     7
100
AcDbLine
 10
309.8742686013084
 20
534.340623966829
 30
0.0
 11
291.7433786013084
 21
533.8658539668292
 31
0.0
  0
LINE
  5
321D
330
1F
100
AcDbEntity
  8
ﾁｭｳｼﾝｾﾝ1
 48
0.7
100
AcDbLine
 10
287.3373136013086
 20
521.8406539668292
 30
0.0
 11
306.4111636013086
 21
521.8406539668292
 31
0.0
  0
LINE
  5
321E
330
1F
100
AcDbEntity
  8
ﾁｭｳｼﾝｾﾝ1
 48
0.7
100
AcDbLine
 10
296.8742386013086
 20
531.8406539668292
 30
0.0
 11
296.8742386013086
 21
511.8406539668291
 31
0.0
  0
LINE
  5
321F
330
1F
100
AcDbEntity
  8
0
  6
Continuous
 62
     7
100
AcDbLine
 10
359.7433786013084
 20
506.7131439668291
 30
0.0
 11
364.9527886013084
 21
506.576733966829
 31
0.0
  0
LINE
  5
3220
330
1F
100
AcDbEntity
  8
0
  6
Continuous
 62
     7
100
AcDbLine
 10
369.8742386013084
 20
527.8986939668291
 30
0.0
 11
369.8742386013084
 21
510.7825739668291
 31
0.0
  0
LINE
  5
3221
330
1F
100
AcDbEntity
  8
0
  6
Continuous
 62
     7
100
AcDbLine
 10
286.8742386013084
 20
528.8675939668292
 30
0.0
 11
286.8742386013084
 21
520.8668339668291
 31
0.0
  0
LINE
  5
3222
330
1F
100
AcDbEntity
  8
ﾁｭｳｼﾝｾﾝ1
 48
0.7
100
AcDbLine
 10
351.4621286013084
 20
521.8406539668292
 30
0.0
 11
368.2863486013083
 21
521.8406539668292
 31
0.0
  0
LINE
  5
3223
330
1F
100
AcDbEntity
  8
0
  6
Continuous
 62
     7
100
AcDbLine
 10
309.8742686013084
 20
524.3406539668292
 30
0.0
 11
318.3354786013085
 21
524.1190939668288
 31
0.0
  0
LINE
  5
3224
330
1F
100
AcDbEntity
  8
0
  6
Continuous
 62
     7
100
AcDbLine
 10
320.8742386013084
 20
507.074293966829
 30
0.0
 11
320.8742386013084
 21
523.7223339668291
 31
0.0
  0
LINE
  5
3225
330
1F
100
AcDbEntity
  8
0
  6
Continuous
 62
     7
100
AcDbLine
 10
322.8742386013084
 20
421.6070039668291
 30
0.0
 11
322.8742386013084
 21
507.074293966829
 31
0.0
  0
LINE
  5
3226
330
1F
100
AcDbEntity
  8
0
  6
Continuous
 62
     7
100
AcDbLine
 10
309.8742386013086
 20
519.8669839668291
 30
0.0
 11
320.8742386013084
 21
519.8669839668291
 31
0.0
  0
LINE
  5
3227
330
1F
100
AcDbEntity
  8
0
  6
Continuous
 62
     7
100
AcDbLine
 10
309.8742386013086
 20
408.8143139668291
 30
0.0
 11
320.8742386013084
 21
408.8143139668291
 31
0.0
  0
LINE
  5
3228
330
1F
100
AcDbEntity
  8
0
  6
Continuous
 62
     7
100
AcDbLine
 10
329.8372786013085
 20
518.8777939668291
 30
0.0
 11
323.0736686013084
 21
522.7827539668291
 31
0.0
  0
LINE
  5
3229
330
1F
100
AcDbEntity
  8
0
  6
Continuous
 62
     7
100
AcDbLine
 10
320.8742386013084
 20
507.074293966829
 30
0.0
 11
322.8742386013084
 21
507.074293966829
 31
0.0
  0
LINE
  5
322A
330
1F
100
AcDbEntity
  8
0
  6
Continuous
 62
     7
100
AcDbLine
 10
346.8632186013085
 20
517.2197139668291
 30
0.0
 11
334.5754986013085
 21
517.5414839668292
 31
0.0
  0
LINE
  5
322B
330
1F
100
AcDbEntity
  8
0
  6
Continuous
 62
     7
100
AcDbLine
 10
334.3723486013085
 20
505.662483966829
 30
0.0
 11
322.8742386013084
 21
507.074293966829
 31
0.0
  0
LINE
  5
322C
330
1F
100
AcDbEntity
  8
0
  6
Continuous
 62
     7
100
AcDbLine
 10
354.8742386013084
 20
504.9465439668288
 30
0.0
 11
334.3723786013085
 21
505.662483966829
 31
0.0
  0
LINE
  5
322D
330
1F
100
AcDbEntity
  8
0
  6
Continuous
 62
     7
100
AcDbLine
 10
329.8372786013085
 20
409.8034839668291
 30
0.0
 11
323.0736986013085
 21
405.8985439668291
 31
0.0
  0
LINE
  5
322E
330
1F
100
AcDbEntity
  8
0
  6
Continuous
 62
     7
100
AcDbLine
 10
320.8742386013084
 20
421.6070039668291
 30
0.0
 11
320.8742386013084
 21
404.958963966829
 31
0.0
  0
LINE
  5
322F
330
1F
100
AcDbEntity
  8
0
  6
Continuous
 62
     7
100
AcDbLine
 10
354.8742386013084
 20
423.7347239668292
 30
0.0
 11
334.3723486013085
 21
423.018783966829
 31
0.0
  0
LINE
  5
3230
330
1F
100
AcDbEntity
  8
0
  6
Continuous
 62
     7
100
AcDbLine
 10
334.3723486013085
 20
423.0188139668291
 30
0.0
 11
322.8742386013084
 21
421.6070039668291
 31
0.0
  0
LINE
  5
3231
330
1F
100
AcDbEntity
  8
0
  6
Continuous
 62
     7
100
AcDbLine
 10
320.8742386013084
 20
421.6070039668291
 30
0.0
 11
322.8742386013084
 21
421.6070039668291
 31
0.0
  0
LINE
  5
3232
330
1F
100
AcDbEntity
  8
0
  6
Continuous
 62
     7
100
AcDbLine
 10
346.8632186013085
 20
411.4615939668291
 30
0.0
 11
334.5754986013085
 21
411.1398139668291
 31
0.0
  0
LINE
  5
3233
330
1F
100
AcDbEntity
  8
0
  6
Continuous
 62
     7
100
AcDbLine
 10
321.8742386013086
 20
420.1329139668291
 30
0.0
 11
324.8742386013084
 21
420.1329139668291
 31
0.0
  0
LINE
  5
3234
330
1F
100
AcDbEntity
  8
0
  6
Continuous
 62
     7
100
AcDbLine
 10
321.8742386013086
 20
408.5858639668291
 30
0.0
 11
324.8742386013084
 21
408.5858639668291
 31
0.0
  0
LINE
  5
3235
330
1F
100
AcDbEntity
  8
0
  6
Continuous
 62
     7
100
AcDbLine
 10
321.8742386013086
 20
417.2461339668291
 30
0.0
 11
324.8742386013084
 21
417.2461339668291
 31
0.0
  0
LINE
  5
3236
330
1F
100
AcDbEntity
  8
0
  6
Continuous
 62
     7
100
AcDbLine
 10
325.8742386013086
 20
409.5858939668291
 30
0.0
 11
325.8742386013086
 21
419.1329139668291
 31
0.0
  0
LINE
  5
3237
330
1F
100
AcDbEntity
  8
0
  6
Continuous
 62
     7
100
AcDbLine
 10
321.8742386013086
 20
411.4726339668291
 30
0.0
 11
324.8742386013084
 21
411.4726339668291
 31
0.0
  0
LINE
  5
3238
330
1F
100
AcDbEntity
  8
0
  6
Continuous
 62
     7
100
AcDbLine
 10
320.8742386013084
 20
408.0858939668289
 30
0.0
 11
321.8742386013086
 21
408.0858939668289
 31
0.0
  0
LINE
  5
3239
330
1F
100
AcDbEntity
  8
0
  6
Continuous
 62
     7
100
AcDbLine
 10
320.8742386013084
 20
420.6328839668291
 30
0.0
 11
321.8742386013086
 21
420.6328839668291
 31
0.0
  0
LINE
  5
323A
330
1F
100
AcDbEntity
  8
0
  6
Continuous
 62
     7
100
AcDbLine
 10
321.8742386013086
 20
420.6328839668291
 30
0.0
 11
321.8742386013086
 21
408.0858939668289
 31
0.0
  0
LINE
  5
323B
330
1F
100
AcDbEntity
  8
0
  6
Continuous
 62
     7
100
AcDbLine
 10
321.8742386013086
 20
508.048383966829
 30
0.0
 11
321.8742386013086
 21
520.5954139668291
 31
0.0
  0
LINE
  5
323C
330
1F
100
AcDbEntity
  8
0
  6
Continuous
 62
     7
100
AcDbLine
 10
320.8742386013084
 20
508.048383966829
 30
0.0
 11
321.8742386013086
 21
508.048383966829
 31
0.0
  0
LINE
  5
323D
330
1F
100
AcDbEntity
  8
0
  6
Continuous
 62
     7
100
AcDbLine
 10
320.8742386013084
 20
520.5954139668291
 30
0.0
 11
321.8742386013086
 21
520.5954139668291
 31
0.0
  0
LINE
  5
323E
330
1F
100
AcDbEntity
  8
0
  6
Continuous
 62
     7
100
AcDbLine
 10
321.8742386013086
 20
517.2086639668291
 30
0.0
 11
324.8742386013084
 21
517.2086639668291
 31
0.0
  0
LINE
  5
323F
330
1F
100
AcDbEntity
  8
0
  6
Continuous
 62
     7
100
AcDbLine
 10
325.8742386013086
 20
519.095413966829
 30
0.0
 11
325.8742386013086
 21
509.5483839668291
 31
0.0
  0
LINE
  5
3240
330
1F
100
AcDbEntity
  8
0
  6
Continuous
 62
     7
100
AcDbLine
 10
321.8742386013086
 20
511.4351339668291
 30
0.0
 11
324.8742386013084
 21
511.4351339668291
 31
0.0
  0
LINE
  5
3241
330
1F
100
AcDbEntity
  8
0
  6
Continuous
 62
     7
100
AcDbLine
 10
321.8742386013086
 20
520.095413966829
 30
0.0
 11
324.8742386013084
 21
520.095413966829
 31
0.0
  0
LINE
  5
3242
330
1F
100
AcDbEntity
  8
0
  6
Continuous
 62
     7
100
AcDbLine
 10
321.8742386013086
 20
508.5483839668291
 30
0.0
 11
324.8742386013084
 21
508.5483839668291
 31
0.0
  0
LINE
  5
3243
330
1F
100
AcDbEntity
  8
0
  6
Continuous
 62
     7
100
AcDbLine
 10
303.8742386013084
 20
406.446083966829
 30
0.0
 11
303.8742386013084
 21
522.2352139668291
 31
0.0
  0
LINE
  5
3244
330
1F
100
AcDbEntity
  8
0
  6
Continuous
 62
     7
100
AcDbLine
 10
309.8742686013084
 20
404.3406239668289
 30
0.0
 11
305.8219286013085
 21
404.4467639668291
 31
0.0
  0
LINE
  5
3245
330
1F
100
AcDbEntity
  8
0
  6
Continuous
 62
     7
100
AcDbLine
 10
305.8218986013085
 20
524.234543966829
 30
0.0
 11
309.8742386013086
 21
524.3406539668292
 31
0.0
  0
LINE
  5
3247
330
1F
100
AcDbEntity
  8
0
  6
Continuous
 62
     7
100
AcDbLine
 10
285.8742686013084
 20
520.8406539668292
 30
0.0
 11
295.8685986013085
 21
521.102333966829
 31
0.0
  0
LINE
  5
3248
330
1F
100
AcDbEntity
  8
0
  6
Continuous
 62
     7
100
AcDbLine
 10
294.8742386013084
 20
512.5249439668291
 30
0.0
 11
294.8742386013084
 21
519.3735739668287
 31
0.0
  0
LINE
  5
3249
330
1F
100
AcDbEntity
  8
0
  6
Continuous
 62
     7
100
AcDbLine
 10
296.8218986013085
 20
521.3729039668292
 30
0.0
 11
302.5029286013086
 21
521.5216839668292
 31
0.0
  0
LINE
  5
324A
330
1F
100
AcDbEntity
  8
0
  6
Continuous
 62
     7
100
AcDbLine
 10
285.8742386013084
 20
510.3409539668292
 30
0.0
 11
301.9266086013085
 21
510.761273966829
 31
0.0
  0
LINE
  5
324B
330
1F
100
AcDbEntity
  8
0
  6
Continuous
 62
     7
100
AcDbLine
 10
296.8218986013085
 20
407.3083939668288
 30
0.0
 11
302.5028986013085
 21
407.1596239668291
 31
0.0
  0
LINE
  5
324C
330
1F
100
AcDbEntity
  8
0
  6
Continuous
 62
     7
100
AcDbLine
 10
285.8742686013084
 20
407.8406539668289
 30
0.0
 11
295.8685986013085
 21
407.5789339668289
 31
0.0
  0
LINE
  5
324D
330
1F
100
AcDbEntity
  8
0
  6
Continuous
 62
     7
100
AcDbLine
 10
294.8742386013084
 20
416.1563539668291
 30
0.0
 11
294.8742386013084
 21
409.3076939668288
 31
0.0
  0
LINE
  5
324E
330
1F
100
AcDbEntity
  8
0
  6
Continuous
 62
     7
100
AcDbLine
 10
285.8742686013084
 20
418.340343966829
 30
0.0
 11
301.9266086013085
 21
417.919993966829
 31
0.0
  0
LINE
  5
324F
330
1F
100
AcDbEntity
  8
0
  6
Continuous
 62
     7
100
AcDbLine
 10
285.8742386013084
 20
432.400673966829
 30
0.0
 11
301.8742386013084
 21
432.400673966829
 31
0.0
  0
LINE
  5
3250
330
1F
100
AcDbEntity
  8
0
  6
Continuous
 62
     7
100
AcDbLine
 10
285.8742386013084
 20
496.2805639668292
 30
0.0
 11
301.8742386013084
 21
496.2805639668292
 31
0.0
  0
ARC
  5
3251
330
1F
100
AcDbEntity
  8
0
  6
Continuous
 62
     7
100
AcDbCircle
 10
368.8742386013084
 20
443.3141339668291
 30
0.0
 40
1.0
100
AcDbArc
 50
91.50000100000154
 51
180.000010000001
  0
ARC
  5
3252
330
1F
100
AcDbEntity
  8
0
  6
Continuous
 62
     7
100
AcDbCircle
 10
368.8742386013084
 20
485.3671739668292
 30
0.0
 40
1.0
100
AcDbArc
 50
179.999989999999
 51
268.5000099999988
  0
ARC
  5
3253
330
1F
100
AcDbEntity
  8
0
  6
Continuous
 62
     7
100
AcDbCircle
 10
368.8742386013084
 20
445.314803966829
 30
0.0
 40
1.0
100
AcDbArc
 50
271.4999999999995
 51
0.0
  0
ARC
  5
3254
330
1F
100
AcDbEntity
  8
0
  6
Continuous
 62
     7
100
AcDbCircle
 10
368.8742386013084
 20
483.366493966829
 30
0.0
 40
1.0
100
AcDbArc
 50
0.0
 51
88.49999700000074
  0
ARC
  5
3255
330
1F
100
AcDbEntity
  8
0
  6
Continuous
 62
     7
100
AcDbCircle
 10
377.8742386013084
 20
464.3406239668291
 30
0.0
 40
3.0
100
AcDbArc
 50
89.98601399999925
 51
270.01399
  0
ARC
  5
3256
330
1F
100
AcDbEntity
  8
0
  6
Continuous
 62
     7
100
AcDbCircle
 10
309.8742386013086
 20
395.340983966829
 30
0.0
 40
1.0
100
AcDbArc
 50
180.000010000001
 51
268.5000000000005
  0
ARC
  5
3257
330
1F
100
AcDbEntity
  8
0
  6
Continuous
 62
     7
100
AcDbCircle
 10
364.8742386013084
 20
425.1035239668291
 30
0.0
 40
3.0
100
AcDbArc
 50
271.4999999999995
 51
0.0
  0
ARC
  5
3258
330
1F
100
AcDbEntity
  8
0
  6
Continuous
 62
     7
100
AcDbCircle
 10
310.8742386013084
 20
396.3675339668291
 30
0.0
 40
2.0
100
AcDbArc
 50
271.4999999999995
 51
0.0
  0
ARC
  5
3259
330
1F
100
AcDbEntity
  8
0
  6
Continuous
 62
     7
100
AcDbCircle
 10
310.8742386013084
 20
402.366133966829
 30
0.0
 40
2.0
100
AcDbArc
 50
0.0
 51
91.50000100000154
  0
ARC
  5
325A
330
1F
100
AcDbEntity
  8
0
  6
Continuous
 62
     7
100
AcDbCircle
 10
351.8742386013084
 20
415.524973966829
 30
0.0
 40
3.0
100
AcDbArc
 50
271.4999999999995
 51
0.0
  0
ARC
  5
325B
330
1F
100
AcDbEntity
  8
0
  6
Continuous
 62
     7
100
AcDbCircle
 10
347.8742386013084
 20
398.3367139668292
 30
0.0
 40
3.0
100
AcDbArc
 50
180.000010000001
 51
271.4999999999995
  0
ARC
  5
325C
330
1F
100
AcDbEntity
  8
0
  6
Continuous
 62
     7
100
AcDbCircle
 10
349.8742386013087
 20
407.4698639668291
 30
0.0
 40
5.0
100
AcDbArc
 50
91.50000100000154
 51
180.000010000001
  0
ARC
  5
325D
330
1F
100
AcDbEntity
  8
0
  6
Continuous
 62
     7
100
AcDbCircle
 10
359.8742386013084
 20
416.9698639668292
 30
0.0
 40
5.0
100
AcDbArc
 50
91.50000100000154
 51
180.000010000001
  0
ARC
  5
325E
330
1F
100
AcDbEntity
  8
0
  6
Continuous
 62
     7
100
AcDbCircle
 10
311.8742386013084
 20
399.2899939668291
 30
0.0
 40
1.0
100
AcDbArc
 50
268.5000000000005
 51
0.0000006832462478
  0
ARC
  5
325F
330
1F
100
AcDbEntity
  8
0
  6
Continuous
 62
     7
100
AcDbCircle
 10
309.8742386013086
 20
397.341653966829
 30
0.0
 40
1.0
100
AcDbArc
 50
88.49999700000074
 51
180.000010000001
  0
ARC
  5
3260
330
1F
100
AcDbEntity
  8
ｶｸﾚｾﾝ2
 48
1.5
100
AcDbCircle
 10
296.8742386013086
 20
406.840623966829
 30
0.0
 40
5.0
100
AcDbArc
 50
3.850127299999396
 51
170.3165899999986
  0
CIRCLE
  5
3261
330
1F
100
AcDbEntity
  8
0
  6
Continuous
 62
     7
100
AcDbCircle
 10
359.8742386013084
 20
406.840623966829
 30
0.0
 40
5.0
  0
ARC
  5
3262
330
1F
100
AcDbEntity
  8
0
  6
Continuous
 62
     7
100
AcDbCircle
 10
291.8742386013084
 20
399.8137039668289
 30
0.0
 40
5.0
100
AcDbArc
 50
180.000010000001
 51
268.5000000000005
  0
ARC
  5
3263
330
1F
100
AcDbEntity
  8
0
  6
Continuous
 62
     7
100
AcDbCircle
 10
364.8742386013084
 20
417.8987239668291
 30
0.0
 40
5.0
100
AcDbArc
 50
0.0
 51
70.48533900000079
  0
ARC
  5
3264
330
1F
100
AcDbEntity
  8
0
  6
Continuous
 62
     7
100
AcDbCircle
 10
364.8742386013084
 20
400.7825739668291
 30
0.0
 40
5.0
100
AcDbArc
 50
271.4999999999995
 51
0.0
  0
ARC
  5
3265
330
1F
100
AcDbEntity
  8
0
  6
Continuous
 62
     7
100
AcDbCircle
 10
309.8742386013086
 20
533.340313966829
 30
0.0
 40
1.0
100
AcDbArc
 50
91.50000100000154
 51
180.000010000001
  0
ARC
  5
3266
330
1F
100
AcDbEntity
  8
0
  6
Continuous
 62
     7
100
AcDbCircle
 10
364.8742386013084
 20
503.577743966829
 30
0.0
 40
3.0
100
AcDbArc
 50
0.0
 51
88.49999700000074
  0
ARC
  5
3267
330
1F
100
AcDbEntity
  8
0
  6
Continuous
 62
     7
100
AcDbCircle
 10
310.8742386013084
 20
532.3137639668291
 30
0.0
 40
2.0
100
AcDbArc
 50
0.0
 51
88.49999700000074
  0
ARC
  5
3268
330
1F
100
AcDbEntity
  8
0
  6
Continuous
 62
     7
100
AcDbCircle
 10
310.8742386013084
 20
526.315133966829
 30
0.0
 40
2.0
100
AcDbArc
 50
268.5000000000005
 51
0.0000006832462478
  0
ARC
  5
3269
330
1F
100
AcDbEntity
  8
0
  6
Continuous
 62
     7
100
AcDbCircle
 10
351.8742386013084
 20
513.1562939668291
 30
0.0
 40
3.0
100
AcDbArc
 50
0.0
 51
88.49999700000074
  0
ARC
  5
326A
330
1F
100
AcDbEntity
  8
0
  6
Continuous
 62
     7
100
AcDbCircle
 10
347.8742386013084
 20
530.3445539668291
 30
0.0
 40
3.0
100
AcDbArc
 50
88.49999700000074
 51
180.000010000001
  0
ARC
  5
326B
330
1F
100
AcDbEntity
  8
0
  6
Continuous
 62
     7
100
AcDbCircle
 10
349.8742386013087
 20
521.2114039668291
 30
0.0
 40
5.0
100
AcDbArc
 50
180.000010000001
 51
268.5000000000005
  0
ARC
  5
326C
330
1F
100
AcDbEntity
  8
0
  6
Continuous
 62
     7
100
AcDbCircle
 10
359.8742386013084
 20
511.7114039668289
 30
0.0
 40
5.0
100
AcDbArc
 50
180.000010000001
 51
268.5000000000005
  0
ARC
  5
326D
330
1F
100
AcDbEntity
  8
0
  6
Continuous
 62
     7
100
AcDbCircle
 10
311.8742386013084
 20
529.3913139668291
 30
0.0
 40
1.0
100
AcDbArc
 50
0.0
 51
91.50000100000154
  0
ARC
  5
326E
330
1F
100
AcDbEntity
  8
0
  6
Continuous
 62
     7
100
AcDbCircle
 10
309.8742386013086
 20
531.3396139668291
 30
0.0
 40
1.0
100
AcDbArc
 50
180.000010000001
 51
271.4999999999995
  0
CIRCLE
  5
326F
330
1F
100
AcDbEntity
  8
0
  6
Continuous
 62
     7
100
AcDbCircle
 10
359.8742386013084
 20
521.8406539668292
 30
0.0
 40
5.0
  0
ARC
  5
3270
330
1F
100
AcDbEntity
  8
0
  6
Continuous
 62
     7
100
AcDbCircle
 10
291.8742386013084
 20
528.8675939668292
 30
0.0
 40
5.0
100
AcDbArc
 50
91.50000100000154
 51
180.000010000001
  0
ARC
  5
3271
330
1F
100
AcDbEntity
  8
0
  6
Continuous
 62
     7
100
AcDbCircle
 10
364.8742386013084
 20
510.7825739668291
 30
0.0
 40
5.0
100
AcDbArc
 50
289.5146699999996
 51
0.0
  0
ARC
  5
3272
330
1F
100
AcDbEntity
  8
0
  6
Continuous
 62
     7
100
AcDbCircle
 10
364.8742386013084
 20
527.8986939668291
 30
0.0
 40
5.0
100
AcDbArc
 50
0.0
 51
88.49999700000074
  0
ARC
  5
3273
330
1F
100
AcDbEntity
  8
0
  6
Continuous
 62
     7
100
AcDbCircle
 10
402.8742386013083
 20
464.3406239668291
 30
0.0
 40
80.0
100
AcDbArc
 50
148.9006799999989
 51
211.0993000000006
  0
ARC
  5
3274
330
1F
100
AcDbEntity
  8
0
  6
Continuous
 62
     7
100
AcDbCircle
 10
324.8742386013084
 20
418.246133966829
 30
0.0
 40
1.0
100
AcDbArc
 50
269.999989999999
 51
0.0000006832462478
  0
ARC
  5
3275
330
1F
100
AcDbEntity
  8
0
  6
Continuous
 62
     7
100
AcDbCircle
 10
324.8742386013084
 20
412.4726339668291
 30
0.0
 40
1.0
100
AcDbArc
 50
269.999989999999
 51
0.0000006832462478
  0
ARC
  5
3276
330
1F
100
AcDbEntity
  8
0
  6
Continuous
 62
     7
100
AcDbCircle
 10
324.8742386013084
 20
409.5858939668291
 30
0.0
 40
1.0
100
AcDbArc
 50
269.999989999999
 51
0.0000006832462478
  0
ARC
  5
3277
330
1F
100
AcDbEntity
  8
0
  6
Continuous
 62
     7
100
AcDbCircle
 10
324.8742386013084
 20
416.246133966829
 30
0.0
 40
1.0
100
AcDbArc
 50
0.0
 51
90.00000300000095
  0
ARC
  5
3278
330
1F
100
AcDbEntity
  8
0
  6
Continuous
 62
     7
100
AcDbCircle
 10
324.8742386013084
 20
419.1329139668291
 30
0.0
 40
1.0
100
AcDbArc
 50
0.0
 51
90.00000300000095
  0
ARC
  5
3279
330
1F
100
AcDbEntity
  8
0
  6
Continuous
 62
     7
100
AcDbCircle
 10
324.8742386013084
 20
410.4726339668292
 30
0.0
 40
1.0
100
AcDbArc
 50
0.0
 51
90.00000300000095
  0
ARC
  5
327A
330
1F
100
AcDbEntity
  8
0
  6
Continuous
 62
     7
100
AcDbCircle
 10
324.8742386013084
 20
518.2086639668291
 30
0.0
 40
1.0
100
AcDbArc
 50
269.999989999999
 51
0.0000006832462478
  0
ARC
  5
327B
330
1F
100
AcDbEntity
  8
0
  6
Continuous
 62
     7
100
AcDbCircle
 10
324.8742386013084
 20
509.5483839668291
 30
0.0
 40
1.0
100
AcDbArc
 50
269.999989999999
 51
0.0000006832462478
  0
ARC
  5
327C
330
1F
100
AcDbEntity
  8
0
  6
Continuous
 62
     7
100
AcDbCircle
 10
324.8742386013084
 20
512.4351639668289
 30
0.0
 40
1.0
100
AcDbArc
 50
269.999989999999
 51
0.0000006832462478
  0
ARC
  5
327D
330
1F
100
AcDbEntity
  8
0
  6
Continuous
 62
     7
100
AcDbCircle
 10
324.8742386013084
 20
519.095413966829
 30
0.0
 40
1.0
100
AcDbArc
 50
0.0
 51
90.00000300000095
  0
ARC
  5
327E
330
1F
100
AcDbEntity
  8
0
  6
Continuous
 62
     7
100
AcDbCircle
 10
324.8742386013084
 20
516.2086639668291
 30
0.0
 40
1.0
100
AcDbArc
 50
0.0
 51
90.00000300000095
  0
ARC
  5
327F
330
1F
100
AcDbEntity
  8
0
  6
Continuous
 62
     7
100
AcDbCircle
 10
324.8742386013084
 20
510.4351639668291
 30
0.0
 40
1.0
100
AcDbArc
 50
0.0
 51
90.00000300000095
  0
ARC
  5
3280
330
1F
100
AcDbEntity
  8
0
  6
Continuous
 62
     7
100
AcDbCircle
 10
305.8742386013086
 20
522.2352139668291
 30
0.0
 40
2.0
100
AcDbArc
 50
91.50000100000154
 51
180.000010000001
  0
ARC
  5
3281
330
1F
100
AcDbEntity
  8
0
  6
Continuous
 62
     7
100
AcDbCircle
 10
305.8742386013086
 20
406.446083966829
 30
0.0
 40
2.0
100
AcDbArc
 50
180.000010000001
 51
268.5000000000005
  0
ARC
  5
3282
330
1F
100
AcDbEntity
  8
0
  6
Continuous
 62
     7
100
AcDbCircle
 10
302.4636586013084
 20
523.0211639668291
 30
0.0
 40
1.5
100
AcDbArc
 50
271.4999999999995
 51
347.0233499999992
  0
ARC
  5
3283
330
1F
100
AcDbEntity
  8
0
  6
Continuous
 62
     7
100
AcDbCircle
 10
296.8742386013086
 20
519.3735739668287
 30
0.0
 40
2.0
100
AcDbArc
 50
91.50000100000154
 51
180.000010000001
  0
ARC
  5
3284
330
1F
100
AcDbEntity
  8
0
  6
Continuous
 62
     7
100
AcDbCircle
 10
301.8742386013084
 20
512.7606039668291
 30
0.0
 40
2.0
100
AcDbArc
 50
271.4999999999995
 51
0.0
  0
ARC
  5
3285
330
1F
100
AcDbEntity
  8
0
  6
Continuous
 62
     7
100
AcDbCircle
 10
292.8742386013086
 20
512.5249439668291
 30
0.0
 40
2.0
100
AcDbArc
 50
271.4999999999995
 51
0.0
  0
ARC
  5
3286
330
1F
100
AcDbEntity
  8
0
  6
Continuous
 62
     7
100
AcDbCircle
 10
292.8742386013086
 20
416.1563539668291
 30
0.0
 40
2.0
100
AcDbArc
 50
0.0
 51
88.49999700000074
  0
ARC
  5
3287
330
1F
100
AcDbEntity
  8
0
  6
Continuous
 62
     7
100
AcDbCircle
 10
296.8742386013086
 20
409.3076939668288
 30
0.0
 40
2.0
100
AcDbArc
 50
180.000010000001
 51
268.5000000000005
  0
ARC
  5
3288
330
1F
100
AcDbEntity
  8
0
  6
Continuous
 62
     7
100
AcDbCircle
 10
302.4636586013084
 20
405.6601339668291
 30
0.0
 40
1.5
100
AcDbArc
 50
12.97665300000153
 51
88.49999700000074
  0
ARC
  5
3289
330
1F
100
AcDbEntity
  8
0
  6
Continuous
 62
     7
100
AcDbCircle
 10
301.8742386013084
 20
415.920693966829
 30
0.0
 40
2.0
100
AcDbArc
 50
0.0
 51
88.49999700000074
  0
ARC
  5
328A
330
1F
100
AcDbEntity
  8
0
  6
Continuous
 62
     7
100
AcDbCircle
 10
296.8742386013086
 20
406.840623966829
 30
0.0
 40
5.0
100
AcDbArc
 50
170.3165899999986
 51
3.850132999999141
  0
ARC
  5
328B
330
1F
100
AcDbEntity
  8
ｶｸﾚｾﾝ2
 48
1.5
100
AcDbCircle
 10
296.8742386013086
 20
521.8406539668292
 30
0.0
 40
5.0
100
AcDbArc
 50
189.6834100000013
 51
356.1498800000011
  0
ARC
  5
328C
330
1F
100
AcDbEntity
  8
0
  6
Continuous
 62
     7
100
AcDbCircle
 10
296.8742386013086
 20
521.8406539668292
 30
0.0
 40
5.0
100
AcDbArc
 50
356.1498700000015
 51
189.6834100000013
  0
ARC
  5
328D
330
1F
100
AcDbEntity
  8
0
  6
Continuous
 62
     7
100
AcDbCircle
 10
334.8372486013086
 20
401.1432339668291
 30
0.0
 40
10.0
100
AcDbArc
 50
91.50000100000154
 51
120.0000000000005
  0
ARC
  5
328E
330
1F
100
AcDbEntity
  8
0
  6
Continuous
 62
     7
100
AcDbCircle
 10
334.8372486013086
 20
527.5380639668291
 30
0.0
 40
10.0
100
AcDbArc
 50
239.9999999999995
 51
268.5000000000005
  0
ARC
  5
328F
330
1F
100
AcDbEntity
  8
0
  6
Continuous
 62
     7
100
AcDbCircle
 10
318.0736986013084
 20
514.1225139668291
 30
0.0
 40
10.0
100
AcDbArc
 50
60.0000020000013
 51
88.49999700000074
  0
ARC
  5
3290
330
1F
100
AcDbEntity
  8
0
  6
Continuous
 62
     7
100
AcDbCircle
 10
318.0736986013084
 20
414.5587639668289
 30
0.0
 40
10.0
100
AcDbArc
 50
271.4999999999995
 51
300.0000100000008
  0
ARC
  5
3291
330
1F
100
AcDbEntity
  8
0
  6
Continuous
 62
     7
100
AcDbCircle
 10
301.8742386013084
 20
430.400673966829
 30
0.0
 40
2.0
100
AcDbArc
 50
0.0
 51
90.00000300000095
  0
ARC
  5
3292
330
1F
100
AcDbEntity
  8
0
  6
Continuous
 62
     7
100
AcDbCircle
 10
301.8742386013084
 20
498.2805639668289
 30
0.0
 40
2.0
100
AcDbArc
 50
270.0
 51
0.0
  0
CIRCLE
  5
32D9
330
1F
100
AcDbEntity
  8
0
100
AcDbCircle
 10
242.3742536013071
 20
475.340623966829
 30
0.0
 40
10.0
  0
LINE
  5
32EA
330
1F
100
AcDbEntity
  8
ﾁｭｳｼﾝｾﾝ1
100
AcDbLine
 10
218.135893704934
 20
464.3406239668291
 30
0.0
 11
402.8742386013083
 21
464.3406239668291
 31
0.0
1001
GENIUS_GENOBJ-N-CEN_13
1002
{
1000
OWNER
1000
GEN
1002
}
1001
GENIUS_GENODEF_13
1002
{
1000
HIER
1070
     0
1002
}
1002
{
1000
MANEDIT
1070
     0
1002
}
1002
{
1000
NOSEL
1070
     0
1002
}
1002
{
1000
BEHIND
1070
     0
1002
}
1002
{
1000
OTHER
1070
     0
1002
}
1002
{
1000
REACTOR
1002
}
1001
GENIUS_GENCEN_19
1002
{
1040
3.0
1002
}
  0
LINE
  5
3328
330
1F
100
AcDbEntity
  8
ﾁｭｳｼﾝｾﾝ1
 48
0.7
100
AcDbLine
 10
242.3742536013071
 20
488.340623966829
 30
0.0
 11
242.374253601307
 21
462.340623966829
 31
0.0
1001
GENIUS_GENODEF_13
1002
{
1000
HIER
1070
     0
1002
}
1002
{
1000
MANEDIT
1070
     0
1002
}
1002
{
1000
NOSEL
1070
     0
1002
}
1002
{
1000
BEHIND
1070
     0
1002
}
1002
{
1000
OTHER
1070
     0
1002
}
1002
{
1000
REACTOR
1002
}
1001
GENIUS_GENOBJ-N-CEN_13
1002
{
1000
OWNER
1000
GEN
1002
}
1001
GENIUS_GENCEN_19
1002
{
1040
3.0
1002
}
  0
CIRCLE
  5
3336
330
1F
100
AcDbEntity
  8
AM_0
100
AcDbCircle
 10
242.3742536013071
 20
475.340623966829
 30
0.0
 40
8.500000000000056
  0
CIRCLE
  5
3337
330
1F
100
AcDbEntity
  8
AM_0
100
AcDbCircle
 10
242.3742536013071
 20
475.340623966829
 30
0.0
 40
8.999999999999971
  0
LINE
  5
3338
330
1F
100
AcDbEntity
  8
AM_0
100
AcDbLine
 10
243.3742536013071
 20
480.340623966829
 30
0.0
 11
243.374253601307
 21
470.340623966829
 31
0.0
1001
GENIUS_GENODEF_13
1002
{
1000
HIER
1070
     0
1002
}
1002
{
1000
MANEDIT
1070
     0
1002
}
1002
{
1000
NOSEL
1070
     0
1002
}
1002
{
1000
BEHIND
1070
     0
1002
}
1002
{
1000
OTHER
1070
     0
1002
}
1002
{
1000
REACTOR
1002
}
1001
GENIUS_GENOBJ-N-CEN_13
1002
{
1000
OWNER
1000
GEN
1002
}
1001
GENIUS_GENCEN_19
1002
{
1040
3.0
1002
}
  0
LINE
  5
3339
330
1F
100
AcDbEntity
  8
AM_0
100
AcDbLine
 10
241.3742536013071
 20
480.340623966829
 30
0.0
 11
241.3742536013071
 21
470.340623966829
 31
0.0
1001
GENIUS_GENODEF_13
1002
{
1000
HIER
1070
     0
1002
}
1002
{
1000
MANEDIT
1070
     0
1002
}
1002
{
1000
NOSEL
1070
     0
1002
}
1002
{
1000
BEHIND
1070
     0
1002
}
1002
{
1000
OTHER
1070
     0
1002
}
1002
{
1000
REACTOR
1002
}
1001
GENIUS_GENOBJ-N-CEN_13
1002
{
1000
OWNER
1000
GEN
1002
}
1001
GENIUS_GENCEN_19
1002
{
1040
3.0
1002
}
  0
ARC
  5
333E
330
1F
100
AcDbEntity
  8
AM_0
100
AcDbCircle
 10
242.3742536013071
 20
480.340623966829
 30
0.0
 40
1.0
100
AcDbArc
 50
0.0
 51
180.0
  0
ARC
  5
333F
330
1F
100
AcDbEntity
  8
AM_0
100
AcDbCircle
 10
242.3742536013071
 20
470.340623966829
 30
0.0
 40
1.0
100
AcDbArc
 50
180.0
 51
0.0
  0
LINE
  5
334C
330
1F
100
AcDbEntity
  8
ﾁｭｳｼﾝｾﾝ1
 48
0.7
100
AcDbLine
 10
229.3742536013071
 20
475.340623966829
 30
0.0
 11
255.3742536013071
 21
475.340623966829
 31
0.0
1001
GENIUS_GENOBJ-N-CEN_13
1002
{
1000
OWNER
1000
GEN
1002
}
1001
GENIUS_GENODEF_13
1002
{
1000
HIER
1070
     0
1002
}
1002
{
1000
MANEDIT
1070
     0
1002
}
1002
{
1000
NOSEL
1070
     0
1002
}
1002
{
1000
BEHIND
1070
     0
1002
}
1002
{
1000
OTHER
1070
     0
1002
}
1002
{
1000
REACTOR
1002
}
1001
GENIUS_GENCEN_19
1002
{
1040
3.0
1002
}
  0
TEXT
  5
3383
330
1F
100
AcDbEntity
  8
AM_0
100
AcDbText
 10
480.6997694512319
 20
410.0360008555734
 30
0.0
 40
7.5
  1
ＶＸ０２－００５～０３０Ｈ－Ｔ１（Ｔ３）
 41
0.8299999999999998
100
AcDbText
  0
LINE
  5
33DF
330
1F
100
AcDbEntity
  8
AM_0
100
AcDbLine
 10
285.8742386013084
 20
324.1989182211864
 30
0.0
 11
285.8742386013084
 21
212.1989072211865
 31
0.0
  0
LINE
  5
33E0
330
1F
100
AcDbEntity
  8
0
100
AcDbLine
 10
277.8044396079033
 20
324.4171091306931
 30
0.0
 11
285.8742386013084
 21
324.6989127211865
 31
0.0
  0
LINE
  5
33E1
330
1F
100
AcDbEntity
  8
0
100
AcDbLine
 10
277.8044396079034
 20
211.9807163116799
 30
0.0
 11
285.8742386013084
 21
211.6989127211864
 31
0.0
  0
ARC
  5
33E2
330
1F
100
AcDbEntity
  8
0
100
AcDbCircle
 10
277.8742386013084
 20
213.9794979657181
 30
0.0
 40
2.0
100
AcDbArc
 50
180.0
 51
267.9999999999997
1001
GENIUS_GENODEF_13
1002
{
1000
HIER
1070
     0
1002
}
1002
{
1000
MANEDIT
1070
     0
1002
}
1002
{
1000
NOSEL
1070
     0
1002
}
1002
{
1000
BEHIND
1070
     0
1002
}
1002
{
1000
OTHER
1070
     0
1002
}
1002
{
1000
REACTOR
1002
}
1001
GENIUS_GENOBJ-N-FIL_13
1002
{
1000
OWNER
1000
GEN
1002
}
  0
LINE
  5
33E3
330
1F
100
AcDbEntity
  8
0
100
AcDbLine
 10
285.8742386013084
 20
324.6989127211865
 30
0.0
 11
285.8742386013084
 21
211.6989127211864
 31
0.0
  0
LINE
  5
33E4
330
1F
100
AcDbEntity
  8
0
100
AcDbLine
 10
281.8742386013084
 20
211.8385957991534
 30
0.0
 11
281.8742386013084
 21
211.6989127211864
 31
0.0
  0
LINE
  5
33E5
330
1F
100
AcDbEntity
  8
0
100
AcDbLine
 10
275.8742386013083
 20
322.4183274766549
 30
0.0
 11
275.8742386013084
 21
213.9794979657181
 31
0.0
  0
ARC
  5
33E6
330
1F
100
AcDbEntity
  8
0
100
AcDbCircle
 10
277.8742386013083
 20
322.4183274766549
 30
0.0
 40
2.0
100
AcDbArc
 50
92.00000000000034
 51
180.0
1001
GENIUS_GENOBJ-N-FIL_13
1002
{
1000
OWNER
1000
GEN
1002
}
1001
GENIUS_GENODEF_13
1002
{
1000
HIER
1070
     0
1002
}
1002
{
1000
MANEDIT
1070
     0
1002
}
1002
{
1000
NOSEL
1070
     0
1002
}
1002
{
1000
BEHIND
1070
     0
1002
}
1002
{
1000
OTHER
1070
     0
1002
}
1002
{
1000
REACTOR
1002
}
  0
ARC
  5
33E7
330
1F
100
AcDbEntity
  8
0
100
AcDbCircle
 10
270.874238601307
 20
320.2699610330519
 30
0.0
 40
5.0
100
AcDbArc
 50
315.0
 51
0.0
1001
GENIUS_GENOBJ-N-FIL_13
1002
{
1000
OWNER
1000
GEN
1002
}
1001
GENIUS_GENODEF_13
1002
{
1000
HIER
1070
     0
1002
}
1002
{
1000
MANEDIT
1070
     0
1002
}
1002
{
1000
NOSEL
1070
     0
1002
}
1002
{
1000
BEHIND
1070
     0
1002
}
1002
{
1000
OTHER
1070
     0
1002
}
1002
{
1000
REACTOR
1002
}
  0
LINE
  5
33E8
330
1F
100
AcDbEntity
  8
0
100
AcDbLine
 10
258.5152821489065
 20
300.8399367687858
 30
0.0
 11
274.4097725072398
 21
316.7344271271193
 31
0.0
  0
ARC
  5
33E9
330
1F
100
AcDbEntity
  8
0
100
AcDbCircle
 10
254.9797482429738
 20
304.3754706747185
 30
0.0
 40
5.0
100
AcDbArc
 50
272.0000000000004
 51
315.0
1001
GENIUS_GENOBJ-N-FIL_13
1002
{
1000
OWNER
1000
GEN
1002
}
1001
GENIUS_GENODEF_13
1002
{
1000
HIER
1070
     0
1002
}
1002
{
1000
MANEDIT
1070
     0
1002
}
1002
{
1000
NOSEL
1070
     0
1002
}
1002
{
1000
BEHIND
1070
     0
1002
}
1002
{
1000
OTHER
1070
     0
1002
}
1002
{
1000
REACTOR
1002
}
  0
LINE
  5
33EA
330
1F
100
AcDbEntity
  8
0
100
AcDbLine
 10
221.3742536013071
 20
298.1988932211864
 30
0.0
 11
221.3742536013071
 21
238.1988932211864
 31
0.0
  0
LINE
  5
33EC
330
1F
100
AcDbEntity
  8
0
100
AcDbLine
 10
259.1947218991025
 20
299.519613076684
 30
0.0
 11
221.3742536013071
 21
298.1988932211864
 31
0.0
  0
ARC
  5
33ED
330
1F
100
AcDbEntity
  8
0
100
AcDbCircle
 10
270.874238601307
 20
216.127825409321
 30
0.0
 40
5.0
100
AcDbArc
 50
0.0
 51
45.0
1001
GENIUS_GENOBJ-N-FIL_13
1002
{
1000
OWNER
1000
GEN
1002
}
1001
GENIUS_GENODEF_13
1002
{
1000
HIER
1070
     0
1002
}
1002
{
1000
MANEDIT
1070
     0
1002
}
1002
{
1000
NOSEL
1070
     0
1002
}
1002
{
1000
BEHIND
1070
     0
1002
}
1002
{
1000
OTHER
1070
     0
1002
}
1002
{
1000
REACTOR
1002
}
  0
LINE
  5
33EE
330
1F
100
AcDbEntity
  8
0
100
AcDbLine
 10
258.5152821489065
 20
235.557849673587
 30
0.0
 11
274.4097725072398
 21
219.6633593152536
 31
0.0
  0
ARC
  5
33EF
330
1F
100
AcDbEntity
  8
0
100
AcDbCircle
 10
254.9797482429738
 20
232.0223157676542
 30
0.0
 40
5.0
100
AcDbArc
 50
45.0
 51
87.99999999999965
1001
GENIUS_GENOBJ-N-FIL_13
1002
{
1000
OWNER
1000
GEN
1002
}
1001
GENIUS_GENODEF_13
1002
{
1000
HIER
1070
     0
1002
}
1002
{
1000
MANEDIT
1070
     0
1002
}
1002
{
1000
NOSEL
1070
     0
1002
}
1002
{
1000
BEHIND
1070
     0
1002
}
1002
{
1000
OTHER
1070
     0
1002
}
1002
{
1000
REACTOR
1002
}
  0
LINE
  5
33F0
330
1F
100
AcDbEntity
  8
0
100
AcDbLine
 10
259.1947218991025
 20
236.8781733656888
 30
0.0
 11
221.3742536013071
 21
238.1988932211865
 31
0.0
  0
ARC
  5
33F1
330
1F
100
AcDbEntity
  8
図面枠-ｷｲﾛ
100
AcDbCircle
 10
335.4173599391976
 20
268.1988932211864
 30
0.0
 40
75.47521558726231
100
AcDbArc
 50
160.9069053726745
 51
199.0930946273255
  0
ARC
  5
33F2
330
1F
100
AcDbEntity
  8
図面枠-ｷｲﾛ
100
AcDbCircle
 10
259.3692193826151
 20
241.8751275007843
 30
0.0
 40
5.0
100
AcDbArc
 50
267.9999999999997
 51
19.09309462732549
1001
GENIUS_GENOBJ-N-FIL_13
1002
{
1000
OWNER
1000
GEN
1002
}
1001
GENIUS_GENODEF_13
1002
{
1000
HIER
1070
     0
1002
}
1002
{
1000
MANEDIT
1070
     0
1002
}
1002
{
1000
NOSEL
1070
     0
1002
}
1002
{
1000
BEHIND
1070
     0
1002
}
1002
{
1000
OTHER
1070
     0
1002
}
1002
{
1000
REACTOR
1002
}
  0
ARC
  5
33F3
330
1F
100
AcDbEntity
  8
図面枠-ｷｲﾛ
100
AcDbCircle
 10
259.3692193826151
 20
294.5226589415885
 30
0.0
 40
5.0
100
AcDbArc
 50
340.9069053726745
 51
92.00000000000034
1001
GENIUS_GENODEF_13
1002
{
1000
HIER
1070
     0
1002
}
1002
{
1000
MANEDIT
1070
     0
1002
}
1002
{
1000
NOSEL
1070
     0
1002
}
1002
{
1000
BEHIND
1070
     0
1002
}
1002
{
1000
OTHER
1070
     0
1002
}
1002
{
1000
REACTOR
1002
}
1001
GENIUS_GENOBJ-N-FIL_13
1002
{
1000
OWNER
1000
GEN
1002
}
  0
LINE
  5
33F4
330
1F
100
AcDbEntity
  8
AM_0
100
AcDbLine
 10
285.8742386013084
 20
314.1988982211865
 30
0.0
 11
275.8742386013083
 21
314.1988982211865
 31
0.0
  0
LINE
  5
33F5
330
1F
100
AcDbEntity
  8
AM_0
100
AcDbLine
 10
285.8742386013084
 20
300.1363322211865
 30
0.0
 11
275.8742386013083
 21
300.1363322211865
 31
0.0
  0
LINE
  5
33F6
330
1F
100
AcDbEntity
  8
AM_0
100
AcDbLine
 10
285.8742386013084
 20
236.2614542211864
 30
0.0
 11
275.8742386013084
 21
236.2614542211865
 31
0.0
  0
LINE
  5
33F7
330
1F
100
AcDbEntity
  8
AM_0
100
AcDbLine
 10
285.8742386013084
 20
222.1988912211864
 30
0.0
 11
275.8742386013084
 21
222.1988912211864
 31
0.0
  0
LINE
  5
3403
330
1F
100
AcDbEntity
  8
AM_7
  6
AM_ISO08W050x2
 62
     1
370
    25
100
AcDbLine
 10
242.3742536013071
 20
289.47473476017
 30
0.0
 11
242.3742536013071
 21
302.4810484044463
 31
0.0
1001
GENIUS_GENOBJ-N-CEN_13
1002
{
1000
OWNER
1000
GEN
1002
}
1001
GENIUS_GENODEF_13
1002
{
1000
HIER
1070
     0
1002
}
1002
{
1000
MANEDIT
1070
     0
1002
}
1002
{
1000
NOSEL
1070
     0
1002
}
1002
{
1000
BEHIND
1070
     0
1002
}
1002
{
1000
OTHER
1070
     0
1002
}
1002
{
1000
REACTOR
1002
}
1001
GENIUS_GENCEN_19
1002
{
1040
2.794
1002
}
  0
LINE
  5
3413
330
1F
100
AcDbEntity
  8
0
100
AcDbLine
 10
250.8742536013071
 20
299.2290559211933
 30
0.0
 11
250.8742536013071
 21
299.6687347601701
 31
0.0
1001
GENIUS_GENOBJ-N-CEN_13
1002
{
1000
OWNER
1000
GEN
1002
}
1001
GENIUS_GENODEF_13
1002
{
1000
HIER
1070
     0
1002
}
1002
{
1000
MANEDIT
1070
     0
1002
}
1002
{
1000
NOSEL
1070
     0
1002
}
1002
{
1000
BEHIND
1070
     0
1002
}
1002
{
1000
OTHER
1070
     0
1002
}
1002
{
1000
REACTOR
1002
}
1001
GENIUS_GENCEN_19
1002
{
1040
2.794
1002
}
  0
LINE
  5
3414
330
1F
100
AcDbEntity
  8
0
100
AcDbLine
 10
233.8742536013071
 20
298.6687347601701
 30
0.0
 11
233.8742536013071
 21
299.66873476017
 31
0.0
1001
GENIUS_GENOBJ-N-CEN_13
1002
{
1000
OWNER
1000
GEN
1002
}
1001
GENIUS_GENODEF_13
1002
{
1000
HIER
1070
     0
1002
}
1002
{
1000
MANEDIT
1070
     0
1002
}
1002
{
1000
NOSEL
1070
     0
1002
}
1002
{
1000
BEHIND
1070
     0
1002
}
1002
{
1000
OTHER
1070
     0
1002
}
1002
{
1000
REACTOR
1002
}
1001
GENIUS_GENCEN_19
1002
{
1040
2.794
1002
}
  0
LINE
  5
3416
330
1F
100
AcDbEntity
  8
0
100
AcDbLine
 10
233.3742536013071
 20
298.6179424550875
 30
0.0
 11
233.3742536013071
 21
298.6687347601701
 31
0.0
1001
GENIUS_GENOBJ-N-CEN_13
1002
{
1000
OWNER
1000
GEN
1002
}
1001
GENIUS_GENODEF_13
1002
{
1000
HIER
1070
     0
1002
}
1002
{
1000
MANEDIT
1070
     0
1002
}
1002
{
1000
NOSEL
1070
     0
1002
}
1002
{
1000
BEHIND
1070
     0
1002
}
1002
{
1000
OTHER
1070
     0
1002
}
1002
{
1000
REACTOR
1002
}
1001
GENIUS_GENCEN_19
1002
{
1040
2.794
1002
}
  0
LINE
  5
3417
330
1F
100
AcDbEntity
  8
0
100
AcDbLine
 10
233.3742536013071
 20
298.66873476017
 30
0.0
 11
234.8287549144731
 21
298.66873476017
 31
0.0
  0
LINE
  5
3418
330
1F
100
AcDbEntity
  8
図面枠-ｷｲﾛ
100
AcDbLine
 10
233.8742536013071
 20
299.66873476017
 30
0.0
 11
250.8742536013071
 21
299.6687347601701
 31
0.0
  0
ARC
  5
3419
330
1F
100
AcDbEntity
  8
0
100
AcDbCircle
 10
242.3742536013072
 20
282.60623476017
 30
0.0
 40
19.06249999999999
100
AcDbArc
 50
63.51896016962555
 51
116.4810398303744
  0
LINE
  5
342F
330
1F
100
AcDbEntity
  8
AM_0
100
AcDbLine
 10
285.8742386013084
 20
520.340629466829
 30
0.0
 11
285.8742386013084
 21
408.340618466829
 31
0.0
  0
LINE
  5
3430
330
1F
100
AcDbEntity
  8
0
100
AcDbLine
 10
277.8044396079033
 20
520.5588203763356
 30
0.0
 11
285.8742386013084
 21
520.840623966829
 31
0.0
  0
LINE
  5
3431
330
1F
100
AcDbEntity
  8
0
100
AcDbLine
 10
277.8044396079034
 20
408.1224275573225
 30
0.0
 11
285.8742386013084
 21
407.840623966829
 31
0.0
  0
ARC
  5
3432
330
1F
100
AcDbEntity
  8
0
100
AcDbCircle
 10
277.8742386013084
 20
410.1212092113607
 30
0.0
 40
2.0
100
AcDbArc
 50
180.0
 51
267.9999999999997
1001
GENIUS_GENODEF_13
1002
{
1000
HIER
1070
     0
1002
}
1002
{
1000
MANEDIT
1070
     0
1002
}
1002
{
1000
NOSEL
1070
     0
1002
}
1002
{
1000
BEHIND
1070
     0
1002
}
1002
{
1000
OTHER
1070
     0
1002
}
1002
{
1000
REACTOR
1002
}
1001
GENIUS_GENOBJ-N-FIL_13
1002
{
1000
OWNER
1000
GEN
1002
}
  0
LINE
  5
3433
330
1F
100
AcDbEntity
  8
0
100
AcDbLine
 10
285.8742386013084
 20
520.840623966829
 30
0.0
 11
285.8742386013084
 21
407.840623966829
 31
0.0
  0
LINE
  5
3434
330
1F
100
AcDbEntity
  8
0
100
AcDbLine
 10
281.8742386013084
 20
407.980307044796
 30
0.0
 11
281.8742386013084
 21
407.840623966829
 31
0.0
  0
LINE
  5
3435
330
1F
100
AcDbEntity
  8
0
100
AcDbLine
 10
275.8742386013083
 20
518.5600387222974
 30
0.0
 11
275.8742386013084
 21
410.1212092113607
 31
0.0
  0
ARC
  5
3436
330
1F
100
AcDbEntity
  8
0
100
AcDbCircle
 10
277.8742386013083
 20
518.5600387222974
 30
0.0
 40
2.0
100
AcDbArc
 50
92.00000000000034
 51
180.0
1001
GENIUS_GENOBJ-N-FIL_13
1002
{
1000
OWNER
1000
GEN
1002
}
1001
GENIUS_GENODEF_13
1002
{
1000
HIER
1070
     0
1002
}
1002
{
1000
MANEDIT
1070
     0
1002
}
1002
{
1000
NOSEL
1070
     0
1002
}
1002
{
1000
BEHIND
1070
     0
1002
}
1002
{
1000
OTHER
1070
     0
1002
}
1002
{
1000
REACTOR
1002
}
  0
ARC
  5
3437
330
1F
100
AcDbEntity
  8
0
100
AcDbCircle
 10
270.874238601307
 20
516.4116722786945
 30
0.0
 40
5.0
100
AcDbArc
 50
315.0
 51
0.0
1001
GENIUS_GENOBJ-N-FIL_13
1002
{
1000
OWNER
1000
GEN
1002
}
1001
GENIUS_GENODEF_13
1002
{
1000
HIER
1070
     0
1002
}
1002
{
1000
MANEDIT
1070
     0
1002
}
1002
{
1000
NOSEL
1070
     0
1002
}
1002
{
1000
BEHIND
1070
     0
1002
}
1002
{
1000
OTHER
1070
     0
1002
}
1002
{
1000
REACTOR
1002
}
  0
LINE
  5
3438
330
1F
100
AcDbEntity
  8
0
100
AcDbLine
 10
258.5152821489065
 20
496.9816480144285
 30
0.0
 11
274.4097725072398
 21
512.8761383727619
 31
0.0
  0
ARC
  5
3439
330
1F
100
AcDbEntity
  8
0
100
AcDbCircle
 10
254.9797482429738
 20
500.5171819203611
 30
0.0
 40
5.0
100
AcDbArc
 50
272.0000000000004
 51
315.0
1001
GENIUS_GENOBJ-N-FIL_13
1002
{
1000
OWNER
1000
GEN
1002
}
1001
GENIUS_GENODEF_13
1002
{
1000
HIER
1070
     0
1002
}
1002
{
1000
MANEDIT
1070
     0
1002
}
1002
{
1000
NOSEL
1070
     0
1002
}
1002
{
1000
BEHIND
1070
     0
1002
}
1002
{
1000
OTHER
1070
     0
1002
}
1002
{
1000
REACTOR
1002
}
  0
LINE
  5
343A
330
1F
100
AcDbEntity
  8
0
100
AcDbLine
 10
221.3742536013071
 20
494.3406044668289
 30
0.0
 11
221.3742536013071
 21
434.340604466829
 31
0.0
  0
LINE
  5
343B
330
1F
100
AcDbEntity
  8
0
100
AcDbLine
 10
259.1947218991025
 20
495.6613243223266
 30
0.0
 11
221.3742536013071
 21
494.3406044668289
 31
0.0
  0
ARC
  5
343C
330
1F
100
AcDbEntity
  8
0
100
AcDbCircle
 10
270.874238601307
 20
412.2695366549636
 30
0.0
 40
5.0
100
AcDbArc
 50
0.0
 51
45.0
1001
GENIUS_GENOBJ-N-FIL_13
1002
{
1000
OWNER
1000
GEN
1002
}
1001
GENIUS_GENODEF_13
1002
{
1000
HIER
1070
     0
1002
}
1002
{
1000
MANEDIT
1070
     0
1002
}
1002
{
1000
NOSEL
1070
     0
1002
}
1002
{
1000
BEHIND
1070
     0
1002
}
1002
{
1000
OTHER
1070
     0
1002
}
1002
{
1000
REACTOR
1002
}
  0
LINE
  5
343D
330
1F
100
AcDbEntity
  8
0
100
AcDbLine
 10
258.5152821489065
 20
431.6995609192296
 30
0.0
 11
274.4097725072398
 21
415.8050705608962
 31
0.0
  0
ARC
  5
343E
330
1F
100
AcDbEntity
  8
0
100
AcDbCircle
 10
254.9797482429738
 20
428.1640270132968
 30
0.0
 40
5.0
100
AcDbArc
 50
45.0
 51
87.99999999999965
1001
GENIUS_GENOBJ-N-FIL_13
1002
{
1000
OWNER
1000
GEN
1002
}
1001
GENIUS_GENODEF_13
1002
{
1000
HIER
1070
     0
1002
}
1002
{
1000
MANEDIT
1070
     0
1002
}
1002
{
1000
NOSEL
1070
     0
1002
}
1002
{
1000
BEHIND
1070
     0
1002
}
1002
{
1000
OTHER
1070
     0
1002
}
1002
{
1000
REACTOR
1002
}
  0
LINE
  5
343F
330
1F
100
AcDbEntity
  8
0
100
AcDbLine
 10
259.1947218991025
 20
433.0198846113314
 30
0.0
 11
221.3742536013071
 21
434.3406044668291
 31
0.0
  0
ARC
  5
3440
330
1F
100
AcDbEntity
  8
図面枠-ｷｲﾛ
100
AcDbCircle
 10
335.4173599391976
 20
464.340604466829
 30
0.0
 40
75.47521558726231
100
AcDbArc
 50
160.9069053726745
 51
199.0930946273255
  0
ARC
  5
3441
330
1F
100
AcDbEntity
  8
図面枠-ｷｲﾛ
100
AcDbCircle
 10
259.3692193826151
 20
438.0168387464269
 30
0.0
 40
5.0
100
AcDbArc
 50
267.9999999999997
 51
19.09309462732549
1001
GENIUS_GENOBJ-N-FIL_13
1002
{
1000
OWNER
1000
GEN
1002
}
1001
GENIUS_GENODEF_13
1002
{
1000
HIER
1070
     0
1002
}
1002
{
1000
MANEDIT
1070
     0
1002
}
1002
{
1000
NOSEL
1070
     0
1002
}
1002
{
1000
BEHIND
1070
     0
1002
}
1002
{
1000
OTHER
1070
     0
1002
}
1002
{
1000
REACTOR
1002
}
  0
ARC
  5
3442
330
1F
100
AcDbEntity
  8
図面枠-ｷｲﾛ
100
AcDbCircle
 10
259.3692193826151
 20
490.6643701872311
 30
0.0
 40
5.0
100
AcDbArc
 50
340.9069053726745
 51
92.00000000000034
1001
GENIUS_GENODEF_13
1002
{
1000
HIER
1070
     0
1002
}
1002
{
1000
MANEDIT
1070
     0
1002
}
1002
{
1000
NOSEL
1070
     0
1002
}
1002
{
1000
BEHIND
1070
     0
1002
}
1002
{
1000
OTHER
1070
     0
1002
}
1002
{
1000
REACTOR
1002
}
1001
GENIUS_GENOBJ-N-FIL_13
1002
{
1000
OWNER
1000
GEN
1002
}
  0
LINE
  5
3443
330
1F
100
AcDbEntity
  8
AM_0
100
AcDbLine
 10
285.8742386013084
 20
510.3406094668291
 30
0.0
 11
275.8742386013083
 21
510.3406094668291
 31
0.0
  0
LINE
  5
3444
330
1F
100
AcDbEntity
  8
AM_0
100
AcDbLine
 10
285.8742386013084
 20
496.2780434668291
 30
0.0
 11
275.8742386013083
 21
496.2780434668291
 31
0.0
  0
LINE
  5
3445
330
1F
100
AcDbEntity
  8
AM_0
100
AcDbLine
 10
285.8742386013084
 20
432.403165466829
 30
0.0
 11
275.8742386013084
 21
432.4031654668291
 31
0.0
  0
LINE
  5
3446
330
1F
100
AcDbEntity
  8
AM_0
100
AcDbLine
 10
285.8742386013084
 20
418.3406024668291
 30
0.0
 11
275.8742386013084
 21
418.3406024668291
 31
0.0
  0
ENDSEC
  0
SECTION
  2
OBJECTS
  0
DICTIONARY
  5
C
330
0
100
AcDbDictionary
281
     1
  3
ACAD_COLOR
350
2196
  3
ACAD_GROUP
350
D
  3
ACAD_LAYOUT
350
1A
  3
ACAD_MATERIAL
350
2195
  3
ACAD_MLINESTYLE
350
17
  3
ACAD_PLOTSETTINGS
350
19
  3
ACAD_PLOTSTYLENAME
350
E
  3
ACAD_TABLESTYLE
350
2197
  3
AcadDim
350
14B1
  3
ACDBHEADERROUNDTRIPXREC
350
3451
  3
AcDbVariableDictionary
350
34
  3
AcmDictionary
350
47
  3
AMG
350
2B
  3
AMGSNAPSETTINGS
350
81
  3
ASE_INDEX_DICTIONARY
350
2D7B
  3
DWGPROPS
350
3450
  0
DICTIONARY
  5
2D9C
330
2
100
AcDbDictionary
280
     1
281
     1
  3
ACAD_LAYERSTATES
360
2D9D
  0
DICTIONARY
  5
CC
330
1F
100
AcDbDictionary
280
     1
281
     1
  3
ACAD_SORTENTS
360
2D4D
  0
DICTIONARY
  5
2196
102
{ACAD_REACTORS
330
C
102
}
330
C
100
AcDbDictionary
281
     1
  0
DICTIONARY
  5
D
102
{ACAD_REACTORS
330
C
102
}
330
C
100
AcDbDictionary
281
     1
  0
DICTIONARY
  5
1A
102
{ACAD_REACTORS
330
C
102
}
330
C
100
AcDbDictionary
281
     1
  3
Model
350
22
  3
ﾚｲｱｳﾄ1
350
1E
  3
ﾚｲｱｳﾄ2
350
26
  0
DICTIONARY
  5
2195
102
{ACAD_REACTORS
330
C
102
}
330
C
100
AcDbDictionary
281
     1
  0
DICTIONARY
  5
17
102
{ACAD_REACTORS
330
C
102
}
330
C
100
AcDbDictionary
281
     1
  3
Standard
350
18
  0
DICTIONARY
  5
19
102
{ACAD_REACTORS
330
C
102
}
330
C
100
AcDbDictionary
281
     1
  3
A1
350
7A0
  3
A2
350
7A1
  3
A3外形図
350
7A2
  3
A3部品図
350
7A3
  3
A4外形図
350
7A4
  3
A4製造仕様書
350
7A5
  3
A4部品図
350
7A6
  0
ACDBDICTIONARYWDFLT
  5
E
102
{ACAD_REACTORS
330
C
102
}
330
C
100
AcDbDictionary
281
     1
  3
Normal
350
F
100
AcDbDictionaryWithDefault
340
F
  0
DICTIONARY
  5
2197
102
{ACAD_REACTORS
330
C
102
}
330
C
100
AcDbDictionary
281
     1
  3
Standard
350
2198
  0
XRECORD
  5
14B1
102
{ACAD_REACTORS
330
C
102
}
330
C
100
AcDbXrecord
280
     1
 90
   990106
  3

 60
     0
 61
     0
 62
     4
 63
     4
 64
     1
 65
     0
 66
     0
 67
     3
 68
     1
 69
     0
 70
     0
 71
     0
 72
     0
 40
0.0
170
     0
  0
DICTIONARY
  5
3451
102
{ACAD_REACTORS
330
C
102
}
330
C
100
AcDbDictionary
281
     1
  0
DICTIONARY
  5
34
102
{ACAD_REACTORS
330
C
102
}
330
C
100
AcDbDictionary
281
     1
  3
CTABLESTYLE
350
22C6
  3
DIMASSOC
350
2EE5
  3
INDEXCTL
350
35
  3
PROJECTNAME
350
2EE6
  0
DICTIONARY
  5
47
102
{ACAD_REACTORS
330
C
102
}
330
C
100
AcDbDictionary
281
     1
  3
AcmStdDictionary
350
4C
  3
AMDTSECTSYM_ARROWCOLOR
350
21A4
  0
DICTIONARY
  5
2B
102
{ACAD_REACTORS
330
C
102
}
330
C
100
AcDbDictionary
281
     1
  0
DICTIONARY
  5
81
102
{ACAD_REACTORS
330
C
102
}
330
C
100
AcDbDictionary
281
     1
  0
DICTIONARY
  5
2D7B
102
{ACAD_REACTORS
330
C
102
}
330
C
100
AcDbDictionary
281
     1
  3
ASEBlockHierarchyIndexRecord
350
2D7C
1001
DCO15
1040
1618997497.712
  0
XRECORD
  5
3450
102
{ACAD_REACTORS
330
C
102
}
330
C
100
AcDbXrecord
280
     1
  1
DWGPROPS COOKIE
  2

  3

  4

  6

  7

  8
ISHIGURE
  9

300
AmdtFileType=84
301
=
302
=
303
=
304
=
305
=
306
=
307
=
308
=
309
=
 40
0.4186888310185185
 41
2452065.605619213
 42
2454770.727867766
  1

 90
        1
  0
DICTIONARY
  5
2D9D
102
{ACAD_REACTORS
330
2D9C
102
}
330
2D9C
100
AcDbDictionary
281
     1
  0
SORTENTSTABLE
  5
2D4D
102
{ACAD_REACTORS
330
CC
102
}
330
CC
100
AcDbSortentsTable
330
1F
331
1C50
  5
1C51
331
1C01
  5
1C01
331
1CD6
  5
1CD7
331
1C58
  5
1C59
331
1C8F
  5
1C90
331
33E1
  5
33E2
331
325E
  5
325E
331
321F
  5
321F
331
1C97
  5
1C98
331
1C60
  5
1C61
331
1CDE
  5
1CDF
331
33E9
  5
33EA
331
3266
  5
3266
331
3227
  5
3227
331
1C29
  5
1C29
331
1C68
  5
1C69
331
1BE2
  5
1BE2
331
1C9F
  5
1CA0
331
3430
  5
3431
331
33F1
  5
33F2
331
326E
  5
326E
331
1CEE
  5
1CEF
331
31F8
  5
31F8
331
322F
  5
322F
331
3438
  5
3439
331
3383
  5
33DF
331
3276
  5
3276
331
3237
  5
3237
331
1C70
  5
1C71
331
1BEA
  5
1BEA
331
1C31
  5
1C31
331
1C78
  5
1C79
331
1BF2
  5
1BF2
331
1C39
  5
1C39
331
3200
  5
3200
331
3440
  5
3442
331
327E
  5
327E
331
1C80
  5
1C81
331
1CBF
  5
1CC0
331
1C41
  5
1C42
331
3208
  5
3208
331
323F
  5
323F
331
3286
  5
3286
331
1CC7
  5
1CC8
331
1C49
  5
1C50
331
3210
  5
3210
331
3247
  5
3247
331
328E
  5
328E
331
1CCF
  5
1CD0
331
324F
  5
324F
331
3419
  5
3421
331
3257
  5
3257
331
1C51
  5
1C52
331
1C02
  5
1C02
331
1C88
  5
1C89
331
1C90
  5
1C91
331
1C59
  5
1C5A
331
1CD7
  5
1CD8
331
3218
  5
3218
331
33E2
  5
33E3
331
325F
  5
325F
331
3220
  5
3220
331
1C98
  5
1C99
331
1C61
  5
1C62
331
1CDF
  5
1CE0
331
33EA
  5
33EC
331
334C
  5
3383
331
3267
  5
3267
331
3228
  5
3228
331
1C2A
  5
1C2A
331
1C69
  5
1C6A
331
1BE3
  5
1BE3
331
1CA0
  5
1CA1
331
3431
  5
3432
331
33F2
  5
33F3
331
326F
  5
326F
331
1CEF
  5
1CF0
331
31F9
  5
31F9
331
3230
  5
3230
331
3439
  5
343A
331
3277
  5
3277
331
1C71
  5
1C72
331
1C32
  5
1C32
331
3201
  5
3201
331
3238
  5
3238
331
1C79
  5
1C7A
331
1BF3
  5
1BF3
331
1C3A
  5
1C3A
331
311A
  5
1C3F
331
3441
  5
3443
331
327F
  5
327F
331
1C81
  5
1C82
331
1CC0
  5
1CC1
331
1C42
  5
1C43
331
3209
  5
3209
331
3240
  5
3240
331
3287
  5
3287
331
1CC8
  5
1CC9
331
3211
  5
3211
331
3248
  5
3248
331
3250
  5
3250
331
328F
  5
328F
331
1CD0
  5
1CD1
331
1C52
  5
1C53
331
1C03
  5
1C03
331
1C89
  5
1C8A
331
3258
  5
3258
331
1C91
  5
1C92
331
1C5A
  5
1C5B
331
1CD8
  5
1CD9
331
3219
  5
3219
331
33E3
  5
33E4
331
3260
  5
3260
331
3221
  5
3221
331
1C99
  5
1C9A
331
1C62
  5
1C63
331
1CE0
  5
1CE1
331
3268
  5
3268
331
1CA1
  5
1CA2
331
1C2B
  5
1C2B
331
1C6A
  5
1C6B
331
1BE4
  5
1BE4
331
3229
  5
3229
331
3432
  5
3433
331
33F3
  5
33F4
331
3270
  5
3270
331
31FA
  5
31FA
331
3231
  5
3231
331
343A
  5
343B
331
1CF0
  5
1CF1
331
1C72
  5
1C73
331
1C33
  5
1C33
331
3278
  5
3278
331
1C7A
  5
1C7B
331
1BF4
  5
1BF4
331
1C3B
  5
1C3B
331
3202
  5
3202
331
3239
  5
3239
331
3442
  5
3444
331
3403
  5
3413
331
3280
  5
3280
331
1C82
  5
1C83
331
1CC1
  5
1CC2
331
1BFC
  5
1BFC
331
1C43
  5
1C44
331
320A
  5
320A
331
3241
  5
3241
331
3288
  5
3288
331
1CC9
  5
1CCA
331
3212
  5
3212
331
3249
  5
3249
331
3413
  5
3414
331
3336
  5
333D
331
3251
  5
3251
331
1CD1
  5
1CD2
331
1C53
  5
1C54
331
1C04
  5
1C04
331
1C8A
  5
1C8B
331
3259
  5
3259
331
3290
  5
3290
331
1C92
  5
1C93
331
1C5B
  5
1C5C
331
1CD9
  5
1CDA
331
321A
  5
321A
331
33E4
  5
33E5
331
333E
  5
333F
331
3261
  5
3261
331
3222
  5
3222
331
1C9A
  5
1C9B
331
1C24
  5
1C24
331
1C63
  5
1C64
331
1CE1
  5
1CE2
331
33EC
  5
33ED
331
3269
  5
3269
331
1CA2
  5
1CA3
331
1C2C
  5
1C2C
331
1C6B
  5
1C6C
331
1BE5
  5
1BE5
331
322A
  5
322A
331
3433
  5
3434
331
33F4
  5
33F5
331
3271
  5
3271
331
31FB
  5
31FB
331
3232
  5
3232
331
343B
  5
343D
331
1CF1
  5
1CF2
331
1C73
  5
1C74
331
1BED
  5
1BED
331
1C34
  5
1C34
331
3279
  5
3279
331
1C7B
  5
1C7C
331
1CBA
  5
1CBB
331
1BF5
  5
1BF5
331
1C3C
  5
1C3C
331
3203
  5
3203
331
323A
  5
323A
331
3443
  5
3445
331
3281
  5
3281
331
1C83
  5
1C84
331
1BFD
  5
1BFD
331
1C44
  5
1C45
331
1CC2
  5
1CC3
331
320B
  5
320B
331
3242
  5
3242
331
3289
  5
3289
331
1CCA
  5
1CCB
331
3213
  5
3213
331
324A
  5
324A
331
3414
  5
3416
331
3337
  5
333E
331
3252
  5
3252
331
1CD2
  5
1CD3
331
1C8B
  5
1C8C
331
1C54
  5
1C55
331
1C05
  5
1C05
331
325A
  5
325A
331
3291
  5
3291
331
1C93
  5
1C94
331
1C5C
  5
1C5D
331
1CDA
  5
1CDB
331
321B
  5
321B
331
33E5
  5
33E6
331
333F
  5
334C
331
3262
  5
3262
331
3223
  5
3223
331
1C9B
  5
1C9C
331
1C25
  5
1C25
331
1C64
  5
1C65
331
1CE2
  5
1CE3
331
33ED
  5
33EE
331
326A
  5
326A
331
1CA3
  5
1CA4
331
1C2D
  5
1C2D
331
1C6C
  5
1C6D
331
322B
  5
322B
331
3434
  5
3435
331
33F5
  5
33F6
331
3272
  5
3272
331
31FC
  5
31FC
331
3233
  5
3233
331
343C
  5
343E
331
1CF2
  5
1CF3
331
1C74
  5
1C75
331
1BEE
  5
1BEE
331
1C35
  5
1C35
331
327A
  5
327A
331
1C7C
  5
1C7D
331
1CBB
  5
1CBC
331
1BF6
  5
1BF6
331
1C3D
  5
1C3D
331
3204
  5
3204
331
323B
  5
323B
331
3444
  5
3446
331
3328
  5
3330
331
3282
  5
3282
331
1C84
  5
1C85
331
1CC3
  5
1CC4
331
1BFE
  5
1BFE
331
1C45
  5
1C46
331
320C
  5
320C
331
3243
  5
3243
331
328A
  5
328A
331
1CCB
  5
1CCC
331
3214
  5
3214
331
324B
  5
324B
331
3253
  5
3253
331
1CD3
  5
1CD4
331
1C8C
  5
1C8D
331
1C55
  5
1C56
331
1C06
  5
1C06
331
3338
  5
333C
331
1C94
  5
1C95
331
1C5D
  5
1C5E
331
1CDB
  5
1CDC
331
321C
  5
321C
331
325B
  5
325B
331
3292
  5
3292
331
33E6
  5
33E7
331
32D9
  5
32D9
331
3224
  5
3224
331
1C9C
  5
1C9D
331
1C26
  5
1C26
331
1C65
  5
1C66
331
1BDF
  5
1BDF
331
1CE3
  5
1CE4
331
3263
  5
3263
331
33EE
  5
33EF
331
1CA4
  5
1CA5
331
1C2E
  5
1C2E
331
1C6D
  5
1C6E
331
322C
  5
322C
331
326B
  5
326B
331
3435
  5
3436
331
33F6
  5
33F7
331
31FD
  5
31FD
331
3234
  5
3234
331
3273
  5
3273
331
343D
  5
343F
331
1CF3
  5
1CF4
331
1C36
  5
1C36
331
1C75
  5
1C76
331
1BEF
  5
1BEF
331
3205
  5
3205
331
323C
  5
323C
331
327B
  5
327B
331
1C7D
  5
1C7E
331
1BF7
  5
1BF7
331
1CBC
  5
1CBD
331
3445
  5
3447
331
320D
  5
320D
331
3244
  5
3244
331
3283
  5
3283
331
1C85
  5
1C86
331
1CC4
  5
1CC5
331
1BFF
  5
1BFF
331
1C46
  5
1C47
331
3215
  5
3215
331
324C
  5
324C
331
328B
  5
328B
331
1CCC
  5
1CCD
331
3416
  5
3417
331
33DF
  5
33E0
331
3254
  5
3254
331
1CD4
  5
1CD5
331
1C8D
  5
1C8E
331
1AB8
  5
1AB8
331
1C07
  5
1C07
331
1C56
  5
1C57
331
3339
  5
3336
331
321D
  5
321D
331
325C
  5
325C
331
1C95
  5
1C96
331
1C5E
  5
1C5F
331
1CDC
  5
1CDD
331
33E7
  5
33E8
331
3225
  5
3225
331
3264
  5
3264
331
1C9D
  5
1C9E
331
1C27
  5
1C27
331
1C66
  5
1C67
331
1CE4
  5
1CE5
331
1BE0
  5
1BE0
331
33EF
  5
33F0
331
32EA
  5
32EA
331
322D
  5
322D
331
326C
  5
326C
331
1CA5
  5
1CA6
331
1C2F
  5
1C2F
331
1C6E
  5
1C6F
331
3436
  5
3437
331
33F7
  5
3403
331
31FE
  5
31FE
331
3235
  5
3235
331
3274
  5
3274
331
343E
  5
3440
331
1C76
  5
1C77
331
1CAD
  5
1CBA
331
1BF0
  5
1BF0
331
1C37
  5
1C37
331
3206
  5
3206
331
323D
  5
323D
331
327C
  5
327C
331
1C7E
  5
1C7F
331
1CBD
  5
1CBE
331
1C3F
  5
1C40
331
3446
  5
3448
331
320E
  5
320E
331
3245
  5
3245
331
3284
  5
3284
331
1C86
  5
1C87
331
1CC5
  5
1CC6
331
1C47
  5
1C48
331
3216
  5
3216
331
324D
  5
324D
331
328C
  5
328C
331
1CCD
  5
1CCE
331
3417
  5
3418
331
3255
  5
3255
331
1C00
  5
1C00
331
1CD5
  5
1CD6
331
1C8E
  5
1C8F
331
1C08
  5
1C08
331
1C57
  5
1C58
331
33E0
  5
33E1
331
325D
  5
325D
331
1CDD
  5
1CDE
331
1C5F
  5
1C60
331
1C96
  5
1C97
331
321E
  5
321E
331
33E8
  5
33E9
331
3265
  5
3265
331
1C9E
  5
1C9F
331
1C28
  5
1C28
331
1C67
  5
1C68
331
1CE5
  5
1CEE
331
1BE1
  5
1BE1
331
3226
  5
3226
331
342F
  5
3430
331
33F0
  5
33F1
331
326D
  5
326D
331
1CA6
  5
1CAD
331
1C6F
  5
1C70
331
31F7
  5
31F7
331
322E
  5
322E
331
3437
  5
3438
331
3275
  5
3275
331
31FF
  5
31FF
331
3236
  5
3236
331
343F
  5
3441
331
1BE9
  5
1BE9
331
1C30
  5
1C30
331
1C77
  5
1C78
331
1BF1
  5
1BF1
331
1C38
  5
1C38
331
327D
  5
327D
331
1C7F
  5
1C80
331
1C40
  5
1C41
331
1CBE
  5
1CBF
331
3207
  5
3207
331
323E
  5
323E
331
3285
  5
3285
331
1C87
  5
1C88
331
1CC6
  5
1CC7
331
1C48
  5
1C49
331
320F
  5
320F
331
328D
  5
328D
331
1CCE
  5
1CCF
331
3217
  5
3217
331
324E
  5
324E
331
3418
  5
3419
331
3256
  5
3256
  0
LAYOUT
  5
22
102
{ACAD_XDICTIONARY
360
3454
102
}
102
{ACAD_REACTORS
330
1A
102
}
330
1A
100
AcDbPlotSettings
  1

  2
\\Xseries205\Canon iR5150/iR6050 LIPS
  4
A4
  6
AM_VIEW1
 40
5.873749732971191
 41
5.873747825622557
 42
5.873748779296875
 43
5.873748779296875
 44
209.9733276367186
 45
296.9259948730469
 46
0.0
 47
0.34
 48
0.0
 49
0.0
140
0.0
141
0.0
142
1.0
143
3.0
 70
 11936
 72
     1
 73
     1
 74
     2
  7
acad1.ctb
 75
     0
147
0.3341282932256912
148
0.0
149
0.0
100
AcDbLayout
  1
Model
 70
     1
 71
     0
 10
0.0
 20
0.0
 11
12.0
 21
9.0
 12
0.0
 22
0.0
 32
0.0
 14
0.0
 24
0.0
 34
0.0
 15
0.0
 25
0.0
 35
0.0
146
0.0
 13
0.0
 23
0.0
 33
0.0
 16
1.0
 26
0.0
 36
0.0
 17
0.0
 27
1.0
 37
0.0
 76
     0
330
1F
1001
ACAD_PSEXT
1000
\\Xseries205\Canon iR5150/iR6050 LIPS
1000
Canon iR5150/iR6050 LIPS
1000
\\Xseries205
1000

1070
     0
  0
LAYOUT
  5
1E
102
{ACAD_XDICTIONARY
360
3452
102
}
102
{ACAD_REACTORS
330
1A
102
}
330
1A
100
AcDbPlotSettings
  1

  2
\\FHKSV01\RICOH imagio MF2700(FAX)
  4

  6

 40
0.0
 41
0.0
 42
0.0
 43
0.0
 44
0.0
 45
0.0
 46
0.0
 47
0.0
 48
0.0
 49
0.0
140
0.0
141
0.0
142
1.0
143
1.0
 70
   688
 72
     0
 73
     0
 74
     5
  7
acad1.ctb
 75
    16
147
1.0
148
0.0
149
0.0
100
AcDbLayout
  1
ﾚｲｱｳﾄ1
 70
     1
 71
     1
 10
0.0
 20
0.0
 11
420.0
 21
297.0
 12
0.0
 22
0.0
 32
0.0
 14
1.000000000000000E+20
 24
1.000000000000000E+20
 34
1.000000000000000E+20
 15
-1.000000000000000E+20
 25
-1.000000000000000E+20
 35
-1.000000000000000E+20
146
0.0
 13
0.0
 23
0.0
 33
0.0
 16
1.0
 26
0.0
 36
0.0
 17
0.0
 27
1.0
 37
0.0
 76
     0
330
1B
  0
LAYOUT
  5
26
102
{ACAD_XDICTIONARY
360
3456
102
}
102
{ACAD_REACTORS
330
1A
102
}
330
1A
100
AcDbPlotSettings
  1

  2
\\FHKSV01\RICOH imagio MF2700(FAX)
  4

  6

 40
0.0
 41
0.0
 42
0.0
 43
0.0
 44
0.0
 45
0.0
 46
0.0
 47
0.0
 48
0.0
 49
0.0
140
0.0
141
0.0
142
1.0
143
1.0
 70
   688
 72
     0
 73
     0
 74
     5
  7
acad1.ctb
 75
    16
147
1.0
148
0.0
149
0.0
100
AcDbLayout
  1
ﾚｲｱｳﾄ2
 70
     1
 71
     2
 10
0.0
 20
0.0
 11
12.0
 21
9.0
 12
0.0
 22
0.0
 32
0.0
 14
0.0
 24
0.0
 34
0.0
 15
0.0
 25
0.0
 35
0.0
146
0.0
 13
0.0
 23
0.0
 33
0.0
 16
1.0
 26
0.0
 36
0.0
 17
0.0
 27
1.0
 37
0.0
 76
     0
330
23
  0
MLINESTYLE
  5
18
102
{ACAD_REACTORS
330
17
102
}
330
17
100
AcDbMlineStyle
  2
STANDARD
 70
     0
  3

 62
   256
 51
90.0
 52
90.0
 71
     2
 49
0.5
 62
   256
  6
BYLAYER
 49
-0.5
 62
   256
  6
BYLAYER
  0
PLOTSETTINGS
  5
7A0
102
{ACAD_XDICTIONARY
360
3458
102
}
102
{ACAD_REACTORS
330
19
102
}
330
19
100
AcDbPlotSettings
  1
A1
  2
\\NETFINITY_5500\HP DesignJet 750C+ (D/A1) by HP)
  4
User267
  6

 40
17.76941680908203
 41
5.789102554321289
 42
17.7694091796875
 43
5.7890625
 44
840.9093017578125
 45
593.97900390625
 46
2.0
 47
13.0
 48
0.0
 49
0.0
140
0.0
141
0.0
142
1.0
143
1.0
 70
  1712
 72
     1
 73
     0
 74
     1
  7
acad.ctb
 75
    16
147
1.0
148
0.0100416569983963
149
0.0078848243487073
  0
PLOTSETTINGS
  5
7A1
102
{ACAD_XDICTIONARY
360
345A
102
}
102
{ACAD_REACTORS
330
19
102
}
330
19
100
AcDbPlotSettings
  1
A2
  2
\\NETFINITY_5500\HP DesignJet 750C+ (D/A1) by HP)
  4
User266
  6

 40
5.78908348083496
 41
17.76940155029297
 42
5.78912353515625
 43
17.7694091796875
 44
593.97900390625
 45
419.9466552734373
 46
12.0
 47
0.0
 48
0.0
 49
0.0
140
0.0
141
0.0
142
1.0
143
1.0
 70
  1712
 72
     1
 73
     0
 74
     1
  7
acad.ctb
 75
    16
147
1.0
148
0.0100416569983963
149
0.0078848243487073
  0
PLOTSETTINGS
  5
7A2
102
{ACAD_XDICTIONARY
360
345C
102
}
102
{ACAD_REACTORS
330
19
102
}
330
19
100
AcDbPlotSettings
  1
A3外形図
  2
\\NETFINITY_5500\Canon LASER SHOT LBP-910
  4
A3
  6

 40
5.873749732971191
 41
5.873747825622557
 42
5.873748779296875
 43
5.873748779296875
 44
296.9259948730469
 45
419.9466552734373
 46
0.0
 47
15.0
 48
0.0
 49
0.0
140
0.0
141
0.0
142
1.0
143
1.0
 70
  1712
 72
     1
 73
     1
 74
     1
  7
acad1.ctb
 75
    16
147
1.0
148
0.0024839861629289
149
0.0093761313144114
  0
PLOTSETTINGS
  5
7A3
102
{ACAD_XDICTIONARY
360
345E
102
}
102
{ACAD_REACTORS
330
19
102
}
330
19
100
AcDbPlotSettings
  1
A3部品図
  2
\\NETFINITY_5500\Canon LASER SHOT LBP-910
  4
A3
  6

 40
5.873749732971191
 41
5.873747825622557
 42
5.873748779296875
 43
5.873748779296875
 44
296.9259948730469
 45
419.9466552734373
 46
0.0
 47
0.0
 48
0.0
 49
0.0
140
0.0
141
0.0
142
1.0
143
1.0
 70
  1712
 72
     1
 73
     1
 74
     1
  7
acad1.ctb
 75
    16
147
1.0
148
0.0024839861629289
149
0.0093761313144114
  0
PLOTSETTINGS
  5
7A4
102
{ACAD_XDICTIONARY
360
3460
102
}
102
{ACAD_REACTORS
330
19
102
}
330
19
100
AcDbPlotSettings
  1
A4外形図
  2
\\NETFINITY_5500\Canon LASER SHOT LBP-910
  4
A4
  6

 40
5.873749732971191
 41
5.873747825622557
 42
5.873748779296875
 43
5.873748779296875
 44
209.9733276367186
 45
296.9259948730469
 46
0.0
 47
0.0
 48
0.0
 49
0.0
140
0.0
141
0.0
142
1.0
143
1.0
 70
  1712
 72
     1
 73
     1
 74
     1
  7
acad1.ctb
 75
    16
147
1.0
148
0.0115486965655691
149
0.0124955963574962
  0
PLOTSETTINGS
  5
7A5
102
{ACAD_XDICTIONARY
360
3462
102
}
102
{ACAD_REACTORS
330
19
102
}
330
19
100
AcDbPlotSettings
  1
A4製造仕様書
  2
\\NETFINITY_5500\Canon LASER SHOT LBP-910
  4
A4
  6

 40
5.873749732971191
 41
5.873747825622557
 42
5.873748779296875
 43
5.873748779296875
 44
209.9733276367186
 45
296.9259948730469
 46
15.0
 47
0.0
 48
0.0
 49
0.0
140
0.0
141
0.0
142
1.0
143
1.0
 70
  1712
 72
     1
 73
     0
 74
     1
  7
acad1.ctb
 75
    16
147
1.0
148
0.0115486965655691
149
7.86079562315183
  0
PLOTSETTINGS
  5
7A6
102
{ACAD_XDICTIONARY
360
3464
102
}
102
{ACAD_REACTORS
330
19
102
}
330
19
100
AcDbPlotSettings
  1
A4部品図
  2
\\NETFINITY_5500\Canon LASER SHOT LBP-910
  4
A4
  6

 40
5.873749732971191
 41
5.873747825622557
 42
5.873748779296875
 43
5.873748779296875
 44
209.9733276367186
 45
296.9259948730469
 46
0.0
 47
0.0
 48
0.0
 49
0.0
140
0.0
141
0.0
142
1.0
143
1.0
 70
  1712
 72
     1
 73
     0
 74
     1
  7
acad1.ctb
 75
    16
147
1.0
148
0.0115486965655691
149
0.0124955963574962
  0
ACDBPLACEHOLDER
  5
F
102
{ACAD_REACTORS
330
E
102
}
330
E
  0
TABLESTYLE
  5
2198
102
{ACAD_REACTORS
330
2197
102
}
330
2197
100
AcDbTableStyle
  3
Standard
 70
     0
 71
     0
 40
1.5
 41
1.5
280
     0
281
     0
  7
STANDARD
140
4.5
170
     2
 62
     0
 63
     7
283
     0
274
    -2
284
     1
 64
     0
275
    -2
285
     1
 65
     0
276
    -2
286
     1
 66
     0
277
    -2
287
     1
 67
     0
278
    -2
288
     1
 68
     0
279
    -2
289
     1
 69
     0
  7
STANDARD
140
6.0
170
     5
 62
     0
 63
     7
283
     0
274
    -2
284
     1
 64
     0
275
    -2
285
     1
 65
     0
276
    -2
286
     1
 66
     0
277
    -2
287
     1
 67
     0
278
    -2
288
     1
 68
     0
279
    -2
289
     1
 69
     0
  7
STANDARD
140
4.5
170
     5
 62
     0
 63
     7
283
     0
274
    -2
284
     1
 64
     0
275
    -2
285
     1
 65
     0
276
    -2
286
     1
 66
     0
277
    -2
287
     1
 67
     0
278
    -2
288
     1
 68
     0
279
    -2
289
     1
 69
     0
  0
DICTIONARYVAR
  5
22C6
102
{ACAD_REACTORS
330
34
102
}
330
34
100
DictionaryVariables
280
     0
  1
STANDARD
  0
DICTIONARYVAR
  5
2EE5
102
{ACAD_REACTORS
330
34
102
}
330
34
100
DictionaryVariables
280
     0
  1
1
  0
DICTIONARYVAR
  5
35
102
{ACAD_REACTORS
330
34
102
}
330
34
100
DictionaryVariables
280
     0
  1
0
  0
DICTIONARYVAR
  5
2EE6
102
{ACAD_REACTORS
330
34
102
}
330
34
100
DictionaryVariables
280
     0
  1

  0
DICTIONARY
  5
4C
102
{ACAD_REACTORS
330
47
102
}
330
47
100
AcDbDictionary
281
     1
  0
XRECORD
  5
21A4
102
{ACAD_REACTORS
330
47
102
}
330
47
100
AcDbXrecord
280
     1
 90
-1023410169
  0
XRECORD
  5
2D7C
102
{ACAD_REACTORS
330
2D7B
102
}
330
2D7B
100
AcDbXrecord
280
     1
330
0
330
0
330
0
330
0
330
0
330
0
330
0
330
0
330
0
330
0
330
0
330
0
330
0
330
0
330
0
330
0
330
0
330
0
330
0
330
0
330
0
330
0
330
0
330
0
330
0
330
0
330
0
330
0
330
0
330
0
330
0
330
0
330
0
330
0
330
0
330
0
330
0
330
0
330
0
330
0
330
0
330
0
330
0
330
0
330
0
330
0
330
0
330
0
330
0
330
0
330
0
330
0
330
0
330
0
330
0
330
0
330
0
330
0
330
0
330
0
  0
DICTIONARY
  5
3454
330
22
100
AcDbDictionary
280
     1
281
     1
  3
ACAD_XREC_ROUNDTRIP
360
3455
  0
DICTIONARY
  5
3452
330
1E
100
AcDbDictionary
280
     1
281
     1
  3
ACAD_XREC_ROUNDTRIP
360
3453
  0
DICTIONARY
  5
3456
330
26
100
AcDbDictionary
280
     1
281
     1
  3
ACAD_XREC_ROUNDTRIP
360
3457
  0
DICTIONARY
  5
3458
330
7A0
100
AcDbDictionary
280
     1
281
     1
  3
ACAD_XREC_ROUNDTRIP
360
3459
  0
DICTIONARY
  5
345A
330
7A1
100
AcDbDictionary
280
     1
281
     1
  3
ACAD_XREC_ROUNDTRIP
360
345B
  0
DICTIONARY
  5
345C
330
7A2
100
AcDbDictionary
280
     1
281
     1
  3
ACAD_XREC_ROUNDTRIP
360
345D
  0
DICTIONARY
  5
345E
330
7A3
100
AcDbDictionary
280
     1
281
     1
  3
ACAD_XREC_ROUNDTRIP
360
345F
  0
DICTIONARY
  5
3460
330
7A4
100
AcDbDictionary
280
     1
281
     1
  3
ACAD_XREC_ROUNDTRIP
360
3461
  0
DICTIONARY
  5
3462
330
7A5
100
AcDbDictionary
280
     1
281
     1
  3
ACAD_XREC_ROUNDTRIP
360
3463
  0
DICTIONARY
  5
3464
330
7A6
100
AcDbDictionary
280
     1
281
     1
  3
ACAD_XREC_ROUNDTRIP
360
3465
  0
XRECORD
  5
3455
102
{ACAD_REACTORS
330
3454
102
}
330
3454
100
AcDbXrecord
280
     1
102
SHADEPLOT
 70
     0
102
SHADEPLOTRESLEVEL
 70
     2
102
SHADEPLOTCUSTOMDPI
 70
   300
  0
XRECORD
  5
3453
102
{ACAD_REACTORS
330
3452
102
}
330
3452
100
AcDbXrecord
280
     1
102
SHADEPLOT
 70
     0
102
SHADEPLOTRESLEVEL
 70
     2
102
SHADEPLOTCUSTOMDPI
 70
   300
  0
XRECORD
  5
3457
102
{ACAD_REACTORS
330
3456
102
}
330
3456
100
AcDbXrecord
280
     1
102
SHADEPLOT
 70
     0
102
SHADEPLOTRESLEVEL
 70
     2
102
SHADEPLOTCUSTOMDPI
 70
   300
  0
XRECORD
  5
3459
102
{ACAD_REACTORS
330
3458
102
}
330
3458
100
AcDbXrecord
280
     1
102
SHADEPLOT
 70
     0
102
SHADEPLOTRESLEVEL
 70
     2
102
SHADEPLOTCUSTOMDPI
 70
   300
  0
XRECORD
  5
345B
102
{ACAD_REACTORS
330
345A
102
}
330
345A
100
AcDbXrecord
280
     1
102
SHADEPLOT
 70
     0
102
SHADEPLOTRESLEVEL
 70
     2
102
SHADEPLOTCUSTOMDPI
 70
   300
  0
XRECORD
  5
345D
102
{ACAD_REACTORS
330
345C
102
}
330
345C
100
AcDbXrecord
280
     1
102
SHADEPLOT
 70
     0
102
SHADEPLOTRESLEVEL
 70
     2
102
SHADEPLOTCUSTOMDPI
 70
   300
  0
XRECORD
  5
345F
102
{ACAD_REACTORS
330
345E
102
}
330
345E
100
AcDbXrecord
280
     1
102
SHADEPLOT
 70
     0
102
SHADEPLOTRESLEVEL
 70
     2
102
SHADEPLOTCUSTOMDPI
 70
   300
  0
XRECORD
  5
3461
102
{ACAD_REACTORS
330
3460
102
}
330
3460
100
AcDbXrecord
280
     1
102
SHADEPLOT
 70
     0
102
SHADEPLOTRESLEVEL
 70
     2
102
SHADEPLOTCUSTOMDPI
 70
   300
  0
XRECORD
  5
3463
102
{ACAD_REACTORS
330
3462
102
}
330
3462
100
AcDbXrecord
280
     1
102
SHADEPLOT
 70
     0
102
SHADEPLOTRESLEVEL
 70
     2
102
SHADEPLOTCUSTOMDPI
 70
   300
  0
XRECORD
  5
3465
102
{ACAD_REACTORS
330
3464
102
}
330
3464
100
AcDbXrecord
280
     1
102
SHADEPLOT
 70
     0
102
SHADEPLOTRESLEVEL
 70
     2
102
SHADEPLOTCUSTOMDPI
 70
   300
  0
ENDSEC
  0
EOF
