  0
SECTION
  2
HEADER
  9
$ACADVER
  1
AC1015
  9
$ACADMAINTVER
 70
    20
  9
$DWGCODEPAGE
  3
ANSI_932
  9
$INSBASE
 10
0.0
 20
0.0
 30
0.0
  9
$EXTMIN
 10
292.0882896807607
 20
202.0508878192977
 30
-0.0000000000000129
  9
$EXTMAX
 10
756.9577121409329
 20
571.8115128277434
 30
0.0000000000000024
  9
$LIMMIN
 10
0.0
 20
0.0
  9
$LIMMAX
 10
853.5
 20
555.0000000000001
  9
$ORTHOMODE
 70
     0
  9
$REGENMODE
 70
     1
  9
$FILLMODE
 70
     1
  9
$QTEXTMODE
 70
     0
  9
$MIRRTEXT
 70
     1
  9
$LTSCALE
 40
3.0
  9
$ATTMODE
 70
     1
  9
$TEXTSIZE
 40
2.5
  9
$TRACEWID
 40
1.0
  9
$TEXTSTYLE
  7
STANDARD
  9
$CLAYER
  8
AM_0
  9
$CELTYPE
  6
ByLayer
  9
$CECOLOR
 62
   256
  9
$CELTSCALE
 40
1.0
  9
$DISPSILH
 70
     0
  9
$DIMSCALE
 40
1.0
  9
$DIMASZ
 40
2.5
  9
$DIMEXO
 40
1.0
  9
$DIMDLI
 40
8.0
  9
$DIMRND
 40
0.0
  9
$DIMDLE
 40
0.0
  9
$DIMEXE
 40
0.6
  9
$DIMTP
 40
0.1
  9
$DIMTM
 40
0.1
  9
$DIMTXT
 40
2.5
  9
$DIMCEN
 40
0.0
  9
$DIMTSZ
 40
0.0
  9
$DIMTOL
 70
     0
  9
$DIMLIM
 70
     0
  9
$DIMTIH
 70
     0
  9
$DIMTOH
 70
     0
  9
$DIMSE1
 70
     0
  9
$DIMSE2
 70
     0
  9
$DIMTAD
 70
     1
  9
$DIMZIN
 70
     8
  9
$DIMBLK
  1

  9
$DIMASO
 70
     1
  9
$DIMSHO
 70
     1
  9
$DIMPOST
  1

  9
$DIMAPOST
  1
"
  9
$DIMALT
 70
     0
  9
$DIMALTD
 70
     2
  9
$DIMALTF
 40
0.0393701
  9
$DIMLFAC
 40
1.0
  9
$DIMTOFL
 70
     1
  9
$DIMTVP
 40
0.0
  9
$DIMTIX
 70
     0
  9
$DIMSOXD
 70
     0
  9
$DIMSAH
 70
     0
  9
$DIMBLK1
  1

  9
$DIMBLK2
  1

  9
$DIMSTYLE
  2
AM_ISO
  9
$DIMCLRD
 70
   256
  9
$DIMCLRE
 70
   256
  9
$DIMCLRT
 70
     4
  9
$DIMTFAC
 40
0.71
  9
$DIMGAP
 40
0.8
  9
$DIMJUST
 70
     0
  9
$DIMSD1
 70
     0
  9
$DIMSD2
 70
     0
  9
$DIMTOLJ
 70
     0
  9
$DIMTZIN
 70
     8
  9
$DIMALTZ
 70
     0
  9
$DIMALTTZ
 70
     0
  9
$DIMUPT
 70
     0
  9
$DIMDEC
 70
     2
  9
$DIMTDEC
 70
     2
  9
$DIMALTU
 70
     2
  9
$DIMALTTD
 70
     2
  9
$DIMTXSTY
  7
STANDARD
  9
$DIMAUNIT
 70
     0
  9
$DIMADEC
 70
     0
  9
$DIMALTRND
 40
0.0
  9
$DIMAZIN
 70
     2
  9
$DIMDSEP
 70
    46
  9
$DIMATFIT
 70
     3
  9
$DIMFRAC
 70
     0
  9
$DIMLDRBLK
  1

  9
$DIMLUNIT
 70
     2
  9
$DIMLWD
 70
    -1
  9
$DIMLWE
 70
    -1
  9
$DIMTMOVE
 70
     0
  9
$LUNITS
 70
     2
  9
$LUPREC
 70
     2
  9
$SKETCHINC
 40
1.0
  9
$FILLETRAD
 40
5.0
  9
$AUNITS
 70
     0
  9
$AUPREC
 70
     0
  9
$MENU
  1
.
  9
$ELEVATION
 40
0.0
  9
$PELEVATION
 40
0.0
  9
$THICKNESS
 40
0.0
  9
$LIMCHECK
 70
     0
  9
$CHAMFERA
 40
6.0
  9
$CHAMFERB
 40
3.0
  9
$CHAMFERC
 40
20.0
  9
$CHAMFERD
 40
0.0
  9
$SKPOLY
 70
     0
  9
$TDCREATE
 40
2452065.605619213
  9
$TDUCREATE
 40
2452065.230619213
  9
$TDUPDATE
 40
2454770.752953588
  9
$TDUUPDATE
 40
2454770.377953588
  9
$TDINDWG
 40
0.4018358796
  9
$TDUSRTIMER
 40
0.4018353356
  9
$USRTIMER
 70
     1
  9
$ANGBASE
 50
0.0
  9
$ANGDIR
 70
     0
  9
$PDMODE
 70
     0
  9
$PDSIZE
 40
0.0
  9
$PLINEWID
 40
0.0
  9
$SPLFRAME
 70
     0
  9
$SPLINETYPE
 70
     6
  9
$SPLINESEGS
 70
     8
  9
$HANDSEED
  5
4072
  9
$SURFTAB1
 70
     6
  9
$SURFTAB2
 70
     6
  9
$SURFTYPE
 70
     6
  9
$SURFU
 70
     6
  9
$SURFV
 70
     6
  9
$UCSBASE
  2

  9
$UCSNAME
  2

  9
$UCSORG
 10
0.0
 20
0.0
 30
0.0
  9
$UCSXDIR
 10
1.0
 20
0.0
 30
0.0
  9
$UCSYDIR
 10
0.0
 20
1.0
 30
0.0
  9
$UCSORTHOREF
  2

  9
$UCSORTHOVIEW
 70
     0
  9
$UCSORGTOP
 10
0.0
 20
0.0
 30
0.0
  9
$UCSORGBOTTOM
 10
0.0
 20
0.0
 30
0.0
  9
$UCSORGLEFT
 10
0.0
 20
0.0
 30
0.0
  9
$UCSORGRIGHT
 10
0.0
 20
0.0
 30
0.0
  9
$UCSORGFRONT
 10
0.0
 20
0.0
 30
0.0
  9
$UCSORGBACK
 10
0.0
 20
0.0
 30
0.0
  9
$PUCSBASE
  2

  9
$PUCSNAME
  2

  9
$PUCSORG
 10
0.0
 20
0.0
 30
0.0
  9
$PUCSXDIR
 10
1.0
 20
0.0
 30
0.0
  9
$PUCSYDIR
 10
0.0
 20
1.0
 30
0.0
  9
$PUCSORTHOREF
  2

  9
$PUCSORTHOVIEW
 70
     0
  9
$PUCSORGTOP
 10
0.0
 20
0.0
 30
0.0
  9
$PUCSORGBOTTOM
 10
0.0
 20
0.0
 30
0.0
  9
$PUCSORGLEFT
 10
0.0
 20
0.0
 30
0.0
  9
$PUCSORGRIGHT
 10
0.0
 20
0.0
 30
0.0
  9
$PUCSORGFRONT
 10
0.0
 20
0.0
 30
0.0
  9
$PUCSORGBACK
 10
0.0
 20
0.0
 30
0.0
  9
$USERI1
 70
     0
  9
$USERI2
 70
     0
  9
$USERI3
 70
     0
  9
$USERI4
 70
     0
  9
$USERI5
 70
     0
  9
$USERR1
 40
0.0
  9
$USERR2
 40
0.0
  9
$USERR3
 40
0.0
  9
$USERR4
 40
0.0
  9
$USERR5
 40
0.0
  9
$WORLDVIEW
 70
     1
  9
$SHADEDGE
 70
     3
  9
$SHADEDIF
 70
    70
  9
$TILEMODE
 70
     1
  9
$MAXACTVP
 70
    64
  9
$PINSBASE
 10
0.0
 20
0.0
 30
0.0
  9
$PLIMCHECK
 70
     0
  9
$PEXTMIN
 10
1.000000000000000E+20
 20
1.000000000000000E+20
 30
1.000000000000000E+20
  9
$PEXTMAX
 10
-1.000000000000000E+20
 20
-1.000000000000000E+20
 30
-1.000000000000000E+20
  9
$PLIMMIN
 10
0.0
 20
0.0
  9
$PLIMMAX
 10
420.0
 20
297.0
  9
$UNITMODE
 70
     0
  9
$VISRETAIN
 70
     1
  9
$PLINEGEN
 70
     0
  9
$PSLTSCALE
 70
     1
  9
$TREEDEPTH
 70
  3020
  9
$CMLSTYLE
  2
Standard
  9
$CMLJUST
 70
     0
  9
$CMLSCALE
 40
20.0
  9
$PROXYGRAPHICS
 70
     1
  9
$MEASUREMENT
 70
     1
  9
$CELWEIGHT
370
    -1
  9
$ENDCAPS
280
     0
  9
$JOINSTYLE
280
     0
  9
$LWDISPLAY
290
     0
  9
$INSUNITS
 70
     4
  9
$HYPERLINKBASE
  1

  9
$STYLESHEET
  1
ACAD1.CTB
  9
$XEDIT
290
     1
  9
$CEPSNTYPE
380
     0
  9
$PSTYLEMODE
290
     1
  9
$FINGERPRINTGUID
  2
{91B11402-3528-11D5-BE34-000255C217F4}
  9
$VERSIONGUID
  2
{8B976727-44A3-484B-944F-0E420C2C3A48}
  9
$EXTNAMES
290
     1
  9
$PSVPSCALE
 40
0.0
  9
$OLESTARTUP
290
     0
  0
ENDSEC
  0
SECTION
  2
CLASSES
  0
CLASS
  1
ACDBDICTIONARYWDFLT
  2
AcDbDictionaryWithDefault
  3
ObjectDBX Classes
 90
        0
280
     0
281
     0
  0
CLASS
  1
ACDBPLACEHOLDER
  2
AcDbPlaceHolder
  3
ObjectDBX Classes
 90
        0
280
     0
281
     0
  0
CLASS
  1
LAYOUT
  2
AcDbLayout
  3
ObjectDBX Classes
 90
        0
280
     0
281
     0
  0
CLASS
  1
AMGSETTINGSOBJ
  2
AmgSettingsObj
  3
"AcadM|Product Description: AutoCAD Mechanical 2000|Company: Autodesk"
 90
        0
280
     0
281
     0
  0
CLASS
  1
ACME_DOCUMENT
  2
AcMeDbDoc
  3
AcMeServices
 90
        0
280
     0
281
     0
  0
CLASS
  1
ACMESCOPE
  2
AcMeScope
  3
AcMeServices
 90
        0
280
     0
281
     0
  0
CLASS
  1
ACMECOMMANDHISTORY
  2
AcMeCommandHistory
  3
AcMeServices
 90
        0
280
     0
281
     0
  0
CLASS
  1
DICTIONARYVAR
  2
AcDbDictionaryVar
  3
ObjectDBX Classes
 90
        0
280
     0
281
     0
  0
CLASS
  1
ACIMSYSVARMAN
  2
AcImSysVarManager
  3
AcMeServices
 90
        0
280
     0
281
     0
  0
CLASS
  1
ACIMREALSYSVAR
  2
AcImRealSysVar
  3
AcMeServices
 90
        0
280
     0
281
     0
  0
CLASS
  1
ACIMINTSYSVAR
  2
AcImIntSysVar
  3
AcMeServices
 90
        0
280
     0
281
     0
  0
CLASS
  1
ACMEDRAWINGMAN
  2
AcMeDrawingMan
  3
AcMeServices
 90
        0
280
     0
281
     0
  0
CLASS
  1
ACMEVIEW
  2
AcMeView
  3
AcMeServices
 90
        0
280
     0
281
     0
  0
CLASS
  1
ACDBENTITYCACHE
  2
AcMeEntityCache
  3
AcMeServices
 90
        0
280
     0
281
     0
  0
CLASS
  1
GSMANAGER
  2
AcMeGSManager
  3
AcMeServices
 90
        0
280
     0
281
     0
  0
CLASS
  1
AMDTINTERNALREACTOR
  2
AmdtInternalReactor
  3
AcMeServices
 90
        0
280
     0
281
     0
  0
CLASS
  1
ACMESTATEMGR
  2
AcMeStateMgr
  3
AcMeServices
 90
        0
280
     0
281
     0
  0
CLASS
  1
ACGREFMASTER
  2
AcGrefMaster
  3
AcAttribServices
 90
        0
280
     0
281
     0
  0
CLASS
  1
ACME_DATABASE
  2
AcMeDbDatabase
  3
AcMeServices
 90
        0
280
     0
281
     0
  0
CLASS
  1
ACRFINSADJUSTERMGR
  2
AcRfInsAdjusterMgr
  3
AcMeServices
 90
        0
280
     0
281
     0
  0
CLASS
  1
ACGREFACADMASTER
  2
AcGrefacadMaster
  3
AcGrefServices
 90
        0
280
     0
281
     0
  0
CLASS
  1
AMIMASTER
  2
AmiMaster
  3
AmiServices
 90
        0
280
     0
281
     0
  0
CLASS
  1
ACMDATADICTIONARY
  2
AcmDataDictionary
  3
"AcmSymBB|Product Description: AutoCAD Mechanical 2004 DX|Company: Autodesk"
 90
        0
280
     0
281
     0
  0
CLASS
  1
ACMDATAENTRYBLOCK
  2
AcmDataEntryBlock
  3
"AcmSymBB|Product Description: AutoCAD Mechanical 2004 DX|Company: Autodesk"
 90
    32768
280
     0
281
     0
  0
CLASS
  1
ACIMSTRSYSVAR
  2
AcImStrSysVar
  3
AcMeServices
 90
        0
280
     0
281
     0
  0
CLASS
  1
ACMSTANDARDISO
  2
AcmStandardISO
  3
"Amdt_StdImp|Product Description: AutoCAD Mechanical 2004 DX|Company: Autodesk"
 90
        0
280
     0
281
     0
  0
CLASS
  1
AMGOBJPROPCFG
  2
AmgObjPropCfg
  3
"AmgLay|Product Description: AutoCAD Mechanical 2000|Company: Autodesk"
 90
        1
280
     0
281
     0
  0
CLASS
  1
AMDTEDGESTANDARDISO
  2
AmdtEdgeStdISO
  3
"Amdt_StdImp|Product Description: AutoCAD Mechanical 2004 DX|Company: Autodesk"
 90
    32768
280
     0
281
     0
  0
CLASS
  1
ACMSURFSTANDARDISO
  2
AcmSurfTextStdISO
  3
"Amdt_StdImp|Product Description: AutoCAD Mechanical 2004 DX|Company: Autodesk"
 90
        0
280
     0
281
     0
  0
CLASS
  1
ACMFCFSTANDARDISO
  2
AcmFCFStdISO
  3
"Amdt_StdImp|Product Description: AutoCAD Mechanical 2004 DX|Company: Autodesk"
 90
        0
280
     0
281
     0
  0
CLASS
  1
ACMWELDSTANDARDISO
  2
AcmWeldingStdISO
  3
"Amdt_StdImp|Product Description: AutoCAD Mechanical 2004 DX|Company: Autodesk"
 90
        0
280
     0
281
     0
  0
CLASS
  1
ACMIDSTANDARDISO
  2
AcmIdStdISO
  3
"Amdt_StdImp|Product Description: AutoCAD Mechanical 2004 DX|Company: Autodesk"
 90
        0
280
     0
281
     0
  0
CLASS
  1
ACMDATUMSTANDARDISO
  2
AcmDatumStdISO
  3
"Amdt_StdImp|Product Description: AutoCAD Mechanical 2004 DX|Company: Autodesk"
 90
        0
280
     0
281
     0
  0
CLASS
  1
ACMBOMSTANDARDISO
  2
AcmBOMStdISO
  3
"Amdt_StdImp|Product Description: AutoCAD Mechanical 2004 DX|Company: Autodesk"
 90
        0
280
     0
281
     0
  0
CLASS
  1
ACMDETAILSTANDARDISO
  2
AmdtDetailSymStdISO
  3
"Amdt_StdImp|Product Description: AutoCAD Mechanical 2004 DX|Company: Autodesk"
 90
        0
280
     0
281
     0
  0
CLASS
  1
ACMSECTIONSTANDARDISO
  2
AmdtSectionSymStdISO
  3
"Amdt_StdImp|Product Description: AutoCAD Mechanical 2004 DX|Company: Autodesk"
 90
        0
280
     0
281
     0
  0
CLASS
  1
ACMCENTERLINESTANDARDISO
  2
AmdtCenterLineStdISO
  3
"Amdt_StdImp|Product Description: AutoCAD Mechanical 2004 DX|Company: Autodesk"
 90
        0
280
     0
281
     0
  0
CLASS
  1
ACAMGLAYSTD
  2
AcAmgLayStd
  3
"AcAmgLayStd|Product Description: AutoCAD Mechanical 2000|Company: Autodesk"
 90
        0
280
     0
281
     0
  0
CLASS
  1
ACAMGDIMSTD
  2
AcAmgDimStd
  3
"AcAmgDimStd|Product Description: AutoCAD Mechanical 2000|Company: Autodesk"
 90
        0
280
     0
281
     0
  0
CLASS
  1
ACAMGTITLESTD
  2
AcAmgTitleStd
  3
"TITLEAPP"
 90
        0
280
     0
281
     0
  0
CLASS
  1
ACAMGFILTERDAT
  2
AcAmgFilterDat
  3
"AcadM|Product Description: AutoCAD Mechanical 2000|Company: Autodesk"
 90
    32768
280
     0
281
     0
  0
CLASS
  1
AMDTFORMULAUPDATEDISPATCHER
  2
AmdtFormulaUpdateDispatcher
  3
AcMeServices
 90
    32768
280
     0
281
     0
  0
CLASS
  1
LAYER_INDEX
  2
AcDbLayerIndex
  3
ObjectDBX Classes
 90
    32768
280
     0
281
     0
  0
CLASS
  1
IDBUFFER
  2
AcDbIdBuffer
  3
ObjectDBX Classes
 90
    32768
280
     0
281
     0
  0
CLASS
  1
PLOTSETTINGS
  2
AcDbPlotSettings
  3
ObjectDBX Classes
 90
        0
280
     0
281
     0
  0
CLASS
  1
ACMSTANDARDANSI
  2
AcmStandardANSI
  3
"Amdt_StdImp|Product Description: AutoCAD Mechanical 2004 DX|Company: Autodesk"
 90
        0
280
     0
281
     0
  0
CLASS
  1
ACMSURFSTANDARDANSI
  2
AcmSurfTextStdANSI
  3
"Amdt_StdImp|Product Description: AutoCAD Mechanical 2004 DX|Company: Autodesk"
 90
        0
280
     0
281
     0
  0
CLASS
  1
ACMFCFSTANDARDANSI
  2
AcmFCFStdANSI
  3
"Amdt_StdImp|Product Description: AutoCAD Mechanical 2004 DX|Company: Autodesk"
 90
        0
280
     0
281
     0
  0
CLASS
  1
ACMWELDSTANDARDANSI
  2
AcmWeldingStdANSI
  3
"Amdt_StdImp|Product Description: AutoCAD Mechanical 2004 DX|Company: Autodesk"
 90
        0
280
     0
281
     0
  0
CLASS
  1
ACMIDSTANDARDANSI
  2
AcmIdStdANSI
  3
"Amdt_StdImp|Product Description: AutoCAD Mechanical 2004 DX|Company: Autodesk"
 90
        0
280
     0
281
     0
  0
CLASS
  1
ACMDATUMSTANDARDANSI
  2
AcmDatumStdANSI
  3
"Amdt_StdImp|Product Description: AutoCAD Mechanical 2004 DX|Company: Autodesk"
 90
        0
280
     0
281
     0
  0
CLASS
  1
ACMBOMSTANDARDANSI
  2
AcmBOMStdANSI
  3
"Amdt_StdImp|Product Description: AutoCAD Mechanical 2004 DX|Company: Autodesk"
 90
        0
280
     0
281
     0
  0
CLASS
  1
ACMDETAILSTANDARDANSI
  2
AmdtDetailSymStdANSI
  3
"Amdt_StdImp|Product Description: AutoCAD Mechanical 2004 DX|Company: Autodesk"
 90
        0
280
     0
281
     0
  0
CLASS
  1
ACMSECTIONSTANDARDANSI
  2
AmdtSectionSymStdANSI
  3
"Amdt_StdImp|Product Description: AutoCAD Mechanical 2004 DX|Company: Autodesk"
 90
        0
280
     0
281
     0
  0
CLASS
  1
ACMCENTERLINESTANDARDANSI
  2
AmdtCenterLineStdANSI
  3
"Amdt_StdImp|Product Description: AutoCAD Mechanical 2004 DX|Company: Autodesk"
 90
        0
280
     0
281
     0
  0
CLASS
  1
ACMSTANDARDJIS
  2
AcmStandardJIS
  3
"Amdt_StdImp|Product Description: AutoCAD Mechanical 2004 DX|Company: Autodesk"
 90
    32768
280
     0
281
     0
  0
CLASS
  1
ACMSURFSTANDARDJIS
  2
AcmSurfTextStdJIS
  3
"Amdt_StdImp|Product Description: AutoCAD Mechanical 2004 DX|Company: Autodesk"
 90
    32768
280
     0
281
     0
  0
CLASS
  1
ACMFCFSTANDARDJIS
  2
AcmFCFStdJIS
  3
"Amdt_StdImp|Product Description: AutoCAD Mechanical 2004 DX|Company: Autodesk"
 90
    32768
280
     0
281
     0
  0
CLASS
  1
ACMWELDSTANDARDJIS
  2
AcmWeldingStdJIS
  3
"Amdt_StdImp|Product Description: AutoCAD Mechanical 2004 DX|Company: Autodesk"
 90
    32768
280
     0
281
     0
  0
CLASS
  1
ACMIDSTANDARDJIS
  2
AcmIdStdJIS
  3
"Amdt_StdImp|Product Description: AutoCAD Mechanical 2004 DX|Company: Autodesk"
 90
    32768
280
     0
281
     0
  0
CLASS
  1
ACMDATUMSTANDARDJIS
  2
AcmDatumStdJIS
  3
"Amdt_StdImp|Product Description: AutoCAD Mechanical 2004 DX|Company: Autodesk"
 90
    32768
280
     0
281
     0
  0
CLASS
  1
ACMBOMSTANDARDJIS
  2
AcmBOMStdJIS
  3
"Amdt_StdImp|Product Description: AutoCAD Mechanical 2004 DX|Company: Autodesk"
 90
    32768
280
     0
281
     0
  0
CLASS
  1
ACMDETAILSTANDARDJIS
  2
AmdtDetailSymStdJIS
  3
"Amdt_StdImp|Product Description: AutoCAD Mechanical 2004 DX|Company: Autodesk"
 90
    32768
280
     0
281
     0
  0
CLASS
  1
ACMSECTIONSTANDARDJIS
  2
AmdtSectionSymStdJIS
  3
"Amdt_StdImp|Product Description: AutoCAD Mechanical 2004 DX|Company: Autodesk"
 90
    32768
280
     0
281
     0
  0
CLASS
  1
ACMCENTERLINESTANDARDJIS
  2
AmdtCenterLineStdJIS
  3
"Amdt_StdImp|Product Description: AutoCAD Mechanical 2004 DX|Company: Autodesk"
 90
    32768
280
     0
281
     0
  0
CLASS
  1
TABLESTYLE
  2
AcDbTableStyle
  3
ObjectDBX Classes
 90
     2047
280
     0
281
     0
  0
CLASS
  1
AM_DRAWING_MGR
  2
AcDmDwgMgr
  3
AcMechDwgViewMgmt
 90
        0
280
     0
281
     0
  0
CLASS
  1
AM_DWG_DOCUMENT
  2
AcDmDwgDocument
  3
AcMechDwgViewMgmt
 90
        0
280
     0
281
     0
  0
CLASS
  1
AM_DWG_SHEET
  2
AcDmSheet
  3
AcMechDwgViewMgmt
 90
        0
280
     0
281
     0
  0
CLASS
  1
AM_VIEWDIMPARMAP
  2
AcDmViewDimParMap
  3
AcMechDwgViewMgmt
 90
        0
280
     0
281
     0
  0
CLASS
  1
AM_DWGMGR_NAME
  2
AcDmDwgMgrName
  3
AcMechDwgViewMgmt
 90
        0
280
     0
281
     0
  0
CLASS
  1
AMDTMENUSTATEMGR
  2
AmdtMenuStateMgr
  3
McadcomServices
 90
        0
280
     0
281
     0
  0
CLASS
  1
AMDTMCOMMENUSTATE
  2
AmdtMcomMenuState
  3
McadcomServices
 90
        0
280
     0
281
     0
  0
CLASS
  1
MAPIAMMOUDLE
  2
MApiAmModule
  3
MApiAmServices
 90
        0
280
     0
281
     0
  0
CLASS
  1
AMDTADMENUSTATE
  2
AmdtAdMenuState
  3
DesignerServices
 90
        0
280
     0
281
     0
  0
CLASS
  1
ADAPPL
  2
AcAdAppl
  3
DesignerServices
 90
        0
280
     0
281
     0
  0
CLASS
  1
DEPMGR
  2
AcAdDepMgr
  3
DesignerServices
 90
        0
280
     0
281
     0
  0
CLASS
  1
PARAMMGR
  2
AcAdParamMgr
  3
DesignerServices
 90
        0
280
     0
281
     0
  0
CLASS
  1
PARAMSCOPE
  2
AcAdParamScope
  3
DesignerServices
 90
        0
280
     0
281
     0
  0
CLASS
  1
NAMEDAPPL
  2
AcAdNamedAppl
  3
DesignerServices
 90
        0
280
     0
281
     0
  0
CLASS
  1
AMDTDMMENUSTATE
  2
AmdtDmMenuState
  3
AcMechDwgViewMgmt
 90
        0
280
     0
281
     0
  0
CLASS
  1
AMDTAMMENUSTATE
  2
AmdtAmMenuState
  3
DesignerAssemblies
 90
        0
280
     0
281
     0
  0
CLASS
  1
ACAMPROJECT
  2
AcAmProject
  3
DesignerAssemblies
 90
        0
280
     0
281
     0
  0
CLASS
  1
ACAMGRCOMPDEF
  2
AcAmGrCompDef
  3
DesignerAssemblies
 90
        0
280
     0
281
     0
  0
CLASS
  1
ACCMCONTEXT
  2
AcCmContext
  3
DesignerAssemblies
 90
        0
280
     0
281
     0
  0
CLASS
  1
ACAMCOMPDEF
  2
AcAmCompDef
  3
DesignerAssemblies
 90
        0
280
     0
281
     0
  0
CLASS
  1
ACAMCOMPDEFMGR
  2
AcAmCompDefMgr
  3
DesignerAssemblies
 90
        0
280
     0
281
     0
  0
CLASS
  1
AMCONTEXTMGR
  2
AcAmContextMgr
  3
DesignerAssemblies
 90
        0
280
     0
281
     0
  0
CLASS
  1
ACAMCONTEXTMODELER
  2
AcAmContextModeler
  3
DesignerAssemblies
 90
        0
280
     0
281
     0
  0
CLASS
  1
ACMTHREADLINESTANDARDISO
  2
AmdtThreadLineStdISO
  3
"Amdt_StdImp|Product Description: AutoCAD Mechanical 2004 DX|Company: Autodesk"
 90
        0
280
     0
281
     0
  0
CLASS
  1
ACMNOTESTANDARDISO
  2
AmdtNoteStdISO
  3
"Amdt_StdImp|Product Description: AutoCAD Mechanical 2004 DX|Company: Autodesk"
 90
        0
280
     0
281
     0
  0
CLASS
  1
AMDTNOTETEMPLATEDB
  2
AmdtNoteTemplateDB
  3
AMDT_STDIMP_MODULE_NAME
 90
        0
280
     0
281
     0
  0
CLASS
  1
ACMTHREADLINESTANDARDANSI
  2
AmdtThreadLineStdANSI
  3
"Amdt_StdImp|Product Description: AutoCAD Mechanical 2004 DX|Company: Autodesk"
 90
        0
280
     0
281
     0
  0
CLASS
  1
ACMNOTESTANDARDANSI
  2
AmdtNoteStdANSI
  3
"Amdt_StdImp|Product Description: AutoCAD Mechanical 2004 DX|Company: Autodesk"
 90
        0
280
     0
281
     0
  0
CLASS
  1
ACMTHREADLINESTANDARDJIS
  2
AmdtThreadLineStdJIS
  3
"Amdt_StdImp|Product Description: AutoCAD Mechanical 2004 DX|Company: Autodesk"
 90
    32768
280
     0
281
     0
  0
CLASS
  1
ACMNOTESTANDARDJIS
  2
AmdtNoteStdJIS
  3
"Amdt_StdImp|Product Description: AutoCAD Mechanical 2004 DX|Company: Autodesk"
 90
    32768
280
     0
281
     0
  0
CLASS
  1
CATALOGSTATE
  2
AcAmCatalogState
  3
DesignerAssemblies
 90
        0
280
     0
281
     0
  0
CLASS
  1
ACAMGRCOMPDEFSET
  2
AcAmGrCompDefSet
  3
DesignerAssemblies
 90
        0
280
     0
281
     0
  0
CLASS
  1
AMDTBROWSERDBTAB
  2
AmdtBrowserDbTab
  3
McadcomServices
 90
        0
280
     0
281
     0
  0
CLASS
  1
CBROWSERAPPOBJECT
  2
CBrowserAppObject
  3
McadcomServices
 90
        0
280
     0
281
     0
  0
CLASS
  1
DM_PLACEHOLDER
  2
AcDmSelsetPlaceholder
  3
AcMechDwgViewMgmt
 90
        0
280
     0
281
     0
  0
CLASS
  1
DIMASSOC
  2
AcDbDimAssoc
  3
"AcDbDimAssoc|Product Desc:     AcDim ARX App For Dimension|Company:          Autodesk, Inc.|WEB Address:      www.autodesk.com"
 90
    32768
280
     0
281
     0
  0
CLASS
  1
SORTENTSTABLE
  2
AcDbSortentsTable
  3
ObjectDBX Classes
 90
        0
280
     0
281
     0
  0
CLASS
  1
STDPART2D
  2
AmgStdPart
  3
"AmgStdPart|Product Description: AutoCAD Mechanical 2000|Company: Autodesk"
 90
    33791
280
     0
281
     1
  0
CLASS
  1
AMDTNOTE
  2
AmdtNote
  3
"AcmSymBB|Product Description: AutoCAD Mechanical 2004 DX|Company: Autodesk"
 90
    33791
280
     0
281
     1
  0
CLASS
  1
ACMDATUMID
  2
AcmDatumId
  3
"AcmSymBB|Product Description: AutoCAD Mechanical 2004 DX|Company: Autodesk"
 90
    33791
280
     0
281
     1
  0
CLASS
  1
ACDBDIMENSIONRES
  2
AcDbDimensionRes
  3
"AcDbDimensionRes|Product Description: AutoCAD Mechanical 2000|Company: Autodesk"
 90
    32768
280
     0
281
     0
  0
CLASS
  1
ACRFATTGENMGR
  2
AcRfAttGeneralMgr
  3
AcAttribServices
 90
        0
280
     0
281
     0
  0
CLASS
  1
AMDTEDGESTANDARDISO13715
  2
AmdtEdgeStdISO13715
  3
"Amdt_StdImp|Product Description: AutoCAD Mechanical 2004 DX|Company: Autodesk"
 90
        0
280
     0
281
     0
  0
CLASS
  1
ACAMGHOLECHARTSTDISO
  2
AcAmgHoleChartStdISO
  3
ACMSYMBB_MODULE_NAME
 90
        0
280
     0
281
     0
  0
CLASS
  1
ACAMGHOLECHARTSTDANSI
  2
AcAmgHoleChartStdANSI
  3
ACMSYMBB_MODULE_NAME
 90
        0
280
     0
281
     0
  0
ENDSEC
  0
SECTION
  2
TABLES
  0
TABLE
  2
VPORT
  5
8
330
0
100
AcDbSymbolTable
 70
     5
  0
VPORT
  5
405B
330
8
100
AcDbSymbolTableRecord
100
AcDbViewportTableRecord
  2
*Active
 70
     0
 10
0.0
 20
0.0
 11
1.0
 21
1.0
 12
524.5230009108468
 22
386.9312003235206
 13
0.0
 23
0.0
 14
7.5
 24
7.5
 15
30.0
 25
30.0
 16
0.0
 26
0.0
 36
1.0
 17
0.0
 27
0.0
 37
0.0
 40
372.4856805302545
 41
1.475550122249388
 42
50.0
 43
0.0
 44
0.0
 50
0.0
 51
0.0
 71
     0
 72
   100
 73
     1
 74
     3
 75
     0
 76
     0
 77
     0
 78
     0
281
     0
 65
     0
110
0.0
120
0.0
130
0.0
111
1.0
121
0.0
131
0.0
112
0.0
122
1.0
132
0.0
 79
     0
146
0.0
  0
ENDTAB
  0
TABLE
  2
LTYPE
  5
5
330
0
100
AcDbSymbolTable
 70
    19
  0
LTYPE
  5
14
330
5
100
AcDbSymbolTableRecord
100
AcDbLinetypeTableRecord
  2
ByBlock
 70
     0
  3

 72
    65
 73
     0
 40
0.0
  0
LTYPE
  5
15
330
5
100
AcDbSymbolTableRecord
100
AcDbLinetypeTableRecord
  2
ByLayer
 70
     0
  3

 72
    65
 73
     0
 40
0.0
  0
LTYPE
  5
16
330
5
100
AcDbSymbolTableRecord
100
AcDbLinetypeTableRecord
  2
Continuous
 70
     0
  3
Solid line
 72
    65
 73
     0
 40
0.0
  0
LTYPE
  5
6CA
330
5
100
AcDbSymbolTableRecord
100
AcDbLinetypeTableRecord
  2
GEN7
 70
     0
  3
____ . ____ . ____ . ____ . ____ . ____ . ____
 72
    65
 73
     4
 40
14.25
 49
9.75
 74
     0
 49
-1.5
 74
     0
 49
1.5
 74
     0
 49
-1.5
 74
     0
  0
LTYPE
  5
6D6
330
5
100
AcDbSymbolTableRecord
100
AcDbLinetypeTableRecord
  2
GEN3B
 70
     0
  3
 - - - - -
 72
    65
 73
     2
 40
1.0
 49
0.5
 74
     0
 49
-0.5
 74
     0
  0
LTYPE
  5
6D8
330
5
100
AcDbSymbolTableRecord
100
AcDbLinetypeTableRecord
  2
GEN7A
 70
     0
  3
__ . __ . __
 72
    65
 73
     4
 40
7.375
 49
4.75
 74
     0
 49
-0.875
 74
     0
 49
0.875
 74
     0
 49
-0.875
 74
     0
  0
LTYPE
  5
39F0
330
5
100
AcDbSymbolTableRecord
100
AcDbLinetypeTableRecord
  2
AM_ISO08W050
 70
     0
  3
____ . ____ . ____ . ____ . ____ . ____ . ____
 72
    65
 73
     4
 40
18.0
 49
12.0
 74
     0
 49
-1.5
 74
     0
 49
3.0
 74
     0
 49
-1.5
 74
     0
  0
LTYPE
  5
39F3
330
5
100
AcDbSymbolTableRecord
100
AcDbLinetypeTableRecord
  2
AM_ISO08W050x2
 70
     0
  3
__ . __ . __ . __ . __ . __
 72
    65
 73
     4
 40
9.0
 49
6.0
 74
     0
 49
-0.75
 74
     0
 49
1.5
 74
     0
 49
-0.75
 74
     0
  0
ENDTAB
  0
TABLE
  2
LAYER
  5
2
102
{ACAD_XDICTIONARY
360
2D9C
102
}
330
0
100
AcDbSymbolTable
 70
     8
  0
LAYER
  5
10
330
2
100
AcDbSymbolTableRecord
100
AcDbLayerTableRecord
  2
0
 70
     0
 62
     7
  6
Continuous
370
    -3
390
F
  0
LAYER
  5
124
330
2
100
AcDbSymbolTableRecord
100
AcDbLayerTableRecord
  2
Defpoints
 70
     0
 62
     7
  6
Continuous
290
     0
370
    -3
390
F
  0
LAYER
  5
6FC
330
2
100
AcDbSymbolTableRecord
100
AcDbLayerTableRecord
  2
ｶｸﾚｾﾝ2
 70
     0
 62
     3
  6
GEN3B
370
    -3
390
F
  0
LAYER
  5
6FE
330
2
100
AcDbSymbolTableRecord
100
AcDbLayerTableRecord
  2
ﾁｭｳｼﾝｾﾝ
 70
     0
 62
     1
  6
GEN7
370
    -3
390
F
  0
LAYER
  5
6FF
330
2
100
AcDbSymbolTableRecord
100
AcDbLayerTableRecord
  2
ﾁｭｳｼﾝｾﾝ1
 70
     0
 62
     1
  6
GEN7A
370
    -3
390
F
  0
LAYER
  5
71D
330
2
100
AcDbSymbolTableRecord
100
AcDbLayerTableRecord
  2
AM_0
 70
     0
 62
     7
  6
Continuous
370
    50
390
F
  0
LAYER
  5
1A93
330
2
100
AcDbSymbolTableRecord
100
AcDbLayerTableRecord
  2
図面枠-ｷｲﾛ
 70
     0
 62
     2
  6
Continuous
370
    -3
390
F
  0
LAYER
  5
3DEC
330
2
100
AcDbSymbolTableRecord
100
AcDbLayerTableRecord
  2
AM_7
 70
     0
 62
     4
  6
AM_ISO08W050
370
    25
390
F
  0
ENDTAB
  0
TABLE
  2
STYLE
  5
3
330
0
100
AcDbSymbolTable
 70
     6
  0
STYLE
  5
11
330
3
100
AcDbSymbolTableRecord
100
AcDbTextStyleTableRecord
  2
STANDARD
 70
     0
 40
0.0
 41
0.8299999999999998
 50
0.0
 71
     0
 42
2.5
  3
t.shx
  4
bigfont.shx
  0
ENDTAB
  0
TABLE
  2
VIEW
  5
6
330
0
100
AcDbSymbolTable
 70
     6
  0
VIEW
  5
C2
330
6
100
AcDbSymbolTableRecord
100
AcDbViewTableRecord
  2
AM_VIEW1
 70
     0
 40
277.5000000000001
 10
249.6477900552487
 20
416.2500000000001
 41
499.2955801104971
 11
0.0
 21
0.0
 31
1.0
 12
0.0
 22
0.0
 32
0.0
 42
50.0
 43
0.0
 44
0.0
 50
0.0
 71
     0
281
     0
 72
     0
  0
VIEW
  5
C3
330
6
100
AcDbSymbolTableRecord
100
AcDbViewTableRecord
  2
AM_VIEW2
 70
     0
 40
277.5000000000001
 10
603.8522099447512
 20
416.2500000000001
 41
499.2955801104971
 11
0.0
 21
0.0
 31
1.0
 12
0.0
 22
0.0
 32
0.0
 42
50.0
 43
0.0
 44
0.0
 50
0.0
 71
     0
281
     0
 72
     0
  0
VIEW
  5
C4
330
6
100
AcDbSymbolTableRecord
100
AcDbViewTableRecord
  2
AM_VIEW3
 70
     0
 40
277.5000000000001
 10
249.6477900552487
 20
138.75
 41
499.2955801104971
 11
0.0
 21
0.0
 31
1.0
 12
0.0
 22
0.0
 32
0.0
 42
50.0
 43
0.0
 44
0.0
 50
0.0
 71
     0
281
     0
 72
     0
  0
VIEW
  5
C5
330
6
100
AcDbSymbolTableRecord
100
AcDbViewTableRecord
  2
AM_VIEW4
 70
     0
 40
277.5000000000001
 10
603.8522099447512
 20
138.75
 41
499.2955801104971
 11
0.0
 21
0.0
 31
1.0
 12
0.0
 22
0.0
 32
0.0
 42
50.0
 43
0.0
 44
0.0
 50
0.0
 71
     0
281
     0
 72
     0
  0
VIEW
  5
C6
330
6
100
AcDbSymbolTableRecord
100
AcDbViewTableRecord
  2
AM_VIEW5
 70
     0
 40
277.5000000000001
 10
426.75
 20
277.5000000000001
 41
499.2955801104971
 11
0.0
 21
0.0
 31
1.0
 12
0.0
 22
0.0
 32
0.0
 42
50.0
 43
0.0
 44
0.0
 50
0.0
 71
     0
281
     0
 72
     0
  0
VIEW
  5
C7
330
6
100
AcDbSymbolTableRecord
100
AcDbViewTableRecord
  2
AM_VIEW6
 70
     0
 40
554.9944500000001
 10
426.75
 20
277.5
 41
998.5811743093924
 11
0.0
 21
0.0
 31
1.0
 12
0.0
 22
0.0
 32
0.0
 42
50.0
 43
0.0
 44
0.0
 50
0.0
 71
     0
281
     0
 72
     0
  0
ENDTAB
  0
TABLE
  2
UCS
  5
7
330
0
100
AcDbSymbolTable
 70
     0
  0
ENDTAB
  0
TABLE
  2
APPID
  5
9
330
0
100
AcDbSymbolTable
 70
    95
  0
APPID
  5
12
330
9
100
AcDbSymbolTableRecord
100
AcDbRegAppTableRecord
  2
ACAD
 70
     0
  0
APPID
  5
30
330
9
100
AcDbSymbolTableRecord
100
AcDbRegAppTableRecord
  2
MCAD_NO_VIS
 70
     0
  0
APPID
  5
31
330
9
100
AcDbSymbolTableRecord
100
AcDbRegAppTableRecord
  2
ACAD_TEMP_GRAPHIC
 70
     0
  0
APPID
  5
44
330
9
100
AcDbSymbolTableRecord
100
AcDbRegAppTableRecord
  2
ACATTRIBSERVICES
 70
     0
  0
APPID
  5
8D
330
9
100
AcDbSymbolTableRecord
100
AcDbRegAppTableRecord
  2
GENIUS_GENREC_14
 70
     0
  0
APPID
  5
8E
330
9
100
AcDbSymbolTableRecord
100
AcDbRegAppTableRecord
  2
GENIUS_GENOBJ-N-REC_13
 70
     0
  0
APPID
  5
8F
330
9
100
AcDbSymbolTableRecord
100
AcDbRegAppTableRecord
  2
GENIUS_GENODEF_13
 70
     0
  0
APPID
  5
BD
330
9
100
AcDbSymbolTableRecord
100
AcDbRegAppTableRecord
  2
GENIUS_GENOLIS_13
 70
     0
  0
APPID
  5
BE
330
9
100
AcDbSymbolTableRecord
100
AcDbRegAppTableRecord
  2
GENIUS_GENOBJ-N-TIT_13
 70
     0
  0
APPID
  5
BF
330
9
100
AcDbSymbolTableRecord
100
AcDbRegAppTableRecord
  2
GENIUS_GENOENT_13
 70
     0
  0
APPID
  5
C0
330
9
100
AcDbSymbolTableRecord
100
AcDbRegAppTableRecord
  2
GENIUS_GENTITLE_13
 70
     0
  0
APPID
  5
C1
330
9
100
AcDbSymbolTableRecord
100
AcDbRegAppTableRecord
  2
GENIUS_GENOREF_13
 70
     0
  0
APPID
  5
C8
330
9
100
AcDbSymbolTableRecord
100
AcDbRegAppTableRecord
  2
GENIUS_GENSCREG_15
 70
     0
  0
APPID
  5
C9
330
9
100
AcDbSymbolTableRecord
100
AcDbRegAppTableRecord
  2
GENIUS_GENOBJ-N-SDF_13
 70
     0
  0
APPID
  5
103
330
9
100
AcDbSymbolTableRecord
100
AcDbRegAppTableRecord
  2
GENIUS_GENFIL_13
 70
     0
  0
APPID
  5
104
330
9
100
AcDbSymbolTableRecord
100
AcDbRegAppTableRecord
  2
GENIUS_GENOBJ-N-CHA_13
 70
     0
  0
APPID
  5
13E
330
9
100
AcDbSymbolTableRecord
100
AcDbRegAppTableRecord
  2
GENIUS_GENDTOL_13
 70
     0
  0
APPID
  5
187
330
9
100
AcDbSymbolTableRecord
100
AcDbRegAppTableRecord
  2
GENIUS_GENOBJ-N-FIL_13
 70
     0
  0
APPID
  5
75A
330
9
100
AcDbSymbolTableRecord
100
AcDbRegAppTableRecord
  2
AD_DRAW
 70
     0
  0
APPID
  5
75B
330
9
100
AcDbSymbolTableRecord
100
AcDbRegAppTableRecord
  2
DESIGNERASSEMBLIES
 70
     0
  0
APPID
  5
75C
330
9
100
AcDbSymbolTableRecord
100
AcDbRegAppTableRecord
  2
ASURF_PCURVE_APPNAME
 70
     0
  0
APPID
  5
75D
330
9
100
AcDbSymbolTableRecord
100
AcDbRegAppTableRecord
  2
GENIUS_GE3SECT_13
 70
     0
  0
APPID
  5
75E
330
9
100
AcDbSymbolTableRecord
100
AcDbRegAppTableRecord
  2
GENIUS_GENCFG_13
 70
     0
  0
APPID
  5
75F
330
9
100
AcDbSymbolTableRecord
100
AcDbRegAppTableRecord
  2
GENIUS_GE3CFG0_13
 70
     0
  0
APPID
  5
760
330
9
100
AcDbSymbolTableRecord
100
AcDbRegAppTableRecord
  2
GENIUS_GENCFG0_13
 70
     0
  0
APPID
  5
761
330
9
100
AcDbSymbolTableRecord
100
AcDbRegAppTableRecord
  2
GENIUS_GENCFG1_13
 70
     0
  0
APPID
  5
762
330
9
100
AcDbSymbolTableRecord
100
AcDbRegAppTableRecord
  2
GENIUS_GENCFG2_13
 70
     0
  0
APPID
  5
763
330
9
100
AcDbSymbolTableRecord
100
AcDbRegAppTableRecord
  2
GENIUS_GENCFG3_13
 70
     0
  0
APPID
  5
764
330
9
100
AcDbSymbolTableRecord
100
AcDbRegAppTableRecord
  2
GENIUS_GENCFG4_13
 70
     0
  0
APPID
  5
765
330
9
100
AcDbSymbolTableRecord
100
AcDbRegAppTableRecord
  2
GENIUS_GEVCFG0_13
 70
     0
  0
APPID
  5
766
330
9
100
AcDbSymbolTableRecord
100
AcDbRegAppTableRecord
  2
GENIUS_GENHINW_13
 70
     0
  0
APPID
  5
767
330
9
100
AcDbSymbolTableRecord
100
AcDbRegAppTableRecord
  2
GENIUS_FIRSTVISTXT_14
 70
     0
  0
APPID
  5
768
330
9
100
AcDbSymbolTableRecord
100
AcDbRegAppTableRecord
  2
GENIUS_GENOBJ-N-LEADER_13
 70
     0
  0
APPID
  5
769
330
9
100
AcDbSymbolTableRecord
100
AcDbRegAppTableRecord
  2
GEV_VCCNULL_SWITCH_OFF
 70
     0
  0
APPID
  5
76A
330
9
100
AcDbSymbolTableRecord
100
AcDbRegAppTableRecord
  2
GENIUS_GEFCFG0_13
 70
     0
  0
APPID
  5
76B
330
9
100
AcDbSymbolTableRecord
100
AcDbRegAppTableRecord
  2
GENIUS_GENZVEED_13
 70
     0
  0
APPID
  5
76C
330
9
100
AcDbSymbolTableRecord
100
AcDbRegAppTableRecord
  2
GENIUS_GENSCREG_13
 70
     0
  0
APPID
  5
76D
330
9
100
AcDbSymbolTableRecord
100
AcDbRegAppTableRecord
  2
GENIUS_DUMCFG0_13
 70
     0
  0
APPID
  5
76E
330
9
100
AcDbSymbolTableRecord
100
AcDbRegAppTableRecord
  2
GEVID936201362
 70
     0
  0
APPID
  5
76F
330
9
100
AcDbSymbolTableRecord
100
AcDbRegAppTableRecord
  2
GEVDC
 70
     0
  0
APPID
  5
770
330
9
100
AcDbSymbolTableRecord
100
AcDbRegAppTableRecord
  2
GEVCON
 70
     0
  0
APPID
  5
771
330
9
100
AcDbSymbolTableRecord
100
AcDbRegAppTableRecord
  2
VCC
 70
     0
  0
APPID
  5
772
330
9
100
AcDbSymbolTableRecord
100
AcDbRegAppTableRecord
  2
GEVPT
 70
     0
  0
APPID
  5
773
330
9
100
AcDbSymbolTableRecord
100
AcDbRegAppTableRecord
  2
GEVIT
 70
     0
  0
APPID
  5
774
330
9
100
AcDbSymbolTableRecord
100
AcDbRegAppTableRecord
  2
GENBH
 70
     0
  0
APPID
  5
775
330
9
100
AcDbSymbolTableRecord
100
AcDbRegAppTableRecord
  2
GEVMK
 70
     0
  0
APPID
  5
776
330
9
100
AcDbSymbolTableRecord
100
AcDbRegAppTableRecord
  2
GENIUS_GENBH_13
 70
     0
  0
APPID
  5
777
330
9
100
AcDbSymbolTableRecord
100
AcDbRegAppTableRecord
  2
GENIUS_GENOBJ-NBEHI-BHF_13
 70
     0
  0
APPID
  5
778
330
9
100
AcDbSymbolTableRecord
100
AcDbRegAppTableRecord
  2
GENIUS_GENOBJ-NBEHI-BHB_13
 70
     0
  0
APPID
  5
779
330
9
100
AcDbSymbolTableRecord
100
AcDbRegAppTableRecord
  2
GENIUS_GENOBJ-F-DESC_13
 70
     0
  0
APPID
  5
77A
330
9
100
AcDbSymbolTableRecord
100
AcDbRegAppTableRecord
  2
GENIUS_GEFDESC_14
 70
     0
  0
APPID
  5
77B
330
9
100
AcDbSymbolTableRecord
100
AcDbRegAppTableRecord
  2
GENIUS_GENOBJ-F-PART_13
 70
     0
  0
APPID
  5
77C
330
9
100
AcDbSymbolTableRecord
100
AcDbRegAppTableRecord
  2
GENIUS_GEFSTDP_13
 70
     0
  0
APPID
  5
77D
330
9
100
AcDbSymbolTableRecord
100
AcDbRegAppTableRecord
  2
GENIUS_GEFPARTINS_13
 70
     0
  0
APPID
  5
77E
330
9
100
AcDbSymbolTableRecord
100
AcDbRegAppTableRecord
  2
GENIUS_GENTRA_14
 70
     0
  0
APPID
  5
77F
330
9
100
AcDbSymbolTableRecord
100
AcDbRegAppTableRecord
  2
GENIUS_GENINF13_13
 70
     0
  0
APPID
  5
780
330
9
100
AcDbSymbolTableRecord
100
AcDbRegAppTableRecord
  2
GENIUS_GENOBJ-N-INFOPT_13
 70
     0
  0
APPID
  5
781
330
9
100
AcDbSymbolTableRecord
100
AcDbRegAppTableRecord
  2
GENIUS_GENOBJ-N-RSSYM_13
 70
     0
  0
APPID
  5
782
330
9
100
AcDbSymbolTableRecord
100
AcDbRegAppTableRecord
  2
GENIUS_GENSYMENT_13
 70
     0
  0
APPID
  5
783
330
9
100
AcDbSymbolTableRecord
100
AcDbRegAppTableRecord
  2
GENIUS_GENSCSYM_13
 70
     0
  0
APPID
  5
784
330
9
100
AcDbSymbolTableRecord
100
AcDbRegAppTableRecord
  2
GENIUS_GEFINFNAM_13
 70
     0
  0
APPID
  5
785
330
9
100
AcDbSymbolTableRecord
100
AcDbRegAppTableRecord
  2
GENIUS_GENOBJ-N-CEN_13
 70
     0
  0
APPID
  5
786
330
9
100
AcDbSymbolTableRecord
100
AcDbRegAppTableRecord
  2
GENIUS_GENOBJ-N-CRS_13
 70
     0
  0
APPID
  5
787
330
9
100
AcDbSymbolTableRecord
100
AcDbRegAppTableRecord
  2
GENIUS_GENOBJ-N-CRC_13
 70
     0
  0
APPID
  5
788
330
9
100
AcDbSymbolTableRecord
100
AcDbRegAppTableRecord
  2
GENIUS_GENCRC_14
 70
     0
  0
APPID
  5
789
330
9
100
AcDbSymbolTableRecord
100
AcDbRegAppTableRecord
  2
GEVID942827039
 70
     0
  0
APPID
  5
78A
330
9
100
AcDbSymbolTableRecord
100
AcDbRegAppTableRecord
  2
GEVID942827040
 70
     0
  0
APPID
  5
78B
330
9
100
AcDbSymbolTableRecord
100
AcDbRegAppTableRecord
  2
GEVID942827041
 70
     0
  0
APPID
  5
78C
330
9
100
AcDbSymbolTableRecord
100
AcDbRegAppTableRecord
  2
GENIUS_GENOBJ-F-SCPASSM_13
 70
     0
  0
APPID
  5
78D
330
9
100
AcDbSymbolTableRecord
100
AcDbRegAppTableRecord
  2
GENIUS_GENDIMSH_14
 70
     0
  0
APPID
  5
78E
330
9
100
AcDbSymbolTableRecord
100
AcDbRegAppTableRecord
  2
GEVID942827042
 70
     0
  0
APPID
  5
78F
330
9
100
AcDbSymbolTableRecord
100
AcDbRegAppTableRecord
  2
GEVID946020473
 70
     0
  0
APPID
  5
790
330
9
100
AcDbSymbolTableRecord
100
AcDbRegAppTableRecord
  2
GEVID946020474
 70
     0
  0
APPID
  5
791
330
9
100
AcDbSymbolTableRecord
100
AcDbRegAppTableRecord
  2
GEVID946020475
 70
     0
  0
APPID
  5
792
330
9
100
AcDbSymbolTableRecord
100
AcDbRegAppTableRecord
  2
GENIUS_GENOBJ-N-HTC_13
 70
     0
  0
APPID
  5
793
330
9
100
AcDbSymbolTableRecord
100
AcDbRegAppTableRecord
  2
GENIUS_GENHATCH_13
 70
     0
  0
APPID
  5
794
330
9
100
AcDbSymbolTableRecord
100
AcDbRegAppTableRecord
  2
GEVID948854295
 70
     0
  0
APPID
  5
795
330
9
100
AcDbSymbolTableRecord
100
AcDbRegAppTableRecord
  2
GEVID939402019
 70
     0
  0
APPID
  5
796
330
9
100
AcDbSymbolTableRecord
100
AcDbRegAppTableRecord
  2
GEVID952919491
 70
     0
  0
APPID
  5
797
330
9
100
AcDbSymbolTableRecord
100
AcDbRegAppTableRecord
  2
GEVID952919492
 70
     0
  0
APPID
  5
798
330
9
100
AcDbSymbolTableRecord
100
AcDbRegAppTableRecord
  2
GENIUS_GEFWELD_13
 70
     0
  0
APPID
  5
799
330
9
100
AcDbSymbolTableRecord
100
AcDbRegAppTableRecord
  2
GENIUS_GENOBJ-F-WELS_13
 70
     0
  0
APPID
  5
79A
330
9
100
AcDbSymbolTableRecord
100
AcDbRegAppTableRecord
  2
GEVID952919493
 70
     0
  0
APPID
  5
79B
330
9
100
AcDbSymbolTableRecord
100
AcDbRegAppTableRecord
  2
GENIUS_GENOBJ-N-RSBK_13
 70
     0
  0
APPID
  5
79C
330
9
100
AcDbSymbolTableRecord
100
AcDbRegAppTableRecord
  2
GENIUS_GENOBJ-N-LIB_13
 70
     0
  0
APPID
  5
79D
330
9
100
AcDbSymbolTableRecord
100
AcDbRegAppTableRecord
  2
GENIUS_GENSCALE_13
 70
     0
  0
APPID
  5
79E
330
9
100
AcDbSymbolTableRecord
100
AcDbRegAppTableRecord
  2
GEVID986376691
 70
     0
  0
APPID
  5
79F
330
9
100
AcDbSymbolTableRecord
100
AcDbRegAppTableRecord
  2
DCO15
 70
     0
  0
APPID
  5
1A97
330
9
100
AcDbSymbolTableRecord
100
AcDbRegAppTableRecord
  2
GEVID988070561
 70
     0
  0
APPID
  5
1A98
330
9
100
AcDbSymbolTableRecord
100
AcDbRegAppTableRecord
  2
GEVID988070562
 70
     0
  0
APPID
  5
1A99
330
9
100
AcDbSymbolTableRecord
100
AcDbRegAppTableRecord
  2
GEVID988070563
 70
     0
  0
APPID
  5
2201
330
9
100
AcDbSymbolTableRecord
100
AcDbRegAppTableRecord
  2
ACADM_DIM_EDIT
 70
     0
  0
APPID
  5
2202
330
9
100
AcDbSymbolTableRecord
100
AcDbRegAppTableRecord
  2
AMDT_DM_ADJ
 70
     0
  0
APPID
  5
222C
330
9
100
AcDbSymbolTableRecord
100
AcDbRegAppTableRecord
  2
ACAD_PSEXT
 70
     0
  0
APPID
  5
222D
330
9
100
AcDbSymbolTableRecord
100
AcDbRegAppTableRecord
  2
GENIUS_GENCEN_19
 70
     0
  0
ENDTAB
  0
TABLE
  2
DIMSTYLE
  5
A
330
0
100
AcDbSymbolTable
 70
    14
100
AcDbDimStyleTable
 71
     1
340
6C
  0
DIMSTYLE
105
6C
330
A
100
AcDbSymbolTableRecord
100
AcDbDimStyleTableRecord
  2
AM_ISO
 70
     0
  4
"
 41
2.5
 42
1.0
 43
8.0
 44
0.6
 47
0.1
 48
0.1
 73
     0
 74
     0
 77
     1
 78
     8
 79
     2
140
2.5
141
0.0
143
0.0393701
146
0.71
147
0.8
172
     1
176
   256
177
   256
178
     4
271
     2
272
     2
283
     0
284
     8
340
11
371
    -1
372
    -1
  0
DIMSTYLE
105
740
330
A
100
AcDbSymbolTableRecord
100
AcDbDimStyleTableRecord
  2
STANDARD
 70
     0
340
11
  0
ENDTAB
  0
TABLE
  2
BLOCK_RECORD
  5
1
330
0
100
AcDbSymbolTable
 70
     3
  0
BLOCK_RECORD
  5
1F
102
{ACAD_XDICTIONARY
360
CC
102
}
330
1
100
AcDbSymbolTableRecord
100
AcDbBlockTableRecord
  2
*Model_Space
340
22
  0
BLOCK_RECORD
  5
1B
330
1
100
AcDbSymbolTableRecord
100
AcDbBlockTableRecord
  2
*Paper_Space
340
1E
  0
BLOCK_RECORD
  5
23
330
1
100
AcDbSymbolTableRecord
100
AcDbBlockTableRecord
  2
*Paper_Space0
340
26
  0
ENDTAB
  0
ENDSEC
  0
SECTION
  2
BLOCKS
  0
BLOCK
  5
20
330
1F
100
AcDbEntity
  8
0
100
AcDbBlockBegin
  2
*Model_Space
 70
     0
 10
0.0
 20
0.0
 30
0.0
  3
*Model_Space
  1

  0
ENDBLK
  5
21
330
1F
100
AcDbEntity
  8
0
100
AcDbBlockEnd
  0
BLOCK
  5
1C
330
1B
100
AcDbEntity
 67
     1
  8
0
100
AcDbBlockBegin
  2
*Paper_Space
 70
     0
 10
0.0
 20
0.0
 30
0.0
  3
*Paper_Space
  1

  0
ENDBLK
  5
1D
330
1B
100
AcDbEntity
 67
     1
  8
0
100
AcDbBlockEnd
  0
BLOCK
  5
24
330
23
100
AcDbEntity
  8
0
100
AcDbBlockBegin
  2
*Paper_Space0
 70
     0
 10
0.0
 20
0.0
 30
0.0
  3
*Paper_Space0
  1

  0
ENDBLK
  5
25
330
23
100
AcDbEntity
  8
0
100
AcDbBlockEnd
  0
ENDSEC
  0
SECTION
  2
ENTITIES
  0
LINE
  5
3242
330
1F
100
AcDbEntity
  8
ﾁｭｳｼﾝｾﾝ
 48
0.8
100
AcDbLine
 10
642.1075121201668
 20
301.6049191828915
 30
0.0
 11
714.9734201201668
 21
301.6049191828915
 31
0.0
  0
LINE
  5
3243
330
1F
100
AcDbEntity
  8
AM_0
100
AcDbLine
 10
462.857903483469
 20
289.1049181828914
 30
0.0
 11
464.8578534834688
 21
289.1049181828914
 31
0.0
  0
LINE
  5
3244
330
1F
100
AcDbEntity
  8
AM_0
100
AcDbLine
 10
462.857903483469
 20
314.1049141828914
 30
0.0
 11
464.8578534834688
 21
314.1049141828914
 31
0.0
  0
LINE
  5
3245
330
1F
100
AcDbEntity
  8
AM_0
100
AcDbLine
 10
464.8578534834688
 20
313.6049041828913
 30
0.0
 11
504.8579034834689
 21
313.6049041828913
 31
0.0
  0
LINE
  5
3246
330
1F
100
AcDbEntity
  8
AM_0
100
AcDbLine
 10
504.8579034834689
 20
316.6049041828913
 30
0.0
 11
504.8579034834689
 21
289.6049191828915
 31
0.0
  0
LINE
  5
3247
330
1F
100
AcDbEntity
  8
AM_0
100
AcDbLine
 10
464.8578534834688
 20
289.6049191828915
 30
0.0
 11
504.8579034834689
 21
289.6049191828915
 31
0.0
  0
LINE
  5
3248
330
1F
100
AcDbEntity
  8
AM_0
100
AcDbLine
 10
464.8578534834688
 20
314.1049141828914
 30
0.0
 11
464.8578534834688
 21
289.1049181828914
 31
0.0
  0
LINE
  5
3249
330
1F
100
AcDbEntity
  8
ﾁｭｳｼﾝｾﾝ
 48
0.8
100
AcDbLine
 10
508.5703734834686
 20
301.6049191828915
 30
0.0
 11
380.9571774539379
 21
301.6049191828915
 31
0.0
  0
LINE
  5
324A
330
1F
100
AcDbEntity
  8
ﾁｭｳｼﾝｾﾝ
 48
0.8
100
AcDbLine
 10
678.5404661201668
 20
356.6704915269935
 30
0.0
 11
678.5404661201668
 21
202.3706461828914
 31
0.0
  0
LINE
  5
324B
330
1F
100
AcDbEntity
  8
AM_0
100
AcDbLine
 10
472.8578634834691
 20
316.6049041828913
 30
0.0
 11
472.8578634834691
 21
313.6049041828913
 31
0.0
  0
LINE
  5
324C
330
1F
100
AcDbEntity
  8
AM_0
100
AcDbLine
 10
620.9826371201668
 20
320.6248141828915
 30
0.0
 11
625.5630371201667
 21
324.1395241828914
 31
0.0
  0
LINE
  5
324D
330
1F
100
AcDbEntity
  8
AM_0
100
AcDbLine
 10
625.5630371201667
 20
324.1394941828913
 30
0.0
 11
624.8094371201666
 21
329.8636141828914
 31
0.0
  0
LINE
  5
324E
330
1F
100
AcDbEntity
  8
AM_0
100
AcDbLine
 10
624.8094371201666
 20
329.8635841828913
 30
0.0
 11
619.4754371201666
 21
332.0730241828914
 31
0.0
  0
LINE
  5
324F
330
1F
100
AcDbEntity
  8
AM_0
100
AcDbLine
 10
619.4754671201669
 20
332.0730241828914
 30
0.0
 11
614.8950071201667
 21
328.5583441828914
 31
0.0
  0
LINE
  5
3250
330
1F
100
AcDbEntity
  8
AM_0
100
AcDbLine
 10
614.8950071201667
 20
328.5583441828914
 30
0.0
 11
615.6485771201667
 21
322.8342241828913
 31
0.0
  0
LINE
  5
3251
330
1F
100
AcDbEntity
  8
AM_0
100
AcDbLine
 10
615.6485771201667
 20
322.8342241828913
 30
0.0
 11
620.9826071201669
 21
320.6247841828914
 31
0.0
  0
LINE
  5
3252
330
1F
100
AcDbEntity
  8
AM_0
100
AcDbLine
 10
731.5179431201668
 20
324.1394041828914
 30
0.0
 11
736.0983731201668
 21
320.6247241828914
 31
0.0
  0
LINE
  5
3253
330
1F
100
AcDbEntity
  8
AM_0
100
AcDbLine
 10
732.2715161201666
 20
329.8635241828915
 30
0.0
 11
731.5179131201667
 21
324.1394041828914
 31
0.0
  0
LINE
  5
3254
330
1F
100
AcDbEntity
  8
AM_0
100
AcDbLine
 10
737.6055611201666
 20
332.0729641828914
 30
0.0
 11
732.2715311201666
 21
329.8635541828914
 31
0.0
  0
LINE
  5
3255
330
1F
100
AcDbEntity
  8
AM_0
100
AcDbLine
 10
742.1859911201668
 20
328.5582541828915
 30
0.0
 11
737.6055611201666
 21
332.0729341828914
 31
0.0
  0
LINE
  5
3256
330
1F
100
AcDbEntity
  8
AM_0
100
AcDbLine
 10
736.0983731201668
 20
320.6247541828913
 30
0.0
 11
741.4324031201666
 21
322.8341641828915
 31
0.0
  0
LINE
  5
3257
330
1F
100
AcDbEntity
  8
AM_0
100
AcDbLine
 10
702.0872951201669
 20
217.2144751828914
 30
0.0
 11
701.3337101201667
 21
211.4903671828915
 31
0.0
  0
LINE
  5
3258
330
1F
100
AcDbEntity
  8
AM_0
100
AcDbLine
 10
701.3337251201668
 20
211.4903521828915
 30
0.0
 11
705.9141521201666
 21
207.9756751828914
 31
0.0
  0
LINE
  5
3259
330
1F
100
AcDbEntity
  8
AM_0
100
AcDbLine
 10
707.4213551201668
 20
219.4239001828914
 30
0.0
 11
702.0873251201667
 21
217.2144751828914
 31
0.0
  0
LINE
  5
325A
330
1F
100
AcDbEntity
  8
AM_0
100
AcDbLine
 10
712.0017701201667
 20
215.9091901828915
 30
0.0
 11
707.4213401201667
 21
219.4238851828914
 31
0.0
  0
LINE
  5
325B
330
1F
100
AcDbEntity
  8
AM_0
100
AcDbLine
 10
705.9141521201666
 20
207.9756901828914
 30
0.0
 11
711.2481821201663
 21
210.1851151828914
 31
0.0
  0
LINE
  5
325C
330
1F
100
AcDbEntity
  8
AM_0
100
AcDbLine
 10
711.2481521201666
 20
210.1851001828915
 30
0.0
 11
712.0017551201668
 21
215.9092081828914
 31
0.0
  0
LINE
  5
325D
330
1F
100
AcDbEntity
  8
AM_0
100
AcDbLine
 10
655.747222120167
 20
211.4903821828914
 30
0.0
 11
654.9936191201667
 21
217.2144901828914
 31
0.0
  0
LINE
  5
325E
330
1F
100
AcDbEntity
  8
AM_0
100
AcDbLine
 10
651.1667771201667
 20
207.9756901828914
 30
0.0
 11
655.747222120167
 21
211.4903671828915
 31
0.0
  0
LINE
  5
325F
330
1F
100
AcDbEntity
  8
AM_0
100
AcDbLine
 10
654.9936491201667
 20
217.2144601828915
 30
0.0
 11
649.6596341201667
 21
219.4238851828914
 31
0.0
  0
LINE
  5
3260
330
1F
100
AcDbEntity
  8
AM_0
100
AcDbLine
 10
649.6596041201668
 20
219.4239001828914
 30
0.0
 11
645.0791891201665
 21
215.9092081828914
 31
0.0
  0
LINE
  5
3261
330
1F
100
AcDbEntity
  8
AM_0
100
AcDbLine
 10
645.8327921201662
 20
210.1850851828914
 30
0.0
 11
651.1668071201668
 21
207.9756571828914
 31
0.0
  0
LINE
  5
3262
330
1F
100
AcDbEntity
  8
AM_0
100
AcDbLine
 10
645.0791591201666
 20
215.9092231828914
 30
0.0
 11
645.8327621201667
 21
210.1851151828914
 31
0.0
  0
LINE
  5
3263
330
1F
100
AcDbEntity
  8
AM_0
100
AcDbLine
 10
682.5404501201667
 20
316.6049041828913
 30
0.0
 11
682.5404501201667
 21
309.6049141828914
 31
0.0
  0
LINE
  5
3264
330
1F
100
AcDbEntity
  8
AM_0
100
AcDbLine
 10
674.5404641201668
 20
316.6049041828913
 30
0.0
 11
674.5404641201668
 21
309.6049141828914
 31
0.0
  0
LINE
  5
3265
330
1F
100
AcDbEntity
  8
AM_0
100
AcDbLine
 10
674.5404641201668
 20
316.6049041828913
 30
0.0
 11
682.5404501201667
 21
316.6049041828913
 31
0.0
  0
LINE
  5
3266
330
1F
100
AcDbEntity
  8
AM_0
100
AcDbLine
 10
674.5404641201668
 20
309.6049141828914
 30
0.0
 11
682.5404501201667
 21
309.6049141828914
 31
0.0
  0
LINE
  5
3267
330
1F
100
AcDbEntity
  8
AM_0
100
AcDbLine
 10
472.8578634834691
 20
316.6049041828913
 30
0.0
 11
504.8579034834689
 21
316.6049041828913
 31
0.0
  0
LINE
  5
326E
330
1F
100
AcDbEntity
  8
AM_0
100
AcDbLine
 10
409.8578634834693
 20
332.1224341828915
 30
0.0
 11
412.8578634834691
 21
332.1224341828915
 31
0.0
  0
LINE
  5
326F
330
1F
100
AcDbEntity
  8
AM_0
100
AcDbLine
 10
409.8578634834693
 20
320.5754041828914
 30
0.0
 11
412.8578634834691
 21
320.5754041828914
 31
0.0
  0
LINE
  5
3270
330
1F
100
AcDbEntity
  8
AM_0
100
AcDbLine
 10
409.8578634834693
 20
323.4621541828915
 30
0.0
 11
412.8578634834691
 21
323.4621541828915
 31
0.0
  0
LINE
  5
3271
330
1F
100
AcDbEntity
  8
AM_0
100
AcDbLine
 10
409.8578634834693
 20
329.2356541828914
 30
0.0
 11
412.8578634834691
 21
329.2356541828914
 31
0.0
  0
LINE
  5
3272
330
1F
100
AcDbEntity
  8
AM_0
100
AcDbLine
 10
413.8578534834691
 20
321.5753641828915
 30
0.0
 11
413.8578534834691
 21
331.1224141828914
 31
0.0
  0
LINE
  5
3273
330
1F
100
AcDbEntity
  8
AM_0
100
AcDbLine
 10
409.8578634834693
 20
333.1224241828914
 30
0.0
 11
409.8578634834693
 21
319.5754141828914
 31
0.0
  0
LINE
  5
3274
330
1F
100
AcDbEntity
  8
AM_0
100
AcDbLine
 10
742.1859281201666
 20
328.5583141828915
 30
0.0
 11
741.4323431201668
 21
322.8342241828913
 31
0.0
  0
LINE
  5
3275
330
1F
100
AcDbEntity
  8
AM_0
100
AcDbLine
 10
408.8579334834689
 20
333.1224241828914
 30
0.0
 11
409.8578634834693
 21
333.1224241828914
 31
0.0
  0
LINE
  5
3276
330
1F
100
AcDbEntity
  8
AM_0
100
AcDbLine
 10
408.8579334834689
 20
319.5754141828914
 30
0.0
 11
409.8578634834693
 21
319.5754141828914
 31
0.0
  0
LINE
  5
3277
330
1F
100
AcDbEntity
  8
AM_0
100
AcDbLine
 10
385.8578634834693
 20
331.2720841828914
 30
0.0
 11
385.8578634834693
 21
311.6329741828914
 31
0.0
  0
LINE
  5
3279
330
1F
100
AcDbEntity
  8
AM_0
100
AcDbLine
 10
359.8578534834692
 20
337.6049341828915
 30
0.0
 11
385.9887834834692
 21
338.2891741828914
 31
0.0
  0
LINE
  5
327A
330
1F
100
AcDbEntity
  8
AM_0
100
AcDbLine
 10
359.8579134834693
 20
225.6049321828914
 30
0.0
 11
382.9364034834692
 21
225.0005911828914
 31
0.0
  0
LINE
  5
327C
330
1F
100
AcDbEntity
  8
AM_0
100
AcDbLine
 10
392.8579134834692
 20
352.6049341828914
 30
0.0
 11
397.8578634834692
 21
352.6049341828914
 31
0.0
  0
LINE
  5
327D
330
1F
100
AcDbEntity
  8
AM_0
100
AcDbLine
 10
390.857933483469
 20
350.6049241828914
 30
0.0
 11
390.857933483469
 21
335.2720741828914
 31
0.0
  0
LINE
  5
327E
330
1F
100
AcDbEntity
  8
AM_0
100
AcDbLine
 10
462.857903483469
 20
276.2596111828914
 30
0.0
 11
462.857903483469
 21
326.9502241828913
 31
0.0
  0
LINE
  5
327F
330
1F
100
AcDbEntity
  8
AM_0
100
AcDbLine
 10
756.5404661201663
 20
218.6049301828914
 30
0.0
 11
745.7720501201666
 21
321.2351041828914
 31
0.0
  0
LINE
  5
3280
330
1F
100
AcDbEntity
  8
AM_0
100
AcDbLine
 10
724.5404801201667
 20
209.6049301828914
 30
0.0
 11
720.5404661201668
 21
209.6049301828914
 31
0.0
  0
LINE
  5
3281
330
1F
100
AcDbEntity
  8
AM_0
100
AcDbLine
 10
725.5404671201667
 20
207.6049471828915
 30
0.0
 11
631.5405071201666
 21
207.6049471828915
 31
0.0
  0
LINE
  5
3282
330
1F
100
AcDbEntity
  8
AM_0
100
AcDbLine
 10
636.5404631201662
 20
209.6049301828914
 30
0.0
 11
632.5404641201668
 21
209.6049301828914
 31
0.0
  0
LINE
  5
3283
330
1F
100
AcDbEntity
  8
AM_0
100
AcDbLine
 10
717.5404661201667
 20
218.6049301828914
 30
0.0
 11
717.5404661201667
 21
212.6049301828914
 31
0.0
  0
LINE
  5
3284
330
1F
100
AcDbEntity
  8
AM_0
100
AcDbLine
 10
726.5404661201666
 20
206.6049301828914
 30
0.0
 11
726.5404661201666
 21
216.6049471828915
 31
0.0
  0
LINE
  5
3285
330
1F
100
AcDbEntity
  8
ﾁｭｳｼﾝｾﾝ1
 48
0.9
100
AcDbLine
 10
613.5404771201668
 20
223.1503861828914
 30
0.0
 11
613.5404771201668
 21
202.0594741828914
 31
0.0
  0
LINE
  5
3286
330
1F
100
AcDbEntity
  8
ﾁｭｳｼﾝｾﾝ1
 48
0.9
100
AcDbLine
 10
743.5404821201667
 20
223.1503861828914
 30
0.0
 11
743.5404821201667
 21
202.0594741828914
 31
0.0
  0
LINE
  5
3287
330
1F
100
AcDbEntity
  8
AM_0
100
AcDbLine
 10
644.5404641201668
 20
223.6049311828915
 30
0.0
 11
712.5404801201668
 21
223.6049311828915
 31
0.0
  0
LINE
  5
3288
330
1F
100
AcDbEntity
  8
ﾁｭｳｼﾝｾﾝ1
 48
0.9
100
AcDbLine
 10
450.8579034834689
 20
223.1503861828914
 30
0.0
 11
450.8579034834689
 21
203.172013536727
 31
0.0
  0
LINE
  5
3289
330
1F
100
AcDbEntity
  8
AM_0
100
AcDbLine
 10
368.8579134834693
 20
206.6049301828914
 30
0.0
 11
393.857933483469
 21
206.6049301828914
 31
0.0
  0
LINE
  5
328A
330
1F
100
AcDbEntity
  8
AM_0
100
AcDbLine
 10
370.8578634834692
 20
218.6049301828914
 30
0.0
 11
389.8072734834692
 21
218.6049301828914
 31
0.0
  0
LINE
  5
328B
330
1F
100
AcDbEntity
  8
AM_0
100
AcDbLine
 10
437.8578834834693
 20
206.6049301828914
 30
0.0
 11
462.857903483469
 21
206.6049301828914
 31
0.0
  0
LINE
  5
328C
330
1F
100
AcDbEntity
  8
ﾁｭｳｼﾝｾﾝ1
 48
0.9
100
AcDbLine
 10
380.8579134834693
 20
223.1503861828914
 30
0.0
 11
380.8579134834693
 21
203.172013536727
 31
0.0
  0
LINE
  5
328D
330
1F
100
AcDbEntity
  8
AM_0
100
AcDbLine
 10
397.8578634834692
 20
352.6049341828914
 30
0.0
 11
397.8578634834692
 21
237.4620781828914
 31
0.0
  0
LINE
  5
328E
330
1F
100
AcDbEntity
  8
AM_0
100
AcDbLine
 10
397.8579234834692
 20
352.6049341828914
 30
0.0
 11
441.9887934834688
 21
351.4493041828913
 31
0.0
  0
LINE
  5
328F
330
1F
100
AcDbEntity
  8
AM_0
100
AcDbLine
 10
451.4221134834691
 20
335.3429641828915
 30
0.0
 11
457.1193834834692
 21
334.8445141828914
 31
0.0
  0
LINE
  5
3290
330
1F
100
AcDbEntity
  8
AM_0
100
AcDbLine
 10
459.8579034834687
 20
331.8559141828915
 30
0.0
 11
459.8579034834687
 21
222.3494851828914
 31
0.0
  0
LINE
  5
3291
330
1F
100
AcDbEntity
  8
AM_0
100
AcDbLine
 10
368.8579134834693
 20
216.6049171828914
 30
0.0
 11
368.8579134834693
 21
206.6049301828914
 31
0.0
  0
LINE
  5
3292
330
1F
100
AcDbEntity
  8
AM_0
100
AcDbLine
 10
394.8578634834693
 20
207.6049171828914
 30
0.0
 11
436.8578634834691
 21
207.6049171828914
 31
0.0
  0
LINE
  5
3293
330
1F
100
AcDbEntity
  8
AM_0
100
AcDbLine
 10
462.857903483469
 20
216.6049171828914
 30
0.0
 11
462.857903483469
 21
206.6049301828914
 31
0.0
  0
LINE
  5
3294
330
1F
100
AcDbEntity
  8
AM_0
100
AcDbLine
 10
400.8578634834691
 20
221.6049301828914
 30
0.0
 11
400.8578634834691
 21
251.6049331828914
 31
0.0
  0
LINE
  5
3295
330
1F
100
AcDbEntity
  8
ｶｸﾚｾﾝ2
 48
1.5
100
AcDbLine
 10
386.8579134834693
 20
218.6049301828914
 30
0.0
 11
386.8579134834693
 21
206.6049301828914
 31
0.0
  0
LINE
  5
3296
330
1F
100
AcDbEntity
  8
ｶｸﾚｾﾝ2
 48
1.5
100
AcDbLine
 10
374.8579134834693
 20
218.6049301828914
 30
0.0
 11
374.8579134834693
 21
206.6049301828914
 31
0.0
  0
LINE
  5
3297
330
1F
100
AcDbEntity
  8
ｶｸﾚｾﾝ2
 48
1.5
100
AcDbLine
 10
619.5405071201665
 20
218.6049301828914
 30
0.0
 11
619.5405071201665
 21
206.6049301828914
 31
0.0
  0
LINE
  5
3298
330
1F
100
AcDbEntity
  8
ｶｸﾚｾﾝ2
 48
1.5
100
AcDbLine
 10
607.5405071201664
 20
218.6049301828914
 30
0.0
 11
607.5405071201664
 21
206.6049301828914
 31
0.0
  0
LINE
  5
3299
330
1F
100
AcDbEntity
  8
AM_0
100
AcDbLine
 10
600.5404571201665
 20
206.6049301828914
 30
0.0
 11
600.5404571201665
 21
218.6049301828914
 31
0.0
  0
LINE
  5
329A
330
1F
100
AcDbEntity
  8
AM_0
100
AcDbLine
 10
600.5404571201665
 20
206.6049301828914
 30
0.0
 11
630.5404571201668
 21
206.6049301828914
 31
0.0
  0
LINE
  5
329B
330
1F
100
AcDbEntity
  8
AM_0
100
AcDbLine
 10
628.5405071201664
 20
218.6049301828914
 30
0.0
 11
602.5404671201662
 21
218.6049301828914
 31
0.0
  0
LINE
  5
329C
330
1F
100
AcDbEntity
  8
AM_0
100
AcDbLine
 10
400.8578634834691
 20
288.8211961828913
 30
0.0
 11
400.8578634834691
 21
252.1293931828914
 31
0.0
  0
LINE
  5
329D
330
1F
100
AcDbEntity
  8
AM_0
100
AcDbLine
 10
438.8579034834688
 20
218.6049301828914
 30
0.0
 11
460.8578634834691
 21
218.6049301828914
 31
0.0
  0
LINE
  5
329E
330
1F
100
AcDbEntity
  8
AM_0
100
AcDbLine
 10
389.8072734834692
 20
218.6049301828914
 30
0.0
 11
397.8578634834692
 21
218.6049301828914
 31
0.0
  0
LINE
  5
329F
330
1F
100
AcDbEntity
  8
ｶｸﾚｾﾝ2
 48
1.5
100
AcDbLine
 10
456.857903483469
 20
218.6049301828914
 30
0.0
 11
456.857903483469
 21
206.6049301828914
 31
0.0
  0
LINE
  5
32A0
330
1F
100
AcDbEntity
  8
ｶｸﾚｾﾝ2
 48
1.5
100
AcDbLine
 10
737.5404671201668
 20
218.6049301828914
 30
0.0
 11
737.5404671201668
 21
206.6049301828914
 31
0.0
  0
LINE
  5
32A1
330
1F
100
AcDbEntity
  8
AM_0
100
AcDbLine
 10
411.857933483469
 20
333.1323841828914
 30
0.0
 11
446.8578834834693
 21
333.1323841828914
 31
0.0
  0
LINE
  5
32A2
330
1F
100
AcDbEntity
  8
ｶｸﾚｾﾝ2
 48
1.5
100
AcDbLine
 10
444.857903483469
 20
218.6049301828914
 30
0.0
 11
444.857903483469
 21
206.6049301828914
 31
0.0
  0
LINE
  5
32A3
330
1F
100
AcDbEntity
  8
AM_0
100
AcDbLine
 10
393.857933483469
 20
206.6049301828914
 30
0.0
 11
393.857933483469
 21
206.6049301828914
 31
0.0
  0
LINE
  5
32A4
330
1F
100
AcDbEntity
  8
AM_0
100
AcDbLine
 10
433.8578634834691
 20
311.3957341828915
 30
0.0
 11
433.8578634834691
 21
223.6049311828915
 31
0.0
  0
LINE
  5
32A5
330
1F
100
AcDbEntity
  8
AM_0
100
AcDbLine
 10
600.5404571201665
 20
218.6049301828914
 30
0.0
 11
611.3088971201666
 21
321.2351041828914
 31
0.0
  0
LINE
  5
32A6
330
1F
100
AcDbEntity
  8
AM_0
100
AcDbLine
 10
446.8578834834693
 20
346.4510341828914
 30
0.0
 11
446.8578834834693
 21
237.6457351828914
 31
0.0
  0
LINE
  5
32A7
330
1F
100
AcDbEntity
  8
ｶｸﾚｾﾝ2
 48
1.5
100
AcDbLine
 10
749.5404821201669
 20
218.6049301828914
 30
0.0
 11
749.5404821201669
 21
206.6049301828914
 31
0.0
  0
LINE
  5
32A8
330
1F
100
AcDbEntity
  8
AM_0
100
AcDbLine
 10
756.5404661201663
 20
206.6049301828914
 30
0.0
 11
726.5404661201666
 21
206.6049301828914
 31
0.0
  0
LINE
  5
32A9
330
1F
100
AcDbEntity
  8
AM_0
100
AcDbLine
 10
728.5404671201669
 20
218.6049301828914
 30
0.0
 11
754.5404831201667
 21
218.6049301828914
 31
0.0
  0
LINE
  5
32AA
330
1F
100
AcDbEntity
  8
AM_0
100
AcDbLine
 10
433.8578634834691
 20
233.6457481828913
 30
0.0
 11
442.8578634834691
 21
233.6457481828913
 31
0.0
  0
LINE
  5
32AB
330
1F
100
AcDbEntity
  8
AM_0
100
AcDbLine
 10
639.5404631201667
 20
218.6049301828914
 30
0.0
 11
639.5404631201667
 21
212.6049301828914
 31
0.0
  0
LINE
  5
32AC
330
1F
100
AcDbEntity
  8
AM_0
100
AcDbLine
 10
630.5404571201668
 20
206.6049301828914
 30
0.0
 11
630.5404571201668
 21
216.6049471828915
 31
0.0
  0
LINE
  5
32AD
330
1F
100
AcDbEntity
  8
AM_0
100
AcDbLine
 10
731.5404671201669
 20
316.8574741828915
 30
0.0
 11
731.5404671201669
 21
255.6049171828914
 31
0.0
  0
LINE
  5
32AE
330
1F
100
AcDbEntity
  8
AM_0
100
AcDbLine
 10
756.5404661201663
 20
206.6049301828914
 30
0.0
 11
756.5404661201663
 21
218.6049301828914
 31
0.0
  0
LINE
  5
32AF
330
1F
100
AcDbEntity
  8
AM_0
100
AcDbLine
 10
441.857903483469
 20
319.3957141828914
 30
0.0
 11
446.8578834834693
 21
319.3957141828914
 31
0.0
  0
LINE
  5
32B0
330
1F
100
AcDbEntity
  8
AM_0
100
AcDbLine
 10
625.5405071201668
 20
316.8574741828915
 30
0.0
 11
625.5405071201668
 21
255.6049171828914
 31
0.0
  0
LINE
  5
32B1
330
1F
100
AcDbEntity
  8
AM_0
100
AcDbLine
 10
630.5404571201668
 20
286.6049191828915
 30
0.0
 11
630.5404571201668
 21
223.6049311828915
 31
0.0
  0
LINE
  5
32B2
330
1F
100
AcDbEntity
  8
AM_0
100
AcDbLine
 10
726.5404661201666
 20
286.6049191828915
 30
0.0
 11
726.5404661201666
 21
223.6049311828915
 31
0.0
  0
LINE
  5
32B3
330
1F
100
AcDbEntity
  8
AM_0
100
AcDbLine
 10
437.8578834834693
 20
206.6049301828914
 30
0.0
 11
437.8578834834693
 21
206.6049301828914
 31
0.0
  0
LINE
  5
32B4
330
1F
100
AcDbEntity
  8
AM_0
100
AcDbLine
 10
394.6984434834689
 20
222.5674111828914
 30
0.0
 11
400.7490234834691
 21
251.0918701828914
 31
0.0
  0
LINE
  5
32B5
330
1F
100
AcDbEntity
  8
AM_0
100
AcDbLine
 10
408.8579334834689
 20
338.1317041828915
 30
0.0
 11
408.8579334834689
 21
315.2296741828915
 31
0.0
  0
LINE
  5
32B6
330
1F
100
AcDbEntity
  8
AM_0
100
AcDbLine
 10
460.8578934834691
 20
329.2596241828915
 30
0.0
 11
461.8579134834692
 21
328.6822741828914
 31
0.0
  0
LINE
  5
32B7
330
1F
100
AcDbEntity
  8
AM_0
100
AcDbLine
 10
460.8578934834691
 20
273.9502231828914
 30
0.0
 11
461.8578834834693
 21
274.5275551828914
 31
0.0
  0
LINE
  5
32B8
330
1F
100
AcDbEntity
  8
AM_0
100
AcDbLine
 10
411.857933483469
 20
352.1597641828914
 30
0.0
 11
411.857933483469
 21
333.1323841828914
 31
0.0
  0
LINE
  5
32B9
330
1F
100
AcDbEntity
  8
AM_0
100
AcDbLine
 10
411.8578734834692
 20
352.1597641828914
 30
0.0
 11
425.4398334834691
 21
333.1323841828914
 31
0.0
  0
LINE
  5
32BA
330
1F
100
AcDbEntity
  8
AM_0
100
AcDbLine
 10
411.857933483469
 20
314.9536441828914
 30
0.0
 11
411.857933483469
 21
288.8211961828913
 31
0.0
  0
LINE
  5
32BB
330
1F
100
AcDbEntity
  8
AM_0
100
AcDbLine
 10
424.6875234834691
 20
314.9536441828914
 30
0.0
 11
411.8578734834692
 21
288.8211961828913
 31
0.0
  0
LINE
  5
32BC
330
1F
100
AcDbEntity
  8
AM_0
100
AcDbLine
 10
400.8578634834691
 20
288.8211961828913
 30
0.0
 11
411.857933483469
 21
288.8211961828913
 31
0.0
  0
LINE
  5
32BD
330
1F
100
AcDbEntity
  8
AM_0
100
AcDbLine
 10
411.857933483469
 20
314.9536441828914
 30
0.0
 11
434.6926134834691
 21
314.9536441828914
 31
0.0
  0
LINE
  5
32BE
330
1F
100
AcDbEntity
  8
AM_0
100
AcDbLine
 10
387.857933483469
 20
333.2720641828914
 30
0.0
 11
388.8578634834693
 21
333.2720641828914
 31
0.0
  0
LINE
  5
32BF
330
1F
100
AcDbEntity
  8
AM_0
100
AcDbLine
 10
385.8578634834693
 20
232.3891891828915
 30
0.0
 11
390.857933483469
 21
232.3891891828915
 31
0.0
  0
LINE
  5
32C0
330
1F
100
AcDbEntity
  8
AM_0
100
AcDbLine
 10
385.8578634834693
 20
309.6329641828915
 30
0.0
 11
390.857933483469
 21
309.6329641828915
 31
0.0
  0
LINE
  5
32C1
330
1F
100
AcDbEntity
  8
AM_0
100
AcDbLine
 10
387.857933483469
 20
325.0992841828915
 30
0.0
 11
388.8578634834693
 21
325.0992841828915
 31
0.0
  0
LINE
  5
32C2
330
1F
100
AcDbEntity
  8
AM_0
100
AcDbLine
 10
390.857933483469
 20
323.0992741828915
 30
0.0
 11
390.857933483469
 21
218.7348451828914
 31
0.0
  0
LINE
  5
32C3
330
1F
100
AcDbEntity
  8
AM_0
100
AcDbLine
 10
385.8578634834693
 20
230.3891731828914
 30
0.0
 11
385.8578634834693
 21
218.6049301828914
 31
0.0
  0
LINE
  5
32C4
330
1F
100
AcDbEntity
  8
AM_0
100
AcDbLine
 10
359.8579134834693
 20
327.6049141828914
 30
0.0
 11
385.8578634834693
 21
327.6049141828914
 31
0.0
  0
LINE
  5
32C5
330
1F
100
AcDbEntity
  8
AM_0
100
AcDbLine
 10
359.8579134834693
 20
313.5419341828914
 30
0.0
 11
385.8578634834693
 21
313.5419341828914
 31
0.0
  0
LINE
  5
32C6
330
1F
100
AcDbEntity
  8
AM_0
100
AcDbLine
 10
359.8579134834693
 20
249.6679051828914
 30
0.0
 11
390.857933483469
 21
249.6679051828914
 31
0.0
  0
LINE
  5
32C7
330
1F
100
AcDbEntity
  8
AM_0
100
AcDbLine
 10
359.8579134834693
 20
235.6049311828915
 30
0.0
 11
390.857933483469
 21
235.6049311828915
 31
0.0
  0
LINE
  5
32C8
330
1F
100
AcDbEntity
  8
ﾁｭｳｼﾝｾﾝ
 48
0.8
100
AcDbLine
 10
740.2753001201667
 20
281.6049181828914
 30
0.0
 11
617.0359571201668
 21
281.6049181828914
 31
0.0
  0
CIRCLE
  5
32D5
330
1F
100
AcDbEntity
  8
AM_0
100
AcDbCircle
 10
620.2290071201668
 20
326.3489041828915
 30
0.0
 40
4.9999998
  0
CIRCLE
  5
32D6
330
1F
100
AcDbEntity
  8
AM_0
100
AcDbCircle
 10
736.8519431201669
 20
326.3488441828915
 30
0.0
 40
4.9999998
  0
CIRCLE
  5
32D7
330
1F
100
AcDbEntity
  8
AM_0
100
AcDbCircle
 10
706.6677071201667
 20
213.6997951828914
 30
0.0
 40
4.9999998
  0
CIRCLE
  5
32D8
330
1F
100
AcDbEntity
  8
AM_0
100
AcDbCircle
 10
650.4131741201668
 20
213.6997951828914
 30
0.0
 40
4.9999998
  0
ARC
  5
32D9
330
1F
100
AcDbEntity
  8
AM_0
100
AcDbCircle
 10
678.5404661201668
 20
301.6049191828915
 30
0.0
 40
12.0000003
100
AcDbArc
 50
109.4712200000001
 51
70.52878899999931
  0
ARC
  5
32DB
330
1F
100
AcDbEntity
  8
AM_0
100
AcDbCircle
 10
412.8578634834691
 20
324.4621141828914
 30
0.0
 40
1.000000019999994
100
AcDbArc
 50
270.0
 51
0.0
  0
ARC
  5
32DC
330
1F
100
AcDbEntity
  8
AM_0
100
AcDbCircle
 10
412.8578634834691
 20
328.2356641828915
 30
0.0
 40
1.000000019999994
100
AcDbArc
 50
0.0
 51
90.0000029999993
  0
ARC
  5
32DD
330
1F
100
AcDbEntity
  8
AM_0
100
AcDbCircle
 10
412.8578634834691
 20
330.2356441828914
 30
0.0
 40
1.000000019999994
100
AcDbArc
 50
270.0
 51
0.0
  0
ARC
  5
32DE
330
1F
100
AcDbEntity
  8
AM_0
100
AcDbCircle
 10
412.8578634834691
 20
322.4621641828914
 30
0.0
 40
1.000000019999994
100
AcDbArc
 50
0.0
 51
90.0000029999993
  0
ARC
  5
32DF
330
1F
100
AcDbEntity
  8
AM_0
100
AcDbCircle
 10
412.8578634834691
 20
321.5753641828915
 30
0.0
 40
1.000000019999994
100
AcDbArc
 50
270.0
 51
0.0
  0
ARC
  5
32E0
330
1F
100
AcDbEntity
  8
AM_0
100
AcDbCircle
 10
412.8578634834691
 20
331.1224141828914
 30
0.0
 40
1.000000019999994
100
AcDbArc
 50
0.0
 51
90.0000029999993
  0
CIRCLE
  5
32E3
330
1F
100
AcDbEntity
  8
AM_0
 62
     2
100
AcDbCircle
 10
678.5404661201668
 20
301.6049191828915
 30
0.0
 40
4.000000199999997
  0
CIRCLE
  5
32E4
330
1F
100
AcDbEntity
  8
AM_0
100
AcDbCircle
 10
678.5404661201668
 20
301.6049191828915
 30
0.0
 40
3.0
  0
ARC
  5
32E5
330
1F
100
AcDbEntity
  8
AM_0
100
AcDbCircle
 10
385.8578634834693
 20
343.2874741828915
 30
0.0
 40
5.000000099999998
100
AcDbArc
 50
271.4999999999995
 51
0.0
  0
ARC
  5
32E6
330
1F
100
AcDbEntity
  8
AM_0
100
AcDbCircle
 10
392.8579134834692
 20
350.6049241828914
 30
0.0
 40
2.00000007
100
AcDbArc
 50
90.0000029999993
 51
180.0000099999994
  0
ARC
  5
32E7
330
1F
100
AcDbEntity
  8
AM_0
100
AcDbCircle
 10
382.8578634834693
 20
222.0016141828914
 30
0.0
 40
3.0
100
AcDbArc
 50
0.0
 51
88.49999700000074
  0
ARC
  5
32E8
330
1F
100
AcDbEntity
  8
AM_0
100
AcDbCircle
 10
739.1286011201668
 20
312.4769041828914
 30
0.0
 40
3.0
100
AcDbArc
 50
27.00057299999915
 51
84.29426100000069
  0
ARC
  5
32E9
330
1F
100
AcDbEntity
  8
AM_0
100
AcDbCircle
 10
456.857903483469
 20
331.8559141828915
 30
0.0
 40
3.0
100
AcDbArc
 50
0.0
 51
84.99999700000037
  0
ARC
  5
32EA
330
1F
100
AcDbEntity
  8
AM_0
100
AcDbCircle
 10
451.8578634834693
 20
340.3239241828913
 30
0.0
 40
5.000000099999998
100
AcDbArc
 50
179.9999900000006
 51
265.0000000000003
  0
ARC
  5
32EB
330
1F
100
AcDbEntity
  8
AM_0
100
AcDbCircle
 10
617.9523371201668
 20
312.4769041828914
 30
0.0
 40
3.0
100
AcDbArc
 50
95.70573800000065
 51
152.9994200000007
  0
ARC
  5
32EC
330
1F
100
AcDbEntity
  8
AM_0
100
AcDbCircle
 10
625.5405071201668
 20
223.6049311828915
 30
0.0
 40
5.000000099999998
100
AcDbArc
 50
270.0
 51
0.0
  0
ARC
  5
32ED
330
1F
100
AcDbEntity
  8
AM_0
100
AcDbCircle
 10
630.5404571201668
 20
316.8574741828915
 30
0.0
 40
5.000000099999998
100
AcDbArc
 50
138.7194100000002
 51
180.0000099999994
  0
ARC
  5
32EE
330
1F
100
AcDbEntity
  8
AM_0
100
AcDbCircle
 10
633.0390281201666
 20
332.1382741828914
 30
0.0
 40
3.0
100
AcDbArc
 50
132.0006500000004
 51
189.29434
  0
ARC
  5
32EF
330
1F
100
AcDbEntity
  8
AM_0
100
AcDbCircle
 10
726.5404661201666
 20
316.8574741828915
 30
0.0
 40
5.000000099999998
100
AcDbArc
 50
0.0
 51
41.28059099999929
  0
ARC
  5
32F0
330
1F
100
AcDbEntity
  8
AM_0
100
AcDbCircle
 10
725.5404671201667
 20
206.6049301828914
 30
0.0
 40
1.000000019999994
100
AcDbArc
 50
0.0
 51
90.0000029999993
  0
ARC
  5
32F1
330
1F
100
AcDbEntity
  8
AM_0
100
AcDbCircle
 10
631.5405071201666
 20
206.6049301828914
 30
0.0
 40
1.000000019999994
100
AcDbArc
 50
90.0000029999993
 51
180.0000099999994
  0
ARC
  5
32F2
330
1F
100
AcDbEntity
  8
AM_0
100
AcDbCircle
 10
636.5404631201662
 20
212.6049301828914
 30
0.0
 40
3.0
100
AcDbArc
 50
270.0
 51
0.0
  0
ARC
  5
32F3
330
1F
100
AcDbEntity
  8
AM_0
100
AcDbCircle
 10
632.5404641201668
 20
207.6049471828915
 30
0.0
 40
2.00000007
100
AcDbArc
 50
90.0000029999993
 51
180.0000099999994
  0
ARC
  5
32F4
330
1F
100
AcDbEntity
  8
AM_0
100
AcDbCircle
 10
723.6077111201667
 20
337.4413441828914
 30
0.0
 40
5.000000099999998
100
AcDbArc
 50
334.9370299999996
 51
64.58244399999981
  0
ARC
  5
32F5
330
1F
100
AcDbEntity
  8
AM_0
100
AcDbCircle
 10
409.8578634834693
 20
338.1317041828915
 30
0.0
 40
1.000000019999994
100
AcDbArc
 50
90.0000029999993
 51
180.0000099999994
  0
ARC
  5
32F6
330
1F
100
AcDbEntity
  8
AM_0
100
AcDbCircle
 10
436.8578634834691
 20
206.6049301828914
 30
0.0
 40
1.000000019999994
100
AcDbArc
 50
0.0
 51
90.0000029999993
  0
ARC
  5
32F7
330
1F
100
AcDbEntity
  8
AM_0
100
AcDbCircle
 10
395.8579134834693
 20
252.1293931828914
 30
0.0
 40
5.000000099999998
100
AcDbArc
 50
348.0238700000007
 51
0.0
  0
ARC
  5
32F8
330
1F
100
AcDbEntity
  8
AM_0
100
AcDbCircle
 10
678.5404661201668
 20
301.6049191828915
 30
0.0
 40
26.5000026
100
AcDbArc
 50
90.0000029999993
 51
270.0
  0
ARC
  5
32F9
330
1F
100
AcDbEntity
  8
AM_0
100
AcDbCircle
 10
678.5404661201668
 20
281.6049181828914
 30
0.0
 40
71.00000099999999
100
AcDbArc
 50
5.989814199999337
 51
27.00057299999915
  0
ARC
  5
32FA
330
1F
100
AcDbEntity
  8
AM_0
100
AcDbCircle
 10
602.5404671201662
 20
216.6049471828915
 30
0.0
 40
2.00000007
100
AcDbArc
 50
90.0000029999993
 51
180.0000099999994
  0
ARC
  5
32FB
330
1F
100
AcDbEntity
  8
AM_0
100
AcDbCircle
 10
397.8578634834692
 20
221.6049301828914
 30
0.0
 40
3.0
100
AcDbArc
 50
270.0
 51
0.0
  0
ARC
  5
32FC
330
1F
100
AcDbEntity
  8
AM_0
100
AcDbCircle
 10
678.5404661201668
 20
286.6049191828915
 30
0.0
 40
48.0
100
AcDbArc
 50
0.0
 51
180.0000099999994
  0
ARC
  5
32FD
330
1F
100
AcDbEntity
  8
AM_0
100
AcDbCircle
 10
442.8578634834691
 20
237.6457351828914
 30
0.0
 40
4.000000199999997
100
AcDbArc
 50
270.0
 51
0.0
  0
ARC
  5
32FE
330
1F
100
AcDbEntity
  8
AM_0
100
AcDbCircle
 10
616.2621971201668
 20
329.3926741828913
 30
0.0
 40
13.9999986
100
AcDbArc
 50
266.8006400000006
 51
25.06296900000027
  0
ARC
  5
32FF
330
1F
100
AcDbEntity
  8
AM_0
100
AcDbCircle
 10
731.5404671201669
 20
223.6049311828915
 30
0.0
 40
5.000000099999998
100
AcDbArc
 50
179.9999900000006
 51
270.0
  0
ARC
  5
3300
330
1F
100
AcDbEntity
  8
AM_0
100
AcDbCircle
 10
720.5404661201668
 20
212.6049301828914
 30
0.0
 40
3.0
100
AcDbArc
 50
179.9999900000006
 51
270.0
  0
ARC
  5
3301
330
1F
100
AcDbEntity
  8
AM_0
100
AcDbCircle
 10
441.857903483469
 20
346.4510341828914
 30
0.0
 40
5.000000099999998
100
AcDbArc
 50
0.0
 51
88.49999700000074
  0
ARC
  5
3302
330
1F
100
AcDbEntity
  8
AM_0
100
AcDbCircle
 10
464.8578834834693
 20
222.3494851828914
 30
0.0
 40
5.000000099999998
100
AcDbArc
 50
179.9999900000006
 51
235.1501100000004
  0
ARC
  5
3303
330
1F
100
AcDbEntity
  8
AM_0
100
AcDbCircle
 10
460.8578634834691
 20
216.6049171828914
 30
0.0
 40
2.00000007
100
AcDbArc
 50
0.0
 51
90.0000029999993
  0
ARC
  5
3304
330
1F
100
AcDbEntity
  8
AM_0
100
AcDbCircle
 10
370.8578634834692
 20
216.6049171828914
 30
0.0
 40
2.00000007
100
AcDbArc
 50
90.0000029999993
 51
180.0000099999994
  0
ARC
  5
3305
330
1F
100
AcDbEntity
  8
AM_0
100
AcDbCircle
 10
394.8578634834693
 20
206.6049301828914
 30
0.0
 40
1.000000019999994
100
AcDbArc
 50
90.0000029999993
 51
180.0000099999994
  0
ARC
  5
3306
330
1F
100
AcDbEntity
  8
AM_0
100
AcDbCircle
 10
628.5405071201664
 20
216.6049471828915
 30
0.0
 40
2.00000007
100
AcDbArc
 50
0.0
 51
90.0000029999993
  0
ARC
  5
3307
330
1F
100
AcDbEntity
  8
AM_0
100
AcDbCircle
 10
740.8187411201666
 20
329.3926741828913
 30
0.0
 40
13.9999986
100
AcDbArc
 50
154.9370399999996
 51
273.1993700000008
  0
ARC
  5
3308
330
1F
100
AcDbEntity
  8
AM_0
100
AcDbCircle
 10
438.8579034834688
 20
223.6049311828915
 30
0.0
 40
5.000000099999998
100
AcDbArc
 50
180.0000099999994
 51
270.0
  0
ARC
  5
3309
330
1F
100
AcDbEntity
  8
AM_0
100
AcDbCircle
 10
678.5404661201668
 20
301.6049191828915
 30
0.0
 40
26.5000026
100
AcDbArc
 50
270.0
 51
90.0000029999993
  0
ARC
  5
330A
330
1F
100
AcDbEntity
  8
AM_0
100
AcDbCircle
 10
754.5404831201667
 20
216.6049471828915
 30
0.0
 40
2.00000007
100
AcDbArc
 50
0.0
 51
90.0000029999993
  0
ARC
  5
330B
330
1F
100
AcDbEntity
  8
AM_0
100
AcDbCircle
 10
644.5404641201668
 20
218.6049301828914
 30
0.0
 40
5.000000099999998
100
AcDbArc
 50
90.0000029999993
 51
180.0000099999994
  0
ARC
  5
330C
330
1F
100
AcDbEntity
  8
AM_0
100
AcDbCircle
 10
678.5404661201668
 20
281.6049181828914
 30
0.0
 40
71.00000099999999
100
AcDbArc
 50
47.99935900000032
 51
132.0006500000004
  0
ARC
  5
330D
330
1F
100
AcDbEntity
  8
AM_0
100
AcDbCircle
 10
728.5404671201669
 20
216.6049471828915
 30
0.0
 40
2.00000007
100
AcDbArc
 50
90.0000029999993
 51
180.0000099999994
  0
ARC
  5
330E
330
1F
100
AcDbEntity
  8
AM_0
100
AcDbCircle
 10
712.5404801201668
 20
218.6049301828914
 30
0.0
 40
5.000000099999998
100
AcDbArc
 50
0.0
 51
90.0000029999993
  0
ARC
  5
330F
330
1F
100
AcDbEntity
  8
AM_0
100
AcDbCircle
 10
678.5404661201668
 20
281.6049181828914
 30
0.0
 40
71.00000099999999
100
AcDbArc
 50
152.9994200000007
 51
174.0101900000002
  0
ARC
  5
3310
330
1F
100
AcDbEntity
  8
AM_0
100
AcDbCircle
 10
441.857903483469
 20
311.3957341828915
 30
0.0
 40
8.000000099999999
100
AcDbArc
 50
90.0000029999993
 51
180.0000099999994
  0
ARC
  5
3311
330
1F
100
AcDbEntity
  8
AM_0
100
AcDbCircle
 10
389.8072734834692
 20
223.6049311828915
 30
0.0
 40
5.000000099999998
100
AcDbArc
 50
270.0
 51
348.0238700000007
  0
ARC
  5
3312
330
1F
100
AcDbEntity
  8
AM_0
100
AcDbCircle
 10
659.5404641201668
 20
255.6049171828914
 30
0.0
 40
34.000002
100
AcDbArc
 50
179.9999900000006
 51
211.4669699999997
  0
ARC
  5
3313
330
1F
100
AcDbEntity
  8
AM_0
100
AcDbCircle
 10
741.8791361201666
 20
310.4222641828915
 30
0.0
 40
5.000000099999998
100
AcDbArc
 50
5.989815499999884
 51
93.19935899999945
  0
ARC
  5
3314
330
1F
100
AcDbEntity
  8
AM_0
100
AcDbCircle
 10
724.5404801201667
 20
207.6049471828915
 30
0.0
 40
2.00000007
100
AcDbArc
 50
0.0
 51
90.0000029999993
  0
ARC
  5
3315
330
1F
100
AcDbEntity
  8
AM_0
100
AcDbCircle
 10
697.5404801201667
 20
255.6049171828914
 30
0.0
 40
34.000002
100
AcDbArc
 50
328.5330200000005
 51
0.0
  0
ARC
  5
3316
330
1F
100
AcDbEntity
  8
AM_0
100
AcDbCircle
 10
460.8578634834691
 20
276.2596111828914
 30
0.0
 40
2.00000007
100
AcDbArc
 50
299.9999999999997
 51
0.0
  0
ARC
  5
3317
330
1F
100
AcDbEntity
  8
AM_0
100
AcDbCircle
 10
461.8578834834693
 20
330.9916741828914
 30
0.0
 40
2.00000007
100
AcDbArc
 50
179.9999900000006
 51
240.0000099999997
  0
ARC
  5
3318
330
1F
100
AcDbEntity
  8
AM_0
100
AcDbCircle
 10
461.8578834834693
 20
272.2181671828914
 30
0.0
 40
2.00000007
100
AcDbArc
 50
119.9999999999997
 51
180.0000099999994
  0
ARC
  5
3319
330
1F
100
AcDbEntity
  8
AM_0
100
AcDbCircle
 10
460.8578634834691
 20
326.9502241828913
 30
0.0
 40
2.00000007
100
AcDbArc
 50
0.0
 51
60.0000019999999
  0
ARC
  5
331A
330
1F
100
AcDbEntity
  8
AM_0
100
AcDbCircle
 10
631.1997071201666
 20
319.1480641828915
 30
0.0
 40
20.0000007
100
AcDbArc
 50
121.7361700000007
 51
174.0101900000002
  0
ARC
  5
331B
330
1F
100
AcDbEntity
  8
AM_0
100
AcDbCircle
 10
725.8812401201668
 20
319.1480641828915
 30
0.0
 40
20.0000007
100
AcDbArc
 50
5.989815499999884
 51
58.26383599999955
  0
ARC
  5
331C
330
1F
100
AcDbEntity
  8
AM_0
100
AcDbCircle
 10
633.4732331201668
 20
337.4413441828914
 30
0.0
 40
5.000000099999998
100
AcDbArc
 50
115.4175600000001
 51
205.0629700000004
  0
ARC
  5
331D
330
1F
100
AcDbEntity
  8
AM_0
100
AcDbCircle
 10
678.5404661201668
 20
242.6049331828914
 30
0.0
 40
110.000004
100
AcDbArc
 50
58.26383599999955
 51
121.7361700000007
  0
ARC
  5
331E
330
1F
100
AcDbEntity
  8
AM_0
100
AcDbCircle
 10
724.0419311201666
 20
332.1382741828914
 30
0.0
 40
3.0
100
AcDbArc
 50
350.7056700000007
 51
47.99935900000032
  0
ARC
  5
331F
330
1F
100
AcDbEntity
  8
AM_0
100
AcDbCircle
 10
615.2018171201667
 20
310.4222641828915
 30
0.0
 40
5.000000099999998
100
AcDbArc
 50
86.80063900000067
 51
174.0101900000002
  0
ARC
  5
3320
330
1F
100
AcDbEntity
  8
AM_0
100
AcDbCircle
 10
409.8578634834693
 20
315.2296741828915
 30
0.0
 40
1.000000019999994
100
AcDbArc
 50
179.9999900000006
 51
270.0
  0
ARC
  5
3321
330
1F
100
AcDbEntity
  8
AM_0
100
AcDbCircle
 10
409.8578634834693
 20
312.2296741828915
 30
0.0
 40
2.00000007
100
AcDbArc
 50
0.0
 51
90.0000029999993
  0
ARC
  5
3322
330
1F
100
AcDbEntity
  8
AM_0
100
AcDbCircle
 10
409.8578634834693
 20
341.1317041828914
 30
0.0
 40
2.00000007
100
AcDbArc
 50
270.0
 51
0.0
  0
ARC
  5
3323
330
1F
100
AcDbEntity
  8
AM_0
100
AcDbCircle
 10
387.857933483469
 20
331.2720841828914
 30
0.0
 40
2.00000007
100
AcDbArc
 50
90.0000029999993
 51
180.0000099999994
  0
ARC
  5
3324
330
1F
100
AcDbEntity
  8
AM_0
100
AcDbCircle
 10
388.8578634834693
 20
335.2720741828914
 30
0.0
 40
2.00000007
100
AcDbArc
 50
270.0
 51
0.0
  0
ARC
  5
3325
330
1F
100
AcDbEntity
  8
AM_0
100
AcDbCircle
 10
387.857933483469
 20
327.0992641828915
 30
0.0
 40
2.00000007
100
AcDbArc
 50
179.9999900000006
 51
270.0
  0
ARC
  5
3326
330
1F
100
AcDbEntity
  8
AM_0
100
AcDbCircle
 10
388.8578634834693
 20
323.0992741828915
 30
0.0
 40
2.00000007
100
AcDbArc
 50
0.0
 51
90.0000029999993
  0
ARC
  5
3327
330
1F
100
AcDbEntity
  8
AM_0
100
AcDbCircle
 10
383.8579134834692
 20
311.6329741828914
 30
0.0
 40
2.00000007
100
AcDbArc
 50
270.0
 51
0.0
  0
ARC
  5
3328
330
1F
100
AcDbEntity
  8
AM_0
100
AcDbCircle
 10
383.8579134834692
 20
230.3891731828914
 30
0.0
 40
2.00000007
100
AcDbArc
 50
0.0
 51
90.0000029999993
  0
LINE
  5
3D4E
330
1F
100
AcDbEntity
  8
0
  6
Continuous
 62
     7
100
AcDbLine
 10
408.8578834834692
 20
443.6265253730249
 30
0.0
 11
408.8578834834692
 21
422.981805373025
 31
0.0
  0
LINE
  5
3D4F
330
1F
100
AcDbEntity
  8
0
  6
Continuous
 62
     7
100
AcDbLine
 10
409.8578834834694
 20
442.1558153730249
 30
0.0
 11
409.8578834834694
 21
428.6087653730249
 31
0.0
  0
LINE
  5
3D50
330
1F
100
AcDbEntity
  8
0
  6
Continuous
 62
     7
100
AcDbLine
 10
408.8578834834692
 20
428.6087653730249
 30
0.0
 11
409.8578834834694
 21
428.6087653730249
 31
0.0
  0
LINE
  5
3D51
330
1F
100
AcDbEntity
  8
0
  6
Continuous
 62
     7
100
AcDbLine
 10
408.8578834834692
 20
442.1558153730249
 30
0.0
 11
409.8578834834694
 21
442.1558153730249
 31
0.0
  0
LINE
  5
3D52
330
1F
100
AcDbEntity
  8
0
  6
Continuous
 62
     7
100
AcDbLine
 10
413.8578534834692
 20
430.6087653730249
 30
0.0
 11
413.8578534834692
 21
440.155785373025
 31
0.0
  0
LINE
  5
3D53
330
1F
100
AcDbEntity
  8
0
  6
Continuous
 62
     7
100
AcDbLine
 10
409.8578834834694
 20
438.2690353730248
 30
0.0
 11
412.8578834834692
 21
438.2690353730248
 31
0.0
  0
LINE
  5
3D54
330
1F
100
AcDbEntity
  8
0
  6
Continuous
 62
     7
100
AcDbLine
 10
409.8578834834694
 20
432.4955353730248
 30
0.0
 11
412.8578834834692
 21
432.4955353730248
 31
0.0
  0
LINE
  5
3D55
330
1F
100
AcDbEntity
  8
0
  6
Continuous
 62
     7
100
AcDbLine
 10
409.8578834834694
 20
429.6087653730249
 30
0.0
 11
412.8578834834692
 21
429.6087653730249
 31
0.0
  0
LINE
  5
3D56
330
1F
100
AcDbEntity
  8
0
  6
Continuous
 62
     7
100
AcDbLine
 10
409.8578834834694
 20
441.1558153730249
 30
0.0
 11
412.8578834834692
 21
441.1558153730249
 31
0.0
  0
LINE
  5
3D57
330
1F
100
AcDbEntity
  8
0
  6
Continuous
 62
     7
100
AcDbLine
 10
462.8578834834692
 20
481.193785373025
 30
0.0
 11
464.8578534834692
 21
481.193785373025
 31
0.0
  0
LINE
  5
3D58
330
1F
100
AcDbEntity
  8
0
  6
Continuous
 62
     7
100
AcDbLine
 10
462.8578834834692
 20
506.193725373025
 30
0.0
 11
464.8578534834692
 21
506.193725373025
 31
0.0
  0
LINE
  5
3D59
330
1F
100
AcDbEntity
  8
0
  6
Continuous
 62
     7
100
AcDbLine
 10
504.8578834834692
 20
505.6937553730249
 30
0.0
 11
504.8578834834692
 21
481.693755373025
 31
0.0
  0
LINE
  5
3D5A
330
1F
100
AcDbEntity
  8
0
  6
Continuous
 62
     7
100
AcDbLine
 10
464.8578534834692
 20
506.193725373025
 30
0.0
 11
464.8578534834692
 21
481.193785373025
 31
0.0
  0
LINE
  5
3D5B
330
1F
100
AcDbEntity
  8
0
  6
Continuous
 62
     7
100
AcDbLine
 10
464.8578534834692
 20
505.6937553730249
 30
0.0
 11
504.8578834834692
 21
505.6937553730249
 31
0.0
  0
LINE
  5
3D5C
330
1F
100
AcDbEntity
  8
0
  6
Continuous
 62
     7
100
AcDbLine
 10
464.8578534834692
 20
481.693755373025
 30
0.0
 11
504.8578834834692
 21
481.693755373025
 31
0.0
  0
LINE
  5
3D5D
330
1F
100
AcDbEntity
  8
0
  6
Continuous
 62
     7
100
AcDbLine
 10
472.8578834834691
 20
497.693725373025
 30
0.0
 11
472.8578834834691
 21
489.6937553730249
 31
0.0
  0
LINE
  5
3D5E
330
1F
100
AcDbEntity
  8
0
  6
Continuous
 62
     7
100
AcDbLine
 10
368.8578834834692
 20
568.907495373025
 30
0.0
 11
368.8578834834692
 21
549.9294353730249
 31
0.0
  0
LINE
  5
3D61
330
1F
100
AcDbEntity
  8
0
  6
Continuous
 62
     7
100
AcDbLine
 10
462.8578834834692
 20
568.1219153730251
 30
0.0
 11
462.8578834834692
 21
545.265585373025
 31
0.0
  0
LINE
  5
3D62
330
1F
100
AcDbEntity
  8
0
  6
Continuous
 62
     7
100
AcDbLine
 10
400.8579134834693
 20
571.6937553730249
 30
0.0
 11
460.9102434834692
 21
570.1212153730249
 31
0.0
  0
LINE
  5
3D63
330
1F
100
AcDbEntity
  8
0
  6
Continuous
 62
     7
100
AcDbLine
 10
370.8055434834692
 20
570.9068253730249
 30
0.0
 11
400.8578834834694
 21
571.6937853730248
 31
0.0
  0
LINE
  5
3D64
330
1F
100
AcDbEntity
  8
0
  6
Continuous
 62
     7
100
AcDbLine
 10
397.8578834834692
 20
564.6937553730249
 30
0.0
 11
397.8578834834692
 21
422.6937553730249
 31
0.0
  0
LINE
  5
3D66
330
1F
100
AcDbEntity
  8
0
  6
Continuous
 62
     7
100
AcDbLine
 10
459.8578834834691
 20
543.238705373025
 30
0.0
 11
459.8578834834691
 21
444.1487953730249
 31
0.0
  0
LINE
  5
3D68
330
1F
100
AcDbEntity
  8
0
  6
Continuous
 62
     7
100
AcDbLine
 10
460.8230034834693
 20
467.1226753730249
 30
0.0
 11
461.8927934834692
 21
467.1600253730249
 31
0.0
  0
LINE
  5
3D69
330
1F
100
AcDbEntity
  8
0
  6
Continuous
 62
     7
100
AcDbLine
 10
460.8229634834692
 20
520.264825373025
 30
0.0
 11
461.8927934834692
 21
520.2274753730249
 31
0.0
  0
LINE
  5
3D6A
330
1F
100
AcDbEntity
  8
0
  6
Continuous
 62
     7
100
AcDbLine
 10
462.8578834834692
 20
468.159415373025
 30
0.0
 11
462.8578834834692
 21
519.2280553730247
 31
0.0
  0
LINE
  5
3D6B
330
1F
100
AcDbEntity
  8
0
  6
Continuous
 62
     7
100
AcDbLine
 10
459.8579134834691
 20
543.238705373025
 30
0.0
 11
460.9102434834692
 21
543.266265373025
 31
0.0
  0
LINE
  5
3D6D
330
1F
100
AcDbEntity
  8
0
  6
Continuous
 62
     7
100
AcDbLine
 10
462.8578834834692
 20
419.2655853730249
 30
0.0
 11
462.8578834834692
 21
442.1219153730251
 31
0.0
  0
LINE
  5
3D6E
330
1F
100
AcDbEntity
  8
0
  6
Continuous
 62
     7
100
AcDbLine
 10
368.8578834834692
 20
418.480035373025
 30
0.0
 11
368.8578834834692
 21
437.458065373025
 31
0.0
  0
LINE
  5
3D6F
330
1F
100
AcDbEntity
  8
0
  6
Continuous
 62
     7
100
AcDbLine
 10
400.8579134834693
 20
415.693755373025
 30
0.0
 11
460.9102434834692
 21
417.2662653730249
 31
0.0
  0
LINE
  5
3D70
330
1F
100
AcDbEntity
  8
0
  6
Continuous
 62
     7
100
AcDbLine
 10
370.8055434834692
 20
416.4807053730251
 30
0.0
 11
400.8578834834694
 21
415.693755373025
 31
0.0
  0
LINE
  5
3D72
330
1F
100
AcDbEntity
  8
0
  6
Continuous
 62
     7
100
AcDbLine
 10
400.8578834834694
 20
567.8377953730249
 30
0.0
 11
393.8578834834692
 21
571.5104653730249
 31
0.0
  0
LINE
  5
3D73
330
1F
100
AcDbEntity
  8
0
  6
Continuous
 62
     7
100
AcDbLine
 10
398.2608934834694
 20
564.683225373025
 30
0.0
 11
393.8579134834692
 21
566.9933153730251
 31
0.0
  0
LINE
  5
3D74
330
1F
100
AcDbEntity
  8
0
  6
Continuous
 62
     7
100
AcDbLine
 10
393.8578834834692
 20
571.510435373025
 30
0.0
 11
393.8578834834692
 21
566.993345373025
 31
0.0
  0
LINE
  5
3D75
330
1F
100
AcDbEntity
  8
0
  6
Continuous
 62
     7
100
AcDbLine
 10
460.9102134834691
 20
444.1212153730249
 30
0.0
 11
459.8578834834691
 21
444.1487653730249
 31
0.0
  0
LINE
  5
3D76
330
1F
100
AcDbEntity
  8
0
  6
Continuous
 62
     7
100
AcDbLine
 10
472.8578834834691
 20
489.6937553730249
 30
0.0
 11
504.8578834834692
 21
489.6937553730249
 31
0.0
  0
LINE
  5
3D77
330
1F
100
AcDbEntity
  8
0
  6
Continuous
 62
     7
100
AcDbLine
 10
472.8578834834691
 20
497.693725373025
 30
0.0
 11
504.8578834834692
 21
497.693725373025
 31
0.0
  0
LINE
  5
3D78
330
1F
100
AcDbEntity
  8
0
  6
Continuous
 62
     7
100
AcDbLine
 10
446.8579134834691
 20
443.4427453730251
 30
0.0
 11
446.8579134834691
 21
543.944755373025
 31
0.0
  0
LINE
  5
3D79
330
1F
100
AcDbEntity
  8
0
  6
Continuous
 62
     7
100
AcDbLine
 10
455.2936734834692
 20
542.093075373025
 30
0.0
 11
450.5961634834693
 21
542.504055373025
 31
0.0
  0
LINE
  5
3D7A
330
1F
100
AcDbEntity
  8
0
  6
Continuous
 62
     7
100
AcDbLine
 10
455.2936734834692
 20
445.2944553730248
 30
0.0
 11
450.5961634834693
 21
444.883475373025
 31
0.0
  0
LINE
  5
3D7B
330
1F
100
AcDbEntity
  8
0
  6
Continuous
 62
     7
100
AcDbLine
 10
444.1193834834692
 20
440.4541553730249
 30
0.0
 11
438.4220934834692
 21
439.955715373025
 31
0.0
  0
LINE
  5
3D7C
330
1F
100
AcDbEntity
  8
0
  6
Continuous
 62
     7
100
AcDbLine
 10
433.8578834834692
 20
421.690545373025
 30
0.0
 11
433.8578834834692
 21
434.9747253730249
 31
0.0
  0
LINE
  5
3D7D
330
1F
100
AcDbEntity
  8
0
  6
Continuous
 62
     7
100
AcDbLine
 10
400.8578834834694
 20
564.615195373025
 30
0.0
 11
400.8578834834694
 21
567.8377653730247
 31
0.0
  0
LINE
  5
3D7E
330
1F
100
AcDbEntity
  8
0
  6
Continuous
 62
     7
100
AcDbLine
 10
393.8578834834692
 20
415.8770753730249
 30
0.0
 11
393.8578834834692
 21
420.394165373025
 31
0.0
  0
LINE
  5
3D7F
330
1F
100
AcDbEntity
  8
0
  6
Continuous
 62
     7
100
AcDbLine
 10
398.2608934834694
 20
422.7043153730249
 30
0.0
 11
393.8578834834692
 21
420.3941953730248
 31
0.0
  0
LINE
  5
3D80
330
1F
100
AcDbEntity
  8
0
  6
Continuous
 62
     7
100
AcDbLine
 10
400.8578834834694
 20
419.5497353730249
 30
0.0
 11
393.8578834834692
 21
415.8770753730249
 31
0.0
  0
LINE
  5
3D81
330
1F
100
AcDbEntity
  8
0
  6
Continuous
 62
     7
100
AcDbLine
 10
400.8578834834694
 20
422.7723053730248
 30
0.0
 11
400.8578834834694
 21
419.5497353730249
 31
0.0
  0
LINE
  5
3D82
330
1F
100
AcDbEntity
  8
0
  6
Continuous
 62
     7
100
AcDbLine
 10
410.5937534834692
 20
423.027245373025
 30
0.0
 11
397.8579134834692
 21
422.6937553730249
 31
0.0
  0
LINE
  5
3D83
330
1F
100
AcDbEntity
  8
0
  6
Continuous
 62
     7
100
AcDbLine
 10
410.5937234834692
 20
564.3602553730247
 30
0.0
 11
397.8579134834692
 21
564.6937553730249
 31
0.0
  0
LINE
  5
3D86
330
1F
100
AcDbEntity
  8
0
  6
Continuous
 62
     7
100
AcDbLine
 10
408.8578834834692
 20
443.6265253730249
 30
0.0
 11
411.8578834834692
 21
443.6265253730249
 31
0.0
  0
LINE
  5
3D87
330
1F
100
AcDbEntity
  8
0
  6
Continuous
 62
     7
100
AcDbLine
 10
411.8579134834693
 20
443.6265253730249
 30
0.0
 11
411.8579134834693
 21
543.7609853730249
 31
0.0
  0
LINE
  5
3D88
330
1F
100
AcDbEntity
  8
0
  6
Continuous
 62
     7
100
AcDbLine
 10
411.8579134834693
 20
443.626495373025
 30
0.0
 11
425.4398834834692
 21
446.184875373025
 31
0.0
  0
LINE
  5
3D89
330
1F
100
AcDbEntity
  8
0
  6
Continuous
 62
     7
100
AcDbLine
 10
412.9543134834694
 20
423.6904853730248
 30
0.0
 11
423.5910934834693
 21
429.8037053730249
 31
0.0
  0
LINE
  5
3D8A
330
1F
100
AcDbEntity
  8
0
  6
Continuous
 62
     7
100
AcDbLine
 10
433.8578834834692
 20
552.412745373025
 30
0.0
 11
433.8578834834692
 21
565.6969553730249
 31
0.0
  0
LINE
  5
3D8B
330
1F
100
AcDbEntity
  8
0
  6
Continuous
 62
     7
100
AcDbLine
 10
443.9364634834691
 20
446.6692153730249
 30
0.0
 11
425.4398834834692
 21
446.184875373025
 31
0.0
  0
LINE
  5
3D8C
330
1F
100
AcDbEntity
  8
0
  6
Continuous
 62
     7
100
AcDbLine
 10
430.9364334834692
 20
430.5974653730251
 30
0.0
 11
425.9516934834692
 21
430.466915373025
 31
0.0
  0
LINE
  5
3D8D
330
1F
100
AcDbEntity
  8
0
  6
Continuous
 62
     7
100
AcDbLine
 10
444.1193834834692
 20
546.933315373025
 30
0.0
 11
438.4221234834692
 21
547.431785373025
 31
0.0
  0
LINE
  5
3D8E
330
1F
100
AcDbEntity
  8
0
  6
Continuous
 62
     7
100
AcDbLine
 10
412.9543134834694
 20
563.6969853730247
 30
0.0
 11
423.5910634834692
 21
557.5837953730249
 31
0.0
  0
LINE
  5
3D8F
330
1F
100
AcDbEntity
  8
0
  6
Continuous
 62
     7
100
AcDbLine
 10
411.8579134834693
 20
543.7609853730249
 30
0.0
 11
425.4398834834692
 21
541.2026053730248
 31
0.0
  0
LINE
  5
3D90
330
1F
100
AcDbEntity
  8
0
  6
Continuous
 62
     7
100
AcDbLine
 10
443.9364634834691
 20
540.7182553730249
 30
0.0
 11
425.4398534834692
 21
541.202635373025
 31
0.0
  0
LINE
  5
3D91
330
1F
100
AcDbEntity
  8
0
  6
Continuous
 62
     7
100
AcDbLine
 10
430.9364034834692
 20
556.790035373025
 30
0.0
 11
425.9516634834692
 21
556.9205553730249
 31
0.0
  0
LINE
  5
3D92
330
1F
100
AcDbEntity
  8
0
  6
Continuous
 62
     7
100
AcDbLine
 10
409.8578834834694
 20
546.2317153730249
 30
0.0
 11
412.8578834834692
 21
546.2317153730249
 31
0.0
  0
LINE
  5
3D93
330
1F
100
AcDbEntity
  8
0
  6
Continuous
 62
     7
100
AcDbLine
 10
409.8578834834694
 20
557.7787153730249
 30
0.0
 11
412.8578834834692
 21
557.7787153730249
 31
0.0
  0
LINE
  5
3D94
330
1F
100
AcDbEntity
  8
0
  6
Continuous
 62
     7
100
AcDbLine
 10
409.8578834834694
 20
554.891965373025
 30
0.0
 11
412.8578834834692
 21
554.891965373025
 31
0.0
  0
LINE
  5
3D95
330
1F
100
AcDbEntity
  8
0
  6
Continuous
 62
     7
100
AcDbLine
 10
409.8578834834694
 20
549.1184653730249
 30
0.0
 11
412.8578834834692
 21
549.1184653730249
 31
0.0
  0
LINE
  5
3D96
330
1F
100
AcDbEntity
  8
0
  6
Continuous
 62
     7
100
AcDbLine
 10
413.8578534834692
 20
556.7787453730249
 30
0.0
 11
413.8578534834692
 21
547.2317153730249
 31
0.0
  0
LINE
  5
3D97
330
1F
100
AcDbEntity
  8
0
  6
Continuous
 62
     7
100
AcDbLine
 10
408.8578834834692
 20
545.2316853730248
 30
0.0
 11
409.8578834834694
 21
545.2316853730248
 31
0.0
  0
LINE
  5
3D98
330
1F
100
AcDbEntity
  8
0
  6
Continuous
 62
     7
100
AcDbLine
 10
408.8578834834692
 20
558.778745373025
 30
0.0
 11
409.8578834834694
 21
558.778745373025
 31
0.0
  0
LINE
  5
3D99
330
1F
100
AcDbEntity
  8
0
  6
Continuous
 62
     7
100
AcDbLine
 10
409.8578834834694
 20
545.2316853730248
 30
0.0
 11
409.8578834834694
 21
558.778745373025
 31
0.0
  0
LINE
  5
3D9A
330
1F
100
AcDbEntity
  8
0
  6
Continuous
 62
     7
100
AcDbLine
 10
408.8578834834692
 20
543.7609853730249
 30
0.0
 11
408.8578834834692
 21
564.4056953730251
 31
0.0
  0
LINE
  5
3D9B
330
1F
100
AcDbEntity
  8
0
  6
Continuous
 62
     7
100
AcDbLine
 10
408.8578834834692
 20
543.7609853730249
 30
0.0
 11
411.8578834834692
 21
543.7609853730249
 31
0.0
  0
LINE
  5
3D9C
330
1F
100
AcDbEntity
  8
0
  6
Continuous
 62
     7
100
AcDbLine
 10
397.8579134834692
 20
422.6937553730249
 30
0.0
 11
392.8055434834693
 21
422.826045373025
 31
0.0
  0
LINE
  5
3D9D
330
1F
100
AcDbEntity
  8
0
  6
Continuous
 62
     7
100
AcDbLine
 10
397.8578834834692
 20
564.6937553730249
 30
0.0
 11
392.8055734834692
 21
564.5614253730248
 31
0.0
  0
LINE
  5
3D9E
330
1F
100
AcDbEntity
  8
0
  6
Continuous
 62
     7
100
AcDbLine
 10
390.8579134834693
 20
424.8253753730249
 30
0.0
 11
390.8579134834693
 21
562.562125373025
 31
0.0
  0
LINE
  5
3DA0
330
1F
100
AcDbEntity
  8
0
  6
Continuous
 62
     7
100
AcDbLine
 10
385.8578834834692
 20
437.0129353730249
 30
0.0
 11
359.8579434834692
 21
437.6937553730249
 31
0.0
  0
LINE
  5
3DA1
330
1F
100
AcDbEntity
  8
0
  6
Continuous
 62
     7
100
AcDbLine
 10
359.8579134834693
 20
447.693445373025
 30
0.0
 11
390.8579134834693
 21
447.693445373025
 31
0.0
  0
LINE
  5
3DA2
330
1F
100
AcDbEntity
  8
0
  6
Continuous
 62
     7
100
AcDbLine
 10
387.8578834834692
 20
428.4824753730248
 30
0.0
 11
388.8579134834693
 21
428.4824753730248
 31
0.0
  0
LINE
  5
3DA3
330
1F
100
AcDbEntity
  8
0
  6
Continuous
 62
     7
100
AcDbLine
 10
385.8578834834692
 20
430.4824753730248
 30
0.0
 11
385.8578834834692
 21
445.693445373025
 31
0.0
  0
LINE
  5
3DA4
330
1F
100
AcDbEntity
  8
0
  6
Continuous
 62
     7
100
AcDbLine
 10
385.8578834834692
 20
556.9050553730249
 30
0.0
 11
385.8578834834692
 21
541.6940553730251
 31
0.0
  0
LINE
  5
3DA5
330
1F
100
AcDbEntity
  8
0
  6
Continuous
 62
     7
100
AcDbLine
 10
385.8579134834692
 20
550.3745953730249
 30
0.0
 11
359.8579434834692
 21
549.6937553730249
 31
0.0
  0
LINE
  5
3DA6
330
1F
100
AcDbEntity
  8
0
  6
Continuous
 62
     7
100
AcDbLine
 10
359.8579134834693
 20
539.694055373025
 30
0.0
 11
390.8579134834693
 21
539.694055373025
 31
0.0
  0
LINE
  5
3DA7
330
1F
100
AcDbEntity
  8
0
  6
Continuous
 62
     7
100
AcDbLine
 10
387.8578834834692
 20
558.9050553730248
 30
0.0
 11
388.8579134834693
 21
558.9050553730248
 31
0.0
  0
LINE
  5
3DA8
330
1F
100
AcDbEntity
  8
0
  6
Continuous
 62
     7
100
AcDbLine
 10
359.8579134834693
 20
461.753815373025
 30
0.0
 11
390.8579134834693
 21
461.753815373025
 31
0.0
  0
LINE
  5
3DA9
330
1F
100
AcDbEntity
  8
0
  6
Continuous
 62
     7
100
AcDbLine
 10
359.8579134834693
 20
525.633695373025
 30
0.0
 11
390.8579134834693
 21
525.633695373025
 31
0.0
  0
ARC
  5
3DAA
330
1F
100
AcDbEntity
  8
0
  6
Continuous
 62
     7
100
AcDbCircle
 10
412.8578834834692
 20
440.155785373025
 30
0.0
 40
1.0
100
AcDbArc
 50
0.0
 51
90.00000300000095
  0
ARC
  5
3DAB
330
1F
100
AcDbEntity
  8
0
  6
Continuous
 62
     7
100
AcDbCircle
 10
412.8578834834692
 20
437.2690353730249
 30
0.0
 40
1.0
100
AcDbArc
 50
0.0
 51
90.00000300000095
  0
ARC
  5
3DAC
330
1F
100
AcDbEntity
  8
0
  6
Continuous
 62
     7
100
AcDbCircle
 10
412.8578834834692
 20
431.4955353730249
 30
0.0
 40
1.0
100
AcDbArc
 50
0.0
 51
90.00000300000095
  0
ARC
  5
3DAD
330
1F
100
AcDbEntity
  8
0
  6
Continuous
 62
     7
100
AcDbCircle
 10
412.8578834834692
 20
430.6087653730249
 30
0.0
 40
1.0
100
AcDbArc
 50
269.999989999999
 51
0.0000006832462478
  0
ARC
  5
3DAE
330
1F
100
AcDbEntity
  8
0
  6
Continuous
 62
     7
100
AcDbCircle
 10
412.8578834834692
 20
433.4955053730249
 30
0.0
 40
1.0
100
AcDbArc
 50
269.999989999999
 51
0.0000006832462478
  0
ARC
  5
3DAF
330
1F
100
AcDbEntity
  8
0
  6
Continuous
 62
     7
100
AcDbCircle
 10
412.8578834834692
 20
439.269035373025
 30
0.0
 40
1.0
100
AcDbArc
 50
269.999989999999
 51
0.0000006832462478
  0
ARC
  5
3DB0
330
1F
100
AcDbEntity
  8
0
  6
Continuous
 62
     7
100
AcDbCircle
 10
460.8578834834692
 20
568.1219153730251
 30
0.0
 40
2.0
100
AcDbArc
 50
0.0
 51
88.49999700000074
  0
ARC
  5
3DB1
330
1F
100
AcDbEntity
  8
0
  6
Continuous
 62
     7
100
AcDbCircle
 10
370.8578834834692
 20
568.907495373025
 30
0.0
 40
2.0
100
AcDbArc
 50
91.50000100000154
 51
180.000010000001
  0
ARC
  5
3DB2
330
1F
100
AcDbEntity
  8
0
  6
Continuous
 62
     7
100
AcDbCircle
 10
460.8578834834692
 20
545.265585373025
 30
0.0
 40
2.0
100
AcDbArc
 50
271.4999999999995
 51
0.0
  0
ARC
  5
3DB3
330
1F
100
AcDbEntity
  8
0
  6
Continuous
 62
     7
100
AcDbCircle
 10
380.8578834834694
 20
558.6937553730249
 30
0.0
 40
6.0
100
AcDbArc
 50
359.4574799999984
 51
326.4427199999991
  0
CIRCLE
  5
3DB4
330
1F
100
AcDbEntity
  8
0
  6
Continuous
 62
     7
100
AcDbCircle
 10
450.8578834834692
 20
558.6937553730249
 30
0.0
 40
6.0
  0
ARC
  5
3DB5
330
1F
100
AcDbEntity
  8
0
  6
Continuous
 62
     7
100
AcDbCircle
 10
460.8578834834692
 20
466.1232853730249
 30
0.0
 40
1.0
100
AcDbArc
 50
91.99999800000055
 51
180.000010000001
  0
ARC
  5
3DB6
330
1F
100
AcDbEntity
  8
0
  6
Continuous
 62
     7
100
AcDbCircle
 10
461.8578834834692
 20
468.159415373025
 30
0.0
 40
1.0
100
AcDbArc
 50
272.0000000000004
 51
0.0
  0
ARC
  5
3DB7
330
1F
100
AcDbEntity
  8
0
  6
Continuous
 62
     7
100
AcDbCircle
 10
460.8578834834692
 20
521.264215373025
 30
0.0
 40
1.0
100
AcDbArc
 50
180.000010000001
 51
267.9999999999997
  0
ARC
  5
3DB8
330
1F
100
AcDbEntity
  8
0
  6
Continuous
 62
     7
100
AcDbCircle
 10
461.8578834834692
 20
519.2280553730247
 30
0.0
 40
1.0
100
AcDbArc
 50
0.0
 51
87.99999999999965
  0
ARC
  5
3DB9
330
1F
100
AcDbEntity
  8
0
  6
Continuous
 62
     7
100
AcDbCircle
 10
460.8578834834692
 20
419.2655853730249
 30
0.0
 40
2.0
100
AcDbArc
 50
271.4999999999995
 51
0.0
  0
ARC
  5
3DBA
330
1F
100
AcDbEntity
  8
0
  6
Continuous
 62
     7
100
AcDbCircle
 10
370.8578834834692
 20
418.480035373025
 30
0.0
 40
2.0
100
AcDbArc
 50
180.000010000001
 51
268.5000000000005
  0
ARC
  5
3DBB
330
1F
100
AcDbEntity
  8
0
  6
Continuous
 62
     7
100
AcDbCircle
 10
460.8578834834692
 20
442.1219153730251
 30
0.0
 40
2.0
100
AcDbArc
 50
0.0
 51
88.49999700000074
  0
ARC
  5
3DBC
330
1F
100
AcDbEntity
  8
0
  6
Continuous
 62
     7
100
AcDbCircle
 10
380.8578834834694
 20
428.6937553730249
 30
0.0
 40
6.0
100
AcDbArc
 50
33.5572999999982
 51
0.5425182800010755
  0
CIRCLE
  5
3DBD
330
1F
100
AcDbEntity
  8
0
  6
Continuous
 62
     7
100
AcDbCircle
 10
450.8578834834692
 20
428.6937553730249
 30
0.0
 40
6.0
  0
ARC
  5
3DBE
330
1F
100
AcDbEntity
  8
0
  6
Continuous
 62
     7
100
AcDbCircle
 10
472.8578834834691
 20
493.693725373025
 30
0.0
 40
3.9999962
100
AcDbArc
 50
90.00000300000095
 51
270.0
  0
ARC
  5
3DBF
330
1F
100
AcDbEntity
  8
0
  6
Continuous
 62
     7
100
AcDbCircle
 10
454.8578834834692
 20
537.112085373025
 30
0.0
 40
5.0
100
AcDbArc
 50
0.0
 51
85.0000040000012
  0
ARC
  5
3DC0
330
1F
100
AcDbEntity
  8
0
  6
Continuous
 62
     7
100
AcDbCircle
 10
454.8578834834692
 20
450.2753853730249
 30
0.0
 40
5.0
100
AcDbArc
 50
274.9999999999997
 51
0.0
  0
ARC
  5
3DC1
330
1F
100
AcDbEntity
  8
0
  6
Continuous
 62
     7
100
AcDbCircle
 10
438.8578834834691
 20
434.9747253730249
 30
0.0
 40
5.0
100
AcDbArc
 50
95.00000199999858
 51
180.000010000001
  0
ARC
  5
3DC2
330
1F
100
AcDbEntity
  8
0
  6
Continuous
 62
     7
100
AcDbCircle
 10
438.8578834834691
 20
552.412745373025
 30
0.0
 40
5.0
100
AcDbArc
 50
180.000010000001
 51
265.0000100000007
  0
ARC
  5
3DC3
330
1F
100
AcDbEntity
  8
0
  6
Continuous
 62
     7
100
AcDbCircle
 10
438.8578834834691
 20
421.690545373025
 30
0.0
 40
5.0
100
AcDbArc
 50
180.000010000001
 51
271.4999999999995
  0
ARC
  5
3DC4
330
1F
100
AcDbEntity
  8
0
  6
Continuous
 62
     7
100
AcDbCircle
 10
438.8578834834691
 20
565.6969553730249
 30
0.0
 40
5.0
100
AcDbArc
 50
88.49999700000074
 51
180.000010000001
  0
ARC
  5
3DC5
330
1F
100
AcDbEntity
  8
0
  6
Continuous
 62
     7
100
AcDbCircle
 10
430.8578834834694
 20
433.596435373025
 30
0.0
 40
3.0
100
AcDbArc
 50
271.4999999999995
 51
0.0
  0
ARC
  5
3DC6
330
1F
100
AcDbEntity
  8
0
  6
Continuous
 62
     7
100
AcDbCircle
 10
410.4628634834693
 20
428.025535373025
 30
0.0
 40
5.0
100
AcDbArc
 50
271.4999999999995
 51
299.8870199999992
  0
ARC
  5
3DC7
330
1F
100
AcDbEntity
  8
0
  6
Continuous
 62
     7
100
AcDbCircle
 10
426.0825534834692
 20
425.4686553730249
 30
0.0
 40
5.0
100
AcDbArc
 50
91.50000100000154
 51
119.8870199999991
  0
ARC
  5
3DC8
330
1F
100
AcDbEntity
  8
0
  6
Continuous
 62
     7
100
AcDbCircle
 10
443.8579134834691
 20
449.6682053730251
 30
0.0
 40
3.0
100
AcDbArc
 50
271.4999999999995
 51
0.0
  0
ARC
  5
3DC9
330
1F
100
AcDbEntity
  8
0
  6
Continuous
 62
     7
100
AcDbCircle
 10
443.8579134834691
 20
443.4427453730251
 30
0.0
 40
3.0
100
AcDbArc
 50
274.9999999999997
 51
0.0
  0
ARC
  5
3DCA
330
1F
100
AcDbEntity
  8
0
  6
Continuous
 62
     7
100
AcDbCircle
 10
451.0319234834692
 20
439.9024653730249
 30
0.0
 40
5.0
100
AcDbArc
 50
95.00000199999858
 51
153.7343299999997
  0
ARC
  5
3DCB
330
1F
100
AcDbEntity
  8
0
  6
Continuous
 62
     7
100
AcDbCircle
 10
451.0319234834692
 20
547.485015373025
 30
0.0
 40
5.0
100
AcDbArc
 50
206.2656700000002
 51
265.0000100000007
  0
ARC
  5
3DCC
330
1F
100
AcDbEntity
  8
0
  6
Continuous
 62
     7
100
AcDbCircle
 10
443.8579134834691
 20
537.719295373025
 30
0.0
 40
3.0
100
AcDbArc
 50
0.0
 51
88.49999700000074
  0
ARC
  5
3DCD
330
1F
100
AcDbEntity
  8
0
  6
Continuous
 62
     7
100
AcDbCircle
 10
410.4628634834693
 20
559.3619653730249
 30
0.0
 40
5.0
100
AcDbArc
 50
60.11298000000088
 51
88.49999700000074
  0
ARC
  5
3DCE
330
1F
100
AcDbEntity
  8
0
  6
Continuous
 62
     7
100
AcDbCircle
 10
443.8579134834691
 20
543.944755373025
 30
0.0
 40
3.0
100
AcDbArc
 50
0.0
 51
85.0000040000012
  0
ARC
  5
3DCF
330
1F
100
AcDbEntity
  8
0
  6
Continuous
 62
     7
100
AcDbCircle
 10
426.0825534834692
 20
561.918845373025
 30
0.0
 40
5.0
100
AcDbArc
 50
240.1129800000009
 51
268.5000000000005
  0
ARC
  5
3DD0
330
1F
100
AcDbEntity
  8
0
  6
Continuous
 62
     7
100
AcDbCircle
 10
430.8578834834694
 20
553.791075373025
 30
0.0
 40
3.0
100
AcDbArc
 50
0.0
 51
88.49999700000074
  0
ARC
  5
3DD1
330
1F
100
AcDbEntity
  8
0
  6
Continuous
 62
     7
100
AcDbCircle
 10
412.8578834834692
 20
548.1184653730249
 30
0.0
 40
1.0
100
AcDbArc
 50
0.0
 51
90.00000300000095
  0
ARC
  5
3DD2
330
1F
100
AcDbEntity
  8
0
  6
Continuous
 62
     7
100
AcDbCircle
 10
412.8578834834692
 20
553.8919953730249
 30
0.0
 40
1.0
100
AcDbArc
 50
0.0
 51
90.00000300000095
  0
ARC
  5
3DD3
330
1F
100
AcDbEntity
  8
0
  6
Continuous
 62
     7
100
AcDbCircle
 10
412.8578834834692
 20
556.7787453730249
 30
0.0
 40
1.0
100
AcDbArc
 50
0.0
 51
90.00000300000095
  0
ARC
  5
3DD4
330
1F
100
AcDbEntity
  8
0
  6
Continuous
 62
     7
100
AcDbCircle
 10
412.8578834834692
 20
555.8919653730249
 30
0.0
 40
1.0
100
AcDbArc
 50
269.999989999999
 51
0.0000006832462478
  0
ARC
  5
3DD5
330
1F
100
AcDbEntity
  8
0
  6
Continuous
 62
     7
100
AcDbCircle
 10
412.8578834834692
 20
550.1184653730249
 30
0.0
 40
1.0
100
AcDbArc
 50
269.999989999999
 51
0.0000006832462478
  0
ARC
  5
3DD6
330
1F
100
AcDbEntity
  8
0
  6
Continuous
 62
     7
100
AcDbCircle
 10
412.8578834834692
 20
547.2317153730249
 30
0.0
 40
1.0
100
AcDbArc
 50
269.999989999999
 51
0.0000006832462478
  0
ARC
  5
3DD7
330
1F
100
AcDbEntity
  8
0
  6
Continuous
 62
     7
100
AcDbCircle
 10
513.3466234834692
 20
493.6937553730249
 30
0.0
 40
101.4887199999999
100
AcDbArc
 50
151.8933300000002
 51
208.1066699999997
  0
ARC
  5
3DD8
330
1F
100
AcDbEntity
  8
0
  6
Continuous
 62
     7
100
AcDbCircle
 10
392.8579134834694
 20
424.8253753730249
 30
0.0
 40
2.0
100
AcDbArc
 50
180.000010000001
 51
268.5000000000005
  0
ARC
  5
3DD9
330
1F
100
AcDbEntity
  8
0
  6
Continuous
 62
     7
100
AcDbCircle
 10
392.8579134834694
 20
562.562125373025
 30
0.0
 40
2.0
100
AcDbArc
 50
91.50000100000154
 51
180.000010000001
  0
ARC
  5
3DDA
330
1F
100
AcDbEntity
  8
0
  6
Continuous
 62
     7
100
AcDbCircle
 10
387.8578834834692
 20
430.4824753730248
 30
0.0
 40
2.0
100
AcDbArc
 50
180.000010000001
 51
270.0
  0
ARC
  5
3DDB
330
1F
100
AcDbEntity
  8
0
  6
Continuous
 62
     7
100
AcDbCircle
 10
383.8578834834692
 20
445.693445373025
 30
0.0
 40
2.0
100
AcDbArc
 50
0.0
 51
90.00000300000095
  0
ARC
  5
3DDC
330
1F
100
AcDbEntity
  8
0
  6
Continuous
 62
     7
100
AcDbCircle
 10
388.8579134834693
 20
426.4824753730248
 30
0.0
 40
2.0
100
AcDbArc
 50
0.0
 51
90.00000300000095
  0
ARC
  5
3DDD
330
1F
100
AcDbEntity
  8
0
  6
Continuous
 62
     7
100
AcDbCircle
 10
388.8579134834693
 20
560.9050553730249
 30
0.0
 40
2.0
100
AcDbArc
 50
270.0
 51
0.0
  0
ARC
  5
3DDE
330
1F
100
AcDbEntity
  8
0
  6
Continuous
 62
     7
100
AcDbCircle
 10
387.8578834834692
 20
556.9050553730249
 30
0.0
 40
2.0
100
AcDbArc
 50
90.00000300000095
 51
180.000010000001
  0
ARC
  5
3DDF
330
1F
100
AcDbEntity
  8
0
  6
Continuous
 62
     7
100
AcDbCircle
 10
383.8578834834692
 20
541.6940553730251
 30
0.0
 40
2.0
100
AcDbArc
 50
270.0
 51
0.0
  0
LINE
  5
3DED
330
1F
100
AcDbEntity
  8
ﾁｭｳｼﾝｾﾝ1
 48
0.7
100
AcDbLine
 10
450.8578834834692
 20
437.6937553730249
 30
0.0
 11
450.8578834834692
 21
419.6937553730249
 31
0.0
1001
GENIUS_GENOBJ-N-CEN_13
1002
{
1000
OWNER
1000
GEN
1002
}
1001
GENIUS_GENODEF_13
1002
{
1000
HIER
1070
     0
1002
}
1002
{
1000
MANEDIT
1070
     0
1002
}
1002
{
1000
NOSEL
1070
     0
1002
}
1002
{
1000
BEHIND
1070
     0
1002
}
1002
{
1000
OTHER
1070
     0
1002
}
1002
{
1000
REACTOR
1002
}
1001
GENIUS_GENCEN_19
1002
{
1040
3.0
1002
}
  0
LINE
  5
3DFA
330
1F
100
AcDbEntity
  8
ﾁｭｳｼﾝｾﾝ1
 48
0.7
100
AcDbLine
 10
441.8578834834692
 20
428.6937553730249
 30
0.0
 11
459.8578834834691
 21
428.6937553730249
 31
0.0
1001
GENIUS_GENOBJ-N-CEN_13
1002
{
1000
OWNER
1000
GEN
1002
}
1001
GENIUS_GENODEF_13
1002
{
1000
HIER
1070
     0
1002
}
1002
{
1000
MANEDIT
1070
     0
1002
}
1002
{
1000
NOSEL
1070
     0
1002
}
1002
{
1000
BEHIND
1070
     0
1002
}
1002
{
1000
OTHER
1070
     0
1002
}
1002
{
1000
REACTOR
1002
}
1001
GENIUS_GENCEN_19
1002
{
1040
3.0
1002
}
  0
LINE
  5
3DFB
330
1F
100
AcDbEntity
  8
ﾁｭｳｼﾝｾﾝ1
 48
0.7
100
AcDbLine
 10
450.8578834834692
 20
567.6937553730249
 30
0.0
 11
450.8578834834692
 21
549.6937553730249
 31
0.0
1001
GENIUS_GENOBJ-N-CEN_13
1002
{
1000
OWNER
1000
GEN
1002
}
1001
GENIUS_GENODEF_13
1002
{
1000
HIER
1070
     0
1002
}
1002
{
1000
MANEDIT
1070
     0
1002
}
1002
{
1000
NOSEL
1070
     0
1002
}
1002
{
1000
BEHIND
1070
     0
1002
}
1002
{
1000
OTHER
1070
     0
1002
}
1002
{
1000
REACTOR
1002
}
1001
GENIUS_GENCEN_19
1002
{
1040
3.0
1002
}
  0
LINE
  5
3DFC
330
1F
100
AcDbEntity
  8
ﾁｭｳｼﾝｾﾝ1
 48
0.7
100
AcDbLine
 10
441.8578834834692
 20
558.6937553730249
 30
0.0
 11
459.8578834834691
 21
558.6937553730249
 31
0.0
1001
GENIUS_GENOBJ-N-CEN_13
1002
{
1000
OWNER
1000
GEN
1002
}
1001
GENIUS_GENODEF_13
1002
{
1000
HIER
1070
     0
1002
}
1002
{
1000
MANEDIT
1070
     0
1002
}
1002
{
1000
NOSEL
1070
     0
1002
}
1002
{
1000
BEHIND
1070
     0
1002
}
1002
{
1000
OTHER
1070
     0
1002
}
1002
{
1000
REACTOR
1002
}
1001
GENIUS_GENCEN_19
1002
{
1040
3.0
1002
}
  0
LINE
  5
3DFD
330
1F
100
AcDbEntity
  8
ﾁｭｳｼﾝｾﾝ1
 48
0.7
100
AcDbLine
 10
380.8578834834694
 20
567.6937553730249
 30
0.0
 11
380.8578834834694
 21
549.6937553730249
 31
0.0
1001
GENIUS_GENOBJ-N-CEN_13
1002
{
1000
OWNER
1000
GEN
1002
}
1001
GENIUS_GENODEF_13
1002
{
1000
HIER
1070
     0
1002
}
1002
{
1000
MANEDIT
1070
     0
1002
}
1002
{
1000
NOSEL
1070
     0
1002
}
1002
{
1000
BEHIND
1070
     0
1002
}
1002
{
1000
OTHER
1070
     0
1002
}
1002
{
1000
REACTOR
1002
}
1001
GENIUS_GENCEN_19
1002
{
1040
3.0
1002
}
  0
LINE
  5
3DFE
330
1F
100
AcDbEntity
  8
ﾁｭｳｼﾝｾﾝ1
 48
0.7
100
AcDbLine
 10
371.8578834834695
 20
558.6937553730249
 30
0.0
 11
389.8578834834694
 21
558.6937553730249
 31
0.0
1001
GENIUS_GENOBJ-N-CEN_13
1002
{
1000
OWNER
1000
GEN
1002
}
1001
GENIUS_GENODEF_13
1002
{
1000
HIER
1070
     0
1002
}
1002
{
1000
MANEDIT
1070
     0
1002
}
1002
{
1000
NOSEL
1070
     0
1002
}
1002
{
1000
BEHIND
1070
     0
1002
}
1002
{
1000
OTHER
1070
     0
1002
}
1002
{
1000
REACTOR
1002
}
1001
GENIUS_GENCEN_19
1002
{
1040
3.0
1002
}
  0
LINE
  5
3DFF
330
1F
100
AcDbEntity
  8
ﾁｭｳｼﾝｾﾝ1
 48
0.7
100
AcDbLine
 10
380.8578834834694
 20
437.6937553730249
 30
0.0
 11
380.8578834834694
 21
419.6937553730249
 31
0.0
1001
GENIUS_GENOBJ-N-CEN_13
1002
{
1000
OWNER
1000
GEN
1002
}
1001
GENIUS_GENODEF_13
1002
{
1000
HIER
1070
     0
1002
}
1002
{
1000
MANEDIT
1070
     0
1002
}
1002
{
1000
NOSEL
1070
     0
1002
}
1002
{
1000
BEHIND
1070
     0
1002
}
1002
{
1000
OTHER
1070
     0
1002
}
1002
{
1000
REACTOR
1002
}
1001
GENIUS_GENCEN_19
1002
{
1040
3.0
1002
}
  0
LINE
  5
3E00
330
1F
100
AcDbEntity
  8
ﾁｭｳｼﾝｾﾝ1
 48
0.7
100
AcDbLine
 10
371.8578834834695
 20
428.6937553730249
 30
0.0
 11
389.8578834834694
 21
428.6937553730249
 31
0.0
1001
GENIUS_GENOBJ-N-CEN_13
1002
{
1000
OWNER
1000
GEN
1002
}
1001
GENIUS_GENODEF_13
1002
{
1000
HIER
1070
     0
1002
}
1002
{
1000
MANEDIT
1070
     0
1002
}
1002
{
1000
NOSEL
1070
     0
1002
}
1002
{
1000
BEHIND
1070
     0
1002
}
1002
{
1000
OTHER
1070
     0
1002
}
1002
{
1000
REACTOR
1002
}
1001
GENIUS_GENCEN_19
1002
{
1040
3.0
1002
}
  0
TEXT
  5
3E68
330
1F
100
AcDbEntity
  8
AM_0
100
AcDbText
 10
590.2175748624447
 20
449.2273721721602
 30
0.0
 40
7.5
  1
ＶＸ０２－０４０～１００Ｈ－Ｔ２（Ｔ４）
 41
0.8299999999999998
100
AcDbText
  0
LINE
  5
3F9D
330
1F
100
AcDbEntity
  8
ﾁｭｳｼﾝｾﾝ1
100
AcDbLine
 10
292.1195985870948
 20
281.6048986828914
 30
0.0
 11
381.8215134834692
 21
281.6048986828914
 31
0.0
  0
CIRCLE
  5
3F9E
330
1F
100
AcDbEntity
  8
0
100
AcDbCircle
 10
318.3579584834679
 20
506.6937428814842
 30
0.0
 40
10.0
  0
LINE
  5
3F9F
330
1F
100
AcDbEntity
  8
ﾁｭｳｼﾝｾﾝ1
100
AcDbLine
 10
292.1195985870948
 20
493.6937428814842
 30
0.0
 11
509.0983544564732
 21
493.6937428814842
 31
0.0
1001
GENIUS_GENOBJ-N-CEN_13
1002
{
1000
OWNER
1000
GEN
1002
}
1001
GENIUS_GENODEF_13
1002
{
1000
HIER
1070
     0
1002
}
1002
{
1000
MANEDIT
1070
     0
1002
}
1002
{
1000
NOSEL
1070
     0
1002
}
1002
{
1000
BEHIND
1070
     0
1002
}
1002
{
1000
OTHER
1070
     0
1002
}
1002
{
1000
REACTOR
1002
}
1001
GENIUS_GENCEN_19
1002
{
1040
3.0
1002
}
  0
LINE
  5
3FA0
330
1F
100
AcDbEntity
  8
ﾁｭｳｼﾝｾﾝ1
 48
0.7
100
AcDbLine
 10
318.3579584834679
 20
519.6937428814842
 30
0.0
 11
318.3579584834679
 21
493.6937428814842
 31
0.0
1001
GENIUS_GENODEF_13
1002
{
1000
HIER
1070
     0
1002
}
1002
{
1000
MANEDIT
1070
     0
1002
}
1002
{
1000
NOSEL
1070
     0
1002
}
1002
{
1000
BEHIND
1070
     0
1002
}
1002
{
1000
OTHER
1070
     0
1002
}
1002
{
1000
REACTOR
1002
}
1001
GENIUS_GENOBJ-N-CEN_13
1002
{
1000
OWNER
1000
GEN
1002
}
1001
GENIUS_GENCEN_19
1002
{
1040
3.0
1002
}
  0
LINE
  5
3FA1
330
1F
100
AcDbEntity
  8
AM_0
100
AcDbLine
 10
317.3579584834679
 20
511.6937428814843
 30
0.0
 11
317.3579584834679
 21
501.6937428814842
 31
0.0
1001
GENIUS_GENODEF_13
1002
{
1000
HIER
1070
     0
1002
}
1002
{
1000
MANEDIT
1070
     0
1002
}
1002
{
1000
NOSEL
1070
     0
1002
}
1002
{
1000
BEHIND
1070
     0
1002
}
1002
{
1000
OTHER
1070
     0
1002
}
1002
{
1000
REACTOR
1002
}
1001
GENIUS_GENOBJ-N-CEN_13
1002
{
1000
OWNER
1000
GEN
1002
}
1001
GENIUS_GENCEN_19
1002
{
1040
3.0
1002
}
  0
LINE
  5
3FA2
330
1F
100
AcDbEntity
  8
AM_0
100
AcDbLine
 10
319.3579584834679
 20
511.6937428814843
 30
0.0
 11
319.3579584834679
 21
501.6937428814842
 31
0.0
1001
GENIUS_GENODEF_13
1002
{
1000
HIER
1070
     0
1002
}
1002
{
1000
MANEDIT
1070
     0
1002
}
1002
{
1000
NOSEL
1070
     0
1002
}
1002
{
1000
BEHIND
1070
     0
1002
}
1002
{
1000
OTHER
1070
     0
1002
}
1002
{
1000
REACTOR
1002
}
1001
GENIUS_GENOBJ-N-CEN_13
1002
{
1000
OWNER
1000
GEN
1002
}
1001
GENIUS_GENCEN_19
1002
{
1040
3.0
1002
}
  0
CIRCLE
  5
3FA3
330
1F
100
AcDbEntity
  8
AM_0
100
AcDbCircle
 10
318.3579584834679
 20
506.6937428814842
 30
0.0
 40
8.500000000000056
  0
CIRCLE
  5
3FA4
330
1F
100
AcDbEntity
  8
AM_0
100
AcDbCircle
 10
318.3579584834679
 20
506.6937428814842
 30
0.0
 40
8.999999999999971
  0
ARC
  5
3FA5
330
1F
100
AcDbEntity
  8
AM_0
100
AcDbCircle
 10
318.3579584834679
 20
511.6937428814843
 30
0.0
 40
1.0
100
AcDbArc
 50
0.0
 51
180.0
  0
ARC
  5
3FA6
330
1F
100
AcDbEntity
  8
AM_0
100
AcDbCircle
 10
318.3579584834679
 20
501.6937428814842
 30
0.0
 40
1.0
100
AcDbArc
 50
180.0
 51
0.0
  0
LINE
  5
3FA7
330
1F
100
AcDbEntity
  8
ﾁｭｳｼﾝｾﾝ1
 48
0.7
100
AcDbLine
 10
305.3579584834679
 20
506.6937428814842
 30
0.0
 11
331.357958483468
 21
506.6937428814842
 31
0.0
1001
GENIUS_GENOBJ-N-CEN_13
1002
{
1000
OWNER
1000
GEN
1002
}
1001
GENIUS_GENODEF_13
1002
{
1000
HIER
1070
     0
1002
}
1002
{
1000
MANEDIT
1070
     0
1002
}
1002
{
1000
NOSEL
1070
     0
1002
}
1002
{
1000
BEHIND
1070
     0
1002
}
1002
{
1000
OTHER
1070
     0
1002
}
1002
{
1000
REACTOR
1002
}
1001
GENIUS_GENCEN_19
1002
{
1040
3.0
1002
}
  0
LINE
  5
3FA8
330
1F
100
AcDbEntity
  8
AM_0
100
AcDbLine
 10
359.8579434834692
 20
337.6049236828913
 30
0.0
 11
359.8579434834692
 21
225.6049126828914
 31
0.0
  0
LINE
  5
3FA9
330
1F
100
AcDbEntity
  8
0
100
AcDbLine
 10
351.7881444900642
 20
337.823114592398
 30
0.0
 11
359.8579434834692
 21
338.1049181828914
 31
0.0
  0
LINE
  5
3FAA
330
1F
100
AcDbEntity
  8
0
100
AcDbLine
 10
351.7881444900643
 20
225.3867217733848
 30
0.0
 11
359.8579434834692
 21
225.1049181828914
 31
0.0
  0
ARC
  5
3FAB
330
1F
100
AcDbEntity
  8
0
100
AcDbCircle
 10
351.8579434834693
 20
227.385503427423
 30
0.0
 40
2.0
100
AcDbArc
 50
180.0
 51
267.9999999999996
1001
GENIUS_GENODEF_13
1002
{
1000
HIER
1070
     0
1002
}
1002
{
1000
MANEDIT
1070
     0
1002
}
1002
{
1000
NOSEL
1070
     0
1002
}
1002
{
1000
BEHIND
1070
     0
1002
}
1002
{
1000
OTHER
1070
     0
1002
}
1002
{
1000
REACTOR
1002
}
1001
GENIUS_GENOBJ-N-FIL_13
1002
{
1000
OWNER
1000
GEN
1002
}
  0
LINE
  5
3FAC
330
1F
100
AcDbEntity
  8
0
100
AcDbLine
 10
359.8579434834692
 20
338.1049181828914
 30
0.0
 11
359.8579434834692
 21
225.1049181828914
 31
0.0
  0
LINE
  5
3FAD
330
1F
100
AcDbEntity
  8
0
100
AcDbLine
 10
355.8579434834692
 20
225.2446012608583
 30
0.0
 11
355.8579434834692
 21
225.1049181828914
 31
0.0
  0
LINE
  5
3FAE
330
1F
100
AcDbEntity
  8
0
100
AcDbLine
 10
349.8579434834692
 20
335.8243329383598
 30
0.0
 11
349.8579434834693
 21
227.385503427423
 31
0.0
  0
ARC
  5
3FAF
330
1F
100
AcDbEntity
  8
0
100
AcDbCircle
 10
351.8579434834692
 20
335.8243329383598
 30
0.0
 40
2.0
100
AcDbArc
 50
92.00000000000041
 51
180.0
1001
GENIUS_GENOBJ-N-FIL_13
1002
{
1000
OWNER
1000
GEN
1002
}
1001
GENIUS_GENODEF_13
1002
{
1000
HIER
1070
     0
1002
}
1002
{
1000
MANEDIT
1070
     0
1002
}
1002
{
1000
NOSEL
1070
     0
1002
}
1002
{
1000
BEHIND
1070
     0
1002
}
1002
{
1000
OTHER
1070
     0
1002
}
1002
{
1000
REACTOR
1002
}
  0
ARC
  5
3FB0
330
1F
100
AcDbEntity
  8
0
100
AcDbCircle
 10
344.8579434834678
 20
333.6759664947568
 30
0.0
 40
5.0
100
AcDbArc
 50
315.0
 51
0.0
1001
GENIUS_GENOBJ-N-FIL_13
1002
{
1000
OWNER
1000
GEN
1002
}
1001
GENIUS_GENODEF_13
1002
{
1000
HIER
1070
     0
1002
}
1002
{
1000
MANEDIT
1070
     0
1002
}
1002
{
1000
NOSEL
1070
     0
1002
}
1002
{
1000
BEHIND
1070
     0
1002
}
1002
{
1000
OTHER
1070
     0
1002
}
1002
{
1000
REACTOR
1002
}
  0
LINE
  5
3FB1
330
1F
100
AcDbEntity
  8
0
100
AcDbLine
 10
332.4989870310674
 20
314.2459422304908
 30
0.0
 11
348.3934773894006
 21
330.1404325888242
 31
0.0
  0
ARC
  5
3FB2
330
1F
100
AcDbEntity
  8
0
100
AcDbCircle
 10
328.9634531251346
 20
317.7814761364235
 30
0.0
 40
5.0
100
AcDbArc
 50
272.0000000000004
 51
315.0
1001
GENIUS_GENOBJ-N-FIL_13
1002
{
1000
OWNER
1000
GEN
1002
}
1001
GENIUS_GENODEF_13
1002
{
1000
HIER
1070
     0
1002
}
1002
{
1000
MANEDIT
1070
     0
1002
}
1002
{
1000
NOSEL
1070
     0
1002
}
1002
{
1000
BEHIND
1070
     0
1002
}
1002
{
1000
OTHER
1070
     0
1002
}
1002
{
1000
REACTOR
1002
}
  0
LINE
  5
3FB3
330
1F
100
AcDbEntity
  8
0
100
AcDbLine
 10
333.1784267812633
 20
312.9256185383889
 30
0.0
 11
307.357958483468
 21
312.0239479167924
 31
0.0
  0
ARC
  5
3FB4
330
1F
100
AcDbEntity
  8
0
100
AcDbCircle
 10
344.8579434834678
 20
229.5338308710259
 30
0.0
 40
5.0
100
AcDbArc
 50
0.0
 51
45.0
1001
GENIUS_GENOBJ-N-FIL_13
1002
{
1000
OWNER
1000
GEN
1002
}
1001
GENIUS_GENODEF_13
1002
{
1000
HIER
1070
     0
1002
}
1002
{
1000
MANEDIT
1070
     0
1002
}
1002
{
1000
NOSEL
1070
     0
1002
}
1002
{
1000
BEHIND
1070
     0
1002
}
1002
{
1000
OTHER
1070
     0
1002
}
1002
{
1000
REACTOR
1002
}
  0
LINE
  5
3FB5
330
1F
100
AcDbEntity
  8
0
100
AcDbLine
 10
332.4989870310674
 20
248.9638551352919
 30
0.0
 11
348.3934773894006
 21
233.0693647769585
 31
0.0
  0
ARC
  5
3FB6
330
1F
100
AcDbEntity
  8
0
100
AcDbCircle
 10
328.9634531251346
 20
245.4283212293591
 30
0.0
 40
5.0
100
AcDbArc
 50
45.0
 51
87.99999999999959
1001
GENIUS_GENOBJ-N-FIL_13
1002
{
1000
OWNER
1000
GEN
1002
}
1001
GENIUS_GENODEF_13
1002
{
1000
HIER
1070
     0
1002
}
1002
{
1000
MANEDIT
1070
     0
1002
}
1002
{
1000
NOSEL
1070
     0
1002
}
1002
{
1000
BEHIND
1070
     0
1002
}
1002
{
1000
OTHER
1070
     0
1002
}
1002
{
1000
REACTOR
1002
}
  0
LINE
  5
3FB7
330
1F
100
AcDbEntity
  8
0
100
AcDbLine
 10
333.1784267812633
 20
250.2841788273938
 30
0.0
 11
310.4626569735755
 21
251.0774309886758
 31
0.0
  0
ARC
  5
3FB8
330
1F
100
AcDbEntity
  8
図面枠-ｷｲﾛ
100
AcDbCircle
 10
409.4010648213584
 20
281.6048986828913
 30
0.0
 40
75.47521558726231
100
AcDbArc
 50
160.9069053726745
 51
199.0930946273255
  0
ARC
  5
3FB9
330
1F
100
AcDbEntity
  8
図面枠-ｷｲﾛ
100
AcDbCircle
 10
333.352924264776
 20
255.2811329624893
 30
0.0
 40
5.0
100
AcDbArc
 50
267.9999999999996
 51
19.09309462732549
1001
GENIUS_GENOBJ-N-FIL_13
1002
{
1000
OWNER
1000
GEN
1002
}
1001
GENIUS_GENODEF_13
1002
{
1000
HIER
1070
     0
1002
}
1002
{
1000
MANEDIT
1070
     0
1002
}
1002
{
1000
NOSEL
1070
     0
1002
}
1002
{
1000
BEHIND
1070
     0
1002
}
1002
{
1000
OTHER
1070
     0
1002
}
1002
{
1000
REACTOR
1002
}
  0
ARC
  5
3FBA
330
1F
100
AcDbEntity
  8
図面枠-ｷｲﾛ
100
AcDbCircle
 10
333.352924264776
 20
307.9286644032935
 30
0.0
 40
5.0
100
AcDbArc
 50
340.9069053726745
 51
92.00000000000041
1001
GENIUS_GENODEF_13
1002
{
1000
HIER
1070
     0
1002
}
1002
{
1000
MANEDIT
1070
     0
1002
}
1002
{
1000
NOSEL
1070
     0
1002
}
1002
{
1000
BEHIND
1070
     0
1002
}
1002
{
1000
OTHER
1070
     0
1002
}
1002
{
1000
REACTOR
1002
}
1001
GENIUS_GENOBJ-N-FIL_13
1002
{
1000
OWNER
1000
GEN
1002
}
  0
LINE
  5
3FBB
330
1F
100
AcDbEntity
  8
AM_0
100
AcDbLine
 10
359.8579434834692
 20
327.6049036828914
 30
0.0
 11
349.8579434834692
 21
327.6049036828914
 31
0.0
  0
LINE
  5
3FBC
330
1F
100
AcDbEntity
  8
AM_0
100
AcDbLine
 10
359.8579434834692
 20
313.5423376828914
 30
0.0
 11
349.8579434834692
 21
313.5423376828914
 31
0.0
  0
LINE
  5
3FBD
330
1F
100
AcDbEntity
  8
AM_0
100
AcDbLine
 10
359.8579434834692
 20
249.6674596828914
 30
0.0
 11
349.8579434834692
 21
249.6674596828914
 31
0.0
  0
LINE
  5
3FBE
330
1F
100
AcDbEntity
  8
AM_0
100
AcDbLine
 10
359.8579434834692
 20
235.6048966828914
 30
0.0
 11
349.8579434834692
 21
235.6048966828914
 31
0.0
  0
LINE
  5
3FBF
330
1F
100
AcDbEntity
  8
AM_7
  6
AM_ISO08W050x2
 62
     1
370
    25
100
AcDbLine
 10
318.3579584834679
 20
302.8807402218749
 30
0.0
 11
318.3579584834679
 21
315.8870538661513
 31
0.0
1001
GENIUS_GENOBJ-N-CEN_13
1002
{
1000
OWNER
1000
GEN
1002
}
1001
GENIUS_GENODEF_13
1002
{
1000
HIER
1070
     0
1002
}
1002
{
1000
MANEDIT
1070
     0
1002
}
1002
{
1000
NOSEL
1070
     0
1002
}
1002
{
1000
BEHIND
1070
     0
1002
}
1002
{
1000
OTHER
1070
     0
1002
}
1002
{
1000
REACTOR
1002
}
1001
GENIUS_GENCEN_19
1002
{
1040
2.794
1002
}
  0
LINE
  5
3FC0
330
1F
100
AcDbEntity
  8
0
100
AcDbLine
 10
326.8579584834679
 20
312.7049029218816
 30
0.0
 11
326.8579584834679
 21
313.074740221875
 31
0.0
1001
GENIUS_GENOBJ-N-CEN_13
1002
{
1000
OWNER
1000
GEN
1002
}
1001
GENIUS_GENODEF_13
1002
{
1000
HIER
1070
     0
1002
}
1002
{
1000
MANEDIT
1070
     0
1002
}
1002
{
1000
NOSEL
1070
     0
1002
}
1002
{
1000
BEHIND
1070
     0
1002
}
1002
{
1000
OTHER
1070
     0
1002
}
1002
{
1000
REACTOR
1002
}
1001
GENIUS_GENCEN_19
1002
{
1040
2.794
1002
}
  0
LINE
  5
3FC1
330
1F
100
AcDbEntity
  8
図面枠-ｷｲﾛ
100
AcDbLine
 10
309.8579584834679
 20
313.0747402218749
 30
0.0
 11
326.8579584834679
 21
313.074740221875
 31
0.0
  0
ARC
  5
3FC2
330
1F
100
AcDbEntity
  8
0
100
AcDbCircle
 10
318.3579584834681
 20
296.012240221875
 30
0.0
 40
19.06249999999999
100
AcDbArc
 50
63.51896016962518
 51
116.4810398303748
  0
LINE
  5
3FC3
330
1F
100
AcDbEntity
  8
AM_0
100
AcDbLine
 10
359.8579434834692
 20
549.6937483814843
 30
0.0
 11
359.8579434834692
 21
437.6937373814842
 31
0.0
  0
LINE
  5
3FC4
330
1F
100
AcDbEntity
  8
0
100
AcDbLine
 10
351.7881444900642
 20
549.9119392909908
 30
0.0
 11
359.8579434834692
 21
550.1937428814842
 31
0.0
  0
LINE
  5
3FC5
330
1F
100
AcDbEntity
  8
0
100
AcDbLine
 10
351.7881444900643
 20
437.4755464719776
 30
0.0
 11
359.8579434834692
 21
437.1937428814842
 31
0.0
  0
ARC
  5
3FC6
330
1F
100
AcDbEntity
  8
0
100
AcDbCircle
 10
351.8579434834693
 20
439.4743281260159
 30
0.0
 40
2.0
100
AcDbArc
 50
180.0
 51
267.9999999999996
1001
GENIUS_GENODEF_13
1002
{
1000
HIER
1070
     0
1002
}
1002
{
1000
MANEDIT
1070
     0
1002
}
1002
{
1000
NOSEL
1070
     0
1002
}
1002
{
1000
BEHIND
1070
     0
1002
}
1002
{
1000
OTHER
1070
     0
1002
}
1002
{
1000
REACTOR
1002
}
1001
GENIUS_GENOBJ-N-FIL_13
1002
{
1000
OWNER
1000
GEN
1002
}
  0
LINE
  5
3FC7
330
1F
100
AcDbEntity
  8
0
100
AcDbLine
 10
359.8579434834692
 20
550.1937428814842
 30
0.0
 11
359.8579434834692
 21
437.1937428814842
 31
0.0
  0
LINE
  5
3FC8
330
1F
100
AcDbEntity
  8
0
100
AcDbLine
 10
355.8579434834692
 20
437.3334259594512
 30
0.0
 11
355.8579434834692
 21
437.1937428814842
 31
0.0
  0
LINE
  5
3FC9
330
1F
100
AcDbEntity
  8
0
100
AcDbLine
 10
349.8579434834692
 20
547.9131576369525
 30
0.0
 11
349.8579434834693
 21
439.4743281260159
 31
0.0
  0
ARC
  5
3FCA
330
1F
100
AcDbEntity
  8
0
100
AcDbCircle
 10
351.8579434834692
 20
547.9131576369525
 30
0.0
 40
2.0
100
AcDbArc
 50
92.00000000000041
 51
180.0
1001
GENIUS_GENOBJ-N-FIL_13
1002
{
1000
OWNER
1000
GEN
1002
}
1001
GENIUS_GENODEF_13
1002
{
1000
HIER
1070
     0
1002
}
1002
{
1000
MANEDIT
1070
     0
1002
}
1002
{
1000
NOSEL
1070
     0
1002
}
1002
{
1000
BEHIND
1070
     0
1002
}
1002
{
1000
OTHER
1070
     0
1002
}
1002
{
1000
REACTOR
1002
}
  0
ARC
  5
3FCB
330
1F
100
AcDbEntity
  8
0
100
AcDbCircle
 10
344.8579434834678
 20
545.7647911933498
 30
0.0
 40
5.0
100
AcDbArc
 50
315.0
 51
0.0
1001
GENIUS_GENOBJ-N-FIL_13
1002
{
1000
OWNER
1000
GEN
1002
}
1001
GENIUS_GENODEF_13
1002
{
1000
HIER
1070
     0
1002
}
1002
{
1000
MANEDIT
1070
     0
1002
}
1002
{
1000
NOSEL
1070
     0
1002
}
1002
{
1000
BEHIND
1070
     0
1002
}
1002
{
1000
OTHER
1070
     0
1002
}
1002
{
1000
REACTOR
1002
}
  0
LINE
  5
3FCC
330
1F
100
AcDbEntity
  8
0
100
AcDbLine
 10
332.4989870310674
 20
526.3347669290835
 30
0.0
 11
348.3934773894006
 21
542.229257287417
 31
0.0
  0
ARC
  5
3FCD
330
1F
100
AcDbEntity
  8
0
100
AcDbCircle
 10
328.9634531251346
 20
529.8703008350162
 30
0.0
 40
5.0
100
AcDbArc
 50
272.0000000000004
 51
315.0
1001
GENIUS_GENOBJ-N-FIL_13
1002
{
1000
OWNER
1000
GEN
1002
}
1001
GENIUS_GENODEF_13
1002
{
1000
HIER
1070
     0
1002
}
1002
{
1000
MANEDIT
1070
     0
1002
}
1002
{
1000
NOSEL
1070
     0
1002
}
1002
{
1000
BEHIND
1070
     0
1002
}
1002
{
1000
OTHER
1070
     0
1002
}
1002
{
1000
REACTOR
1002
}
  0
LINE
  5
3FCE
330
1F
100
AcDbEntity
  8
0
100
AcDbLine
 10
333.1784267812633
 20
525.0144432369818
 30
0.0
 11
310.4626569735755
 21
524.2211910756996
 31
0.0
  0
ARC
  5
3FCF
330
1F
100
AcDbEntity
  8
0
100
AcDbCircle
 10
310.3579584834679
 20
527.2193635567568
 30
0.0
 40
3.0
100
AcDbArc
 50
180.0
 51
272.0000000000004
1001
GENIUS_GENOBJ-N-FIL_13
1002
{
1000
OWNER
1000
GEN
1002
}
1001
GENIUS_GENODEF_13
1002
{
1000
HIER
1070
     0
1002
}
1002
{
1000
MANEDIT
1070
     0
1002
}
1002
{
1000
NOSEL
1070
     0
1002
}
1002
{
1000
BEHIND
1070
     0
1002
}
1002
{
1000
OTHER
1070
     0
1002
}
1002
{
1000
REACTOR
1002
}
  0
ARC
  5
3FD0
330
1F
100
AcDbEntity
  8
0
100
AcDbCircle
 10
344.8579434834678
 20
441.6226555696187
 30
0.0
 40
5.0
100
AcDbArc
 50
0.0
 51
45.0
1001
GENIUS_GENOBJ-N-FIL_13
1002
{
1000
OWNER
1000
GEN
1002
}
1001
GENIUS_GENODEF_13
1002
{
1000
HIER
1070
     0
1002
}
1002
{
1000
MANEDIT
1070
     0
1002
}
1002
{
1000
NOSEL
1070
     0
1002
}
1002
{
1000
BEHIND
1070
     0
1002
}
1002
{
1000
OTHER
1070
     0
1002
}
1002
{
1000
REACTOR
1002
}
  0
LINE
  5
3FD1
330
1F
100
AcDbEntity
  8
0
100
AcDbLine
 10
332.4989870310674
 20
461.0526798338847
 30
0.0
 11
348.3934773894006
 21
445.1581894755514
 31
0.0
  0
ARC
  5
3FD2
330
1F
100
AcDbEntity
  8
0
100
AcDbCircle
 10
328.9634531251346
 20
457.517145927952
 30
0.0
 40
5.0
100
AcDbArc
 50
45.0
 51
87.99999999999959
1001
GENIUS_GENOBJ-N-FIL_13
1002
{
1000
OWNER
1000
GEN
1002
}
1001
GENIUS_GENODEF_13
1002
{
1000
HIER
1070
     0
1002
}
1002
{
1000
MANEDIT
1070
     0
1002
}
1002
{
1000
NOSEL
1070
     0
1002
}
1002
{
1000
BEHIND
1070
     0
1002
}
1002
{
1000
OTHER
1070
     0
1002
}
1002
{
1000
REACTOR
1002
}
  0
LINE
  5
3FD3
330
1F
100
AcDbEntity
  8
0
100
AcDbLine
 10
333.1784267812633
 20
462.3730035259866
 30
0.0
 11
310.4626569735755
 21
463.1662556872687
 31
0.0
  0
ARC
  5
3FD4
330
1F
100
AcDbEntity
  8
図面枠-ｷｲﾛ
100
AcDbCircle
 10
409.4010648213584
 20
493.6937233814841
 30
0.0
 40
75.47521558726231
100
AcDbArc
 50
160.9069053726745
 51
199.0930946273255
  0
ARC
  5
3FD5
330
1F
100
AcDbEntity
  8
図面枠-ｷｲﾛ
100
AcDbCircle
 10
333.352924264776
 20
467.3699576610821
 30
0.0
 40
5.0
100
AcDbArc
 50
267.9999999999996
 51
19.09309462732549
1001
GENIUS_GENOBJ-N-FIL_13
1002
{
1000
OWNER
1000
GEN
1002
}
1001
GENIUS_GENODEF_13
1002
{
1000
HIER
1070
     0
1002
}
1002
{
1000
MANEDIT
1070
     0
1002
}
1002
{
1000
NOSEL
1070
     0
1002
}
1002
{
1000
BEHIND
1070
     0
1002
}
1002
{
1000
OTHER
1070
     0
1002
}
1002
{
1000
REACTOR
1002
}
  0
ARC
  5
3FD6
330
1F
100
AcDbEntity
  8
図面枠-ｷｲﾛ
100
AcDbCircle
 10
333.352924264776
 20
520.0174891018861
 30
0.0
 40
5.0
100
AcDbArc
 50
340.9069053726745
 51
92.00000000000041
1001
GENIUS_GENODEF_13
1002
{
1000
HIER
1070
     0
1002
}
1002
{
1000
MANEDIT
1070
     0
1002
}
1002
{
1000
NOSEL
1070
     0
1002
}
1002
{
1000
BEHIND
1070
     0
1002
}
1002
{
1000
OTHER
1070
     0
1002
}
1002
{
1000
REACTOR
1002
}
1001
GENIUS_GENOBJ-N-FIL_13
1002
{
1000
OWNER
1000
GEN
1002
}
  0
LINE
  5
3FD7
330
1F
100
AcDbEntity
  8
AM_0
100
AcDbLine
 10
359.8579434834692
 20
539.6937283814843
 30
0.0
 11
349.8579434834692
 21
539.6937283814843
 31
0.0
  0
LINE
  5
3FD8
330
1F
100
AcDbEntity
  8
AM_0
100
AcDbLine
 10
359.8579434834692
 20
525.6311623814842
 30
0.0
 11
349.8579434834692
 21
525.6311623814842
 31
0.0
  0
LINE
  5
3FD9
330
1F
100
AcDbEntity
  8
AM_0
100
AcDbLine
 10
359.8579434834692
 20
461.7562843814842
 30
0.0
 11
349.8579434834692
 21
461.7562843814843
 31
0.0
  0
LINE
  5
3FDA
330
1F
100
AcDbEntity
  8
AM_0
100
AcDbLine
 10
359.8579434834692
 20
447.6937213814842
 30
0.0
 11
349.8579434834692
 21
447.6937213814842
 31
0.0
  0
LINE
  5
3FDB
330
1F
100
AcDbEntity
  8
0
100
AcDbLine
 10
295.3579584834679
 20
321.6048986828914
 30
0.0
 11
295.3579584834679
 21
241.6048986828914
 31
0.0
  0
LINE
  5
3FDC
330
1F
100
AcDbEntity
  8
0
100
AcDbLine
 10
307.3579584834679
 20
318.6048986828914
 30
0.0
 11
307.3579584834679
 21
244.6048986828914
 31
0.0
  0
ARC
  5
3FDD
330
1F
100
AcDbEntity
  8
0
100
AcDbCircle
 10
310.357958483468
 20
315.1305388581643
 30
0.0
 40
3.0
100
AcDbArc
 50
180.0
 51
272.0000000000004
1001
GENIUS_GENOBJ-N-FIL_13
1002
{
1000
OWNER
1000
GEN
1002
}
1001
GENIUS_GENODEF_13
1002
{
1000
HIER
1070
     0
1002
}
1002
{
1000
MANEDIT
1070
     0
1002
}
1002
{
1000
NOSEL
1070
     0
1002
}
1002
{
1000
BEHIND
1070
     0
1002
}
1002
{
1000
OTHER
1070
     0
1002
}
1002
{
1000
REACTOR
1002
}
  0
ARC
  5
3FDE
330
1F
100
AcDbEntity
  8
0
100
AcDbCircle
 10
310.357958483468
 20
248.0792585076187
 30
0.0
 40
3.0
100
AcDbArc
 50
87.99999999999959
 51
180.0
1001
GENIUS_GENOBJ-N-FIL_13
1002
{
1000
OWNER
1000
GEN
1002
}
1001
GENIUS_GENODEF_13
1002
{
1000
HIER
1070
     0
1002
}
1002
{
1000
MANEDIT
1070
     0
1002
}
1002
{
1000
NOSEL
1070
     0
1002
}
1002
{
1000
BEHIND
1070
     0
1002
}
1002
{
1000
OTHER
1070
     0
1002
}
1002
{
1000
REACTOR
1002
}
  0
ARC
  5
3FDF
330
1F
100
AcDbEntity
  8
AM_0
100
AcDbCircle
 10
304.357958483468
 20
318.6048986828915
 30
0.0
 40
3.0
100
AcDbArc
 50
0.0
 51
90.0
1001
GENIUS_GENODEF_13
1002
{
1000
HIER
1070
     0
1002
}
1002
{
1000
MANEDIT
1070
     0
1002
}
1002
{
1000
NOSEL
1070
     0
1002
}
1002
{
1000
BEHIND
1070
     0
1002
}
1002
{
1000
OTHER
1070
     0
1002
}
1002
{
1000
REACTOR
1002
}
1001
GENIUS_GENOBJ-N-FIL_13
1002
{
1000
OWNER
1000
GEN
1002
}
  0
ARC
  5
3FE0
330
1F
100
AcDbEntity
  8
AM_0
100
AcDbCircle
 10
304.3579584834679
 20
244.6048986828913
 30
0.0
 40
3.0
100
AcDbArc
 50
270.0
 51
0.0
1001
GENIUS_GENODEF_13
1002
{
1000
HIER
1070
     0
1002
}
1002
{
1000
MANEDIT
1070
     0
1002
}
1002
{
1000
NOSEL
1070
     0
1002
}
1002
{
1000
BEHIND
1070
     0
1002
}
1002
{
1000
OTHER
1070
     0
1002
}
1002
{
1000
REACTOR
1002
}
1001
GENIUS_GENOBJ-N-FIL_13
1002
{
1000
OWNER
1000
GEN
1002
}
  0
LINE
  5
3FE1
330
1F
100
AcDbEntity
  8
AM_0
100
AcDbLine
 10
295.3579584834679
 20
321.6048986828914
 30
0.0
 11
304.357958483468
 21
321.6048986828915
 31
0.0
  0
LINE
  5
3FE2
330
1F
100
AcDbEntity
  8
AM_0
100
AcDbLine
 10
295.3579584834679
 20
241.6048986828914
 30
0.0
 11
304.3579584834679
 21
241.6048986828914
 31
0.0
  0
LINE
  5
3FE3
330
1F
100
AcDbEntity
  8
0
100
AcDbLine
 10
295.3579584834679
 20
533.6937428814842
 30
0.0
 11
295.3579584834679
 21
453.6937428814842
 31
0.0
  0
LINE
  5
3FE4
330
1F
100
AcDbEntity
  8
0
100
AcDbLine
 10
307.3579584834679
 20
530.6937428814842
 30
0.0
 11
307.3579584834679
 21
456.6937428814842
 31
0.0
  0
ARC
  5
3FE5
330
1F
100
AcDbEntity
  8
0
100
AcDbCircle
 10
310.357958483468
 20
460.1680832062114
 30
0.0
 40
3.0
100
AcDbArc
 50
87.99999999999959
 51
180.0
1001
GENIUS_GENOBJ-N-FIL_13
1002
{
1000
OWNER
1000
GEN
1002
}
1001
GENIUS_GENODEF_13
1002
{
1000
HIER
1070
     0
1002
}
1002
{
1000
MANEDIT
1070
     0
1002
}
1002
{
1000
NOSEL
1070
     0
1002
}
1002
{
1000
BEHIND
1070
     0
1002
}
1002
{
1000
OTHER
1070
     0
1002
}
1002
{
1000
REACTOR
1002
}
  0
ARC
  5
3FE6
330
1F
100
AcDbEntity
  8
AM_0
100
AcDbCircle
 10
304.357958483468
 20
530.6937428814842
 30
0.0
 40
3.0
100
AcDbArc
 50
0.0
 51
90.0
1001
GENIUS_GENODEF_13
1002
{
1000
HIER
1070
     0
1002
}
1002
{
1000
MANEDIT
1070
     0
1002
}
1002
{
1000
NOSEL
1070
     0
1002
}
1002
{
1000
BEHIND
1070
     0
1002
}
1002
{
1000
OTHER
1070
     0
1002
}
1002
{
1000
REACTOR
1002
}
1001
GENIUS_GENOBJ-N-FIL_13
1002
{
1000
OWNER
1000
GEN
1002
}
  0
ARC
  5
3FE7
330
1F
100
AcDbEntity
  8
AM_0
100
AcDbCircle
 10
304.3579584834679
 20
456.6937428814841
 30
0.0
 40
3.0
100
AcDbArc
 50
270.0
 51
0.0
1001
GENIUS_GENODEF_13
1002
{
1000
HIER
1070
     0
1002
}
1002
{
1000
MANEDIT
1070
     0
1002
}
1002
{
1000
NOSEL
1070
     0
1002
}
1002
{
1000
BEHIND
1070
     0
1002
}
1002
{
1000
OTHER
1070
     0
1002
}
1002
{
1000
REACTOR
1002
}
1001
GENIUS_GENOBJ-N-FIL_13
1002
{
1000
OWNER
1000
GEN
1002
}
  0
LINE
  5
3FE8
330
1F
100
AcDbEntity
  8
AM_0
100
AcDbLine
 10
295.3579584834679
 20
533.6937428814842
 30
0.0
 11
304.357958483468
 21
533.6937428814842
 31
0.0
  0
LINE
  5
3FE9
330
1F
100
AcDbEntity
  8
AM_0
100
AcDbLine
 10
295.3579584834679
 20
453.6937428814842
 30
0.0
 11
304.3579584834679
 21
453.6937428814842
 31
0.0
  0
LINE
  5
3FEA
330
1F
100
AcDbEntity
  8
0
100
AcDbLine
 10
309.8579584834679
 20
312.1112498405218
 30
0.0
 11
309.8579584834679
 21
313.074740221875
 31
0.0
1001
GENIUS_GENOBJ-N-CEN_13
1002
{
1000
OWNER
1000
GEN
1002
}
1001
GENIUS_GENODEF_13
1002
{
1000
HIER
1070
     0
1002
}
1002
{
1000
MANEDIT
1070
     0
1002
}
1002
{
1000
NOSEL
1070
     0
1002
}
1002
{
1000
BEHIND
1070
     0
1002
}
1002
{
1000
OTHER
1070
     0
1002
}
1002
{
1000
REACTOR
1002
}
1001
GENIUS_GENCEN_19
1002
{
1040
2.794
1002
}
  0
ENDSEC
  0
SECTION
  2
OBJECTS
  0
DICTIONARY
  5
C
330
0
100
AcDbDictionary
281
     1
  3
ACAD_COLOR
350
2196
  3
ACAD_GROUP
350
D
  3
ACAD_LAYOUT
350
1A
  3
ACAD_MATERIAL
350
2195
  3
ACAD_MLINESTYLE
350
17
  3
ACAD_PLOTSETTINGS
350
19
  3
ACAD_PLOTSTYLENAME
350
E
  3
ACAD_TABLESTYLE
350
2197
  3
AcadDim
350
14B1
  3
ACDBHEADERROUNDTRIPXREC
350
405D
  3
AcDbVariableDictionary
350
34
  3
AcmDictionary
350
47
  3
AMG
350
2B
  3
AMGSNAPSETTINGS
350
81
  3
ASE_INDEX_DICTIONARY
350
2D7B
  3
DWGPROPS
350
405C
  0
DICTIONARY
  5
2D9C
330
2
100
AcDbDictionary
280
     1
281
     1
  3
ACAD_LAYERSTATES
360
2D9D
  0
DICTIONARY
  5
CC
330
1F
100
AcDbDictionary
280
     1
281
     1
  3
ACAD_SORTENTS
360
2D4D
  0
DICTIONARY
  5
2196
102
{ACAD_REACTORS
330
C
102
}
330
C
100
AcDbDictionary
281
     1
  0
DICTIONARY
  5
D
102
{ACAD_REACTORS
330
C
102
}
330
C
100
AcDbDictionary
281
     1
  0
DICTIONARY
  5
1A
102
{ACAD_REACTORS
330
C
102
}
330
C
100
AcDbDictionary
281
     1
  3
Model
350
22
  3
ﾚｲｱｳﾄ1
350
1E
  3
ﾚｲｱｳﾄ2
350
26
  0
DICTIONARY
  5
2195
102
{ACAD_REACTORS
330
C
102
}
330
C
100
AcDbDictionary
281
     1
  0
DICTIONARY
  5
17
102
{ACAD_REACTORS
330
C
102
}
330
C
100
AcDbDictionary
281
     1
  3
Standard
350
18
  0
DICTIONARY
  5
19
102
{ACAD_REACTORS
330
C
102
}
330
C
100
AcDbDictionary
281
     1
  3
A1
350
7A0
  3
A2
350
7A1
  3
A3外形図
350
7A2
  3
A3部品図
350
7A3
  3
A4外形図
350
7A4
  3
A4製造仕様書
350
7A5
  3
A4部品図
350
7A6
  0
ACDBDICTIONARYWDFLT
  5
E
102
{ACAD_REACTORS
330
C
102
}
330
C
100
AcDbDictionary
281
     1
  3
Normal
350
F
100
AcDbDictionaryWithDefault
340
F
  0
DICTIONARY
  5
2197
102
{ACAD_REACTORS
330
C
102
}
330
C
100
AcDbDictionary
281
     1
  3
Standard
350
2198
  0
XRECORD
  5
14B1
102
{ACAD_REACTORS
330
C
102
}
330
C
100
AcDbXrecord
280
     1
 90
   990106
  3

 60
     0
 61
     0
 62
     4
 63
     4
 64
     1
 65
     0
 66
     0
 67
     3
 68
     1
 69
     0
 70
     0
 71
     0
 72
     0
 40
0.0
170
     0
  0
DICTIONARY
  5
405D
102
{ACAD_REACTORS
330
C
102
}
330
C
100
AcDbDictionary
281
     1
  0
DICTIONARY
  5
34
102
{ACAD_REACTORS
330
C
102
}
330
C
100
AcDbDictionary
281
     1
  3
CTABLESTYLE
350
22C6
  3
DIMASSOC
350
3958
  3
INDEXCTL
350
35
  3
PROJECTNAME
350
3959
  0
DICTIONARY
  5
47
102
{ACAD_REACTORS
330
C
102
}
330
C
100
AcDbDictionary
281
     1
  3
AcmStdDictionary
350
4C
  3
AMDTSECTSYM_ARROWCOLOR
350
21A4
  0
DICTIONARY
  5
2B
102
{ACAD_REACTORS
330
C
102
}
330
C
100
AcDbDictionary
281
     1
  0
DICTIONARY
  5
81
102
{ACAD_REACTORS
330
C
102
}
330
C
100
AcDbDictionary
281
     1
  0
DICTIONARY
  5
2D7B
102
{ACAD_REACTORS
330
C
102
}
330
C
100
AcDbDictionary
281
     1
  3
ASEBlockHierarchyIndexRecord
350
2D7C
1001
DCO15
1040
1618997489.555
  0
XRECORD
  5
405C
102
{ACAD_REACTORS
330
C
102
}
330
C
100
AcDbXrecord
280
     1
  1
DWGPROPS COOKIE
  2

  3

  4

  6

  7

  8
ISHIGURE
  9

300
AmdtFileType=84
301
=
302
=
303
=
304
=
305
=
306
=
307
=
308
=
309
=
 40
0.4018358796296297
 41
2452065.605619213
 42
2454770.752953588
  1

 90
        1
  0
DICTIONARY
  5
2D9D
102
{ACAD_REACTORS
330
2D9C
102
}
330
2D9C
100
AcDbDictionary
281
     1
  0
SORTENTSTABLE
  5
2D4D
102
{ACAD_REACTORS
330
CC
102
}
330
CC
100
AcDbSortentsTable
330
1F
331
32F9
  5
32F9
331
3283
  5
3283
331
3244
  5
3244
331
32BA
  5
32BA
331
3301
  5
3301
331
328B
  5
328B
331
324C
  5
324C
331
32C2
  5
32C2
331
3254
  5
3254
331
3293
  5
3293
331
3309
  5
3309
331
325C
  5
325C
331
3264
  5
3264
331
329B
  5
329B
331
32A3
  5
32A3
331
3274
  5
3274
331
32AB
  5
32AB
331
32EA
  5
32EA
331
3315
  5
3315
331
32F2
  5
32F2
331
32B3
  5
32B3
331
327C
  5
327C
331
331D
  5
331D
331
3325
  5
3325
331
32BB
  5
32BB
331
3245
  5
3245
331
3284
  5
3284
331
32FA
  5
32FA
331
3302
  5
3302
331
32C3
  5
32C3
331
328C
  5
328C
331
324D
  5
324D
331
330A
  5
330A
331
3294
  5
3294
331
3255
  5
3255
331
325D
  5
325D
331
32DB
  5
32DB
331
3265
  5
3265
331
329C
  5
329C
331
32E3
  5
32E3
331
32A4
  5
32A4
331
32EB
  5
32EB
331
3275
  5
3275
331
32AC
  5
32AC
331
3316
  5
3316
331
32F3
  5
32F3
331
32B4
  5
32B4
331
327D
  5
327D
331
331E
  5
331E
331
3326
  5
3326
331
32FB
  5
32FB
331
32BC
  5
32BC
331
3285
  5
3285
331
3246
  5
3246
331
3303
  5
3303
331
32C4
  5
32C4
331
324E
  5
324E
331
328D
  5
328D
331
330B
  5
330B
331
3256
  5
3256
331
3295
  5
3295
331
325E
  5
325E
331
32DC
  5
32DC
331
3266
  5
3266
331
329D
  5
329D
331
32E4
  5
32E4
331
326E
  5
326E
331
32A5
  5
32A5
331
3317
  5
3317
331
32EC
  5
32EC
331
3276
  5
3276
331
32AD
  5
32AD
331
331F
  5
331F
331
32F4
  5
32F4
331
32B5
  5
32B5
331
327E
  5
327E
331
3327
  5
3327
331
32BD
  5
32BD
331
3247
  5
3247
331
3286
  5
3286
331
32FC
  5
32FC
331
3304
  5
3304
331
32C5
  5
32C5
331
328E
  5
328E
331
324F
  5
324F
331
330C
  5
330C
331
3296
  5
3296
331
3257
  5
3257
331
32D5
  5
32D5
331
325F
  5
325F
331
32DD
  5
32DD
331
3267
  5
3267
331
329E
  5
329E
331
3310
  5
3310
331
32E5
  5
32E5
331
326F
  5
326F
331
32A6
  5
32A6
331
3318
  5
3318
331
32ED
  5
32ED
331
3277
  5
3277
331
32AE
  5
32AE
331
3320
  5
3320
331
32F5
  5
32F5
331
32B6
  5
32B6
331
327F
  5
327F
331
3328
  5
3328
331
32FD
  5
32FD
331
32BE
  5
32BE
331
3287
  5
3287
331
3248
  5
3248
331
3305
  5
3305
331
32C6
  5
32C6
331
3250
  5
3250
331
328F
  5
328F
331
330D
  5
330D
331
3258
  5
3258
331
3297
  5
3297
331
32D6
  5
32D6
331
3260
  5
3260
331
329F
  5
329F
331
32DE
  5
32DE
331
3311
  5
3311
331
3270
  5
3270
331
32A7
  5
32A7
331
32E6
  5
32E6
331
3319
  5
3319
331
32AF
  5
32AF
331
32EE
  5
32EE
331
3321
  5
3321
331
32B7
  5
32B7
331
32F6
  5
32F6
331
3280
  5
3280
331
3288
  5
3288
331
3249
  5
3249
331
32BF
  5
32BF
331
32FE
  5
32FE
331
3306
  5
3306
331
3290
  5
3290
331
3251
  5
3251
331
32C7
  5
32C7
331
3259
  5
3259
331
330E
  5
330E
331
32D7
  5
32D7
331
3261
  5
3261
331
3298
  5
3298
331
32A0
  5
32A0
331
32DF
  5
32DF
331
3312
  5
3312
331
3271
  5
3271
331
32A8
  5
32A8
331
32E7
  5
32E7
331
331A
  5
331A
331
3279
  5
3279
331
32B0
  5
32B0
331
32EF
  5
32EF
331
3322
  5
3322
331
32F7
  5
32F7
331
3281
  5
3281
331
3242
  5
3242
331
32B8
  5
32B8
331
32FF
  5
32FF
331
3289
  5
3289
331
324A
  5
324A
331
32C0
  5
32C0
331
3252
  5
3252
331
3291
  5
3291
331
32C8
  5
32C8
331
3307
  5
3307
331
325A
  5
325A
331
330F
  5
330F
331
3262
  5
3262
331
3299
  5
3299
331
32D8
  5
32D8
331
32A1
  5
32A1
331
32E0
  5
32E0
331
3272
  5
3272
331
32A9
  5
32A9
331
32E8
  5
32E8
331
3313
  5
3313
331
32F0
  5
32F0
331
327A
  5
327A
331
32B1
  5
32B1
331
331B
  5
331B
331
3323
  5
3323
331
3243
  5
3243
331
3282
  5
3282
331
32B9
  5
32B9
331
32F8
  5
32F8
331
328A
  5
328A
331
324B
  5
324B
331
32C1
  5
32C1
331
3300
  5
3300
331
3292
  5
3292
331
3253
  5
3253
331
3308
  5
3308
331
325B
  5
325B
331
3263
  5
3263
331
329A
  5
329A
331
32D9
  5
32D9
331
32A2
  5
32A2
331
3273
  5
3273
331
32AA
  5
32AA
331
32E9
  5
32E9
331
3314
  5
3314
331
32F1
  5
32F1
331
32B2
  5
32B2
331
331C
  5
331C
331
3324
  5
3324
  0
LAYOUT
  5
22
102
{ACAD_XDICTIONARY
360
4060
102
}
102
{ACAD_REACTORS
330
1A
102
}
330
1A
100
AcDbPlotSettings
  1

  2
\\Xseries205\Canon iR5150/iR6050 LIPS
  4
A4
  6
AM_VIEW1
 40
5.873749732971191
 41
5.873747825622557
 42
5.873748779296875
 43
5.873748779296875
 44
209.9733276367186
 45
296.9259948730469
 46
0.0
 47
0.34
 48
0.0
 49
0.0
140
0.0
141
0.0
142
1.0
143
3.0
 70
 11936
 72
     1
 73
     1
 74
     2
  7
acad1.ctb
 75
     0
147
0.3341282932256912
148
0.0
149
0.0
100
AcDbLayout
  1
Model
 70
     1
 71
     0
 10
0.0
 20
0.0
 11
12.0
 21
9.0
 12
0.0
 22
0.0
 32
0.0
 14
0.0
 24
0.0
 34
0.0
 15
0.0
 25
0.0
 35
0.0
146
0.0
 13
0.0
 23
0.0
 33
0.0
 16
1.0
 26
0.0
 36
0.0
 17
0.0
 27
1.0
 37
0.0
 76
     0
330
1F
1001
ACAD_PSEXT
1000
\\Xseries205\Canon iR5150/iR6050 LIPS
1000
Canon iR5150/iR6050 LIPS
1000
\\Xseries205
1000

1070
     0
  0
LAYOUT
  5
1E
102
{ACAD_XDICTIONARY
360
405E
102
}
102
{ACAD_REACTORS
330
1A
102
}
330
1A
100
AcDbPlotSettings
  1

  2
\\FHKSV01\RICOH imagio MF2700(FAX)
  4

  6

 40
0.0
 41
0.0
 42
0.0
 43
0.0
 44
0.0
 45
0.0
 46
0.0
 47
0.0
 48
0.0
 49
0.0
140
0.0
141
0.0
142
1.0
143
1.0
 70
   688
 72
     0
 73
     0
 74
     5
  7
acad1.ctb
 75
    16
147
1.0
148
0.0
149
0.0
100
AcDbLayout
  1
ﾚｲｱｳﾄ1
 70
     1
 71
     1
 10
0.0
 20
0.0
 11
420.0
 21
297.0
 12
0.0
 22
0.0
 32
0.0
 14
1.000000000000000E+20
 24
1.000000000000000E+20
 34
1.000000000000000E+20
 15
-1.000000000000000E+20
 25
-1.000000000000000E+20
 35
-1.000000000000000E+20
146
0.0
 13
0.0
 23
0.0
 33
0.0
 16
1.0
 26
0.0
 36
0.0
 17
0.0
 27
1.0
 37
0.0
 76
     0
330
1B
  0
LAYOUT
  5
26
102
{ACAD_XDICTIONARY
360
4062
102
}
102
{ACAD_REACTORS
330
1A
102
}
330
1A
100
AcDbPlotSettings
  1

  2
\\FHKSV01\RICOH imagio MF2700(FAX)
  4

  6

 40
0.0
 41
0.0
 42
0.0
 43
0.0
 44
0.0
 45
0.0
 46
0.0
 47
0.0
 48
0.0
 49
0.0
140
0.0
141
0.0
142
1.0
143
1.0
 70
   688
 72
     0
 73
     0
 74
     5
  7
acad1.ctb
 75
    16
147
1.0
148
0.0
149
0.0
100
AcDbLayout
  1
ﾚｲｱｳﾄ2
 70
     1
 71
     2
 10
0.0
 20
0.0
 11
12.0
 21
9.0
 12
0.0
 22
0.0
 32
0.0
 14
0.0
 24
0.0
 34
0.0
 15
0.0
 25
0.0
 35
0.0
146
0.0
 13
0.0
 23
0.0
 33
0.0
 16
1.0
 26
0.0
 36
0.0
 17
0.0
 27
1.0
 37
0.0
 76
     0
330
23
  0
MLINESTYLE
  5
18
102
{ACAD_REACTORS
330
17
102
}
330
17
100
AcDbMlineStyle
  2
STANDARD
 70
     0
  3

 62
   256
 51
90.0
 52
90.0
 71
     2
 49
0.5
 62
   256
  6
BYLAYER
 49
-0.5
 62
   256
  6
BYLAYER
  0
PLOTSETTINGS
  5
7A0
102
{ACAD_XDICTIONARY
360
4064
102
}
102
{ACAD_REACTORS
330
19
102
}
330
19
100
AcDbPlotSettings
  1
A1
  2
\\NETFINITY_5500\HP DesignJet 750C+ (D/A1) by HP)
  4
User267
  6

 40
17.76941680908203
 41
5.789102554321289
 42
17.7694091796875
 43
5.7890625
 44
840.9093017578125
 45
593.97900390625
 46
2.0
 47
13.0
 48
0.0
 49
0.0
140
0.0
141
0.0
142
1.0
143
1.0
 70
  1712
 72
     1
 73
     0
 74
     1
  7
acad.ctb
 75
    16
147
1.0
148
0.0100416569983963
149
0.0078848243487073
  0
PLOTSETTINGS
  5
7A1
102
{ACAD_XDICTIONARY
360
4066
102
}
102
{ACAD_REACTORS
330
19
102
}
330
19
100
AcDbPlotSettings
  1
A2
  2
\\NETFINITY_5500\HP DesignJet 750C+ (D/A1) by HP)
  4
User266
  6

 40
5.78908348083496
 41
17.76940155029297
 42
5.78912353515625
 43
17.7694091796875
 44
593.97900390625
 45
419.9466552734373
 46
12.0
 47
0.0
 48
0.0
 49
0.0
140
0.0
141
0.0
142
1.0
143
1.0
 70
  1712
 72
     1
 73
     0
 74
     1
  7
acad.ctb
 75
    16
147
1.0
148
0.0100416569983963
149
0.0078848243487073
  0
PLOTSETTINGS
  5
7A2
102
{ACAD_XDICTIONARY
360
4068
102
}
102
{ACAD_REACTORS
330
19
102
}
330
19
100
AcDbPlotSettings
  1
A3外形図
  2
\\NETFINITY_5500\Canon LASER SHOT LBP-910
  4
A3
  6

 40
5.873749732971191
 41
5.873747825622557
 42
5.873748779296875
 43
5.873748779296875
 44
296.9259948730469
 45
419.9466552734373
 46
0.0
 47
15.0
 48
0.0
 49
0.0
140
0.0
141
0.0
142
1.0
143
1.0
 70
  1712
 72
     1
 73
     1
 74
     1
  7
acad1.ctb
 75
    16
147
1.0
148
0.0024839861629289
149
0.0093761313144114
  0
PLOTSETTINGS
  5
7A3
102
{ACAD_XDICTIONARY
360
406A
102
}
102
{ACAD_REACTORS
330
19
102
}
330
19
100
AcDbPlotSettings
  1
A3部品図
  2
\\NETFINITY_5500\Canon LASER SHOT LBP-910
  4
A3
  6

 40
5.873749732971191
 41
5.873747825622557
 42
5.873748779296875
 43
5.873748779296875
 44
296.9259948730469
 45
419.9466552734373
 46
0.0
 47
0.0
 48
0.0
 49
0.0
140
0.0
141
0.0
142
1.0
143
1.0
 70
  1712
 72
     1
 73
     1
 74
     1
  7
acad1.ctb
 75
    16
147
1.0
148
0.0024839861629289
149
0.0093761313144114
  0
PLOTSETTINGS
  5
7A4
102
{ACAD_XDICTIONARY
360
406C
102
}
102
{ACAD_REACTORS
330
19
102
}
330
19
100
AcDbPlotSettings
  1
A4外形図
  2
\\NETFINITY_5500\Canon LASER SHOT LBP-910
  4
A4
  6

 40
5.873749732971191
 41
5.873747825622557
 42
5.873748779296875
 43
5.873748779296875
 44
209.9733276367186
 45
296.9259948730469
 46
0.0
 47
0.0
 48
0.0
 49
0.0
140
0.0
141
0.0
142
1.0
143
1.0
 70
  1712
 72
     1
 73
     1
 74
     1
  7
acad1.ctb
 75
    16
147
1.0
148
0.0115486965655691
149
0.0124955963574962
  0
PLOTSETTINGS
  5
7A5
102
{ACAD_XDICTIONARY
360
406E
102
}
102
{ACAD_REACTORS
330
19
102
}
330
19
100
AcDbPlotSettings
  1
A4製造仕様書
  2
\\NETFINITY_5500\Canon LASER SHOT LBP-910
  4
A4
  6

 40
5.873749732971191
 41
5.873747825622557
 42
5.873748779296875
 43
5.873748779296875
 44
209.9733276367186
 45
296.9259948730469
 46
15.0
 47
0.0
 48
0.0
 49
0.0
140
0.0
141
0.0
142
1.0
143
1.0
 70
  1712
 72
     1
 73
     0
 74
     1
  7
acad1.ctb
 75
    16
147
1.0
148
0.0115486965655691
149
7.86079562315183
  0
PLOTSETTINGS
  5
7A6
102
{ACAD_XDICTIONARY
360
4070
102
}
102
{ACAD_REACTORS
330
19
102
}
330
19
100
AcDbPlotSettings
  1
A4部品図
  2
\\NETFINITY_5500\Canon LASER SHOT LBP-910
  4
A4
  6

 40
5.873749732971191
 41
5.873747825622557
 42
5.873748779296875
 43
5.873748779296875
 44
209.9733276367186
 45
296.9259948730469
 46
0.0
 47
0.0
 48
0.0
 49
0.0
140
0.0
141
0.0
142
1.0
143
1.0
 70
  1712
 72
     1
 73
     0
 74
     1
  7
acad1.ctb
 75
    16
147
1.0
148
0.0115486965655691
149
0.0124955963574962
  0
ACDBPLACEHOLDER
  5
F
102
{ACAD_REACTORS
330
E
102
}
330
E
  0
TABLESTYLE
  5
2198
102
{ACAD_REACTORS
330
2197
102
}
330
2197
100
AcDbTableStyle
  3
Standard
 70
     0
 71
     0
 40
1.5
 41
1.5
280
     0
281
     0
  7
STANDARD
140
4.5
170
     2
 62
     0
 63
     7
283
     0
274
    -2
284
     1
 64
     0
275
    -2
285
     1
 65
     0
276
    -2
286
     1
 66
     0
277
    -2
287
     1
 67
     0
278
    -2
288
     1
 68
     0
279
    -2
289
     1
 69
     0
  7
STANDARD
140
6.0
170
     5
 62
     0
 63
     7
283
     0
274
    -2
284
     1
 64
     0
275
    -2
285
     1
 65
     0
276
    -2
286
     1
 66
     0
277
    -2
287
     1
 67
     0
278
    -2
288
     1
 68
     0
279
    -2
289
     1
 69
     0
  7
STANDARD
140
4.5
170
     5
 62
     0
 63
     7
283
     0
274
    -2
284
     1
 64
     0
275
    -2
285
     1
 65
     0
276
    -2
286
     1
 66
     0
277
    -2
287
     1
 67
     0
278
    -2
288
     1
 68
     0
279
    -2
289
     1
 69
     0
  0
DICTIONARYVAR
  5
22C6
102
{ACAD_REACTORS
330
34
102
}
330
34
100
DictionaryVariables
280
     0
  1
STANDARD
  0
DICTIONARYVAR
  5
3958
102
{ACAD_REACTORS
330
34
102
}
330
34
100
DictionaryVariables
280
     0
  1
1
  0
DICTIONARYVAR
  5
35
102
{ACAD_REACTORS
330
34
102
}
330
34
100
DictionaryVariables
280
     0
  1
0
  0
DICTIONARYVAR
  5
3959
102
{ACAD_REACTORS
330
34
102
}
330
34
100
DictionaryVariables
280
     0
  1

  0
DICTIONARY
  5
4C
102
{ACAD_REACTORS
330
47
102
}
330
47
100
AcDbDictionary
281
     1
  0
XRECORD
  5
21A4
102
{ACAD_REACTORS
330
47
102
}
330
47
100
AcDbXrecord
280
     1
 90
-1023410169
  0
XRECORD
  5
2D7C
102
{ACAD_REACTORS
330
2D7B
102
}
330
2D7B
100
AcDbXrecord
280
     1
330
0
330
0
330
0
330
0
330
0
330
0
330
0
330
0
330
0
330
0
330
0
330
0
330
0
330
0
330
0
330
0
330
0
330
0
330
0
330
0
330
0
330
0
330
0
330
0
330
0
330
0
330
0
330
0
330
0
330
0
330
0
330
0
330
0
330
0
330
0
330
0
330
0
330
0
330
0
330
0
330
0
330
0
330
0
330
0
330
0
330
0
330
0
330
0
330
0
330
0
330
0
330
0
330
0
330
0
330
0
330
0
330
0
330
0
330
0
330
0
  0
DICTIONARY
  5
4060
330
22
100
AcDbDictionary
280
     1
281
     1
  3
ACAD_XREC_ROUNDTRIP
360
4061
  0
DICTIONARY
  5
405E
330
1E
100
AcDbDictionary
280
     1
281
     1
  3
ACAD_XREC_ROUNDTRIP
360
405F
  0
DICTIONARY
  5
4062
330
26
100
AcDbDictionary
280
     1
281
     1
  3
ACAD_XREC_ROUNDTRIP
360
4063
  0
DICTIONARY
  5
4064
330
7A0
100
AcDbDictionary
280
     1
281
     1
  3
ACAD_XREC_ROUNDTRIP
360
4065
  0
DICTIONARY
  5
4066
330
7A1
100
AcDbDictionary
280
     1
281
     1
  3
ACAD_XREC_ROUNDTRIP
360
4067
  0
DICTIONARY
  5
4068
330
7A2
100
AcDbDictionary
280
     1
281
     1
  3
ACAD_XREC_ROUNDTRIP
360
4069
  0
DICTIONARY
  5
406A
330
7A3
100
AcDbDictionary
280
     1
281
     1
  3
ACAD_XREC_ROUNDTRIP
360
406B
  0
DICTIONARY
  5
406C
330
7A4
100
AcDbDictionary
280
     1
281
     1
  3
ACAD_XREC_ROUNDTRIP
360
406D
  0
DICTIONARY
  5
406E
330
7A5
100
AcDbDictionary
280
     1
281
     1
  3
ACAD_XREC_ROUNDTRIP
360
406F
  0
DICTIONARY
  5
4070
330
7A6
100
AcDbDictionary
280
     1
281
     1
  3
ACAD_XREC_ROUNDTRIP
360
4071
  0
XRECORD
  5
4061
102
{ACAD_REACTORS
330
4060
102
}
330
4060
100
AcDbXrecord
280
     1
102
SHADEPLOT
 70
     0
102
SHADEPLOTRESLEVEL
 70
     2
102
SHADEPLOTCUSTOMDPI
 70
   300
  0
XRECORD
  5
405F
102
{ACAD_REACTORS
330
405E
102
}
330
405E
100
AcDbXrecord
280
     1
102
SHADEPLOT
 70
     0
102
SHADEPLOTRESLEVEL
 70
     2
102
SHADEPLOTCUSTOMDPI
 70
   300
  0
XRECORD
  5
4063
102
{ACAD_REACTORS
330
4062
102
}
330
4062
100
AcDbXrecord
280
     1
102
SHADEPLOT
 70
     0
102
SHADEPLOTRESLEVEL
 70
     2
102
SHADEPLOTCUSTOMDPI
 70
   300
  0
XRECORD
  5
4065
102
{ACAD_REACTORS
330
4064
102
}
330
4064
100
AcDbXrecord
280
     1
102
SHADEPLOT
 70
     0
102
SHADEPLOTRESLEVEL
 70
     2
102
SHADEPLOTCUSTOMDPI
 70
   300
  0
XRECORD
  5
4067
102
{ACAD_REACTORS
330
4066
102
}
330
4066
100
AcDbXrecord
280
     1
102
SHADEPLOT
 70
     0
102
SHADEPLOTRESLEVEL
 70
     2
102
SHADEPLOTCUSTOMDPI
 70
   300
  0
XRECORD
  5
4069
102
{ACAD_REACTORS
330
4068
102
}
330
4068
100
AcDbXrecord
280
     1
102
SHADEPLOT
 70
     0
102
SHADEPLOTRESLEVEL
 70
     2
102
SHADEPLOTCUSTOMDPI
 70
   300
  0
XRECORD
  5
406B
102
{ACAD_REACTORS
330
406A
102
}
330
406A
100
AcDbXrecord
280
     1
102
SHADEPLOT
 70
     0
102
SHADEPLOTRESLEVEL
 70
     2
102
SHADEPLOTCUSTOMDPI
 70
   300
  0
XRECORD
  5
406D
102
{ACAD_REACTORS
330
406C
102
}
330
406C
100
AcDbXrecord
280
     1
102
SHADEPLOT
 70
     0
102
SHADEPLOTRESLEVEL
 70
     2
102
SHADEPLOTCUSTOMDPI
 70
   300
  0
XRECORD
  5
406F
102
{ACAD_REACTORS
330
406E
102
}
330
406E
100
AcDbXrecord
280
     1
102
SHADEPLOT
 70
     0
102
SHADEPLOTRESLEVEL
 70
     2
102
SHADEPLOTCUSTOMDPI
 70
   300
  0
XRECORD
  5
4071
102
{ACAD_REACTORS
330
4070
102
}
330
4070
100
AcDbXrecord
280
     1
102
SHADEPLOT
 70
     0
102
SHADEPLOTRESLEVEL
 70
     2
102
SHADEPLOTCUSTOMDPI
 70
   300
  0
ENDSEC
  0
EOF
