  0
SECTION
  2
HEADER
  9
$ACADVER
  1
AC1015
  9
$ACADMAINTVER
 70
    20
  9
$DWGCODEPAGE
  3
ANSI_932
  9
$INSBASE
 10
0.0
 20
0.0
 30
0.0
  9
$EXTMIN
 10
292.2836403279607
 20
213.6950922265037
 30
-0.0000000000000006
  9
$EXTMAX
 10
763.6647510281354
 20
574.3816955666054
 30
0.0000000000000147
  9
$LIMMIN
 10
0.0
 20
0.0
  9
$LIMMAX
 10
853.5
 20
555.0000000000001
  9
$ORTHOMODE
 70
     1
  9
$REGENMODE
 70
     1
  9
$FILLMODE
 70
     1
  9
$QTEXTMODE
 70
     0
  9
$MIRRTEXT
 70
     1
  9
$LTSCALE
 40
3.0
  9
$ATTMODE
 70
     1
  9
$TEXTSIZE
 40
2.5
  9
$TRACEWID
 40
1.0
  9
$TEXTSTYLE
  7
STANDARD
  9
$CLAYER
  8
AM_0
  9
$CELTYPE
  6
ByLayer
  9
$CECOLOR
 62
   256
  9
$CELTSCALE
 40
1.0
  9
$DISPSILH
 70
     0
  9
$DIMSCALE
 40
1.0
  9
$DIMASZ
 40
2.5
  9
$DIMEXO
 40
1.0
  9
$DIMDLI
 40
8.0
  9
$DIMRND
 40
0.0
  9
$DIMDLE
 40
0.0
  9
$DIMEXE
 40
0.6
  9
$DIMTP
 40
0.1
  9
$DIMTM
 40
0.1
  9
$DIMTXT
 40
2.5
  9
$DIMCEN
 40
0.0
  9
$DIMTSZ
 40
0.0
  9
$DIMTOL
 70
     0
  9
$DIMLIM
 70
     0
  9
$DIMTIH
 70
     0
  9
$DIMTOH
 70
     0
  9
$DIMSE1
 70
     0
  9
$DIMSE2
 70
     0
  9
$DIMTAD
 70
     1
  9
$DIMZIN
 70
     8
  9
$DIMBLK
  1

  9
$DIMASO
 70
     1
  9
$DIMSHO
 70
     1
  9
$DIMPOST
  1

  9
$DIMAPOST
  1
"
  9
$DIMALT
 70
     0
  9
$DIMALTD
 70
     2
  9
$DIMALTF
 40
0.0393701
  9
$DIMLFAC
 40
1.0
  9
$DIMTOFL
 70
     1
  9
$DIMTVP
 40
0.0
  9
$DIMTIX
 70
     0
  9
$DIMSOXD
 70
     0
  9
$DIMSAH
 70
     0
  9
$DIMBLK1
  1

  9
$DIMBLK2
  1

  9
$DIMSTYLE
  2
AM_ISO
  9
$DIMCLRD
 70
   256
  9
$DIMCLRE
 70
   256
  9
$DIMCLRT
 70
     4
  9
$DIMTFAC
 40
0.71
  9
$DIMGAP
 40
0.8
  9
$DIMJUST
 70
     0
  9
$DIMSD1
 70
     0
  9
$DIMSD2
 70
     0
  9
$DIMTOLJ
 70
     0
  9
$DIMTZIN
 70
     8
  9
$DIMALTZ
 70
     0
  9
$DIMALTTZ
 70
     0
  9
$DIMUPT
 70
     0
  9
$DIMDEC
 70
     2
  9
$DIMTDEC
 70
     2
  9
$DIMALTU
 70
     2
  9
$DIMALTTD
 70
     2
  9
$DIMTXSTY
  7
STANDARD
  9
$DIMAUNIT
 70
     0
  9
$DIMADEC
 70
     0
  9
$DIMALTRND
 40
0.0
  9
$DIMAZIN
 70
     2
  9
$DIMDSEP
 70
    46
  9
$DIMATFIT
 70
     3
  9
$DIMFRAC
 70
     0
  9
$DIMLDRBLK
  1

  9
$DIMLUNIT
 70
     2
  9
$DIMLWD
 70
    -1
  9
$DIMLWE
 70
    -1
  9
$DIMTMOVE
 70
     0
  9
$LUNITS
 70
     2
  9
$LUPREC
 70
     2
  9
$SKETCHINC
 40
1.0
  9
$FILLETRAD
 40
5.0
  9
$AUNITS
 70
     0
  9
$AUPREC
 70
     0
  9
$MENU
  1
.
  9
$ELEVATION
 40
0.0
  9
$PELEVATION
 40
0.0
  9
$THICKNESS
 40
0.0
  9
$LIMCHECK
 70
     0
  9
$CHAMFERA
 40
6.0
  9
$CHAMFERB
 40
3.0
  9
$CHAMFERC
 40
20.0
  9
$CHAMFERD
 40
0.0
  9
$SKPOLY
 70
     0
  9
$TDCREATE
 40
2452065.605619213
  9
$TDUCREATE
 40
2452065.230619213
  9
$TDUPDATE
 40
2454770.778912396
  9
$TDUUPDATE
 40
2454770.403912396
  9
$TDINDWG
 40
0.4950271528
  9
$TDUSRTIMER
 40
0.4950269676
  9
$USRTIMER
 70
     1
  9
$ANGBASE
 50
0.0
  9
$ANGDIR
 70
     0
  9
$PDMODE
 70
     0
  9
$PDSIZE
 40
0.0
  9
$PLINEWID
 40
0.0
  9
$SPLFRAME
 70
     0
  9
$SPLINETYPE
 70
     6
  9
$SPLINESEGS
 70
     8
  9
$HANDSEED
  5
43D9
  9
$SURFTAB1
 70
     6
  9
$SURFTAB2
 70
     6
  9
$SURFTYPE
 70
     6
  9
$SURFU
 70
     6
  9
$SURFV
 70
     6
  9
$UCSBASE
  2

  9
$UCSNAME
  2

  9
$UCSORG
 10
0.0
 20
0.0
 30
0.0
  9
$UCSXDIR
 10
1.0
 20
0.0
 30
0.0
  9
$UCSYDIR
 10
0.0
 20
1.0
 30
0.0
  9
$UCSORTHOREF
  2

  9
$UCSORTHOVIEW
 70
     0
  9
$UCSORGTOP
 10
0.0
 20
0.0
 30
0.0
  9
$UCSORGBOTTOM
 10
0.0
 20
0.0
 30
0.0
  9
$UCSORGLEFT
 10
0.0
 20
0.0
 30
0.0
  9
$UCSORGRIGHT
 10
0.0
 20
0.0
 30
0.0
  9
$UCSORGFRONT
 10
0.0
 20
0.0
 30
0.0
  9
$UCSORGBACK
 10
0.0
 20
0.0
 30
0.0
  9
$PUCSBASE
  2

  9
$PUCSNAME
  2

  9
$PUCSORG
 10
0.0
 20
0.0
 30
0.0
  9
$PUCSXDIR
 10
1.0
 20
0.0
 30
0.0
  9
$PUCSYDIR
 10
0.0
 20
1.0
 30
0.0
  9
$PUCSORTHOREF
  2

  9
$PUCSORTHOVIEW
 70
     0
  9
$PUCSORGTOP
 10
0.0
 20
0.0
 30
0.0
  9
$PUCSORGBOTTOM
 10
0.0
 20
0.0
 30
0.0
  9
$PUCSORGLEFT
 10
0.0
 20
0.0
 30
0.0
  9
$PUCSORGRIGHT
 10
0.0
 20
0.0
 30
0.0
  9
$PUCSORGFRONT
 10
0.0
 20
0.0
 30
0.0
  9
$PUCSORGBACK
 10
0.0
 20
0.0
 30
0.0
  9
$USERI1
 70
     0
  9
$USERI2
 70
     0
  9
$USERI3
 70
     0
  9
$USERI4
 70
     0
  9
$USERI5
 70
     0
  9
$USERR1
 40
0.0
  9
$USERR2
 40
0.0
  9
$USERR3
 40
0.0
  9
$USERR4
 40
0.0
  9
$USERR5
 40
0.0
  9
$WORLDVIEW
 70
     1
  9
$SHADEDGE
 70
     3
  9
$SHADEDIF
 70
    70
  9
$TILEMODE
 70
     1
  9
$MAXACTVP
 70
    64
  9
$PINSBASE
 10
0.0
 20
0.0
 30
0.0
  9
$PLIMCHECK
 70
     0
  9
$PEXTMIN
 10
1.000000000000000E+20
 20
1.000000000000000E+20
 30
1.000000000000000E+20
  9
$PEXTMAX
 10
-1.000000000000000E+20
 20
-1.000000000000000E+20
 30
-1.000000000000000E+20
  9
$PLIMMIN
 10
0.0
 20
0.0
  9
$PLIMMAX
 10
420.0
 20
297.0
  9
$UNITMODE
 70
     0
  9
$VISRETAIN
 70
     1
  9
$PLINEGEN
 70
     0
  9
$PSLTSCALE
 70
     1
  9
$TREEDEPTH
 70
  3020
  9
$CMLSTYLE
  2
Standard
  9
$CMLJUST
 70
     0
  9
$CMLSCALE
 40
20.0
  9
$PROXYGRAPHICS
 70
     1
  9
$MEASUREMENT
 70
     1
  9
$CELWEIGHT
370
    -1
  9
$ENDCAPS
280
     0
  9
$JOINSTYLE
280
     0
  9
$LWDISPLAY
290
     0
  9
$INSUNITS
 70
     4
  9
$HYPERLINKBASE
  1

  9
$STYLESHEET
  1
acad1.ctb
  9
$XEDIT
290
     1
  9
$CEPSNTYPE
380
     0
  9
$PSTYLEMODE
290
     1
  9
$FINGERPRINTGUID
  2
{91B11402-3528-11D5-BE34-000255C217F4}
  9
$VERSIONGUID
  2
{F9B873CE-60EB-4967-8B36-2BCFC6E88407}
  9
$EXTNAMES
290
     1
  9
$PSVPSCALE
 40
0.0
  9
$OLESTARTUP
290
     0
  0
ENDSEC
  0
SECTION
  2
CLASSES
  0
CLASS
  1
ACDBDICTIONARYWDFLT
  2
AcDbDictionaryWithDefault
  3
ObjectDBX Classes
 90
        0
280
     0
281
     0
  0
CLASS
  1
ACDBPLACEHOLDER
  2
AcDbPlaceHolder
  3
ObjectDBX Classes
 90
        0
280
     0
281
     0
  0
CLASS
  1
LAYOUT
  2
AcDbLayout
  3
ObjectDBX Classes
 90
        0
280
     0
281
     0
  0
CLASS
  1
AMGSETTINGSOBJ
  2
AmgSettingsObj
  3
"AcadM|Product Description: AutoCAD Mechanical 2000|Company: Autodesk"
 90
        0
280
     0
281
     0
  0
CLASS
  1
ACME_DOCUMENT
  2
AcMeDbDoc
  3
AcMeServices
 90
        0
280
     0
281
     0
  0
CLASS
  1
ACMESCOPE
  2
AcMeScope
  3
AcMeServices
 90
        0
280
     0
281
     0
  0
CLASS
  1
ACMECOMMANDHISTORY
  2
AcMeCommandHistory
  3
AcMeServices
 90
        0
280
     0
281
     0
  0
CLASS
  1
DICTIONARYVAR
  2
AcDbDictionaryVar
  3
ObjectDBX Classes
 90
        0
280
     0
281
     0
  0
CLASS
  1
ACIMSYSVARMAN
  2
AcImSysVarManager
  3
AcMeServices
 90
        0
280
     0
281
     0
  0
CLASS
  1
ACIMREALSYSVAR
  2
AcImRealSysVar
  3
AcMeServices
 90
        0
280
     0
281
     0
  0
CLASS
  1
ACIMINTSYSVAR
  2
AcImIntSysVar
  3
AcMeServices
 90
        0
280
     0
281
     0
  0
CLASS
  1
ACMEDRAWINGMAN
  2
AcMeDrawingMan
  3
AcMeServices
 90
        0
280
     0
281
     0
  0
CLASS
  1
ACMEVIEW
  2
AcMeView
  3
AcMeServices
 90
        0
280
     0
281
     0
  0
CLASS
  1
ACDBENTITYCACHE
  2
AcMeEntityCache
  3
AcMeServices
 90
        0
280
     0
281
     0
  0
CLASS
  1
GSMANAGER
  2
AcMeGSManager
  3
AcMeServices
 90
        0
280
     0
281
     0
  0
CLASS
  1
AMDTINTERNALREACTOR
  2
AmdtInternalReactor
  3
AcMeServices
 90
        0
280
     0
281
     0
  0
CLASS
  1
ACMESTATEMGR
  2
AcMeStateMgr
  3
AcMeServices
 90
        0
280
     0
281
     0
  0
CLASS
  1
ACGREFMASTER
  2
AcGrefMaster
  3
AcAttribServices
 90
        0
280
     0
281
     0
  0
CLASS
  1
ACME_DATABASE
  2
AcMeDbDatabase
  3
AcMeServices
 90
        0
280
     0
281
     0
  0
CLASS
  1
ACRFINSADJUSTERMGR
  2
AcRfInsAdjusterMgr
  3
AcMeServices
 90
        0
280
     0
281
     0
  0
CLASS
  1
ACGREFACADMASTER
  2
AcGrefacadMaster
  3
AcGrefServices
 90
        0
280
     0
281
     0
  0
CLASS
  1
AMIMASTER
  2
AmiMaster
  3
AmiServices
 90
        0
280
     0
281
     0
  0
CLASS
  1
ACMDATADICTIONARY
  2
AcmDataDictionary
  3
"AcmSymBB|Product Description: AutoCAD Mechanical 2004 DX|Company: Autodesk"
 90
        0
280
     0
281
     0
  0
CLASS
  1
ACMDATAENTRYBLOCK
  2
AcmDataEntryBlock
  3
"AcmSymBB|Product Description: AutoCAD Mechanical 2004 DX|Company: Autodesk"
 90
        0
280
     0
281
     0
  0
CLASS
  1
ACIMSTRSYSVAR
  2
AcImStrSysVar
  3
AcMeServices
 90
        0
280
     0
281
     0
  0
CLASS
  1
ACMSTANDARDISO
  2
AcmStandardISO
  3
"Amdt_StdImp|Product Description: AutoCAD Mechanical 2004 DX|Company: Autodesk"
 90
        0
280
     0
281
     0
  0
CLASS
  1
AMGOBJPROPCFG
  2
AmgObjPropCfg
  3
"AmgLay|Product Description: AutoCAD Mechanical 2000|Company: Autodesk"
 90
        1
280
     0
281
     0
  0
CLASS
  1
AMDTEDGESTANDARDISO
  2
AmdtEdgeStdISO
  3
"Amdt_StdImp|Product Description: AutoCAD Mechanical 2004 DX|Company: Autodesk"
 90
        0
280
     0
281
     0
  0
CLASS
  1
ACMSURFSTANDARDISO
  2
AcmSurfTextStdISO
  3
"Amdt_StdImp|Product Description: AutoCAD Mechanical 2004 DX|Company: Autodesk"
 90
        0
280
     0
281
     0
  0
CLASS
  1
ACMFCFSTANDARDISO
  2
AcmFCFStdISO
  3
"Amdt_StdImp|Product Description: AutoCAD Mechanical 2004 DX|Company: Autodesk"
 90
        0
280
     0
281
     0
  0
CLASS
  1
ACMWELDSTANDARDISO
  2
AcmWeldingStdISO
  3
"Amdt_StdImp|Product Description: AutoCAD Mechanical 2004 DX|Company: Autodesk"
 90
        0
280
     0
281
     0
  0
CLASS
  1
ACMIDSTANDARDISO
  2
AcmIdStdISO
  3
"Amdt_StdImp|Product Description: AutoCAD Mechanical 2004 DX|Company: Autodesk"
 90
        0
280
     0
281
     0
  0
CLASS
  1
ACMDATUMSTANDARDISO
  2
AcmDatumStdISO
  3
"Amdt_StdImp|Product Description: AutoCAD Mechanical 2004 DX|Company: Autodesk"
 90
        0
280
     0
281
     0
  0
CLASS
  1
ACMBOMSTANDARDISO
  2
AcmBOMStdISO
  3
"Amdt_StdImp|Product Description: AutoCAD Mechanical 2004 DX|Company: Autodesk"
 90
        0
280
     0
281
     0
  0
CLASS
  1
ACMDETAILSTANDARDISO
  2
AmdtDetailSymStdISO
  3
"Amdt_StdImp|Product Description: AutoCAD Mechanical 2004 DX|Company: Autodesk"
 90
        0
280
     0
281
     0
  0
CLASS
  1
ACMSECTIONSTANDARDISO
  2
AmdtSectionSymStdISO
  3
"Amdt_StdImp|Product Description: AutoCAD Mechanical 2004 DX|Company: Autodesk"
 90
        0
280
     0
281
     0
  0
CLASS
  1
ACMCENTERLINESTANDARDISO
  2
AmdtCenterLineStdISO
  3
"Amdt_StdImp|Product Description: AutoCAD Mechanical 2004 DX|Company: Autodesk"
 90
        0
280
     0
281
     0
  0
CLASS
  1
ACAMGLAYSTD
  2
AcAmgLayStd
  3
"AcAmgLayStd|Product Description: AutoCAD Mechanical 2000|Company: Autodesk"
 90
        0
280
     0
281
     0
  0
CLASS
  1
ACAMGDIMSTD
  2
AcAmgDimStd
  3
"AcAmgDimStd|Product Description: AutoCAD Mechanical 2000|Company: Autodesk"
 90
        0
280
     0
281
     0
  0
CLASS
  1
ACAMGTITLESTD
  2
AcAmgTitleStd
  3
"TITLEAPP"
 90
        0
280
     0
281
     0
  0
CLASS
  1
ACAMGFILTERDAT
  2
AcAmgFilterDat
  3
"AcadM|Product Description: AutoCAD Mechanical 2000|Company: Autodesk"
 90
        0
280
     0
281
     0
  0
CLASS
  1
AMDTFORMULAUPDATEDISPATCHER
  2
AmdtFormulaUpdateDispatcher
  3
AcMeServices
 90
        0
280
     0
281
     0
  0
CLASS
  1
LAYER_INDEX
  2
AcDbLayerIndex
  3
ObjectDBX Classes
 90
    32768
280
     0
281
     0
  0
CLASS
  1
IDBUFFER
  2
AcDbIdBuffer
  3
ObjectDBX Classes
 90
    32768
280
     0
281
     0
  0
CLASS
  1
PLOTSETTINGS
  2
AcDbPlotSettings
  3
ObjectDBX Classes
 90
        0
280
     0
281
     0
  0
CLASS
  1
ACMSTANDARDANSI
  2
AcmStandardANSI
  3
"Amdt_StdImp|Product Description: AutoCAD Mechanical 2004 DX|Company: Autodesk"
 90
        0
280
     0
281
     0
  0
CLASS
  1
ACMSURFSTANDARDANSI
  2
AcmSurfTextStdANSI
  3
"Amdt_StdImp|Product Description: AutoCAD Mechanical 2004 DX|Company: Autodesk"
 90
        0
280
     0
281
     0
  0
CLASS
  1
ACMFCFSTANDARDANSI
  2
AcmFCFStdANSI
  3
"Amdt_StdImp|Product Description: AutoCAD Mechanical 2004 DX|Company: Autodesk"
 90
        0
280
     0
281
     0
  0
CLASS
  1
ACMWELDSTANDARDANSI
  2
AcmWeldingStdANSI
  3
"Amdt_StdImp|Product Description: AutoCAD Mechanical 2004 DX|Company: Autodesk"
 90
        0
280
     0
281
     0
  0
CLASS
  1
ACMIDSTANDARDANSI
  2
AcmIdStdANSI
  3
"Amdt_StdImp|Product Description: AutoCAD Mechanical 2004 DX|Company: Autodesk"
 90
        0
280
     0
281
     0
  0
CLASS
  1
ACMDATUMSTANDARDANSI
  2
AcmDatumStdANSI
  3
"Amdt_StdImp|Product Description: AutoCAD Mechanical 2004 DX|Company: Autodesk"
 90
        0
280
     0
281
     0
  0
CLASS
  1
ACMBOMSTANDARDANSI
  2
AcmBOMStdANSI
  3
"Amdt_StdImp|Product Description: AutoCAD Mechanical 2004 DX|Company: Autodesk"
 90
        0
280
     0
281
     0
  0
CLASS
  1
ACMDETAILSTANDARDANSI
  2
AmdtDetailSymStdANSI
  3
"Amdt_StdImp|Product Description: AutoCAD Mechanical 2004 DX|Company: Autodesk"
 90
        0
280
     0
281
     0
  0
CLASS
  1
ACMSECTIONSTANDARDANSI
  2
AmdtSectionSymStdANSI
  3
"Amdt_StdImp|Product Description: AutoCAD Mechanical 2004 DX|Company: Autodesk"
 90
        0
280
     0
281
     0
  0
CLASS
  1
ACMCENTERLINESTANDARDANSI
  2
AmdtCenterLineStdANSI
  3
"Amdt_StdImp|Product Description: AutoCAD Mechanical 2004 DX|Company: Autodesk"
 90
        0
280
     0
281
     0
  0
CLASS
  1
ACMSTANDARDJIS
  2
AcmStandardJIS
  3
"Amdt_StdImp|Product Description: AutoCAD Mechanical 2004 DX|Company: Autodesk"
 90
        0
280
     0
281
     0
  0
CLASS
  1
ACMSURFSTANDARDJIS
  2
AcmSurfTextStdJIS
  3
"Amdt_StdImp|Product Description: AutoCAD Mechanical 2004 DX|Company: Autodesk"
 90
        0
280
     0
281
     0
  0
CLASS
  1
ACMFCFSTANDARDJIS
  2
AcmFCFStdJIS
  3
"Amdt_StdImp|Product Description: AutoCAD Mechanical 2004 DX|Company: Autodesk"
 90
        0
280
     0
281
     0
  0
CLASS
  1
ACMWELDSTANDARDJIS
  2
AcmWeldingStdJIS
  3
"Amdt_StdImp|Product Description: AutoCAD Mechanical 2004 DX|Company: Autodesk"
 90
        0
280
     0
281
     0
  0
CLASS
  1
ACMIDSTANDARDJIS
  2
AcmIdStdJIS
  3
"Amdt_StdImp|Product Description: AutoCAD Mechanical 2004 DX|Company: Autodesk"
 90
        0
280
     0
281
     0
  0
CLASS
  1
ACMDATUMSTANDARDJIS
  2
AcmDatumStdJIS
  3
"Amdt_StdImp|Product Description: AutoCAD Mechanical 2004 DX|Company: Autodesk"
 90
        0
280
     0
281
     0
  0
CLASS
  1
ACMBOMSTANDARDJIS
  2
AcmBOMStdJIS
  3
"Amdt_StdImp|Product Description: AutoCAD Mechanical 2004 DX|Company: Autodesk"
 90
        0
280
     0
281
     0
  0
CLASS
  1
ACMDETAILSTANDARDJIS
  2
AmdtDetailSymStdJIS
  3
"Amdt_StdImp|Product Description: AutoCAD Mechanical 2004 DX|Company: Autodesk"
 90
        0
280
     0
281
     0
  0
CLASS
  1
ACMSECTIONSTANDARDJIS
  2
AmdtSectionSymStdJIS
  3
"Amdt_StdImp|Product Description: AutoCAD Mechanical 2004 DX|Company: Autodesk"
 90
        0
280
     0
281
     0
  0
CLASS
  1
ACMCENTERLINESTANDARDJIS
  2
AmdtCenterLineStdJIS
  3
"Amdt_StdImp|Product Description: AutoCAD Mechanical 2004 DX|Company: Autodesk"
 90
        0
280
     0
281
     0
  0
CLASS
  1
TABLESTYLE
  2
AcDbTableStyle
  3
ObjectDBX Classes
 90
     2047
280
     0
281
     0
  0
CLASS
  1
AM_DRAWING_MGR
  2
AcDmDwgMgr
  3
AcMechDwgViewMgmt
 90
        0
280
     0
281
     0
  0
CLASS
  1
AM_DWG_DOCUMENT
  2
AcDmDwgDocument
  3
AcMechDwgViewMgmt
 90
        0
280
     0
281
     0
  0
CLASS
  1
AM_DWG_SHEET
  2
AcDmSheet
  3
AcMechDwgViewMgmt
 90
        0
280
     0
281
     0
  0
CLASS
  1
AM_VIEWDIMPARMAP
  2
AcDmViewDimParMap
  3
AcMechDwgViewMgmt
 90
        0
280
     0
281
     0
  0
CLASS
  1
AM_DWGMGR_NAME
  2
AcDmDwgMgrName
  3
AcMechDwgViewMgmt
 90
        0
280
     0
281
     0
  0
CLASS
  1
AMDTMENUSTATEMGR
  2
AmdtMenuStateMgr
  3
McadcomServices
 90
        0
280
     0
281
     0
  0
CLASS
  1
AMDTMCOMMENUSTATE
  2
AmdtMcomMenuState
  3
McadcomServices
 90
        0
280
     0
281
     0
  0
CLASS
  1
MAPIAMMOUDLE
  2
MApiAmModule
  3
MApiAmServices
 90
        0
280
     0
281
     0
  0
CLASS
  1
AMDTADMENUSTATE
  2
AmdtAdMenuState
  3
DesignerServices
 90
        0
280
     0
281
     0
  0
CLASS
  1
ADAPPL
  2
AcAdAppl
  3
DesignerServices
 90
        0
280
     0
281
     0
  0
CLASS
  1
DEPMGR
  2
AcAdDepMgr
  3
DesignerServices
 90
        0
280
     0
281
     0
  0
CLASS
  1
PARAMMGR
  2
AcAdParamMgr
  3
DesignerServices
 90
        0
280
     0
281
     0
  0
CLASS
  1
PARAMSCOPE
  2
AcAdParamScope
  3
DesignerServices
 90
        0
280
     0
281
     0
  0
CLASS
  1
NAMEDAPPL
  2
AcAdNamedAppl
  3
DesignerServices
 90
        0
280
     0
281
     0
  0
CLASS
  1
AMDTDMMENUSTATE
  2
AmdtDmMenuState
  3
AcMechDwgViewMgmt
 90
        0
280
     0
281
     0
  0
CLASS
  1
AMDTAMMENUSTATE
  2
AmdtAmMenuState
  3
DesignerAssemblies
 90
        0
280
     0
281
     0
  0
CLASS
  1
ACAMPROJECT
  2
AcAmProject
  3
DesignerAssemblies
 90
        0
280
     0
281
     0
  0
CLASS
  1
ACAMGRCOMPDEF
  2
AcAmGrCompDef
  3
DesignerAssemblies
 90
        0
280
     0
281
     0
  0
CLASS
  1
ACCMCONTEXT
  2
AcCmContext
  3
DesignerAssemblies
 90
        0
280
     0
281
     0
  0
CLASS
  1
ACAMCOMPDEF
  2
AcAmCompDef
  3
DesignerAssemblies
 90
        0
280
     0
281
     0
  0
CLASS
  1
ACAMCOMPDEFMGR
  2
AcAmCompDefMgr
  3
DesignerAssemblies
 90
        0
280
     0
281
     0
  0
CLASS
  1
AMCONTEXTMGR
  2
AcAmContextMgr
  3
DesignerAssemblies
 90
        0
280
     0
281
     0
  0
CLASS
  1
ACAMCONTEXTMODELER
  2
AcAmContextModeler
  3
DesignerAssemblies
 90
        0
280
     0
281
     0
  0
CLASS
  1
ACMTHREADLINESTANDARDISO
  2
AmdtThreadLineStdISO
  3
"Amdt_StdImp|Product Description: AutoCAD Mechanical 2004 DX|Company: Autodesk"
 90
        0
280
     0
281
     0
  0
CLASS
  1
ACMNOTESTANDARDISO
  2
AmdtNoteStdISO
  3
"Amdt_StdImp|Product Description: AutoCAD Mechanical 2004 DX|Company: Autodesk"
 90
        0
280
     0
281
     0
  0
CLASS
  1
AMDTNOTETEMPLATEDB
  2
AmdtNoteTemplateDB
  3
AMDT_STDIMP_MODULE_NAME
 90
        0
280
     0
281
     0
  0
CLASS
  1
ACMTHREADLINESTANDARDANSI
  2
AmdtThreadLineStdANSI
  3
"Amdt_StdImp|Product Description: AutoCAD Mechanical 2004 DX|Company: Autodesk"
 90
        0
280
     0
281
     0
  0
CLASS
  1
ACMNOTESTANDARDANSI
  2
AmdtNoteStdANSI
  3
"Amdt_StdImp|Product Description: AutoCAD Mechanical 2004 DX|Company: Autodesk"
 90
        0
280
     0
281
     0
  0
CLASS
  1
ACMTHREADLINESTANDARDJIS
  2
AmdtThreadLineStdJIS
  3
"Amdt_StdImp|Product Description: AutoCAD Mechanical 2004 DX|Company: Autodesk"
 90
        0
280
     0
281
     0
  0
CLASS
  1
ACMNOTESTANDARDJIS
  2
AmdtNoteStdJIS
  3
"Amdt_StdImp|Product Description: AutoCAD Mechanical 2004 DX|Company: Autodesk"
 90
        0
280
     0
281
     0
  0
CLASS
  1
CATALOGSTATE
  2
AcAmCatalogState
  3
DesignerAssemblies
 90
        0
280
     0
281
     0
  0
CLASS
  1
ACAMGRCOMPDEFSET
  2
AcAmGrCompDefSet
  3
DesignerAssemblies
 90
        0
280
     0
281
     0
  0
CLASS
  1
AMDTBROWSERDBTAB
  2
AmdtBrowserDbTab
  3
McadcomServices
 90
        0
280
     0
281
     0
  0
CLASS
  1
CBROWSERAPPOBJECT
  2
CBrowserAppObject
  3
McadcomServices
 90
        0
280
     0
281
     0
  0
CLASS
  1
DM_PLACEHOLDER
  2
AcDmSelsetPlaceholder
  3
AcMechDwgViewMgmt
 90
        0
280
     0
281
     0
  0
CLASS
  1
DIMASSOC
  2
AcDbDimAssoc
  3
"AcDbDimAssoc|Product Desc:     AcDim ARX App For Dimension|Company:          Autodesk, Inc.|WEB Address:      www.autodesk.com"
 90
    32768
280
     0
281
     0
  0
CLASS
  1
SORTENTSTABLE
  2
AcDbSortentsTable
  3
ObjectDBX Classes
 90
        0
280
     0
281
     0
  0
CLASS
  1
STDPART2D
  2
AmgStdPart
  3
"AmgStdPart|Product Description: AutoCAD Mechanical 2000|Company: Autodesk"
 90
    33791
280
     0
281
     1
  0
CLASS
  1
AMDTNOTE
  2
AmdtNote
  3
"AcmSymBB|Product Description: AutoCAD Mechanical 2004 DX|Company: Autodesk"
 90
    33791
280
     0
281
     1
  0
CLASS
  1
MATERIAL
  2
AcDbMaterial
  3
ObjectDBX Classes
 90
        0
280
     0
281
     0
  0
CLASS
  1
ACMDATUMID
  2
AcmDatumId
  3
"AcmSymBB|Product Description: AutoCAD Mechanical 2004 DX|Company: Autodesk"
 90
    33791
280
     0
281
     1
  0
CLASS
  1
ACRFATTGENMGR
  2
AcRfAttGeneralMgr
  3
AcAttribServices
 90
        0
280
     0
281
     0
  0
ENDSEC
  0
SECTION
  2
TABLES
  0
TABLE
  2
VPORT
  5
8
330
0
100
AcDbSymbolTable
 70
     9
  0
VPORT
  5
43C2
330
8
100
AcDbSymbolTableRecord
100
AcDbViewportTableRecord
  2
*Active
 70
     0
 10
0.0
 20
0.0
 11
1.0
 21
1.0
 12
527.9741956780481
 22
394.0383938965546
 13
0.0
 23
0.0
 14
7.5
 24
7.5
 15
30.0
 25
30.0
 16
0.0
 26
0.0
 36
1.0
 17
0.0
 27
0.0
 37
0.0
 40
363.3289960385641
 41
1.475550122249388
 42
50.0
 43
0.0
 44
0.0
 50
0.0
 51
0.0
 71
     0
 72
   100
 73
     1
 74
     3
 75
     0
 76
     0
 77
     0
 78
     0
281
     0
 65
     1
110
0.0
120
0.0
130
0.0
111
1.0
121
0.0
131
0.0
112
0.0
122
1.0
132
0.0
 79
     0
146
0.0
  0
ENDTAB
  0
TABLE
  2
LTYPE
  5
5
330
0
100
AcDbSymbolTable
 70
    21
  0
LTYPE
  5
14
330
5
100
AcDbSymbolTableRecord
100
AcDbLinetypeTableRecord
  2
ByBlock
 70
     0
  3

 72
    65
 73
     0
 40
0.0
  0
LTYPE
  5
15
330
5
100
AcDbSymbolTableRecord
100
AcDbLinetypeTableRecord
  2
ByLayer
 70
     0
  3

 72
    65
 73
     0
 40
0.0
  0
LTYPE
  5
16
330
5
100
AcDbSymbolTableRecord
100
AcDbLinetypeTableRecord
  2
Continuous
 70
     0
  3
Solid line
 72
    65
 73
     0
 40
0.0
  0
LTYPE
  5
50
330
5
100
AcDbSymbolTableRecord
100
AcDbLinetypeTableRecord
  2
AM_ISO08W050
 70
     0
  3
____ . ____ . ____ . ____ . ____ . ____ . ____
 72
    65
 73
     4
 40
18.0
 49
12.0
 74
     0
 49
-1.5
 74
     0
 49
3.0
 74
     0
 49
-1.5
 74
     0
  0
LTYPE
  5
53
330
5
100
AcDbSymbolTableRecord
100
AcDbLinetypeTableRecord
  2
AM_ISO08W050x2
 70
     0
  3
__ . __ . __ . __ . __ . __
 72
    65
 73
     4
 40
9.0
 49
6.0
 74
     0
 49
-0.75
 74
     0
 49
1.5
 74
     0
 49
-0.75
 74
     0
  0
LTYPE
  5
6CA
330
5
100
AcDbSymbolTableRecord
100
AcDbLinetypeTableRecord
  2
GEN7
 70
     0
  3
____ . ____ . ____ . ____ . ____ . ____ . ____
 72
    65
 73
     4
 40
14.25
 49
9.75
 74
     0
 49
-1.5
 74
     0
 49
1.5
 74
     0
 49
-1.5
 74
     0
  0
LTYPE
  5
6D6
330
5
100
AcDbSymbolTableRecord
100
AcDbLinetypeTableRecord
  2
GEN3B
 70
     0
  3
 - - - - -
 72
    65
 73
     2
 40
1.0
 49
0.5
 74
     0
 49
-0.5
 74
     0
  0
LTYPE
  5
6D8
330
5
100
AcDbSymbolTableRecord
100
AcDbLinetypeTableRecord
  2
GEN7A
 70
     0
  3
__ . __ . __
 72
    65
 73
     4
 40
7.375
 49
4.75
 74
     0
 49
-0.875
 74
     0
 49
0.875
 74
     0
 49
-0.875
 74
     0
  0
ENDTAB
  0
TABLE
  2
LAYER
  5
2
102
{ACAD_XDICTIONARY
360
2D9C
102
}
330
0
100
AcDbSymbolTable
 70
    15
  0
LAYER
  5
10
330
2
100
AcDbSymbolTableRecord
100
AcDbLayerTableRecord
  2
0
 70
     0
 62
     7
  6
Continuous
370
    -3
390
F
  0
LAYER
  5
106
330
2
100
AcDbSymbolTableRecord
100
AcDbLayerTableRecord
  2
AM_5
 70
     0
 62
     2
  6
Continuous
370
    35
390
F
  0
LAYER
  5
124
330
2
100
AcDbSymbolTableRecord
100
AcDbLayerTableRecord
  2
Defpoints
 70
     0
 62
     7
  6
Continuous
290
     0
370
    -3
390
F
  0
LAYER
  5
6FC
330
2
100
AcDbSymbolTableRecord
100
AcDbLayerTableRecord
  2
ｶｸﾚｾﾝ2
 70
     0
 62
     3
  6
GEN3B
370
    -3
390
F
  0
LAYER
  5
6FE
330
2
100
AcDbSymbolTableRecord
100
AcDbLayerTableRecord
  2
ﾁｭｳｼﾝｾﾝ
 70
     0
 62
     1
  6
GEN7
370
    -3
390
F
  0
LAYER
  5
6FF
330
2
100
AcDbSymbolTableRecord
100
AcDbLayerTableRecord
  2
ﾁｭｳｼﾝｾﾝ1
 70
     0
 62
     1
  6
GEN7A
370
    -3
390
F
  0
LAYER
  5
71A
330
2
100
AcDbSymbolTableRecord
100
AcDbLayerTableRecord
  2
AM_7
 70
     0
 62
     1
  6
AM_ISO08W050
370
    25
390
F
  0
LAYER
  5
71D
330
2
100
AcDbSymbolTableRecord
100
AcDbLayerTableRecord
  2
AM_0
 70
     0
 62
     7
  6
Continuous
370
    50
390
F
  0
LAYER
  5
1A93
330
2
100
AcDbSymbolTableRecord
100
AcDbLayerTableRecord
  2
図面枠-ｷｲﾛ
 70
     0
 62
     2
  6
Continuous
370
    -3
390
F
  0
ENDTAB
  0
TABLE
  2
STYLE
  5
3
330
0
100
AcDbSymbolTable
 70
     8
  0
STYLE
  5
11
330
3
100
AcDbSymbolTableRecord
100
AcDbTextStyleTableRecord
  2
STANDARD
 70
     0
 40
0.0
 41
0.8299999999999998
 50
0.0
 71
     0
 42
2.5
  3
t.shx
  4
bigfont.shx
  0
ENDTAB
  0
TABLE
  2
VIEW
  5
6
330
0
100
AcDbSymbolTable
 70
     6
  0
VIEW
  5
C2
330
6
100
AcDbSymbolTableRecord
100
AcDbViewTableRecord
  2
AM_VIEW1
 70
     0
 40
277.5000000000001
 10
249.6477900552487
 20
416.2500000000001
 41
499.2955801104973
 11
0.0
 21
0.0
 31
1.0
 12
0.0
 22
0.0
 32
0.0
 42
50.0
 43
0.0
 44
0.0
 50
0.0
 71
     0
281
     0
 72
     0
  0
VIEW
  5
C3
330
6
100
AcDbSymbolTableRecord
100
AcDbViewTableRecord
  2
AM_VIEW2
 70
     0
 40
277.5000000000001
 10
603.8522099447513
 20
416.2500000000001
 41
499.2955801104973
 11
0.0
 21
0.0
 31
1.0
 12
0.0
 22
0.0
 32
0.0
 42
50.0
 43
0.0
 44
0.0
 50
0.0
 71
     0
281
     0
 72
     0
  0
VIEW
  5
C4
330
6
100
AcDbSymbolTableRecord
100
AcDbViewTableRecord
  2
AM_VIEW3
 70
     0
 40
277.5000000000001
 10
249.6477900552487
 20
138.75
 41
499.2955801104973
 11
0.0
 21
0.0
 31
1.0
 12
0.0
 22
0.0
 32
0.0
 42
50.0
 43
0.0
 44
0.0
 50
0.0
 71
     0
281
     0
 72
     0
  0
VIEW
  5
C5
330
6
100
AcDbSymbolTableRecord
100
AcDbViewTableRecord
  2
AM_VIEW4
 70
     0
 40
277.5000000000001
 10
603.8522099447513
 20
138.75
 41
499.2955801104973
 11
0.0
 21
0.0
 31
1.0
 12
0.0
 22
0.0
 32
0.0
 42
50.0
 43
0.0
 44
0.0
 50
0.0
 71
     0
281
     0
 72
     0
  0
VIEW
  5
C6
330
6
100
AcDbSymbolTableRecord
100
AcDbViewTableRecord
  2
AM_VIEW5
 70
     0
 40
277.5000000000001
 10
426.75
 20
277.5000000000001
 41
499.2955801104972
 11
0.0
 21
0.0
 31
1.0
 12
0.0
 22
0.0
 32
0.0
 42
50.0
 43
0.0
 44
0.0
 50
0.0
 71
     0
281
     0
 72
     0
  0
VIEW
  5
C7
330
6
100
AcDbSymbolTableRecord
100
AcDbViewTableRecord
  2
AM_VIEW6
 70
     0
 40
554.9944500000001
 10
426.75
 20
277.5
 41
998.5811743093925
 11
0.0
 21
0.0
 31
1.0
 12
0.0
 22
0.0
 32
0.0
 42
50.0
 43
0.0
 44
0.0
 50
0.0
 71
     0
281
     0
 72
     0
  0
ENDTAB
  0
TABLE
  2
UCS
  5
7
330
0
100
AcDbSymbolTable
 70
     0
  0
ENDTAB
  0
TABLE
  2
APPID
  5
9
330
0
100
AcDbSymbolTable
 70
    95
  0
APPID
  5
12
330
9
100
AcDbSymbolTableRecord
100
AcDbRegAppTableRecord
  2
ACAD
 70
     0
  0
APPID
  5
30
330
9
100
AcDbSymbolTableRecord
100
AcDbRegAppTableRecord
  2
MCAD_NO_VIS
 70
     0
  0
APPID
  5
31
330
9
100
AcDbSymbolTableRecord
100
AcDbRegAppTableRecord
  2
ACAD_TEMP_GRAPHIC
 70
     0
  0
APPID
  5
44
330
9
100
AcDbSymbolTableRecord
100
AcDbRegAppTableRecord
  2
ACATTRIBSERVICES
 70
     0
  0
APPID
  5
8D
330
9
100
AcDbSymbolTableRecord
100
AcDbRegAppTableRecord
  2
GENIUS_GENREC_14
 70
     0
  0
APPID
  5
8E
330
9
100
AcDbSymbolTableRecord
100
AcDbRegAppTableRecord
  2
GENIUS_GENOBJ-N-REC_13
 70
     0
  0
APPID
  5
8F
330
9
100
AcDbSymbolTableRecord
100
AcDbRegAppTableRecord
  2
GENIUS_GENODEF_13
 70
     0
  0
APPID
  5
BD
330
9
100
AcDbSymbolTableRecord
100
AcDbRegAppTableRecord
  2
GENIUS_GENOLIS_13
 70
     0
  0
APPID
  5
BE
330
9
100
AcDbSymbolTableRecord
100
AcDbRegAppTableRecord
  2
GENIUS_GENOBJ-N-TIT_13
 70
     0
  0
APPID
  5
BF
330
9
100
AcDbSymbolTableRecord
100
AcDbRegAppTableRecord
  2
GENIUS_GENOENT_13
 70
     0
  0
APPID
  5
C0
330
9
100
AcDbSymbolTableRecord
100
AcDbRegAppTableRecord
  2
GENIUS_GENTITLE_13
 70
     0
  0
APPID
  5
C1
330
9
100
AcDbSymbolTableRecord
100
AcDbRegAppTableRecord
  2
GENIUS_GENOREF_13
 70
     0
  0
APPID
  5
C8
330
9
100
AcDbSymbolTableRecord
100
AcDbRegAppTableRecord
  2
GENIUS_GENSCREG_15
 70
     0
  0
APPID
  5
C9
330
9
100
AcDbSymbolTableRecord
100
AcDbRegAppTableRecord
  2
GENIUS_GENOBJ-N-SDF_13
 70
     0
  0
APPID
  5
103
330
9
100
AcDbSymbolTableRecord
100
AcDbRegAppTableRecord
  2
GENIUS_GENFIL_13
 70
     0
  0
APPID
  5
104
330
9
100
AcDbSymbolTableRecord
100
AcDbRegAppTableRecord
  2
GENIUS_GENOBJ-N-CHA_13
 70
     0
  0
APPID
  5
13E
330
9
100
AcDbSymbolTableRecord
100
AcDbRegAppTableRecord
  2
GENIUS_GENDTOL_13
 70
     0
  0
APPID
  5
187
330
9
100
AcDbSymbolTableRecord
100
AcDbRegAppTableRecord
  2
GENIUS_GENOBJ-N-FIL_13
 70
     0
  0
APPID
  5
75A
330
9
100
AcDbSymbolTableRecord
100
AcDbRegAppTableRecord
  2
AD_DRAW
 70
     0
  0
APPID
  5
75B
330
9
100
AcDbSymbolTableRecord
100
AcDbRegAppTableRecord
  2
DESIGNERASSEMBLIES
 70
     0
  0
APPID
  5
75C
330
9
100
AcDbSymbolTableRecord
100
AcDbRegAppTableRecord
  2
ASURF_PCURVE_APPNAME
 70
     0
  0
APPID
  5
75D
330
9
100
AcDbSymbolTableRecord
100
AcDbRegAppTableRecord
  2
GENIUS_GE3SECT_13
 70
     0
  0
APPID
  5
75E
330
9
100
AcDbSymbolTableRecord
100
AcDbRegAppTableRecord
  2
GENIUS_GENCFG_13
 70
     0
  0
APPID
  5
75F
330
9
100
AcDbSymbolTableRecord
100
AcDbRegAppTableRecord
  2
GENIUS_GE3CFG0_13
 70
     0
  0
APPID
  5
760
330
9
100
AcDbSymbolTableRecord
100
AcDbRegAppTableRecord
  2
GENIUS_GENCFG0_13
 70
     0
  0
APPID
  5
761
330
9
100
AcDbSymbolTableRecord
100
AcDbRegAppTableRecord
  2
GENIUS_GENCFG1_13
 70
     0
  0
APPID
  5
762
330
9
100
AcDbSymbolTableRecord
100
AcDbRegAppTableRecord
  2
GENIUS_GENCFG2_13
 70
     0
  0
APPID
  5
763
330
9
100
AcDbSymbolTableRecord
100
AcDbRegAppTableRecord
  2
GENIUS_GENCFG3_13
 70
     0
  0
APPID
  5
764
330
9
100
AcDbSymbolTableRecord
100
AcDbRegAppTableRecord
  2
GENIUS_GENCFG4_13
 70
     0
  0
APPID
  5
765
330
9
100
AcDbSymbolTableRecord
100
AcDbRegAppTableRecord
  2
GENIUS_GEVCFG0_13
 70
     0
  0
APPID
  5
766
330
9
100
AcDbSymbolTableRecord
100
AcDbRegAppTableRecord
  2
GENIUS_GENHINW_13
 70
     0
  0
APPID
  5
767
330
9
100
AcDbSymbolTableRecord
100
AcDbRegAppTableRecord
  2
GENIUS_FIRSTVISTXT_14
 70
     0
  0
APPID
  5
768
330
9
100
AcDbSymbolTableRecord
100
AcDbRegAppTableRecord
  2
GENIUS_GENOBJ-N-LEADER_13
 70
     0
  0
APPID
  5
769
330
9
100
AcDbSymbolTableRecord
100
AcDbRegAppTableRecord
  2
GEV_VCCNULL_SWITCH_OFF
 70
     0
  0
APPID
  5
76A
330
9
100
AcDbSymbolTableRecord
100
AcDbRegAppTableRecord
  2
GENIUS_GEFCFG0_13
 70
     0
  0
APPID
  5
76B
330
9
100
AcDbSymbolTableRecord
100
AcDbRegAppTableRecord
  2
GENIUS_GENZVEED_13
 70
     0
  0
APPID
  5
76C
330
9
100
AcDbSymbolTableRecord
100
AcDbRegAppTableRecord
  2
GENIUS_GENSCREG_13
 70
     0
  0
APPID
  5
76D
330
9
100
AcDbSymbolTableRecord
100
AcDbRegAppTableRecord
  2
GENIUS_DUMCFG0_13
 70
     0
  0
APPID
  5
76E
330
9
100
AcDbSymbolTableRecord
100
AcDbRegAppTableRecord
  2
GEVID936201362
 70
     0
  0
APPID
  5
76F
330
9
100
AcDbSymbolTableRecord
100
AcDbRegAppTableRecord
  2
GEVDC
 70
     0
  0
APPID
  5
770
330
9
100
AcDbSymbolTableRecord
100
AcDbRegAppTableRecord
  2
GEVCON
 70
     0
  0
APPID
  5
771
330
9
100
AcDbSymbolTableRecord
100
AcDbRegAppTableRecord
  2
VCC
 70
     0
  0
APPID
  5
772
330
9
100
AcDbSymbolTableRecord
100
AcDbRegAppTableRecord
  2
GEVPT
 70
     0
  0
APPID
  5
773
330
9
100
AcDbSymbolTableRecord
100
AcDbRegAppTableRecord
  2
GEVIT
 70
     0
  0
APPID
  5
774
330
9
100
AcDbSymbolTableRecord
100
AcDbRegAppTableRecord
  2
GENBH
 70
     0
  0
APPID
  5
775
330
9
100
AcDbSymbolTableRecord
100
AcDbRegAppTableRecord
  2
GEVMK
 70
     0
  0
APPID
  5
776
330
9
100
AcDbSymbolTableRecord
100
AcDbRegAppTableRecord
  2
GENIUS_GENBH_13
 70
     0
  0
APPID
  5
777
330
9
100
AcDbSymbolTableRecord
100
AcDbRegAppTableRecord
  2
GENIUS_GENOBJ-NBEHI-BHF_13
 70
     0
  0
APPID
  5
778
330
9
100
AcDbSymbolTableRecord
100
AcDbRegAppTableRecord
  2
GENIUS_GENOBJ-NBEHI-BHB_13
 70
     0
  0
APPID
  5
779
330
9
100
AcDbSymbolTableRecord
100
AcDbRegAppTableRecord
  2
GENIUS_GENOBJ-F-DESC_13
 70
     0
  0
APPID
  5
77A
330
9
100
AcDbSymbolTableRecord
100
AcDbRegAppTableRecord
  2
GENIUS_GEFDESC_14
 70
     0
  0
APPID
  5
77B
330
9
100
AcDbSymbolTableRecord
100
AcDbRegAppTableRecord
  2
GENIUS_GENOBJ-F-PART_13
 70
     0
  0
APPID
  5
77C
330
9
100
AcDbSymbolTableRecord
100
AcDbRegAppTableRecord
  2
GENIUS_GEFSTDP_13
 70
     0
  0
APPID
  5
77D
330
9
100
AcDbSymbolTableRecord
100
AcDbRegAppTableRecord
  2
GENIUS_GEFPARTINS_13
 70
     0
  0
APPID
  5
77E
330
9
100
AcDbSymbolTableRecord
100
AcDbRegAppTableRecord
  2
GENIUS_GENTRA_14
 70
     0
  0
APPID
  5
77F
330
9
100
AcDbSymbolTableRecord
100
AcDbRegAppTableRecord
  2
GENIUS_GENINF13_13
 70
     0
  0
APPID
  5
780
330
9
100
AcDbSymbolTableRecord
100
AcDbRegAppTableRecord
  2
GENIUS_GENOBJ-N-INFOPT_13
 70
     0
  0
APPID
  5
781
330
9
100
AcDbSymbolTableRecord
100
AcDbRegAppTableRecord
  2
GENIUS_GENOBJ-N-RSSYM_13
 70
     0
  0
APPID
  5
782
330
9
100
AcDbSymbolTableRecord
100
AcDbRegAppTableRecord
  2
GENIUS_GENSYMENT_13
 70
     0
  0
APPID
  5
783
330
9
100
AcDbSymbolTableRecord
100
AcDbRegAppTableRecord
  2
GENIUS_GENSCSYM_13
 70
     0
  0
APPID
  5
784
330
9
100
AcDbSymbolTableRecord
100
AcDbRegAppTableRecord
  2
GENIUS_GEFINFNAM_13
 70
     0
  0
APPID
  5
785
330
9
100
AcDbSymbolTableRecord
100
AcDbRegAppTableRecord
  2
GENIUS_GENOBJ-N-CEN_13
 70
     0
  0
APPID
  5
786
330
9
100
AcDbSymbolTableRecord
100
AcDbRegAppTableRecord
  2
GENIUS_GENOBJ-N-CRS_13
 70
     0
  0
APPID
  5
787
330
9
100
AcDbSymbolTableRecord
100
AcDbRegAppTableRecord
  2
GENIUS_GENOBJ-N-CRC_13
 70
     0
  0
APPID
  5
788
330
9
100
AcDbSymbolTableRecord
100
AcDbRegAppTableRecord
  2
GENIUS_GENCRC_14
 70
     0
  0
APPID
  5
789
330
9
100
AcDbSymbolTableRecord
100
AcDbRegAppTableRecord
  2
GEVID942827039
 70
     0
  0
APPID
  5
78A
330
9
100
AcDbSymbolTableRecord
100
AcDbRegAppTableRecord
  2
GEVID942827040
 70
     0
  0
APPID
  5
78B
330
9
100
AcDbSymbolTableRecord
100
AcDbRegAppTableRecord
  2
GEVID942827041
 70
     0
  0
APPID
  5
78C
330
9
100
AcDbSymbolTableRecord
100
AcDbRegAppTableRecord
  2
GENIUS_GENOBJ-F-SCPASSM_13
 70
     0
  0
APPID
  5
78D
330
9
100
AcDbSymbolTableRecord
100
AcDbRegAppTableRecord
  2
GENIUS_GENDIMSH_14
 70
     0
  0
APPID
  5
78E
330
9
100
AcDbSymbolTableRecord
100
AcDbRegAppTableRecord
  2
GEVID942827042
 70
     0
  0
APPID
  5
78F
330
9
100
AcDbSymbolTableRecord
100
AcDbRegAppTableRecord
  2
GEVID946020473
 70
     0
  0
APPID
  5
790
330
9
100
AcDbSymbolTableRecord
100
AcDbRegAppTableRecord
  2
GEVID946020474
 70
     0
  0
APPID
  5
791
330
9
100
AcDbSymbolTableRecord
100
AcDbRegAppTableRecord
  2
GEVID946020475
 70
     0
  0
APPID
  5
792
330
9
100
AcDbSymbolTableRecord
100
AcDbRegAppTableRecord
  2
GENIUS_GENOBJ-N-HTC_13
 70
     0
  0
APPID
  5
793
330
9
100
AcDbSymbolTableRecord
100
AcDbRegAppTableRecord
  2
GENIUS_GENHATCH_13
 70
     0
  0
APPID
  5
794
330
9
100
AcDbSymbolTableRecord
100
AcDbRegAppTableRecord
  2
GEVID948854295
 70
     0
  0
APPID
  5
795
330
9
100
AcDbSymbolTableRecord
100
AcDbRegAppTableRecord
  2
GEVID939402019
 70
     0
  0
APPID
  5
796
330
9
100
AcDbSymbolTableRecord
100
AcDbRegAppTableRecord
  2
GEVID952919491
 70
     0
  0
APPID
  5
797
330
9
100
AcDbSymbolTableRecord
100
AcDbRegAppTableRecord
  2
GEVID952919492
 70
     0
  0
APPID
  5
798
330
9
100
AcDbSymbolTableRecord
100
AcDbRegAppTableRecord
  2
GENIUS_GEFWELD_13
 70
     0
  0
APPID
  5
799
330
9
100
AcDbSymbolTableRecord
100
AcDbRegAppTableRecord
  2
GENIUS_GENOBJ-F-WELS_13
 70
     0
  0
APPID
  5
79A
330
9
100
AcDbSymbolTableRecord
100
AcDbRegAppTableRecord
  2
GEVID952919493
 70
     0
  0
APPID
  5
79B
330
9
100
AcDbSymbolTableRecord
100
AcDbRegAppTableRecord
  2
GENIUS_GENOBJ-N-RSBK_13
 70
     0
  0
APPID
  5
79C
330
9
100
AcDbSymbolTableRecord
100
AcDbRegAppTableRecord
  2
GENIUS_GENOBJ-N-LIB_13
 70
     0
  0
APPID
  5
79D
330
9
100
AcDbSymbolTableRecord
100
AcDbRegAppTableRecord
  2
GENIUS_GENSCALE_13
 70
     0
  0
APPID
  5
79E
330
9
100
AcDbSymbolTableRecord
100
AcDbRegAppTableRecord
  2
GEVID986376691
 70
     0
  0
APPID
  5
79F
330
9
100
AcDbSymbolTableRecord
100
AcDbRegAppTableRecord
  2
DCO15
 70
     0
  0
APPID
  5
1A97
330
9
100
AcDbSymbolTableRecord
100
AcDbRegAppTableRecord
  2
GEVID988070561
 70
     0
  0
APPID
  5
1A98
330
9
100
AcDbSymbolTableRecord
100
AcDbRegAppTableRecord
  2
GEVID988070562
 70
     0
  0
APPID
  5
1A99
330
9
100
AcDbSymbolTableRecord
100
AcDbRegAppTableRecord
  2
GEVID988070563
 70
     0
  0
APPID
  5
2201
330
9
100
AcDbSymbolTableRecord
100
AcDbRegAppTableRecord
  2
ACADM_DIM_EDIT
 70
     0
  0
APPID
  5
2202
330
9
100
AcDbSymbolTableRecord
100
AcDbRegAppTableRecord
  2
AMDT_DM_ADJ
 70
     0
  0
APPID
  5
222C
330
9
100
AcDbSymbolTableRecord
100
AcDbRegAppTableRecord
  2
ACAD_PSEXT
 70
     0
  0
APPID
  5
222D
330
9
100
AcDbSymbolTableRecord
100
AcDbRegAppTableRecord
  2
GENIUS_GENCEN_19
 70
     0
  0
ENDTAB
  0
TABLE
  2
DIMSTYLE
  5
A
330
0
100
AcDbSymbolTable
 70
    16
100
AcDbDimStyleTable
 71
     1
340
6C
  0
DIMSTYLE
105
6C
330
A
100
AcDbSymbolTableRecord
100
AcDbDimStyleTableRecord
  2
AM_ISO
 70
     0
  4
"
 41
2.5
 42
1.0
 43
8.0
 44
0.6
 47
0.1
 48
0.1
 73
     0
 74
     0
 77
     1
 78
     8
 79
     2
140
2.5
141
0.0
143
0.0393701
146
0.71
147
0.8
172
     1
176
   256
177
   256
178
     4
271
     2
272
     2
283
     0
284
     8
340
11
371
    -1
372
    -1
  0
DIMSTYLE
105
740
330
A
100
AcDbSymbolTableRecord
100
AcDbDimStyleTableRecord
  2
STANDARD
 70
     0
340
11
  0
ENDTAB
  0
TABLE
  2
BLOCK_RECORD
  5
1
330
0
100
AcDbSymbolTable
 70
    49
  0
BLOCK_RECORD
  5
1F
102
{ACAD_XDICTIONARY
360
CC
102
}
330
1
100
AcDbSymbolTableRecord
100
AcDbBlockTableRecord
  2
*Model_Space
340
22
  0
BLOCK_RECORD
  5
1B
330
1
100
AcDbSymbolTableRecord
100
AcDbBlockTableRecord
  2
*Paper_Space
340
1E
  0
BLOCK_RECORD
  5
23
330
1
100
AcDbSymbolTableRecord
100
AcDbBlockTableRecord
  2
*Paper_Space0
340
26
  0
ENDTAB
  0
ENDSEC
  0
SECTION
  2
BLOCKS
  0
BLOCK
  5
20
330
1F
100
AcDbEntity
  8
0
100
AcDbBlockBegin
  2
*Model_Space
 70
     0
 10
0.0
 20
0.0
 30
0.0
  3
*Model_Space
  1

  0
ENDBLK
  5
21
330
1F
100
AcDbEntity
  8
0
100
AcDbBlockEnd
  0
BLOCK
  5
1C
330
1B
100
AcDbEntity
 67
     1
  8
0
100
AcDbBlockBegin
  2
*Paper_Space
 70
     0
 10
0.0
 20
0.0
 30
0.0
  3
*Paper_Space
  1

  0
ENDBLK
  5
1D
330
1B
100
AcDbEntity
 67
     1
  8
0
100
AcDbBlockEnd
  0
BLOCK
  5
24
330
23
100
AcDbEntity
  8
0
100
AcDbBlockBegin
  2
*Paper_Space0
 70
     0
 10
0.0
 20
0.0
 30
0.0
  3
*Paper_Space0
  1

  0
ENDBLK
  5
25
330
23
100
AcDbEntity
  8
0
100
AcDbBlockEnd
  0
ENDSEC
  0
SECTION
  2
ENTITIES
  0
LINE
  5
2E88
330
1F
100
AcDbEntity
  8
0
  6
Continuous
 62
     7
100
AcDbLine
 10
376.8381477963556
 20
348.9755883369534
 30
0.0
 11
376.8381477963556
 21
220.9755883369535
 31
0.0
  0
LINE
  5
2E8A
330
1F
100
AcDbEntity
  8
0
  6
Continuous
 62
     7
100
AcDbLine
 10
301.3381688760293
 20
314.9540503369535
 30
0.0
 11
301.3381688760293
 21
254.9540503369535
 31
0.0
  0
LINE
  5
2E8B
330
1F
100
AcDbEntity
  8
0
100
AcDbLine
 10
344.1292869843217
 20
316.4698871087074
 30
0.0
 11
301.3381688760293
 21
314.9755883369535
 31
0.0
  0
LINE
  5
2E8C
330
1F
100
AcDbEntity
  8
0
100
AcDbLine
 10
368.7683488029504
 20
348.69378474646
 30
0.0
 11
376.8381477963556
 21
348.9755883369534
 31
0.0
  0
LINE
  5
2E8D
330
1F
100
AcDbEntity
  8
0
100
AcDbLine
 10
366.8381477963555
 20
346.6950030924218
 30
0.0
 11
366.8381477963587
 21
223.2561735814851
 31
0.0
  0
ARC
  5
2E8E
330
1F
100
AcDbEntity
  8
0
100
AcDbCircle
 10
368.8381477963555
 20
346.6950030924218
 30
0.0
 40
2.0
100
AcDbArc
 50
92.00000000000047
 51
180.0
1001
GENIUS_GENOBJ-N-FIL_13
1002
{
1000
OWNER
1000
GEN
1002
}
1001
GENIUS_GENODEF_13
1002
{
1000
HIER
1070
     0
1002
}
1002
{
1000
MANEDIT
1070
     0
1002
}
1002
{
1000
NOSEL
1070
     0
1002
}
1002
{
1000
BEHIND
1070
     0
1002
}
1002
{
1000
OTHER
1070
     0
1002
}
1002
{
1000
REACTOR
1002
}
  0
ARC
  5
2E8F
330
1F
100
AcDbEntity
  8
0
100
AcDbCircle
 10
361.8381477963556
 20
344.5466561488189
 30
0.0
 40
5.0
100
AcDbArc
 50
315.0
 51
0.0
1001
GENIUS_GENOBJ-N-FIL_13
1002
{
1000
OWNER
1000
GEN
1002
}
1001
GENIUS_GENODEF_13
1002
{
1000
HIER
1070
     0
1002
}
1002
{
1000
MANEDIT
1070
     0
1002
}
1002
{
1000
NOSEL
1070
     0
1002
}
1002
{
1000
BEHIND
1070
     0
1002
}
1002
{
1000
OTHER
1070
     0
1002
}
1002
{
1000
REACTOR
1002
}
  0
LINE
  5
2E90
330
1F
100
AcDbEntity
  8
0
100
AcDbLine
 10
342.1058363665095
 20
317.7432769071071
 30
0.0
 11
365.3736817022883
 21
341.0111222428861
 31
0.0
  0
ARC
  5
2E91
330
1F
100
AcDbEntity
  8
0
100
AcDbCircle
 10
338.5703024605767
 20
321.2788108130397
 30
0.0
 40
5.0
100
AcDbArc
 50
272.0000000000005
 51
315.0
1001
GENIUS_GENOBJ-N-FIL_13
1002
{
1000
OWNER
1000
GEN
1002
}
1001
GENIUS_GENODEF_13
1002
{
1000
HIER
1070
     0
1002
}
1002
{
1000
MANEDIT
1070
     0
1002
}
1002
{
1000
NOSEL
1070
     0
1002
}
1002
{
1000
BEHIND
1070
     0
1002
}
1002
{
1000
OTHER
1070
     0
1002
}
1002
{
1000
REACTOR
1002
}
  0
LINE
  5
2E93
330
1F
100
AcDbEntity
  8
0
100
AcDbLine
 10
344.1292869843218
 20
253.4812895651993
 30
0.0
 11
301.3381688760293
 21
254.9755883369534
 31
0.0
  0
LINE
  5
2E94
330
1F
100
AcDbEntity
  8
0
100
AcDbLine
 10
368.7683488029504
 20
221.2573919274468
 30
0.0
 11
376.8381477963556
 21
220.9755883369535
 31
0.0
  0
ARC
  5
2E96
330
1F
100
AcDbEntity
  8
0
100
AcDbCircle
 10
368.8381477963555
 20
223.2561735814851
 30
0.0
 40
2.0
100
AcDbArc
 50
180.0
 51
267.9999999999995
1001
GENIUS_GENOBJ-N-FIL_13
1002
{
1000
OWNER
1000
GEN
1002
}
1001
GENIUS_GENODEF_13
1002
{
1000
HIER
1070
     0
1002
}
1002
{
1000
MANEDIT
1070
     0
1002
}
1002
{
1000
NOSEL
1070
     0
1002
}
1002
{
1000
BEHIND
1070
     0
1002
}
1002
{
1000
OTHER
1070
     0
1002
}
1002
{
1000
REACTOR
1002
}
  0
ARC
  5
2E97
330
1F
100
AcDbEntity
  8
0
100
AcDbCircle
 10
361.8381477963556
 20
225.4045205250879
 30
0.0
 40
5.0
100
AcDbArc
 50
0.0
 51
45.0
1001
GENIUS_GENOBJ-N-FIL_13
1002
{
1000
OWNER
1000
GEN
1002
}
1001
GENIUS_GENODEF_13
1002
{
1000
HIER
1070
     0
1002
}
1002
{
1000
MANEDIT
1070
     0
1002
}
1002
{
1000
NOSEL
1070
     0
1002
}
1002
{
1000
BEHIND
1070
     0
1002
}
1002
{
1000
OTHER
1070
     0
1002
}
1002
{
1000
REACTOR
1002
}
  0
LINE
  5
2E98
330
1F
100
AcDbEntity
  8
0
100
AcDbLine
 10
342.1058363665095
 20
252.2078997667998
 30
0.0
 11
365.3736817022883
 21
228.9400544310207
 31
0.0
  0
ARC
  5
2E99
330
1F
100
AcDbEntity
  8
0
100
AcDbCircle
 10
338.5703024605767
 20
248.6723658608671
 30
0.0
 40
5.0
100
AcDbArc
 50
45.0
 51
87.99999999999952
1001
GENIUS_GENOBJ-N-FIL_13
1002
{
1000
OWNER
1000
GEN
1002
}
1001
GENIUS_GENODEF_13
1002
{
1000
HIER
1070
     0
1002
}
1002
{
1000
MANEDIT
1070
     0
1002
}
1002
{
1000
NOSEL
1070
     0
1002
}
1002
{
1000
BEHIND
1070
     0
1002
}
1002
{
1000
OTHER
1070
     0
1002
}
1002
{
1000
REACTOR
1002
}
  0
ARC
  5
2E9C
330
1F
100
AcDbEntity
  8
図面枠-ｷｲﾛ
100
AcDbCircle
 10
426.7398201596368
 20
284.9755883369535
 30
0.0
 40
81.58989117312721
100
AcDbArc
 50
162.1810811943905
 51
197.8189188056095
  0
ARC
  5
2E9F
330
1F
100
AcDbEntity
  8
図面枠-ｷｲﾛ
100
AcDbCircle
 10
344.3037844678343
 20
311.4729329736121
 30
0.0
 40
5.0
100
AcDbArc
 50
342.1810811943907
 51
92.00000000000043
1001
GENIUS_GENODEF_13
1002
{
1000
HIER
1070
     0
1002
}
1002
{
1000
MANEDIT
1070
     0
1002
}
1002
{
1000
NOSEL
1070
     0
1002
}
1002
{
1000
BEHIND
1070
     0
1002
}
1002
{
1000
OTHER
1070
     0
1002
}
1002
{
1000
REACTOR
1002
}
1001
GENIUS_GENOBJ-N-FIL_13
1002
{
1000
OWNER
1000
GEN
1002
}
  0
ARC
  5
2EA1
330
1F
100
AcDbEntity
  8
図面枠-ｷｲﾛ
100
AcDbCircle
 10
344.3037844678343
 20
258.4782437002948
 30
0.0
 40
5.0
100
AcDbArc
 50
267.9999999999996
 51
17.81891880560928
1001
GENIUS_GENOBJ-N-FIL_13
1002
{
1000
OWNER
1000
GEN
1002
}
1001
GENIUS_GENODEF_13
1002
{
1000
HIER
1070
     0
1002
}
1002
{
1000
MANEDIT
1070
     0
1002
}
1002
{
1000
NOSEL
1070
     0
1002
}
1002
{
1000
BEHIND
1070
     0
1002
}
1002
{
1000
OTHER
1070
     0
1002
}
1002
{
1000
REACTOR
1002
}
  0
LINE
  5
329A
330
1F
100
AcDbEntity
  8
AM_0
100
AcDbLine
 10
482.3380977963556
 20
314.9755883369534
 30
0.0
 11
504.3381477963555
 21
314.9755883369534
 31
0.0
  0
LINE
  5
329B
330
1F
100
AcDbEntity
  8
AM_0
100
AcDbLine
 10
474.3381477963556
 20
291.9755873369534
 30
0.0
 11
476.3380977963556
 21
291.9755873369534
 31
0.0
  0
LINE
  5
329C
330
1F
100
AcDbEntity
  8
AM_0
100
AcDbLine
 10
474.3381477963556
 20
311.9755883369534
 30
0.0
 11
476.3380977963556
 21
311.9755883369534
 31
0.0
  0
LINE
  5
329D
330
1F
100
AcDbEntity
  8
AM_0
100
AcDbLine
 10
476.3380977963556
 20
311.9755883369534
 30
0.0
 11
476.3380977963556
 21
301.9755893369534
 31
0.0
  0
LINE
  5
329E
330
1F
100
AcDbEntity
  8
ﾁｭｳｼﾝｾﾝ
100
AcDbLine
 10
755.0659321791063
 20
284.9755883369535
 30
0.0
 11
632.5740031791062
 21
284.9755883369535
 31
0.0
  0
LINE
  5
329F
330
1F
100
AcDbEntity
  8
ﾁｭｳｼﾝｾﾝ
100
AcDbLine
 10
667.5818311791062
 20
301.9755893369534
 30
0.0
 11
717.9915151791062
 21
301.9755893369534
 31
0.0
  0
LINE
  5
32A0
330
1F
100
AcDbEntity
  8
ﾁｭｳｼﾝｾﾝ
100
AcDbLine
 10
693.3310981791062
 20
213.7080833369534
 30
0.0
 11
693.3310981791062
 21
349.7961198603598
 31
0.0
  0
LINE
  5
32A1
330
1F
100
AcDbEntity
  8
ﾁｭｳｼﾝｾﾝ
100
AcDbLine
 10
293.8198745066263
 20
284.9755883369535
 30
0.0
 11
407.4596888145364
 21
284.9755883369535
 31
0.0
  0
LINE
  5
32A2
330
1F
100
AcDbEntity
  8
AM_0
100
AcDbLine
 10
476.3380977963556
 20
291.9755873369534
 30
0.0
 11
476.3380977963556
 21
301.9755893369534
 31
0.0
  0
LINE
  5
32A3
330
1F
100
AcDbEntity
  8
ﾁｭｳｼﾝｾﾝ1
 48
0.5
100
AcDbLine
 10
401.3381277963556
 20
214.7975282578526
 30
0.0
 11
401.3381277963556
 21
228.6766739384773
 31
0.0
  0
LINE
  5
32A4
330
1F
100
AcDbEntity
  8
ﾁｭｳｼﾝｾﾝ1
 48
0.5
100
AcDbLine
 10
464.3380977963556
 20
214.7975282578526
 30
0.0
 11
464.3380977963556
 21
228.6766739384773
 31
0.0
  0
LINE
  5
32A5
330
1F
100
AcDbEntity
  8
ﾁｭｳｼﾝｾﾝ
100
AcDbLine
 10
402.9887277963555
 20
301.9755893369534
 30
0.0
 11
506.0716677963556
 21
301.9755893369534
 31
0.0
  0
LINE
  5
32A6
330
1F
100
AcDbEntity
  8
AM_0
100
AcDbLine
 10
504.3381477963555
 20
292.4755883369535
 30
0.0
 11
504.3381477963555
 21
314.9755883369534
 31
0.0
  0
LINE
  5
32A7
330
1F
100
AcDbEntity
  8
AM_0
100
AcDbLine
 10
476.3380977963556
 20
292.4755883369535
 30
0.0
 11
504.3381477963555
 21
292.4755883369535
 31
0.0
  0
LINE
  5
32A8
330
1F
100
AcDbEntity
  8
AM_0
100
AcDbLine
 10
476.3380977963556
 20
311.4755873369534
 30
0.0
 11
504.3381477963555
 21
311.4755873369534
 31
0.0
  0
LINE
  5
32A9
330
1F
100
AcDbEntity
  8
AM_0
100
AcDbLine
 10
696.3310981791062
 20
313.9755893369534
 30
0.0
 11
690.3310981791062
 21
313.9755893369534
 31
0.0
  0
LINE
  5
32AA
330
1F
100
AcDbEntity
  8
AM_0
100
AcDbLine
 10
696.3310981791062
 20
307.9755893369534
 30
0.0
 11
696.3310981791062
 21
313.9755893369534
 31
0.0
  0
LINE
  5
32AB
330
1F
100
AcDbEntity
  8
AM_0
100
AcDbLine
 10
690.3310981791062
 20
307.9755893369534
 30
0.0
 11
696.3310981791062
 21
307.9755893369534
 31
0.0
  0
LINE
  5
32AC
330
1F
100
AcDbEntity
  8
AM_0
100
AcDbLine
 10
690.3310981791062
 20
313.9755893369534
 30
0.0
 11
690.3310981791062
 21
307.9755893369534
 31
0.0
  0
LINE
  5
32AD
330
1F
100
AcDbEntity
  8
AM_0
100
AcDbLine
 10
414.3381477963556
 20
344.9756033369535
 30
0.0
 11
414.3381477963556
 21
234.9756023369535
 31
0.0
  0
LINE
  5
32AE
330
1F
100
AcDbEntity
  8
AM_0
100
AcDbLine
 10
426.3381477963555
 20
329.6010533369534
 30
0.0
 11
426.3381477963555
 21
317.0540483369534
 31
0.0
  0
LINE
  5
32AF
330
1F
100
AcDbEntity
  8
AM_0
100
AcDbLine
 10
748.3123621791062
 20
320.4407993369534
 30
0.0
 11
748.3123621791062
 21
326.2142963369534
 31
0.0
  0
LINE
  5
32B0
330
1F
100
AcDbEntity
  8
AM_0
100
AcDbLine
 10
743.3123791791063
 20
317.5540493369534
 30
0.0
 11
748.3123771791063
 21
320.4408293369534
 31
0.0
  0
LINE
  5
32B1
330
1F
100
AcDbEntity
  8
AM_0
100
AcDbLine
 10
669.2220451791063
 20
220.9976813369534
 30
0.0
 11
674.2220431791063
 21
223.8844283369534
 31
0.0
  0
LINE
  5
32B2
330
1F
100
AcDbEntity
  8
AM_0
100
AcDbLine
 10
674.2220281791063
 20
223.8844133369535
 30
0.0
 11
674.2220281791063
 21
229.6579433369534
 31
0.0
  0
LINE
  5
32B3
330
1F
100
AcDbEntity
  8
AM_0
100
AcDbLine
 10
674.2220431791063
 20
229.6579283369534
 30
0.0
 11
669.2220451791063
 21
232.5446783369534
 31
0.0
  0
LINE
  5
32B4
330
1F
100
AcDbEntity
  8
AM_0
100
AcDbLine
 10
669.2220601791063
 20
232.5446783369534
 30
0.0
 11
664.2220591791063
 21
229.6579283369534
 31
0.0
  0
LINE
  5
32B5
330
1F
100
AcDbEntity
  8
AM_0
100
AcDbLine
 10
712.4401531791063
 20
223.8844283369534
 30
0.0
 11
717.4401541791062
 21
220.9976813369534
 31
0.0
  0
LINE
  5
32B6
330
1F
100
AcDbEntity
  8
AM_0
100
AcDbLine
 10
717.4401691791063
 20
220.9976813369534
 30
0.0
 11
722.4401701791062
 21
223.8844283369534
 31
0.0
  0
LINE
  5
32B7
330
1F
100
AcDbEntity
  8
AM_0
100
AcDbLine
 10
738.3123631791063
 20
326.2142963369534
 30
0.0
 11
738.3123631791063
 21
320.4407993369534
 31
0.0
  0
LINE
  5
32B8
330
1F
100
AcDbEntity
  8
AM_0
100
AcDbLine
 10
738.3123631791063
 20
320.4407993369534
 30
0.0
 11
743.3123461791062
 21
317.5540493369534
 31
0.0
  0
LINE
  5
32B9
330
1F
100
AcDbEntity
  8
AM_0
100
AcDbLine
 10
712.4401531791063
 20
229.6579433369534
 30
0.0
 11
712.4401531791063
 21
223.8844133369535
 31
0.0
  0
LINE
  5
32BA
330
1F
100
AcDbEntity
  8
AM_0
100
AcDbLine
 10
722.4401551791063
 20
223.8844133369535
 30
0.0
 11
722.4401551791063
 21
229.6579433369534
 31
0.0
  0
LINE
  5
32BB
330
1F
100
AcDbEntity
  8
AM_0
100
AcDbLine
 10
743.3123791791063
 20
329.1010733369534
 30
0.0
 11
738.3123781791062
 21
326.2143263369534
 31
0.0
  0
LINE
  5
32BC
330
1F
100
AcDbEntity
  8
AM_0
100
AcDbLine
 10
638.3498491791063
 20
320.4407993369534
 30
0.0
 11
643.3498501791063
 21
317.5540493369534
 31
0.0
  0
LINE
  5
32BD
330
1F
100
AcDbEntity
  8
AM_0
100
AcDbLine
 10
638.3498491791063
 20
326.2142963369534
 30
0.0
 11
638.3498491791063
 21
320.4407993369534
 31
0.0
  0
LINE
  5
32BE
330
1F
100
AcDbEntity
  8
AM_0
100
AcDbLine
 10
643.3498501791063
 20
329.1010733369534
 30
0.0
 11
638.3498491791063
 21
326.2143263369534
 31
0.0
  0
LINE
  5
32BF
330
1F
100
AcDbEntity
  8
AM_0
100
AcDbLine
 10
648.3498511791062
 20
326.2142963369534
 30
0.0
 11
643.3498501791063
 21
329.1010433369534
 31
0.0
  0
LINE
  5
32C0
330
1F
100
AcDbEntity
  8
AM_0
100
AcDbLine
 10
648.3498511791062
 20
320.4407993369534
 30
0.0
 11
648.3498511791062
 21
326.2142963369534
 31
0.0
  0
LINE
  5
32C1
330
1F
100
AcDbEntity
  8
AM_0
100
AcDbLine
 10
717.4401691791063
 20
232.5446933369534
 30
0.0
 11
712.4401681791063
 21
229.6579433369534
 31
0.0
  0
LINE
  5
32C2
330
1F
100
AcDbEntity
  8
AM_0
100
AcDbLine
 10
643.3498501791063
 20
317.5540793369534
 30
0.0
 11
648.3498511791062
 21
320.4408293369534
 31
0.0
  0
LINE
  5
32C3
330
1F
100
AcDbEntity
  8
AM_0
100
AcDbLine
 10
722.4401551791063
 20
229.6579283369534
 30
0.0
 11
717.4401541791062
 21
232.5446783369534
 31
0.0
  0
LINE
  5
32C4
330
1F
100
AcDbEntity
  8
AM_0
100
AcDbLine
 10
664.2220441791062
 20
223.8844283369534
 30
0.0
 11
669.2220451791063
 21
220.9976813369534
 31
0.0
  0
LINE
  5
32C5
330
1F
100
AcDbEntity
  8
AM_0
100
AcDbLine
 10
748.3123621791062
 20
326.2143263369534
 30
0.0
 11
743.3123611791063
 21
329.1010733369534
 31
0.0
  0
LINE
  5
32C6
330
1F
100
AcDbEntity
  8
AM_0
100
AcDbLine
 10
664.2220441791062
 20
229.6579433369534
 30
0.0
 11
664.2220441791062
 21
223.8844133369535
 31
0.0
  0
LINE
  5
32C7
330
1F
100
AcDbEntity
  8
AM_0
100
AcDbLine
 10
426.3381477963555
 20
329.1010433369534
 30
0.0
 11
429.3381477963555
 21
329.1010433369534
 31
0.0
  0
LINE
  5
32C8
330
1F
100
AcDbEntity
  8
AM_0
100
AcDbLine
 10
426.3381477963555
 20
317.5540193369534
 30
0.0
 11
429.3381477963555
 21
317.5540193369534
 31
0.0
  0
LINE
  5
32C9
330
1F
100
AcDbEntity
  8
AM_0
100
AcDbLine
 10
426.3381477963555
 20
320.4407693369534
 30
0.0
 11
429.3381477963555
 21
320.4407693369534
 31
0.0
  0
LINE
  5
32CA
330
1F
100
AcDbEntity
  8
AM_0
100
AcDbLine
 10
426.3381477963555
 20
326.2142963369534
 30
0.0
 11
429.3381477963555
 21
326.2142963369534
 31
0.0
  0
LINE
  5
32CB
330
1F
100
AcDbEntity
  8
AM_0
100
AcDbLine
 10
430.3381377963557
 20
318.5540483369534
 30
0.0
 11
430.3381377963557
 21
328.1010833369534
 31
0.0
  0
LINE
  5
32CC
330
1F
100
AcDbEntity
  8
AM_0
100
AcDbLine
 10
482.3380977963556
 20
311.4755873369534
 30
0.0
 11
482.3380977963556
 21
314.9755883369534
 31
0.0
  0
LINE
  5
32CD
330
1F
100
AcDbEntity
  8
AM_0
100
AcDbLine
 10
425.3381577963556
 20
329.6010533369534
 30
0.0
 11
426.3381477963555
 21
329.6010533369534
 31
0.0
  0
LINE
  5
32CE
330
1F
100
AcDbEntity
  8
AM_0
100
AcDbLine
 10
425.3381577963556
 20
317.0540483369534
 30
0.0
 11
426.3381477963555
 21
317.0540483369534
 31
0.0
  0
LINE
  5
32CF
330
1F
100
AcDbEntity
  8
AM_0
100
AcDbLine
 10
467.3381577963556
 20
331.9755833369534
 30
0.0
 11
470.3381577963556
 21
331.9755833369534
 31
0.0
  0
LINE
  5
32D0
330
1F
100
AcDbEntity
  8
AM_0
100
AcDbLine
 10
427.3381377963556
 20
313.6064483369534
 30
0.0
 11
450.9899577963556
 21
313.6064483369534
 31
0.0
  0
LINE
  5
32D1
330
1F
100
AcDbEntity
  8
AM_0
100
AcDbLine
 10
462.3381477963556
 20
314.8930073369534
 30
0.0
 11
454.3381377963556
 21
314.8930073369534
 31
0.0
  0
LINE
  5
32D2
330
1F
100
AcDbEntity
  8
AM_0
100
AcDbLine
 10
430.3381377963557
 20
328.4969933369534
 30
0.0
 11
457.3381377963556
 21
328.4969933369534
 31
0.0
  0
LINE
  5
32D3
330
1F
100
AcDbEntity
  8
AM_0
100
AcDbLine
 10
473.3119377963555
 20
322.0024433369534
 30
0.0
 11
473.3642577963556
 21
322.0011023369535
 31
0.0
  0
LINE
  5
32D4
330
1F
100
AcDbEntity
  8
AM_0
100
AcDbLine
 10
472.8381477963556
 20
226.9755863369534
 30
0.0
 11
454.3381377963556
 21
226.9755863369534
 31
0.0
  0
LINE
  5
32D5
330
1F
100
AcDbEntity
  8
AM_0
100
AcDbLine
 10
473.3119677963556
 20
281.9487173369534
 30
0.0
 11
473.3642877963556
 21
281.9500913369534
 31
0.0
  0
LINE
  5
32D6
330
1F
100
AcDbEntity
  8
AM_0
100
AcDbLine
 10
391.3381377963557
 20
216.9755843369534
 30
0.0
 11
391.3381377963557
 21
225.4755863369534
 31
0.0
  0
LINE
  5
32D7
330
1F
100
AcDbEntity
  8
AM_0
100
AcDbLine
 10
474.3381477963556
 20
216.9755843369534
 30
0.0
 11
474.3381477963556
 21
225.4755863369534
 31
0.0
  0
LINE
  5
32D8
330
1F
100
AcDbEntity
  8
AM_0
100
AcDbLine
 10
391.3381377963557
 20
216.9755843369534
 30
0.0
 11
411.3381477963556
 21
216.9755843369534
 31
0.0
  0
LINE
  5
32D9
330
1F
100
AcDbEntity
  8
AM_0
100
AcDbLine
 10
414.3381177963556
 20
344.9756033369535
 30
0.0
 11
457.4689677963556
 21
343.8461633369535
 31
0.0
  0
LINE
  5
32DA
330
1F
100
AcDbEntity
  8
ｶｸﾚｾﾝ2
100
AcDbLine
 10
459.3381477963555
 20
216.9755843369534
 30
0.0
 11
459.3381477963555
 21
226.9755863369534
 31
0.0
  0
LINE
  5
32DB
330
1F
100
AcDbEntity
  8
ｶｸﾚｾﾝ2
100
AcDbLine
 10
469.3381377963556
 20
216.9755843369534
 30
0.0
 11
469.3381377963556
 21
226.9755863369534
 31
0.0
  0
LINE
  5
32DC
330
1F
100
AcDbEntity
  8
ｶｸﾚｾﾝ2
100
AcDbLine
 10
396.3381477963555
 20
216.9755843369534
 30
0.0
 11
396.3381477963555
 21
226.9755863369534
 31
0.0
  0
LINE
  5
32DD
330
1F
100
AcDbEntity
  8
ｶｸﾚｾﾝ2
100
AcDbLine
 10
406.3381377963557
 20
216.9755843369534
 30
0.0
 11
406.3381377963557
 21
226.9755863369534
 31
0.0
  0
LINE
  5
32DE
330
1F
100
AcDbEntity
  8
AM_0
100
AcDbLine
 10
472.3381377963557
 20
329.9756033369534
 30
0.0
 11
472.3381377963557
 21
230.1659843369534
 31
0.0
  0
LINE
  5
32DF
330
1F
100
AcDbEntity
  8
AM_0
100
AcDbLine
 10
410.6704077963556
 20
226.9755863369534
 30
0.0
 11
392.8381377963557
 21
226.9755863369534
 31
0.0
  0
LINE
  5
32E0
330
1F
100
AcDbEntity
  8
AM_0
100
AcDbLine
 10
454.3381377963556
 20
216.9755843369534
 30
0.0
 11
474.3381477963556
 21
216.9755843369534
 31
0.0
  0
LINE
  5
32E1
330
1F
100
AcDbEntity
  8
AM_0
100
AcDbLine
 10
411.3381477963556
 20
216.9755843369534
 30
0.0
 11
411.3381477963556
 21
216.9755843369534
 31
0.0
  0
LINE
  5
32E2
330
1F
100
AcDbEntity
  8
AM_0
100
AcDbLine
 10
412.3381377963556
 20
217.9755863369534
 30
0.0
 11
453.3381477963556
 21
217.9755863369534
 31
0.0
  0
LINE
  5
32E3
330
1F
100
AcDbEntity
  8
AM_0
100
AcDbLine
 10
454.3381377963556
 20
216.9755843369534
 30
0.0
 11
454.3381377963556
 21
216.9755843369534
 31
0.0
  0
LINE
  5
32E4
330
1F
100
AcDbEntity
  8
AM_0
100
AcDbLine
 10
457.3381377963556
 20
248.7429953369534
 30
0.0
 11
449.3381577963556
 21
248.7429953369534
 31
0.0
  0
LINE
  5
32E5
330
1F
100
AcDbEntity
  8
AM_0
100
AcDbLine
 10
462.3381477963556
 20
338.8478933369534
 30
0.0
 11
462.3381477963556
 21
253.7430113369534
 31
0.0
  0
LINE
  5
32E6
330
1F
100
AcDbEntity
  8
AM_0
100
AcDbLine
 10
417.3381477963555
 20
289.7264123369534
 30
0.0
 11
417.3381477963555
 21
261.1514453369534
 31
0.0
  0
LINE
  5
32E7
330
1F
100
AcDbEntity
  8
AM_0
100
AcDbLine
 10
449.3381577963556
 20
231.9755693369534
 30
0.0
 11
449.3381577963556
 21
309.8930063369534
 31
0.0
  0
LINE
  5
32E8
330
1F
100
AcDbEntity
  8
AM_0
100
AcDbLine
 10
425.3381577963556
 20
333.1975433369534
 30
0.0
 11
425.3381577963556
 21
313.8138143369534
 31
0.0
  0
LINE
  5
32E9
330
1F
100
AcDbEntity
  8
AM_0
100
AcDbLine
 10
417.3175677963556
 20
260.8009343369535
 30
0.0
 11
413.6498277963556
 21
229.6250603369534
 31
0.0
  0
LINE
  5
32EA
330
1F
100
AcDbEntity
  8
AM_0
100
AcDbLine
 10
474.3381477963556
 20
321.0014363369534
 30
0.0
 11
474.3381477963556
 21
282.9497393369534
 31
0.0
  0
LINE
  5
32EB
330
1F
100
AcDbEntity
  8
AM_0
100
AcDbLine
 10
386.2905177963558
 20
327.5824433369534
 30
0.0
 11
425.3381577963556
 21
327.5824433369534
 31
0.0
  0
LINE
  5
32EC
330
1F
100
AcDbEntity
  8
AM_0
100
AcDbLine
 10
745.3311151791062
 20
309.2110013369534
 30
0.0
 11
745.3311151791062
 21
266.9755883369534
 31
0.0
  0
LINE
  5
32ED
330
1F
100
AcDbEntity
  8
AM_0
100
AcDbLine
 10
623.3311111791063
 20
226.9755713369534
 30
0.0
 11
634.0787941791063
 21
294.4180913369535
 31
0.0
  0
LINE
  5
32EE
330
1F
100
AcDbEntity
  8
AM_0
100
AcDbLine
 10
735.8310991791063
 20
289.4755883369535
 30
0.0
 11
735.8310991791063
 21
229.9755863369534
 31
0.0
  0
LINE
  5
32EF
330
1F
100
AcDbEntity
  8
AM_0
100
AcDbLine
 10
763.3311151791063
 20
226.9755863369534
 30
0.0
 11
763.3311151791063
 21
216.9755843369534
 31
0.0
  0
LINE
  5
32F0
330
1F
100
AcDbEntity
  8
AM_0
100
AcDbLine
 10
623.3311111791063
 20
226.9755863369534
 30
0.0
 11
623.3311111791063
 21
216.9755843369534
 31
0.0
  0
LINE
  5
32F1
330
1F
100
AcDbEntity
  8
AM_0
100
AcDbLine
 10
750.8311021791062
 20
226.9755863369534
 30
0.0
 11
735.3311011791063
 21
226.9755863369534
 31
0.0
  0
LINE
  5
32F2
330
1F
100
AcDbEntity
  8
AM_0
100
AcDbLine
 10
723.3311011791063
 20
236.4755693369534
 30
0.0
 11
663.3310981791062
 21
236.4755693369534
 31
0.0
  0
LINE
  5
32F3
330
1F
100
AcDbEntity
  8
AM_0
100
AcDbLine
 10
635.8311121791063
 20
226.9755863369534
 30
0.0
 11
651.3311131791063
 21
226.9755863369534
 31
0.0
  0
LINE
  5
32F4
330
1F
100
AcDbEntity
  8
AM_0
100
AcDbLine
 10
732.3311011791063
 20
217.9755863369534
 30
0.0
 11
693.3310981791062
 21
217.9755863369534
 31
0.0
  0
LINE
  5
32F5
330
1F
100
AcDbEntity
  8
AM_0
100
AcDbLine
 10
763.3311151791063
 20
216.9755843369534
 30
0.0
 11
733.3311151791063
 21
216.9755843369534
 31
0.0
  0
LINE
  5
32F6
330
1F
100
AcDbEntity
  8
AM_0
100
AcDbLine
 10
654.3311131791063
 20
217.9755863369534
 30
0.0
 11
693.3310981791062
 21
217.9755863369534
 31
0.0
  0
LINE
  5
32F7
330
1F
100
AcDbEntity
  8
AM_0
100
AcDbLine
 10
761.8311151791062
 20
226.9755863369534
 30
0.0
 11
750.8311021791062
 21
226.9755863369534
 31
0.0
  0
LINE
  5
32F8
330
1F
100
AcDbEntity
  8
AM_0
100
AcDbLine
 10
624.8311111791062
 20
226.9755863369534
 30
0.0
 11
635.8311121791063
 21
226.9755863369534
 31
0.0
  0
LINE
  5
32F9
330
1F
100
AcDbEntity
  8
AM_0
100
AcDbLine
 10
623.3311111791063
 20
216.9755843369534
 30
0.0
 11
653.3311141791061
 21
216.9755843369534
 31
0.0
  0
LINE
  5
32FA
330
1F
100
AcDbEntity
  8
AM_0
100
AcDbLine
 10
653.3311141791061
 20
224.9755853369534
 30
0.0
 11
653.3311141791061
 21
216.9755843369534
 31
0.0
  0
LINE
  5
32FB
330
1F
100
AcDbEntity
  8
AM_0
100
AcDbLine
 10
650.8311121791063
 20
289.4755883369535
 30
0.0
 11
650.8311121791063
 21
229.9755863369534
 31
0.0
  0
LINE
  5
32FC
330
1F
100
AcDbEntity
  8
AM_0
100
AcDbLine
 10
728.3310991791063
 20
231.4755863369534
 30
0.0
 11
728.3310991791063
 21
222.4755863369534
 31
0.0
  0
LINE
  5
32FD
330
1F
100
AcDbEntity
  8
AM_0
100
AcDbLine
 10
658.3311121791062
 20
231.4755863369534
 30
0.0
 11
658.3311121791062
 21
222.4755863369534
 31
0.0
  0
LINE
  5
32FE
330
1F
100
AcDbEntity
  8
AM_0
100
AcDbLine
 10
763.3311001791062
 20
226.9755713369534
 30
0.0
 11
752.5834501791061
 21
294.4180613369534
 31
0.0
  0
LINE
  5
32FF
330
1F
100
AcDbEntity
  8
AM_0
100
AcDbLine
 10
733.3311151791063
 20
216.9755843369534
 30
0.0
 11
733.3311151791063
 21
224.9755853369534
 31
0.0
  0
LINE
  5
3300
330
1F
100
AcDbEntity
  8
AM_0
100
AcDbLine
 10
641.3311141791061
 20
309.2110013369534
 30
0.0
 11
641.3311141791061
 21
266.9755883369534
 31
0.0
  0
LINE
  5
3301
330
1F
100
AcDbEntity
  8
AM_0
100
AcDbLine
 10
654.3311131791063
 20
219.4755863369534
 30
0.0
 11
655.3311121791063
 21
219.4755863369534
 31
0.0
  0
LINE
  5
3302
330
1F
100
AcDbEntity
  8
AM_0
100
AcDbLine
 10
732.3311011791063
 20
219.4755863369534
 30
0.0
 11
731.3310991791063
 21
219.4755863369534
 31
0.0
  0
LINE
  5
3303
330
1F
100
AcDbEntity
  8
ﾁｭｳｼﾝｾﾝ1
 48
0.5
100
AcDbLine
 10
750.8311021791062
 20
228.6766739384773
 30
0.0
 11
750.8311021791062
 21
214.7975282578526
 31
0.0
  0
LINE
  5
3304
330
1F
100
AcDbEntity
  8
ﾁｭｳｼﾝｾﾝ1
 48
0.5
100
AcDbLine
 10
635.8310821791063
 20
228.6766739384773
 30
0.0
 11
635.8310821791063
 21
214.7975282578526
 31
0.0
  0
LINE
  5
3305
330
1F
100
AcDbEntity
  8
ｶｸﾚｾﾝ2
100
AcDbLine
 10
755.8311151791063
 20
226.9755863369534
 30
0.0
 11
755.8311151791063
 21
216.9755843369534
 31
0.0
  0
LINE
  5
3306
330
1F
100
AcDbEntity
  8
ｶｸﾚｾﾝ2
100
AcDbLine
 10
745.8311011791063
 20
226.9755863369534
 30
0.0
 11
745.8311011791063
 21
216.9755843369534
 31
0.0
  0
LINE
  5
3307
330
1F
100
AcDbEntity
  8
ｶｸﾚｾﾝ2
100
AcDbLine
 10
640.8311131791062
 20
226.9755863369534
 30
0.0
 11
640.8311131791062
 21
216.9755843369534
 31
0.0
  0
LINE
  5
3308
330
1F
100
AcDbEntity
  8
ｶｸﾚｾﾝ2
100
AcDbLine
 10
630.8311111791063
 20
226.9755863369534
 30
0.0
 11
630.8311111791063
 21
216.9755843369534
 31
0.0
  0
LINE
  5
3309
330
1F
100
AcDbEntity
  8
AM_0
100
AcDbLine
 10
376.8380877963556
 20
348.4755833369534
 30
0.0
 11
380.8642677963557
 21
348.3701933369534
 31
0.0
  0
LINE
  5
330A
330
1F
100
AcDbEntity
  8
AM_0
100
AcDbLine
 10
384.8381877963557
 20
235.4755853369534
 30
0.0
 11
384.8381877963557
 21
244.9792943369534
 31
0.0
  0
LINE
  5
330B
330
1F
100
AcDbEntity
  8
AM_0
100
AcDbLine
 10
382.8119577963556
 20
224.1500543369534
 30
0.0
 11
386.7857577963557
 21
224.2541183369534
 31
0.0
  0
LINE
  5
330C
330
1F
100
AcDbEntity
  8
AM_0
100
AcDbLine
 10
381.8381877963556
 20
222.5806883369534
 30
0.0
 11
381.8381877963556
 21
233.4756023369535
 31
0.0
  0
LINE
  5
330D
330
1F
100
AcDbEntity
  8
AM_0
100
AcDbLine
 10
376.8381477963556
 20
221.4756173369534
 30
0.0
 11
380.8643277963556
 21
221.5810403369534
 31
0.0
  0
LINE
  5
330E
330
1F
100
AcDbEntity
  8
AM_0
100
AcDbLine
 10
382.8119577963556
 20
345.8011433369534
 30
0.0
 11
414.3381177963556
 21
344.9756333369534
 31
0.0
  0
LINE
  5
330F
330
1F
100
AcDbEntity
  8
AM_0
100
AcDbLine
 10
386.7857577963557
 20
224.2541183369534
 30
0.0
 11
391.3381377963557
 21
224.3733203369534
 31
0.0
  0
LINE
  5
3310
330
1F
100
AcDbEntity
  8
AM_0
100
AcDbLine
 10
376.8381477963556
 20
233.4756023369535
 30
0.0
 11
382.8381477963556
 21
233.4756023369535
 31
0.0
  0
LINE
  5
3311
330
1F
100
AcDbEntity
  8
AM_0
100
AcDbLine
 10
376.8381477963556
 20
336.4755833369534
 30
0.0
 11
382.8381477963556
 21
336.4755833369534
 31
0.0
  0
LINE
  5
3312
330
1F
100
AcDbEntity
  8
AM_0
100
AcDbLine
 10
376.8381477963556
 20
322.9718963369534
 30
0.0
 11
382.8381477963556
 21
322.9718963369534
 31
0.0
  0
LINE
  5
3313
330
1F
100
AcDbEntity
  8
AM_0
100
AcDbLine
 10
376.8381477963556
 20
246.9792803369534
 30
0.0
 11
382.8381477963556
 21
246.9792803369534
 31
0.0
  0
LINE
  5
3314
330
1F
100
AcDbEntity
  8
AM_0
100
AcDbLine
 10
384.8381877963557
 20
324.9718973369534
 30
0.0
 11
384.8381877963557
 21
334.4756033369534
 31
0.0
  0
LINE
  5
3315
330
1F
100
AcDbEntity
  8
AM_0
100
AcDbLine
 10
381.8381877963556
 20
246.9792803369534
 30
0.0
 11
381.8381877963556
 21
322.9718963369534
 31
0.0
  0
LINE
  5
3316
330
1F
100
AcDbEntity
  8
AM_0
100
AcDbLine
 10
381.8381877963556
 20
336.4755833369534
 30
0.0
 11
381.8381877963556
 21
347.3704733369534
 31
0.0
  0
LINE
  5
3323
330
1F
100
AcDbEntity
  8
AM_0
100
AcDbLine
 10
376.8381477963556
 20
348.4755833369534
 30
0.0
 11
376.8381477963556
 21
221.4755243369534
 31
0.0
  0
LINE
  5
3324
330
1F
100
AcDbEntity
  8
AM_0
100
AcDbLine
 10
623.3311111791063
 20
226.9755863369534
 30
0.0
 11
633.4558381791063
 21
317.2058123369534
 31
0.0
  0
LINE
  5
3325
330
1F
100
AcDbEntity
  8
AM_0
100
AcDbLine
 10
763.3311001791062
 20
226.9755863369534
 30
0.0
 11
753.2063611791062
 21
317.2058123369534
 31
0.0
  0
LINE
  5
3326
330
1F
100
AcDbEntity
  8
AM_0
100
AcDbLine
 10
427.3381377963556
 20
313.6064483369534
 30
0.0
 11
427.3381377963556
 21
226.9755863369534
 31
0.0
  0
LINE
  5
3327
330
1F
100
AcDbEntity
  8
AM_0
100
AcDbLine
 10
427.3381377963556
 20
344.5304333369534
 30
0.0
 11
427.3381377963556
 21
329.1010433369534
 31
0.0
  0
LINE
  5
3328
330
1F
100
AcDbEntity
  8
AM_0
100
AcDbLine
 10
439.1238477963555
 20
309.3149123369534
 30
0.0
 11
427.3381377963556
 21
226.9755863369534
 31
0.0
  0
LINE
  5
3329
330
1F
100
AcDbEntity
  8
AM_0
100
AcDbLine
 10
439.0477677963556
 20
329.3955233369534
 30
0.0
 11
427.3381377963556
 21
344.6351933369534
 31
0.0
  0
CIRCLE
  5
3411
330
1F
100
AcDbEntity
  8
AM_0
100
AcDbCircle
 10
693.3310981791062
 20
301.9755893369534
 30
0.0
 40
2.49999984
  0
CIRCLE
  5
3412
330
1F
100
AcDbEntity
  8
AM_5
100
AcDbCircle
 10
693.3310981791062
 20
301.9755893369534
 30
0.0
 40
3.0
  0
ARC
  5
3413
330
1F
100
AcDbEntity
  8
AM_0
100
AcDbCircle
 10
693.3310981791062
 20
301.9755893369534
 30
0.0
 40
9.500000399999999
100
AcDbArc
 50
108.40848
 51
71.59151200000001
  0
CIRCLE
  5
3414
330
1F
100
AcDbEntity
  8
AM_0
100
AcDbCircle
 10
743.3123461791062
 20
323.3275463369534
 30
0.0
 40
4.9999998
  0
CIRCLE
  5
3415
330
1F
100
AcDbEntity
  8
AM_0
100
AcDbCircle
 10
669.2220451791063
 20
226.7711933369534
 30
0.0
 40
4.9999998
  0
CIRCLE
  5
3416
330
1F
100
AcDbEntity
  8
AM_0
100
AcDbCircle
 10
643.3498501791063
 20
323.3275463369534
 30
0.0
 40
4.9999998
  0
CIRCLE
  5
3417
330
1F
100
AcDbEntity
  8
AM_0
100
AcDbCircle
 10
717.4401691791063
 20
226.7711933369534
 30
0.0
 40
4.9999998
  0
ARC
  5
3418
330
1F
100
AcDbEntity
  8
AM_0
100
AcDbCircle
 10
429.3381477963555
 20
327.2142833369534
 30
0.0
 40
1.000000019999999
100
AcDbArc
 50
270.0
 51
0.0
  0
ARC
  5
3419
330
1F
100
AcDbEntity
  8
AM_0
100
AcDbCircle
 10
429.3381477963555
 20
321.4407983369534
 30
0.0
 40
1.000000019999999
100
AcDbArc
 50
270.0
 51
0.0
  0
ARC
  5
341A
330
1F
100
AcDbEntity
  8
AM_0
100
AcDbCircle
 10
429.3381477963555
 20
318.5540483369534
 30
0.0
 40
1.000000019999999
100
AcDbArc
 50
270.0
 51
0.0
  0
ARC
  5
341B
330
1F
100
AcDbEntity
  8
AM_0
100
AcDbCircle
 10
429.3381477963555
 20
319.4407973369534
 30
0.0
 40
1.000000019999999
100
AcDbArc
 50
0.0
 51
90.00000300000015
  0
ARC
  5
341C
330
1F
100
AcDbEntity
  8
AM_0
100
AcDbCircle
 10
429.3381477963555
 20
325.2142973369534
 30
0.0
 40
1.000000019999999
100
AcDbArc
 50
0.0
 51
90.00000300000015
  0
ARC
  5
341D
330
1F
100
AcDbEntity
  8
AM_0
100
AcDbCircle
 10
429.3381477963555
 20
328.1010833369534
 30
0.0
 40
1.000000019999999
100
AcDbArc
 50
0.0
 51
90.00000300000015
  0
ARC
  5
341E
330
1F
100
AcDbEntity
  8
AM_0
100
AcDbCircle
 10
473.3381577963556
 20
280.9490513369534
 30
0.0
 40
1.000000019999999
100
AcDbArc
 50
91.50000099999992
 51
180.0000099999994
  0
ARC
  5
341F
330
1F
100
AcDbEntity
  8
AM_0
100
AcDbCircle
 10
392.8381377963557
 20
225.4755863369534
 30
0.0
 40
1.50000003
100
AcDbArc
 50
90.00000300000015
 51
180.0000099999994
  0
ARC
  5
3420
330
1F
100
AcDbEntity
  8
AM_0
100
AcDbCircle
 10
472.8381477963556
 20
225.4755863369534
 30
0.0
 40
1.50000003
100
AcDbArc
 50
0.0
 51
90.00000300000015
  0
ARC
  5
3421
330
1F
100
AcDbEntity
  8
AM_0
100
AcDbCircle
 10
473.3381577963556
 20
323.0021093369534
 30
0.0
 40
1.000000019999999
100
AcDbArc
 50
179.999989999999
 51
268.5000100000004
  0
ARC
  5
3422
330
1F
100
AcDbEntity
  8
AM_0
100
AcDbCircle
 10
477.3381477963556
 20
230.1659843369534
 30
0.0
 40
5.0000001
100
AcDbArc
 50
179.999989999999
 51
226.1869300000001
  0
ARC
  5
3423
330
1F
100
AcDbEntity
  8
AM_0
100
AcDbCircle
 10
454.3381377963556
 20
309.8930063369534
 30
0.0
 40
5.0000001
100
AcDbArc
 50
90.00000300000015
 51
180.0000099999994
  0
ARC
  5
3424
330
1F
100
AcDbEntity
  8
AM_0
100
AcDbCircle
 10
473.3381577963556
 20
321.0014363369534
 30
0.0
 40
1.000000019999999
100
AcDbArc
 50
0.0
 51
88.49999699999992
  0
ARC
  5
3425
330
1F
100
AcDbEntity
  8
AM_0
100
AcDbCircle
 10
467.3381577963556
 20
336.9755633369534
 30
0.0
 40
5.0000001
100
AcDbArc
 50
180.0000099999994
 51
270.0
  0
ARC
  5
3426
330
1F
100
AcDbEntity
  8
AM_0
100
AcDbCircle
 10
470.3381577963556
 20
329.9756033369534
 30
0.0
 40
2.00000007
100
AcDbArc
 50
0.0
 51
90.00000300000015
  0
ARC
  5
3427
330
1F
100
AcDbEntity
  8
AM_0
100
AcDbCircle
 10
457.3381377963556
 20
323.4969803369534
 30
0.0
 40
5.0000001
100
AcDbArc
 50
0.0
 51
90.00000300000015
  0
ARC
  5
3428
330
1F
100
AcDbEntity
  8
AM_0
100
AcDbCircle
 10
457.3381377963556
 20
338.8478933369534
 30
0.0
 40
5.0000001
100
AcDbArc
 50
0.0
 51
88.49999699999992
  0
ARC
  5
3429
330
1F
100
AcDbEntity
  8
AM_0
100
AcDbCircle
 10
454.3381377963556
 20
231.9755693369534
 30
0.0
 40
5.0000001
100
AcDbArc
 50
180.0000099999994
 51
270.0
  0
ARC
  5
342A
330
1F
100
AcDbEntity
  8
AM_0
100
AcDbCircle
 10
457.3381377963556
 20
253.7430113369534
 30
0.0
 40
5.0000001
100
AcDbArc
 50
270.0
 51
0.0
  0
ARC
  5
342B
330
1F
100
AcDbEntity
  8
AM_0
100
AcDbCircle
 10
453.3381477963556
 20
216.9755843369534
 30
0.0
 40
1.000000019999999
100
AcDbArc
 50
0.0
 51
90.00000300000015
  0
ARC
  5
342C
330
1F
100
AcDbEntity
  8
AM_0
100
AcDbCircle
 10
412.3381377963556
 20
216.9755843369534
 30
0.0
 40
1.000000019999999
100
AcDbArc
 50
90.00000300000015
 51
180.0000099999994
  0
ARC
  5
342D
330
1F
100
AcDbEntity
  8
AM_0
100
AcDbCircle
 10
414.3381477963556
 20
261.1514453369534
 30
0.0
 40
3.0
100
AcDbArc
 50
353.2901599999989
 51
0.0
  0
ARC
  5
342E
330
1F
100
AcDbEntity
  8
AM_0
100
AcDbCircle
 10
410.6704077963556
 20
229.9755863369534
 30
0.0
 40
3.0
100
AcDbArc
 50
270.0
 51
353.2901599999989
  0
ARC
  5
342F
330
1F
100
AcDbEntity
  8
AM_0
100
AcDbCircle
 10
473.3381577963556
 20
282.9497393369534
 30
0.0
 40
1.000000019999999
100
AcDbArc
 50
271.5000000000003
 51
0.0
  0
ARC
  5
3430
330
1F
100
AcDbEntity
  8
AM_0
100
AcDbCircle
 10
426.3381477963555
 20
333.1975433369534
 30
0.0
 40
1.000000019999999
100
AcDbArc
 50
90.00000300000015
 51
180.0000099999994
  0
ARC
  5
3431
330
1F
100
AcDbEntity
  8
AM_0
100
AcDbCircle
 10
426.3381477963555
 20
313.8138143369534
 30
0.0
 40
1.000000019999999
100
AcDbArc
 50
179.999989999999
 51
270.0
  0
ARC
  5
3432
330
1F
100
AcDbEntity
  8
AM_0
100
AcDbCircle
 10
723.3311011791063
 20
231.4755863369534
 30
0.0
 40
5.0000001
100
AcDbArc
 50
0.0
 51
90.00000300000015
  0
ARC
  5
3433
330
1F
100
AcDbEntity
  8
AM_0
100
AcDbCircle
 10
735.3311011791063
 20
224.9755853369534
 30
0.0
 40
2.00000007
100
AcDbArc
 50
90.00000300000015
 51
180.0000099999994
  0
ARC
  5
3434
330
1F
100
AcDbEntity
  8
AM_0
100
AcDbCircle
 10
744.2670601791062
 20
310.5593273369535
 30
0.0
 40
3.0
100
AcDbArc
 50
26.66915699999943
 51
87.41254900000006
  0
ARC
  5
3435
330
1F
100
AcDbEntity
  8
AM_0
100
AcDbCircle
 10
744.8990791791062
 20
324.5450783369534
 30
0.0
 40
11.0000004
100
AcDbArc
 50
149.8422100000005
 51
285.1636499999995
  0
ARC
  5
3436
330
1F
100
AcDbEntity
  8
AM_0
100
AcDbCircle
 10
684.3450001791062
 20
233.4755693369534
 30
0.0
 40
3.0
100
AcDbArc
 50
356.81526
 51
90.00000300000015
  0
ARC
  5
3437
330
1F
100
AcDbEntity
  8
AM_0
100
AcDbCircle
 10
693.3310981791062
 20
284.9755883369535
 30
0.0
 40
60.000003
100
AcDbArc
 50
48.33084499999956
 51
131.6691500000005
  0
ARC
  5
3438
330
1F
100
AcDbEntity
  8
AM_0
100
AcDbCircle
 10
693.3310981791062
 20
284.9755883369535
 30
0.0
 40
60.000003
100
AcDbArc
 50
9.054541899999902
 51
26.66915699999943
  0
ARC
  5
3439
330
1F
100
AcDbEntity
  8
AM_0
100
AcDbCircle
 10
693.3310981791062
 20
284.9755883369535
 30
0.0
 40
60.000003
100
AcDbArc
 50
171.1247899999993
 51
172.449259999999
  0
ARC
  5
343A
330
1F
100
AcDbEntity
  8
AM_0
100
AcDbCircle
 10
642.3951391791063
 20
310.5593273369535
 30
0.0
 40
3.0
100
AcDbArc
 50
92.58744900000012
 51
153.3308500000001
  0
ARC
  5
343B
330
1F
100
AcDbEntity
  8
AM_0
100
AcDbCircle
 10
693.3310981791062
 20
301.9755893369534
 30
0.0
 40
20.0000007
100
AcDbArc
 50
270.0
 51
90.00000300000015
  0
ARC
  5
343C
330
1F
100
AcDbEntity
  8
AM_0
100
AcDbCircle
 10
693.3310981791062
 20
289.4755883369535
 30
0.0
 40
42.500001
100
AcDbArc
 50
0.0
 51
180.0000099999994
  0
ARC
  5
343D
330
1F
100
AcDbEntity
  8
AM_0
100
AcDbCircle
 10
641.7631501791063
 20
324.5450783369534
 30
0.0
 40
11.0000004
100
AcDbArc
 50
254.8363600000005
 51
30.15779499999948
  0
ARC
  5
343E
330
1F
100
AcDbEntity
  8
AM_0
100
AcDbCircle
 10
761.8311151791062
 20
225.4755863369534
 30
0.0
 40
1.50000003
100
AcDbArc
 50
0.0
 51
90.00000300000015
  0
ARC
  5
343F
330
1F
100
AcDbEntity
  8
AM_0
100
AcDbCircle
 10
651.3311131791063
 20
224.9755853369534
 30
0.0
 40
2.00000007
100
AcDbArc
 50
0.0
 51
90.00000300000015
  0
ARC
  5
3440
330
1F
100
AcDbEntity
  8
AM_0
100
AcDbCircle
 10
655.3311121791063
 20
222.4755863369534
 30
0.0
 40
3.0
100
AcDbArc
 50
270.0
 51
0.0
  0
ARC
  5
3441
330
1F
100
AcDbEntity
  8
AM_0
100
AcDbCircle
 10
731.2263181791063
 20
327.5543633369534
 30
0.0
 40
3.0
100
AcDbArc
 50
347.5874499999997
 51
48.33084499999956
  0
ARC
  5
3442
330
1F
100
AcDbEntity
  8
AM_0
100
AcDbCircle
 10
693.3310981791062
 20
232.9755863369534
 30
0.0
 40
6.000000299999999
100
AcDbArc
 50
176.8152700000008
 51
3.18473599999995
  0
ARC
  5
3443
330
1F
100
AcDbEntity
  8
AM_0
100
AcDbCircle
 10
624.8311111791062
 20
225.4755863369534
 30
0.0
 40
1.50000003
100
AcDbArc
 50
90.00000300000015
 51
180.0000099999994
  0
ARC
  5
3444
330
1F
100
AcDbEntity
  8
AM_0
100
AcDbCircle
 10
655.4359111791062
 20
327.5543633369534
 30
0.0
 40
3.0
100
AcDbArc
 50
131.6691500000005
 51
192.4125500000002
  0
ARC
  5
3445
330
1F
100
AcDbEntity
  8
AM_0
100
AcDbCircle
 10
693.3310981791062
 20
284.9755883369535
 30
0.0
 40
60.000003
100
AcDbArc
 50
153.3308500000001
 51
170.9454600000001
  0
ARC
  5
3446
330
1F
100
AcDbEntity
  8
AM_0
100
AcDbCircle
 10
693.3310981791062
 20
301.9755893369534
 30
0.0
 40
20.0000007
100
AcDbArc
 50
90.00000300000015
 51
270.0
  0
ARC
  5
3447
330
1F
100
AcDbEntity
  8
AM_0
100
AcDbCircle
 10
738.8310991791063
 20
229.9755863369534
 30
0.0
 40
3.0
100
AcDbArc
 50
179.999989999999
 51
270.0
  0
ARC
  5
3448
330
1F
100
AcDbEntity
  8
AM_0
100
AcDbCircle
 10
647.8311121791063
 20
229.9755863369534
 30
0.0
 40
3.0
100
AcDbArc
 50
270.0
 51
0.0
  0
ARC
  5
3449
330
1F
100
AcDbEntity
  8
AM_0
100
AcDbCircle
 10
733.3311151791063
 20
314.9755883369534
 30
0.0
 40
20.0000007
100
AcDbArc
 50
6.402379800000274
 51
61.92751500000066
  0
ARC
  5
344A
330
1F
100
AcDbEntity
  8
AM_0
100
AcDbCircle
 10
663.3310981791062
 20
231.4755863369534
 30
0.0
 40
5.0000001
100
AcDbArc
 50
90.00000300000015
 51
180.0000099999994
  0
ARC
  5
344B
330
1F
100
AcDbEntity
  8
AM_0
100
AcDbCircle
 10
740.3310991791063
 20
309.2110013369534
 30
0.0
 40
5.0000001
100
AcDbArc
 50
0.0
 51
73.41138499999978
  0
ARC
  5
344C
330
1F
100
AcDbEntity
  8
AM_0
100
AcDbCircle
 10
731.3310991791063
 20
222.4755863369534
 30
0.0
 40
3.0
100
AcDbArc
 50
179.999989999999
 51
270.0
  0
ARC
  5
344D
330
1F
100
AcDbEntity
  8
AM_0
100
AcDbCircle
 10
732.3311011791063
 20
216.9755843369534
 30
0.0
 40
1.000000019999999
100
AcDbArc
 50
0.0
 51
90.00000300000015
  0
ARC
  5
344E
330
1F
100
AcDbEntity
  8
AM_0
100
AcDbCircle
 10
654.3311131791063
 20
216.9755843369534
 30
0.0
 40
1.000000019999999
100
AcDbArc
 50
90.00000300000015
 51
180.0000099999994
  0
ARC
  5
344F
330
1F
100
AcDbEntity
  8
AM_0
100
AcDbCircle
 10
731.0647441791063
 20
332.5832333369533
 30
0.0
 40
5.0000001
100
AcDbArc
 50
329.8422000000001
 51
67.8312030000003
  0
ARC
  5
3450
330
1F
100
AcDbEntity
  8
AM_0
100
AcDbCircle
 10
713.3310991791063
 20
266.9755883369534
 30
0.0
 40
32.000001
100
AcDbArc
 50
314.67826
 51
0.0
  0
ARC
  5
3451
330
1F
100
AcDbEntity
  8
AM_0
100
AcDbCircle
 10
646.3311121791063
 20
309.2110013369534
 30
0.0
 40
5.0000001
100
AcDbArc
 50
106.5886099999998
 51
180.0000099999994
  0
ARC
  5
3452
330
1F
100
AcDbEntity
  8
AM_0
100
AcDbCircle
 10
673.3311121791063
 20
266.9755883369534
 30
0.0
 40
32.000001
100
AcDbArc
 50
179.999989999999
 51
225.3217399999994
  0
ARC
  5
3453
330
1F
100
AcDbEntity
  8
AM_0
100
AcDbCircle
 10
655.5974701791062
 20
332.5832333369533
 30
0.0
 40
5.0000001
100
AcDbArc
 50
112.1687999999999
 51
210.1577899999995
  0
ARC
  5
3454
330
1F
100
AcDbEntity
  8
AM_0
100
AcDbCircle
 10
653.3311141791061
 20
314.9755883369534
 30
0.0
 40
20.0000007
100
AcDbArc
 50
118.0724800000001
 51
173.5976200000008
  0
ARC
  5
3455
330
1F
100
AcDbEntity
  8
AM_0
100
AcDbCircle
 10
693.3310981791062
 20
239.9755853369534
 30
0.0
 40
105.000003
100
AcDbArc
 50
61.92751500000066
 51
118.0724800000001
  0
ARC
  5
3456
330
1F
100
AcDbEntity
  8
AM_0
100
AcDbCircle
 10
732.3311011791063
 20
218.4755843369534
 30
0.0
 40
1.000000019999999
100
AcDbArc
 50
0.0
 51
90.00000300000015
  0
ARC
  5
3457
330
1F
100
AcDbEntity
  8
AM_0
100
AcDbCircle
 10
654.3311131791063
 20
218.4755843369534
 30
0.0
 40
1.000000019999999
100
AcDbArc
 50
90.00000300000015
 51
180.0000099999994
  0
ARC
  5
3458
330
1F
100
AcDbEntity
  8
AM_0
100
AcDbCircle
 10
702.3172141791063
 20
233.4755693369534
 30
0.0
 40
3.0
100
AcDbArc
 50
90.00000300000015
 51
183.1847399999999
  0
ARC
  5
3459
330
1F
100
AcDbEntity
  8
AM_0
100
AcDbCircle
 10
382.8381477963556
 20
346.8008033369534
 30
0.0
 40
1.000000019999999
100
AcDbArc
 50
179.999989999999
 51
268.5000100000004
  0
ARC
  5
345A
330
1F
100
AcDbEntity
  8
AM_0
100
AcDbCircle
 10
380.8381377963557
 20
347.3704733369534
 30
0.0
 40
1.000000019999999
100
AcDbArc
 50
0.0
 51
88.49999699999992
  0
ARC
  5
345B
330
1F
100
AcDbEntity
  8
AM_0
100
AcDbCircle
 10
380.8381377963557
 20
222.5806883369534
 30
0.0
 40
1.000000019999999
100
AcDbArc
 50
271.5000000000003
 51
0.0
  0
ARC
  5
345C
330
1F
100
AcDbEntity
  8
AM_0
100
AcDbCircle
 10
382.8381477963556
 20
223.1503763369534
 30
0.0
 40
1.000000019999999
100
AcDbArc
 50
91.50000099999992
 51
180.0000099999994
  0
ARC
  5
345D
330
1F
100
AcDbEntity
  8
AM_0
100
AcDbCircle
 10
382.8381477963556
 20
244.9792943369534
 30
0.0
 40
2.00000007
100
AcDbArc
 50
0.0
 51
90.00000300000015
  0
ARC
  5
345E
330
1F
100
AcDbEntity
  8
AM_0
100
AcDbCircle
 10
382.8381477963556
 20
235.4755853369534
 30
0.0
 40
2.00000007
100
AcDbArc
 50
270.0
 51
0.0
  0
ARC
  5
345F
330
1F
100
AcDbEntity
  8
AM_0
100
AcDbCircle
 10
382.8381477963556
 20
324.9718973369534
 30
0.0
 40
2.00000007
100
AcDbArc
 50
270.0
 51
0.0
  0
ARC
  5
3460
330
1F
100
AcDbEntity
  8
AM_0
100
AcDbCircle
 10
382.8381477963556
 20
334.4756033369534
 30
0.0
 40
2.00000007
100
AcDbArc
 50
0.0
 51
90.00000300000015
  0
ARC
  5
3461
330
1F
100
AcDbEntity
  8
AM_0
100
AcDbCircle
 10
637.5779071791063
 20
309.1021433369535
 30
0.0
 40
5.0000001
100
AcDbArc
 50
74.83635400000008
 51
173.5976200000008
  0
ARC
  5
3462
330
1F
100
AcDbEntity
  8
AM_0
100
AcDbCircle
 10
749.0842891791062
 20
309.1021433369535
 30
0.0
 40
5.0000001
100
AcDbArc
 50
6.402379800000274
 51
105.1636399999995
  0
ARC
  5
3463
330
1F
100
AcDbEntity
  8
AM_0
100
AcDbCircle
 10
426.3381477963555
 20
311.8138133369534
 30
0.0
 40
1.000000019999999
100
AcDbArc
 50
0.0
 51
90.00000300000015
  0
ARC
  5
3464
330
1F
100
AcDbEntity
  8
AM_0
100
AcDbCircle
 10
426.3381477963555
 20
335.1975833369534
 30
0.0
 40
1.000000019999999
100
AcDbArc
 50
270.0
 51
0.0
  0
ARC
  5
3465
330
1F
100
AcDbEntity
  8
AM_0
100
AcDbCircle
 10
444.0734277963556
 20
308.6064473369534
 30
0.0
 40
5.0000001
100
AcDbArc
 50
90.00000300000015
 51
171.8542400000001
  0
LINE
  5
4084
330
1F
100
AcDbEntity
  8
AM_0
100
AcDbLine
 10
376.8381477963556
 20
336.4755833369534
 30
0.0
 11
366.8381477963557
 21
336.4755833369532
 31
0.0
  0
LINE
  5
4085
330
1F
100
AcDbEntity
  8
AM_0
100
AcDbLine
 10
376.8381477963556
 20
322.9718963369534
 30
0.0
 11
366.8381477963561
 21
322.9718963369532
 31
0.0
  0
LINE
  5
4086
330
1F
100
AcDbEntity
  8
AM_0
100
AcDbLine
 10
376.8381477963556
 20
246.9792803369534
 30
0.0
 11
366.8381477963581
 21
246.9792803369532
 31
0.0
  0
LINE
  5
4087
330
1F
100
AcDbEntity
  8
AM_0
100
AcDbLine
 10
376.8381477963556
 20
233.4756023369535
 30
0.0
 11
366.8381477963585
 21
233.4756023369532
 31
0.0
  0
TEXT
  5
40F3
330
1F
100
AcDbEntity
  8
AM_0
100
AcDbText
 10
597.6335882632682
 20
413.6875426744942
 30
0.0
 40
7.5
  1
ＶＸ０４－００５～０１０Ｈ－Ｔ１（Ｔ３）
 41
0.8299999999999998
100
AcDbText
  0
LINE
  5
41F1
330
1F
100
AcDbEntity
  8
AM_0
100
AcDbLine
 10
474.3381477963557
 20
493.8396447904883
 30
0.0
 11
476.3380877963555
 21
493.8396447904883
 31
0.0
  0
LINE
  5
41F2
330
1F
100
AcDbEntity
  8
AM_0
100
AcDbLine
 10
474.3381477963557
 20
513.8396447904884
 30
0.0
 11
476.3380877963555
 21
513.8396447904884
 31
0.0
  0
LINE
  5
41F3
330
1F
100
AcDbEntity
  8
AM_0
100
AcDbLine
 10
473.3119677963555
 20
483.8127547904884
 30
0.0
 11
473.3643077963556
 21
483.8141247904884
 31
0.0
  0
LINE
  5
41F4
330
1F
100
AcDbEntity
  8
AM_0
100
AcDbLine
 10
473.3119677963555
 20
523.8664947904884
 30
0.0
 11
473.3643077963556
 21
523.8651247904884
 31
0.0
  0
LINE
  5
41F5
330
1F
100
AcDbEntity
  8
AM_0
100
AcDbLine
 10
482.3380877963556
 20
500.8396447904884
 30
0.0
 11
482.3380877963556
 21
506.8396447904883
 31
0.0
  0
LINE
  5
41F6
330
1F
100
AcDbEntity
  8
AM_0
100
AcDbLine
 10
474.3381477963557
 20
522.8654847904883
 30
0.0
 11
474.3381477963557
 21
484.8137947904884
 31
0.0
  0
LINE
  5
41F7
330
1F
100
AcDbEntity
  8
AM_0
100
AcDbLine
 10
476.3380877963555
 20
494.3396447904884
 30
0.0
 11
504.3381177963556
 21
494.3396447904884
 31
0.0
  0
LINE
  5
41F8
330
1F
100
AcDbEntity
  8
AM_0
100
AcDbLine
 10
476.3380877963555
 20
513.3396447904884
 30
0.0
 11
504.3381177963556
 21
513.3396447904884
 31
0.0
  0
LINE
  5
41F9
330
1F
100
AcDbEntity
  8
AM_0
100
AcDbLine
 10
504.3381177963556
 20
494.3396447904884
 30
0.0
 11
504.3381177963556
 21
513.3396447904884
 31
0.0
  0
LINE
  5
41FA
330
1F
100
AcDbEntity
  8
AM_0
100
AcDbLine
 10
476.3380877963555
 20
493.8396447904883
 30
0.0
 11
476.3380877963555
 21
513.8396447904884
 31
0.0
  0
LINE
  5
41FB
330
1F
100
AcDbEntity
  8
AM_0
100
AcDbLine
 10
482.3380877963556
 20
500.8396447904884
 30
0.0
 11
504.3381177963556
 21
500.8396447904884
 31
0.0
  0
LINE
  5
41FC
330
1F
100
AcDbEntity
  8
AM_0
100
AcDbLine
 10
482.3380877963556
 20
506.8396447904883
 30
0.0
 11
504.3381177963556
 21
506.8396447904883
 31
0.0
  0
LINE
  5
41FD
330
1F
100
AcDbEntity
  8
AM_0
100
AcDbLine
 10
449.3381477963556
 20
437.8357347904884
 30
0.0
 11
449.3381477963556
 21
446.9688547904884
 31
0.0
  0
LINE
  5
41FE
330
1F
100
AcDbEntity
  8
AM_0
100
AcDbLine
 10
459.3381477963556
 20
455.0239647904884
 30
0.0
 11
459.3381477963556
 21
552.6553147904884
 31
0.0
  0
LINE
  5
41FF
330
1F
100
AcDbEntity
  8
AM_0
100
AcDbLine
 10
454.2072277963556
 20
451.9671147904884
 30
0.0
 11
456.4166677963556
 21
452.0249747904884
 31
0.0
  0
LINE
  5
4200
330
1F
100
AcDbEntity
  8
AM_0
100
AcDbLine
 10
416.3119677963555
 20
437.7893147904883
 30
0.0
 11
414.3643077963556
 21
437.8403447904883
 31
0.0
  0
LINE
  5
4201
330
1F
100
AcDbEntity
  8
AM_0
100
AcDbLine
 10
417.3381477963555
 20
435.8664947904884
 30
0.0
 11
417.3381477963555
 21
441.8651547904883
 31
0.0
  0
LINE
  5
4202
330
1F
100
AcDbEntity
  8
AM_0
100
AcDbLine
 10
413.3381477963555
 20
434.8399747904884
 30
0.0
 11
413.3381477963555
 21
436.8406747904883
 31
0.0
  0
LINE
  5
4204
330
1F
100
AcDbEntity
  8
AM_0
100
AcDbLine
 10
469.4690377963556
 20
435.2832747904883
 30
0.0
 11
414.3381477963555
 21
433.8396147904884
 31
0.0
  0
LINE
  5
4205
330
1F
100
AcDbEntity
  8
AM_0
100
AcDbLine
 10
414.3381177963556
 20
433.8396447904884
 30
0.0
 11
396.2072577963557
 21
434.3144047904884
 31
0.0
  0
LINE
  5
4206
330
1F
100
AcDbEntity
  8
AM_0
100
AcDbLine
 10
472.3381477963556
 20
543.0767647904883
 30
0.0
 11
472.3381477963556
 21
461.3976847904884
 31
0.0
  0
LINE
  5
4207
330
1F
100
AcDbEntity
  8
AM_0
100
AcDbLine
 10
414.3381477963555
 20
443.8396447904882
 30
0.0
 11
414.3381477963555
 21
563.8396447904884
 31
0.0
  0
LINE
  5
420A
330
1F
100
AcDbEntity
  8
AM_0
100
AcDbLine
 10
464.2072577963556
 20
461.4671447904883
 30
0.0
 11
469.4166677963557
 21
461.6035547904884
 31
0.0
  0
LINE
  5
420B
330
1F
100
AcDbEntity
  8
AM_0
100
AcDbLine
 10
474.3381477963557
 20
440.2815647904883
 30
0.0
 11
474.3381477963557
 21
457.3976847904884
 31
0.0
  0
LINE
  5
420C
330
1F
100
AcDbEntity
  8
AM_0
100
AcDbLine
 10
391.3381477963556
 20
439.3126947904883
 30
0.0
 11
391.3381477963556
 21
443.2373447904885
 31
0.0
  0
LINE
  5
420E
330
1F
100
AcDbEntity
  8
AM_0
100
AcDbLine
 10
381.8381477963555
 20
442.9885947904883
 30
0.0
 11
422.7993277963557
 21
444.0611947904884
 31
0.0
  0
LINE
  5
420F
330
1F
100
AcDbEntity
  8
AM_0
100
AcDbLine
 10
449.3381477963556
 20
569.8435447904882
 30
0.0
 11
449.3381477963556
 21
560.7104247904884
 31
0.0
  0
LINE
  5
4210
330
1F
100
AcDbEntity
  8
AM_0
100
AcDbLine
 10
454.2072577963557
 20
555.7121347904882
 30
0.0
 11
456.4166677963556
 21
555.6542747904884
 31
0.0
  0
LINE
  5
4211
330
1F
100
AcDbEntity
  8
AM_0
100
AcDbLine
 10
416.3119677963555
 20
569.8899347904885
 30
0.0
 11
414.3643377963555
 21
569.8389347904885
 31
0.0
  0
LINE
  5
4212
330
1F
100
AcDbEntity
  8
AM_0
100
AcDbLine
 10
417.3381477963555
 20
571.8127547904884
 30
0.0
 11
417.3381477963555
 21
565.8141247904884
 31
0.0
  0
LINE
  5
4213
330
1F
100
AcDbEntity
  8
AM_0
100
AcDbLine
 10
413.3381477963555
 20
572.8392747904884
 30
0.0
 11
413.3381477963555
 21
570.8386047904885
 31
0.0
  0
LINE
  5
4215
330
1F
100
AcDbEntity
  8
AM_0
100
AcDbLine
 10
469.4690077963559
 20
572.3959747904884
 30
0.0
 11
414.3381477963555
 21
573.8396447904883
 31
0.0
  0
LINE
  5
4216
330
1F
100
AcDbEntity
  8
AM_0
100
AcDbLine
 10
414.3381477963555
 20
573.8396147904884
 30
0.0
 11
396.2072577963557
 21
573.3648447904884
 31
0.0
  0
LINE
  5
4219
330
1F
100
AcDbEntity
  8
AM_0
100
AcDbLine
 10
464.2072577963556
 20
546.2121347904884
 30
0.0
 11
469.4166677963557
 21
546.0757247904885
 31
0.0
  0
LINE
  5
421A
330
1F
100
AcDbEntity
  8
AM_0
100
AcDbLine
 10
474.3381477963557
 20
567.3976847904883
 30
0.0
 11
474.3381477963557
 21
550.2815647904883
 31
0.0
  0
LINE
  5
421B
330
1F
100
AcDbEntity
  8
AM_0
100
AcDbLine
 10
391.3381477963556
 20
568.3665547904884
 30
0.0
 11
391.3381477963556
 21
564.4419047904883
 31
0.0
  0
LINE
  5
421D
330
1F
100
AcDbEntity
  8
AM_0
100
AcDbLine
 10
381.8381477963555
 20
564.6906847904883
 30
0.0
 11
422.7993577963556
 21
563.6180847904884
 31
0.0
  0
LINE
  5
421E
330
1F
100
AcDbEntity
  8
AM_0
100
AcDbLine
 10
425.3381477963556
 20
546.5732847904885
 30
0.0
 11
425.3381477963556
 21
563.2213247904885
 31
0.0
  0
LINE
  5
421F
330
1F
100
AcDbEntity
  8
AM_0
100
AcDbLine
 10
427.3380877963555
 20
461.1059947904883
 30
0.0
 11
427.3380877963555
 21
546.5732847904885
 31
0.0
  0
LINE
  5
4220
330
1F
100
AcDbEntity
  8
AM_0
100
AcDbLine
 10
381.8381477963555
 20
559.3659747904885
 30
0.0
 11
425.3381477963556
 21
559.3659747904885
 31
0.0
  0
LINE
  5
4221
330
1F
100
AcDbEntity
  8
AM_0
100
AcDbLine
 10
381.8381477963555
 20
448.3132747904884
 30
0.0
 11
425.3381477963556
 21
448.3132747904884
 31
0.0
  0
LINE
  5
4222
330
1F
100
AcDbEntity
  8
AM_0
100
AcDbLine
 10
434.3011677963556
 20
558.3767847904884
 30
0.0
 11
427.5375777963556
 21
562.2817447904885
 31
0.0
  0
LINE
  5
4223
330
1F
100
AcDbEntity
  8
AM_0
100
AcDbLine
 10
425.3381477963556
 20
546.5732847904885
 30
0.0
 11
427.3380877963555
 21
546.5732847904885
 31
0.0
  0
LINE
  5
4224
330
1F
100
AcDbEntity
  8
AM_0
100
AcDbLine
 10
451.3271077963556
 20
556.7186947904883
 30
0.0
 11
439.0393877963555
 21
557.0404747904883
 31
0.0
  0
LINE
  5
4225
330
1F
100
AcDbEntity
  8
AM_0
100
AcDbLine
 10
438.8362277963556
 20
545.1614747904882
 30
0.0
 11
427.3381177963556
 21
546.5732847904885
 31
0.0
  0
LINE
  5
4226
330
1F
100
AcDbEntity
  8
AM_0
100
AcDbLine
 10
459.3381177963556
 20
544.4455347904884
 30
0.0
 11
438.8362577963555
 21
545.1614747904882
 31
0.0
  0
LINE
  5
4227
330
1F
100
AcDbEntity
  8
AM_0
100
AcDbLine
 10
434.3011677963556
 20
449.3024747904883
 30
0.0
 11
427.5375777963556
 21
445.3975047904884
 31
0.0
  0
LINE
  5
4228
330
1F
100
AcDbEntity
  8
AM_0
100
AcDbLine
 10
425.3381477963556
 20
461.1059947904883
 30
0.0
 11
425.3381477963556
 21
444.4579247904884
 31
0.0
  0
LINE
  5
4229
330
1F
100
AcDbEntity
  8
AM_0
100
AcDbLine
 10
459.3381177963556
 20
463.2337147904883
 30
0.0
 11
438.8362277963556
 21
462.5177747904884
 31
0.0
  0
LINE
  5
422A
330
1F
100
AcDbEntity
  8
AM_0
100
AcDbLine
 10
438.8362277963556
 20
462.5177747904884
 30
0.0
 11
427.3381177963556
 21
461.1059647904882
 31
0.0
  0
LINE
  5
422B
330
1F
100
AcDbEntity
  8
AM_0
100
AcDbLine
 10
425.3381477963556
 20
461.1059947904883
 30
0.0
 11
427.3380877963555
 21
461.1059947904883
 31
0.0
  0
LINE
  5
422C
330
1F
100
AcDbEntity
  8
AM_0
100
AcDbLine
 10
451.3271077963556
 20
450.9605847904884
 30
0.0
 11
439.0394177963556
 21
450.6388047904884
 31
0.0
  0
LINE
  5
422D
330
1F
100
AcDbEntity
  8
AM_0
100
AcDbLine
 10
426.3381477963556
 20
459.6318747904884
 30
0.0
 11
429.3381477963556
 21
459.6318747904884
 31
0.0
  0
LINE
  5
422E
330
1F
100
AcDbEntity
  8
AM_0
100
AcDbLine
 10
426.3381477963556
 20
448.0848847904884
 30
0.0
 11
429.3381477963556
 21
448.0848847904884
 31
0.0
  0
LINE
  5
422F
330
1F
100
AcDbEntity
  8
AM_0
100
AcDbLine
 10
426.3381477963556
 20
456.7451547904883
 30
0.0
 11
429.3381477963556
 21
456.7451547904883
 31
0.0
  0
LINE
  5
4230
330
1F
100
AcDbEntity
  8
AM_0
100
AcDbLine
 10
430.3380877963558
 20
449.0848847904884
 30
0.0
 11
430.3380877963558
 21
458.6319047904884
 31
0.0
  0
LINE
  5
4231
330
1F
100
AcDbEntity
  8
AM_0
100
AcDbLine
 10
426.3381477963556
 20
450.9715947904884
 30
0.0
 11
429.3381477963556
 21
450.9715947904884
 31
0.0
  0
LINE
  5
4232
330
1F
100
AcDbEntity
  8
AM_0
100
AcDbLine
 10
425.3381477963556
 20
447.5848847904884
 30
0.0
 11
426.3381477963556
 21
447.5848847904884
 31
0.0
  0
LINE
  5
4233
330
1F
100
AcDbEntity
  8
AM_0
100
AcDbLine
 10
425.3381477963556
 20
460.1318747904884
 30
0.0
 11
426.3381477963556
 21
460.1318747904884
 31
0.0
  0
LINE
  5
4234
330
1F
100
AcDbEntity
  8
AM_0
100
AcDbLine
 10
426.3381477963556
 20
460.1318747904884
 30
0.0
 11
426.3381477963556
 21
447.5848847904884
 31
0.0
  0
LINE
  5
4235
330
1F
100
AcDbEntity
  8
AM_0
100
AcDbLine
 10
426.3381477963556
 20
547.5474047904883
 30
0.0
 11
426.3381477963556
 21
560.0944047904883
 31
0.0
  0
LINE
  5
4236
330
1F
100
AcDbEntity
  8
AM_0
100
AcDbLine
 10
425.3381477963556
 20
547.5474047904883
 30
0.0
 11
426.3381477963556
 21
547.5474047904883
 31
0.0
  0
LINE
  5
4237
330
1F
100
AcDbEntity
  8
AM_0
100
AcDbLine
 10
425.3381477963556
 20
560.0944047904883
 30
0.0
 11
426.3381477963556
 21
560.0944047904883
 31
0.0
  0
LINE
  5
4238
330
1F
100
AcDbEntity
  8
AM_0
100
AcDbLine
 10
426.3381477963556
 20
556.7076547904885
 30
0.0
 11
429.3381477963556
 21
556.7076547904885
 31
0.0
  0
LINE
  5
4239
330
1F
100
AcDbEntity
  8
AM_0
100
AcDbLine
 10
430.3380877963558
 20
558.5944047904881
 30
0.0
 11
430.3380877963558
 21
549.0473747904884
 31
0.0
  0
LINE
  5
423A
330
1F
100
AcDbEntity
  8
AM_0
100
AcDbLine
 10
426.3381477963556
 20
550.9341247904884
 30
0.0
 11
429.3381477963556
 21
550.9341247904884
 31
0.0
  0
LINE
  5
423B
330
1F
100
AcDbEntity
  8
AM_0
100
AcDbLine
 10
426.3381477963556
 20
559.5944047904883
 30
0.0
 11
429.3381477963556
 21
559.5944047904883
 31
0.0
  0
LINE
  5
423C
330
1F
100
AcDbEntity
  8
AM_0
100
AcDbLine
 10
426.3381477963556
 20
548.0473747904884
 30
0.0
 11
429.3381477963556
 21
548.0473747904884
 31
0.0
  0
LINE
  5
423D
330
1F
100
AcDbEntity
  8
AM_0
100
AcDbLine
 10
381.8381477963555
 20
440.9447147904883
 30
0.0
 11
381.8381477963555
 21
452.3393347904884
 31
0.0
  0
LINE
  5
423E
330
1F
100
AcDbEntity
  8
AM_0
100
AcDbLine
 10
376.8381477963556
 20
439.8396447904882
 30
0.0
 11
376.8381477963556
 21
567.8396447904884
 31
0.0
  0
LINE
  5
423F
330
1F
100
AcDbEntity
  8
AM_0
100
AcDbLine
 10
380.8643377963556
 20
567.7342047904883
 30
0.0
 11
376.8381477963556
 21
567.8396447904884
 31
0.0
  0
LINE
  5
4240
330
1F
100
AcDbEntity
  8
AM_0
100
AcDbLine
 10
380.8643377963556
 20
439.9450447904884
 30
0.0
 11
376.8381477963556
 21
439.8396447904882
 31
0.0
  0
LINE
  5
4241
330
1F
100
AcDbEntity
  8
AM_0
100
AcDbLine
 10
376.8381477963556
 20
452.3393347904884
 30
0.0
 11
388.9632677963556
 21
452.3393347904884
 31
0.0
  0
LINE
  5
4242
330
1F
100
AcDbEntity
  8
AM_0
100
AcDbLine
 10
376.8381477963556
 20
465.7847747904882
 30
0.0
 11
381.8381477963555
 21
465.7847747904882
 31
0.0
  0
LINE
  5
4243
330
1F
100
AcDbEntity
  8
AM_0
100
AcDbLine
 10
389.8381477963555
 20
454.5513147904883
 30
0.0
 11
389.8381477963555
 21
464.4645447904884
 31
0.0
  0
LINE
  5
4244
330
1F
100
AcDbEntity
  8
AM_0
100
AcDbLine
 10
399.8381477963556
 20
455.5198447904884
 30
0.0
 11
399.8381477963556
 21
465.4900347904881
 31
0.0
  0
LINE
  5
4245
330
1F
100
AcDbEntity
  8
AM_0
100
AcDbLine
 10
381.8381477963555
 20
465.7847747904882
 30
0.0
 11
381.8381477963555
 21
541.8945147904882
 31
0.0
  0
LINE
  5
4246
330
1F
100
AcDbEntity
  8
AM_0
100
AcDbLine
 10
381.8381477963555
 20
555.3396447904884
 30
0.0
 11
381.8381477963555
 21
566.7345347904883
 31
0.0
  0
LINE
  5
4247
330
1F
100
AcDbEntity
  8
AM_0
100
AcDbLine
 10
399.8381177963557
 20
454.1025847904884
 30
0.0
 11
390.6997577963558
 21
452.4912247904884
 31
0.0
  0
LINE
  5
4248
330
1F
100
AcDbEntity
  8
AM_0
100
AcDbLine
 10
381.8381477963555
 20
466.6596447904884
 30
0.0
 11
399.8381477963556
 21
466.6596447904884
 31
0.0
  0
LINE
  5
4249
330
1F
100
AcDbEntity
  8
AM_0
100
AcDbLine
 10
389.8381477963555
 20
553.1279447904884
 30
0.0
 11
389.8381477963555
 21
543.2147047904884
 31
0.0
  0
LINE
  5
424A
330
1F
100
AcDbEntity
  8
AM_0
100
AcDbLine
 10
399.8381177963557
 20
553.5766447904884
 30
0.0
 11
390.6997177963556
 21
555.1879947904883
 31
0.0
  0
LINE
  5
424B
330
1F
100
AcDbEntity
  8
AM_0
100
AcDbLine
 10
376.8381477963556
 20
541.8945147904882
 30
0.0
 11
381.8381477963555
 21
541.8945147904882
 31
0.0
  0
LINE
  5
424C
330
1F
100
AcDbEntity
  8
AM_0
100
AcDbLine
 10
381.8381477963555
 20
541.0196047904882
 30
0.0
 11
399.8381477963556
 21
541.0196047904882
 31
0.0
  0
LINE
  5
424D
330
1F
100
AcDbEntity
  8
AM_0
100
AcDbLine
 10
376.8381477963556
 20
555.3399147904883
 30
0.0
 11
388.9632677963556
 21
555.3399147904883
 31
0.0
  0
LINE
  5
424E
330
1F
100
AcDbEntity
  8
AM_0
100
AcDbLine
 10
399.8381477963556
 20
552.1594047904882
 30
0.0
 11
399.8381477963556
 21
542.1891847904882
 31
0.0
  0
ARC
  5
424F
330
1F
100
AcDbEntity
  8
AM_0
100
AcDbCircle
 10
473.3381477963556
 20
482.8130947904884
 30
0.0
 40
1.0
100
AcDbArc
 50
91.50000100000154
 51
180.000010000001
  0
ARC
  5
4250
330
1F
100
AcDbEntity
  8
AM_0
100
AcDbCircle
 10
473.3381477963556
 20
524.8661647904883
 30
0.0
 40
1.0
100
AcDbArc
 50
179.999989999999
 51
268.5000099999988
  0
ARC
  5
4251
330
1F
100
AcDbEntity
  8
AM_0
100
AcDbCircle
 10
473.3381477963556
 20
484.8137947904884
 30
0.0
 40
1.0
100
AcDbArc
 50
271.4999999999995
 51
0.0
  0
ARC
  5
4252
330
1F
100
AcDbEntity
  8
AM_0
100
AcDbCircle
 10
473.3381477963556
 20
522.8654847904883
 30
0.0
 40
1.0
100
AcDbArc
 50
0.0
 51
88.49999700000074
  0
ARC
  5
4253
330
1F
100
AcDbEntity
  8
AM_0
100
AcDbCircle
 10
482.3380877963556
 20
503.8396447904883
 30
0.0
 40
3.0
100
AcDbArc
 50
89.98601399999925
 51
270.01399
  0
ARC
  5
4254
330
1F
100
AcDbEntity
  8
AM_0
100
AcDbCircle
 10
414.3381477963555
 20
434.8399747904884
 30
0.0
 40
1.0
100
AcDbArc
 50
180.000010000001
 51
268.5000000000005
  0
ARC
  5
4255
330
1F
100
AcDbEntity
  8
AM_0
100
AcDbCircle
 10
469.3381477963556
 20
464.6025147904884
 30
0.0
 40
3.0
100
AcDbArc
 50
271.4999999999995
 51
0.0
  0
ARC
  5
4256
330
1F
100
AcDbEntity
  8
AM_0
100
AcDbCircle
 10
415.3381477963555
 20
435.8664947904884
 30
0.0
 40
2.0
100
AcDbArc
 50
271.4999999999995
 51
0.0
  0
ARC
  5
4257
330
1F
100
AcDbEntity
  8
AM_0
100
AcDbCircle
 10
415.3381477963555
 20
441.8651547904883
 30
0.0
 40
2.0
100
AcDbArc
 50
0.0
 51
91.50000100000154
  0
ARC
  5
4258
330
1F
100
AcDbEntity
  8
AM_0
100
AcDbCircle
 10
456.3381477963556
 20
455.0239647904884
 30
0.0
 40
3.0
100
AcDbArc
 50
271.4999999999995
 51
0.0
  0
ARC
  5
4259
330
1F
100
AcDbEntity
  8
AM_0
100
AcDbCircle
 10
452.3381477963556
 20
437.8357347904884
 30
0.0
 40
3.0
100
AcDbArc
 50
180.000010000001
 51
271.4999999999995
  0
ARC
  5
425A
330
1F
100
AcDbEntity
  8
AM_0
100
AcDbCircle
 10
454.3381477963555
 20
446.9688547904884
 30
0.0
 40
5.0
100
AcDbArc
 50
91.50000100000154
 51
180.000010000001
  0
ARC
  5
425B
330
1F
100
AcDbEntity
  8
AM_0
100
AcDbCircle
 10
464.3381477963556
 20
456.4688547904882
 30
0.0
 40
5.0
100
AcDbArc
 50
91.50000100000154
 51
180.000010000001
  0
ARC
  5
425C
330
1F
100
AcDbEntity
  8
AM_0
100
AcDbCircle
 10
416.3381477963555
 20
438.7889847904883
 30
0.0
 40
1.0
100
AcDbArc
 50
268.5000000000005
 51
0.0000006832462478
  0
ARC
  5
425D
330
1F
100
AcDbEntity
  8
AM_0
100
AcDbCircle
 10
414.3381477963555
 20
436.8406747904883
 30
0.0
 40
1.0
100
AcDbArc
 50
88.49999700000074
 51
180.000010000001
  0
ARC
  5
425E
330
1F
100
AcDbEntity
  8
ｶｸﾚｾﾝ2
100
AcDbCircle
 10
401.3380877963558
 20
446.3396447904884
 30
0.0
 40
5.0
100
AcDbArc
 50
326.897030000001
 51
216.1029599999999
  0
CIRCLE
  5
425F
330
1F
100
AcDbEntity
  8
AM_0
100
AcDbCircle
 10
464.3380877963555
 20
446.3396447904884
 30
0.0
 40
5.0
  0
ARC
  5
4260
330
1F
100
AcDbEntity
  8
AM_0
100
AcDbCircle
 10
396.3381477963555
 20
439.3126947904883
 30
0.0
 40
5.0
100
AcDbArc
 50
180.000010000001
 51
268.5000000000005
  0
ARC
  5
4261
330
1F
100
AcDbEntity
  8
AM_0
100
AcDbCircle
 10
469.3381477963556
 20
457.3976847904884
 30
0.0
 40
5.0
100
AcDbArc
 50
0.0
 51
70.48533900000079
  0
ARC
  5
4262
330
1F
100
AcDbEntity
  8
AM_0
100
AcDbCircle
 10
469.3381477963556
 20
440.2815647904883
 30
0.0
 40
5.0
100
AcDbArc
 50
271.4999999999995
 51
0.0
  0
ARC
  5
4263
330
1F
100
AcDbEntity
  8
AM_0
100
AcDbCircle
 10
414.3381477963555
 20
572.8392747904884
 30
0.0
 40
1.0
100
AcDbArc
 50
91.50000100000154
 51
180.000010000001
  0
ARC
  5
4264
330
1F
100
AcDbEntity
  8
AM_0
100
AcDbCircle
 10
469.3381477963556
 20
543.0767647904883
 30
0.0
 40
3.0
100
AcDbArc
 50
0.0
 51
88.49999700000074
  0
ARC
  5
4265
330
1F
100
AcDbEntity
  8
AM_0
100
AcDbCircle
 10
415.3381477963555
 20
571.8127547904884
 30
0.0
 40
2.0
100
AcDbArc
 50
0.0
 51
88.49999700000074
  0
ARC
  5
4266
330
1F
100
AcDbEntity
  8
AM_0
100
AcDbCircle
 10
415.3381477963555
 20
565.8141247904884
 30
0.0
 40
2.0
100
AcDbArc
 50
268.5000000000005
 51
0.0000006832462478
  0
ARC
  5
4267
330
1F
100
AcDbEntity
  8
AM_0
100
AcDbCircle
 10
456.3381477963556
 20
552.6553147904884
 30
0.0
 40
3.0
100
AcDbArc
 50
0.0
 51
88.49999700000074
  0
ARC
  5
4268
330
1F
100
AcDbEntity
  8
AM_0
100
AcDbCircle
 10
452.3381477963556
 20
569.8435447904882
 30
0.0
 40
3.0
100
AcDbArc
 50
88.49999700000074
 51
180.000010000001
  0
ARC
  5
4269
330
1F
100
AcDbEntity
  8
AM_0
100
AcDbCircle
 10
454.3381477963555
 20
560.7104247904884
 30
0.0
 40
5.0
100
AcDbArc
 50
180.000010000001
 51
268.5000000000005
  0
ARC
  5
426A
330
1F
100
AcDbEntity
  8
AM_0
100
AcDbCircle
 10
464.3381477963556
 20
551.2104247904882
 30
0.0
 40
5.0
100
AcDbArc
 50
180.000010000001
 51
268.5000000000005
  0
ARC
  5
426B
330
1F
100
AcDbEntity
  8
AM_0
100
AcDbCircle
 10
416.3381477963555
 20
568.8902947904884
 30
0.0
 40
1.0
100
AcDbArc
 50
0.0
 51
91.50000100000154
  0
ARC
  5
426C
330
1F
100
AcDbEntity
  8
AM_0
100
AcDbCircle
 10
414.3381477963555
 20
570.8386047904885
 30
0.0
 40
1.0
100
AcDbArc
 50
180.000010000001
 51
271.4999999999995
  0
CIRCLE
  5
426D
330
1F
100
AcDbEntity
  8
AM_0
100
AcDbCircle
 10
464.3380877963555
 20
561.3396447904883
 30
0.0
 40
5.0
  0
ARC
  5
426E
330
1F
100
AcDbEntity
  8
AM_0
100
AcDbCircle
 10
396.3381477963555
 20
568.3665547904884
 30
0.0
 40
5.0
100
AcDbArc
 50
91.50000100000154
 51
180.000010000001
  0
ARC
  5
426F
330
1F
100
AcDbEntity
  8
AM_0
100
AcDbCircle
 10
469.3381477963556
 20
550.2815647904883
 30
0.0
 40
5.0
100
AcDbArc
 50
289.5146699999996
 51
0.0
  0
ARC
  5
4270
330
1F
100
AcDbEntity
  8
AM_0
100
AcDbCircle
 10
469.3381477963556
 20
567.3976847904883
 30
0.0
 40
5.0
100
AcDbArc
 50
0.0
 51
88.49999700000074
  0
ARC
  5
4271
330
1F
100
AcDbEntity
  8
AM_0
100
AcDbCircle
 10
507.3381177963557
 20
503.8396447904883
 30
0.0
 40
80.0
100
AcDbArc
 50
148.9006799999989
 51
211.0993000000006
  0
ARC
  5
4272
330
1F
100
AcDbEntity
  8
AM_0
100
AcDbCircle
 10
429.3381477963556
 20
457.7451247904884
 30
0.0
 40
1.0
100
AcDbArc
 50
269.999989999999
 51
0.0000006832462478
  0
ARC
  5
4273
330
1F
100
AcDbEntity
  8
AM_0
100
AcDbCircle
 10
429.3381477963556
 20
451.9716247904884
 30
0.0
 40
1.0
100
AcDbArc
 50
269.999989999999
 51
0.0000006832462478
  0
ARC
  5
4274
330
1F
100
AcDbEntity
  8
AM_0
100
AcDbCircle
 10
429.3381477963556
 20
449.0848847904884
 30
0.0
 40
1.0
100
AcDbArc
 50
269.999989999999
 51
0.0000006832462478
  0
ARC
  5
4275
330
1F
100
AcDbEntity
  8
AM_0
100
AcDbCircle
 10
429.3381477963556
 20
455.7451247904883
 30
0.0
 40
1.0
100
AcDbArc
 50
0.0
 51
90.00000300000095
  0
ARC
  5
4276
330
1F
100
AcDbEntity
  8
AM_0
100
AcDbCircle
 10
429.3381477963556
 20
458.6319047904884
 30
0.0
 40
1.0
100
AcDbArc
 50
0.0
 51
90.00000300000095
  0
ARC
  5
4277
330
1F
100
AcDbEntity
  8
AM_0
100
AcDbCircle
 10
429.3381477963556
 20
449.9716247904883
 30
0.0
 40
1.0
100
AcDbArc
 50
0.0
 51
90.00000300000095
  0
ARC
  5
4278
330
1F
100
AcDbEntity
  8
AM_0
100
AcDbCircle
 10
429.3381477963556
 20
557.7076247904883
 30
0.0
 40
1.0
100
AcDbArc
 50
269.999989999999
 51
0.0000006832462478
  0
ARC
  5
4279
330
1F
100
AcDbEntity
  8
AM_0
100
AcDbCircle
 10
429.3381477963556
 20
549.0473747904884
 30
0.0
 40
1.0
100
AcDbArc
 50
269.999989999999
 51
0.0000006832462478
  0
ARC
  5
427A
330
1F
100
AcDbEntity
  8
AM_0
100
AcDbCircle
 10
429.3381477963556
 20
551.9341247904883
 30
0.0
 40
1.0
100
AcDbArc
 50
269.999989999999
 51
0.0000006832462478
  0
ARC
  5
427B
330
1F
100
AcDbEntity
  8
AM_0
100
AcDbCircle
 10
429.3381477963556
 20
558.5944047904881
 30
0.0
 40
1.0
100
AcDbArc
 50
0.0
 51
90.00000300000095
  0
ARC
  5
427C
330
1F
100
AcDbEntity
  8
AM_0
100
AcDbCircle
 10
429.3381477963556
 20
555.7076547904885
 30
0.0
 40
1.0
100
AcDbArc
 50
0.0
 51
90.00000300000095
  0
ARC
  5
427D
330
1F
100
AcDbEntity
  8
AM_0
100
AcDbCircle
 10
429.3381477963556
 20
549.9341547904885
 30
0.0
 40
1.0
100
AcDbArc
 50
0.0
 51
90.00000300000095
  0
ARC
  5
427E
330
1F
100
AcDbEntity
  8
AM_0
100
AcDbCircle
 10
401.3380877963558
 20
446.3396447904884
 30
0.0
 40
5.0
100
AcDbArc
 50
216.1029699999991
 51
326.8970199999992
  0
ARC
  5
427F
330
1F
100
AcDbEntity
  8
ｶｸﾚｾﾝ2
100
AcDbCircle
 10
401.3380877963558
 20
561.3396447904883
 30
0.0
 40
5.0
100
AcDbArc
 50
143.8968800000005
 51
33.10312300000014
  0
ARC
  5
4280
330
1F
100
AcDbEntity
  8
AM_0
100
AcDbCircle
 10
401.3380877963558
 20
561.3396447904883
 30
0.0
 40
5.0
100
AcDbArc
 50
33.10311300000134
 51
143.8968800000005
  0
ARC
  5
4281
330
1F
100
AcDbEntity
  8
AM_0
100
AcDbCircle
 10
439.3011677963555
 20
440.6422247904883
 30
0.0
 40
10.0
100
AcDbArc
 50
91.50000100000154
 51
120.0000000000005
  0
ARC
  5
4282
330
1F
100
AcDbEntity
  8
AM_0
100
AcDbCircle
 10
439.3011677963555
 20
567.0370547904883
 30
0.0
 40
10.0
100
AcDbArc
 50
239.9999999999995
 51
268.5000000000005
  0
ARC
  5
4283
330
1F
100
AcDbEntity
  8
AM_0
100
AcDbCircle
 10
422.5375477963556
 20
553.6215047904883
 30
0.0
 40
10.0
100
AcDbArc
 50
60.0000020000013
 51
88.49999700000074
  0
ARC
  5
4284
330
1F
100
AcDbEntity
  8
AM_0
100
AcDbCircle
 10
422.5375477963556
 20
454.0577847904883
 30
0.0
 40
10.0
100
AcDbArc
 50
271.4999999999995
 51
300.0000100000008
  0
ARC
  5
4285
330
1F
100
AcDbEntity
  8
AM_0
100
AcDbCircle
 10
380.8381477963555
 20
566.7345347904883
 30
0.0
 40
1.0
100
AcDbArc
 50
0.0
 51
88.49999700000074
  0
ARC
  5
4286
330
1F
100
AcDbEntity
  8
AM_0
100
AcDbCircle
 10
380.8381477963555
 20
440.9447147904883
 30
0.0
 40
1.0
100
AcDbArc
 50
271.4999999999995
 51
0.0
  0
ARC
  5
4287
330
1F
100
AcDbEntity
  8
AM_0
100
AcDbCircle
 10
388.9632677963556
 20
462.3393347904883
 30
0.0
 40
10.0
100
AcDbArc
 50
270.0
 51
280.0000100000012
  0
ARC
  5
4288
330
1F
100
AcDbEntity
  8
AM_0
100
AcDbCircle
 10
388.9632677963556
 20
545.3399147904884
 30
0.0
 40
10.0
100
AcDbArc
 50
79.9999980000011
 51
90.00000300000095
  0
LINE
  5
4298
330
1F
100
AcDbEntity
  8
ﾁｭｳｼﾝｾﾝ1
 48
0.7
100
AcDbLine
 10
464.3380877963556
 20
436.3396447904884
 30
0.0
 11
464.3380877963556
 21
456.3396447904882
 31
0.0
  0
LINE
  5
4299
330
1F
100
AcDbEntity
  8
ﾁｭｳｼﾝｾﾝ1
 48
0.7
100
AcDbLine
 10
391.8011627963559
 20
446.3396447904885
 30
0.0
 11
410.8750127963558
 21
446.3396447904885
 31
0.0
  0
LINE
  5
429A
330
1F
100
AcDbEntity
  8
ﾁｭｳｼﾝｾﾝ1
 48
0.7
100
AcDbLine
 10
401.3380877963558
 20
436.3396447904884
 30
0.0
 11
401.3380877963558
 21
456.3396447904882
 31
0.0
  0
LINE
  5
429B
330
1F
100
AcDbEntity
  8
ﾁｭｳｼﾝｾﾝ1
 48
0.7
100
AcDbLine
 10
455.9259777963556
 20
446.3396447904884
 30
0.0
 11
472.7501977963555
 21
446.3396447904884
 31
0.0
  0
LINE
  5
429C
330
1F
100
AcDbEntity
  8
ﾁｭｳｼﾝｾﾝ1
 48
0.7
100
AcDbLine
 10
464.3380877963556
 20
571.3396747904885
 30
0.0
 11
464.3380877963556
 21
551.3396747904884
 31
0.0
  0
LINE
  5
429D
330
1F
100
AcDbEntity
  8
ﾁｭｳｼﾝｾﾝ1
 48
0.7
100
AcDbLine
 10
391.8011627963559
 20
561.3396747904885
 30
0.0
 11
410.8750127963558
 21
561.3396747904885
 31
0.0
  0
LINE
  5
429E
330
1F
100
AcDbEntity
  8
ﾁｭｳｼﾝｾﾝ1
 48
0.7
100
AcDbLine
 10
401.3380877963558
 20
571.3396747904885
 30
0.0
 11
401.3380877963558
 21
551.3396747904884
 31
0.0
  0
LINE
  5
429F
330
1F
100
AcDbEntity
  8
ﾁｭｳｼﾝｾﾝ1
 48
0.7
100
AcDbLine
 10
455.9259777963556
 20
561.3396747904885
 30
0.0
 11
472.7501977963555
 21
561.3396747904885
 31
0.0
  0
LINE
  5
42FF
330
1F
100
AcDbEntity
  8
0
  6
Continuous
 62
     7
100
AcDbLine
 10
301.3381650614588
 20
533.8396402904882
 30
0.0
 11
301.3381650614588
 21
473.8396402904881
 31
0.0
  0
LINE
  5
4300
330
1F
100
AcDbEntity
  8
0
100
AcDbLine
 10
352.0869067618259
 20
535.6118299014032
 30
0.0
 11
301.3381650614588
 21
533.8396447904881
 31
0.0
  0
LINE
  5
4301
330
1F
100
AcDbEntity
  8
0
100
AcDbLine
 10
352.0868977834078
 20
472.0674599931061
 30
0.0
 11
301.3381650614587
 21
473.8396447904881
 31
0.0
  0
LINE
  5
4302
330
1F
100
AcDbEntity
  8
0
100
AcDbLine
 10
368.7683449883798
 20
567.5578411999946
 30
0.0
 11
376.838143981785
 21
567.839644790488
 31
0.0
  0
LINE
  5
4303
330
1F
100
AcDbEntity
  8
0
100
AcDbLine
 10
366.8381439817849
 20
565.5590595459564
 30
0.0
 11
366.8381439817882
 21
442.1202289600609
 31
0.0
  0
ARC
  5
4304
330
1F
100
AcDbEntity
  8
0
100
AcDbCircle
 10
368.838143981785
 20
565.5590595459564
 30
0.0
 40
2.0
100
AcDbArc
 50
92.00000000000034
 51
180.0
1001
GENIUS_GENOBJ-N-FIL_13
1002
{
1000
OWNER
1000
GEN
1002
}
1001
GENIUS_GENODEF_13
1002
{
1000
HIER
1070
     0
1002
}
1002
{
1000
MANEDIT
1070
     0
1002
}
1002
{
1000
NOSEL
1070
     0
1002
}
1002
{
1000
BEHIND
1070
     0
1002
}
1002
{
1000
OTHER
1070
     0
1002
}
1002
{
1000
REACTOR
1002
}
  0
ARC
  5
4305
330
1F
100
AcDbEntity
  8
0
100
AcDbCircle
 10
361.838143981785
 20
563.4107126023535
 30
0.0
 40
5.0
100
AcDbArc
 50
315.0
 51
0.0
1001
GENIUS_GENOBJ-N-FIL_13
1002
{
1000
OWNER
1000
GEN
1002
}
1001
GENIUS_GENODEF_13
1002
{
1000
HIER
1070
     0
1002
}
1002
{
1000
MANEDIT
1070
     0
1002
}
1002
{
1000
NOSEL
1070
     0
1002
}
1002
{
1000
BEHIND
1070
     0
1002
}
1002
{
1000
OTHER
1070
     0
1002
}
1002
{
1000
REACTOR
1002
}
  0
LINE
  5
4306
330
1F
100
AcDbEntity
  8
0
100
AcDbLine
 10
342.105832551939
 20
536.6073333606417
 30
0.0
 11
365.3736778877178
 21
559.8751786964207
 31
0.0
  0
ARC
  5
4307
330
1F
100
AcDbEntity
  8
0
100
AcDbCircle
 10
338.5702986460062
 20
540.1428672665743
 30
0.0
 40
5.0
100
AcDbArc
 50
272.0000000000004
 51
315.0
1001
GENIUS_GENOBJ-N-FIL_13
1002
{
1000
OWNER
1000
GEN
1002
}
1001
GENIUS_GENODEF_13
1002
{
1000
HIER
1070
     0
1002
}
1002
{
1000
MANEDIT
1070
     0
1002
}
1002
{
1000
NOSEL
1070
     0
1002
}
1002
{
1000
BEHIND
1070
     0
1002
}
1002
{
1000
OTHER
1070
     0
1002
}
1002
{
1000
REACTOR
1002
}
  0
LINE
  5
4308
330
1F
100
AcDbEntity
  8
0
100
AcDbLine
 10
342.105832551939
 20
471.0719562203344
 30
0.0
 11
365.3736778877178
 21
447.8041108845554
 31
0.0
  0
ARC
  5
4309
330
1F
100
AcDbEntity
  8
0
100
AcDbCircle
 10
338.5702986460062
 20
467.5364223144018
 30
0.0
 40
5.0
100
AcDbArc
 50
45.0
 51
87.99999999999965
1001
GENIUS_GENOBJ-N-FIL_13
1002
{
1000
OWNER
1000
GEN
1002
}
1001
GENIUS_GENODEF_13
1002
{
1000
HIER
1070
     0
1002
}
1002
{
1000
MANEDIT
1070
     0
1002
}
1002
{
1000
NOSEL
1070
     0
1002
}
1002
{
1000
BEHIND
1070
     0
1002
}
1002
{
1000
OTHER
1070
     0
1002
}
1002
{
1000
REACTOR
1002
}
  0
LINE
  5
430B
330
1F
100
AcDbEntity
  8
AM_5
 62
     2
100
AcDbLine
 10
366.8381439817856
 20
541.9396441944615
 30
0.0
 11
376.838145525494
 21
541.9396447904881
 31
0.0
1001
GENIUS_GENODEF_13
1002
{
1000
HIER
1070
     0
1002
}
1002
{
1000
MANEDIT
1070
     0
1002
}
1002
{
1000
NOSEL
1070
     0
1002
}
1002
{
1000
BEHIND
1070
     0
1002
}
1002
{
1000
OTHER
1070
     0
1002
}
1002
{
1000
REACTOR
1002
}
1001
GENIUS_GENOBJ-N-CEN_13
1002
{
1000
OWNER
1000
GEN
1002
}
1001
GENIUS_GENCEN_19
1002
{
1040
2.794
1002
}
  0
LINE
  5
430C
330
1F
100
AcDbEntity
  8
AM_5
 62
     2
100
AcDbLine
 10
366.8381439817876
 20
465.7396441944615
 30
0.0
 11
376.8381500672171
 21
465.7396447904885
 31
0.0
1001
GENIUS_GENODEF_13
1002
{
1000
HIER
1070
     0
1002
}
1002
{
1000
MANEDIT
1070
     0
1002
}
1002
{
1000
NOSEL
1070
     0
1002
}
1002
{
1000
BEHIND
1070
     0
1002
}
1002
{
1000
OTHER
1070
     0
1002
}
1002
{
1000
REACTOR
1002
}
1001
GENIUS_GENOBJ-N-CEN_13
1002
{
1000
OWNER
1000
GEN
1002
}
1001
GENIUS_GENCEN_19
1002
{
1040
2.794
1002
}
  0
LINE
  5
430D
330
1F
100
AcDbEntity
  8
0
100
AcDbLine
 10
366.8381439817879
 20
452.3396441944614
 30
0.0
 11
376.8381508658928
 21
452.3396447904884
 31
0.0
1001
GENIUS_GENODEF_13
1002
{
1000
HIER
1070
     0
1002
}
1002
{
1000
MANEDIT
1070
     0
1002
}
1002
{
1000
NOSEL
1070
     0
1002
}
1002
{
1000
BEHIND
1070
     0
1002
}
1002
{
1000
OTHER
1070
     0
1002
}
1002
{
1000
REACTOR
1002
}
1001
GENIUS_GENOBJ-N-CEN_13
1002
{
1000
OWNER
1000
GEN
1002
}
1001
GENIUS_GENCEN_19
1002
{
1040
2.794
1002
}
  0
LINE
  5
430E
330
1F
100
AcDbEntity
  8
0
100
AcDbLine
 10
366.8381439817852
 20
555.3396441944614
 30
0.0
 11
376.8381447268183
 21
555.3396447904881
 31
0.0
1001
GENIUS_GENODEF_13
1002
{
1000
HIER
1070
     0
1002
}
1002
{
1000
MANEDIT
1070
     0
1002
}
1002
{
1000
NOSEL
1070
     0
1002
}
1002
{
1000
BEHIND
1070
     0
1002
}
1002
{
1000
OTHER
1070
     0
1002
}
1002
{
1000
REACTOR
1002
}
1001
GENIUS_GENOBJ-N-CEN_13
1002
{
1000
OWNER
1000
GEN
1002
}
1001
GENIUS_GENCEN_19
1002
{
1040
2.794
1002
}
  0
LINE
  5
430F
330
1F
100
AcDbEntity
  8
0
100
AcDbLine
 10
368.7683525839286
 20
440.121447419019
 30
0.0
 11
376.8381516109261
 21
439.8396447904887
 31
0.0
  0
ARC
  5
4310
330
1F
100
AcDbEntity
  8
0
100
AcDbCircle
 10
368.8381513390682
 20
442.1202290813776
 30
0.0
 40
2.0
100
AcDbArc
 50
180.0000068299612
 51
268.0000068299624
1001
GENIUS_GENOBJ-N-FIL_13
1002
{
1000
OWNER
1000
GEN
1002
}
1001
GENIUS_GENODEF_13
1002
{
1000
HIER
1070
     0
1002
}
1002
{
1000
MANEDIT
1070
     0
1002
}
1002
{
1000
NOSEL
1070
     0
1002
}
1002
{
1000
BEHIND
1070
     0
1002
}
1002
{
1000
OTHER
1070
     0
1002
}
1002
{
1000
REACTOR
1002
}
  0
ARC
  5
4311
330
1F
100
AcDbEntity
  8
0
100
AcDbCircle
 10
361.8381510829739
 20
444.2685751905432
 30
0.0
 40
5.0
100
AcDbArc
 50
0.0000068299611879
 51
45.00000682996163
1001
GENIUS_GENOBJ-N-FIL_13
1002
{
1000
OWNER
1000
GEN
1002
}
1001
GENIUS_GENODEF_13
1002
{
1000
HIER
1070
     0
1002
}
1002
{
1000
MANEDIT
1070
     0
1002
}
1002
{
1000
NOSEL
1070
     0
1002
}
1002
{
1000
BEHIND
1070
     0
1002
}
1002
{
1000
OTHER
1070
     0
1002
}
1002
{
1000
REACTOR
1002
}
  0
LINE
  5
4312
330
1F
100
AcDbEntity
  8
0
100
AcDbLine
 10
376.838143981785
 20
567.839644790488
 30
0.0
 11
376.8381516109261
 21
439.8396447904887
 31
0.0
  0
ARC
  5
4313
330
1F
100
AcDbEntity
  8
AM_5
 62
     2
100
AcDbCircle
 10
380.1028187280037
 20
503.8396407335623
 30
0.0
 40
38.83431186232895
100
AcDbArc
 50
133.1867259405558
 51
226.813256781428
  0
ARC
  5
4314
330
1F
100
AcDbEntity
  8
AM_5
 62
     2
100
AcDbCircle
 10
352.1566967768129
 20
474.0662416471443
 30
0.0
 40
2.0
100
AcDbArc
 50
267.9999999999997
 51
46.81325678142453
1001
GENIUS_GENODEF_13
1002
{
1000
HIER
1070
     0
1002
}
1002
{
1000
MANEDIT
1070
     0
1002
}
1002
{
1000
NOSEL
1070
     0
1002
}
1002
{
1000
BEHIND
1070
     0
1002
}
1002
{
1000
OTHER
1070
     0
1002
}
1002
{
1000
REACTOR
1002
}
1001
GENIUS_GENOBJ-N-FIL_13
1002
{
1000
OWNER
1000
GEN
1002
}
  0
ARC
  5
4315
330
1F
100
AcDbEntity
  8
AM_5
 62
     2
100
AcDbCircle
 10
352.1567057552309
 20
533.6130482473651
 30
0.0
 40
2.0
100
AcDbArc
 50
313.1867259405559
 51
92.00000000000034
1001
GENIUS_GENODEF_13
1002
{
1000
HIER
1070
     0
1002
}
1002
{
1000
MANEDIT
1070
     0
1002
}
1002
{
1000
NOSEL
1070
     0
1002
}
1002
{
1000
BEHIND
1070
     0
1002
}
1002
{
1000
OTHER
1070
     0
1002
}
1002
{
1000
REACTOR
1002
}
1001
GENIUS_GENOBJ-N-FIL_13
1002
{
1000
OWNER
1000
GEN
1002
}
  0
LINE
  5
4346
330
1F
100
AcDbEntity
  8
0
100
AcDbLine
 10
329.8381650614588
 20
315.9708301342606
 30
0.0
 11
329.8381650614589
 21
316.3755928369535
 31
0.0
1001
GENIUS_GENOBJ-N-CEN_13
1002
{
1000
OWNER
1000
GEN
1002
}
1001
GENIUS_GENODEF_13
1002
{
1000
HIER
1070
     0
1002
}
1002
{
1000
MANEDIT
1070
     0
1002
}
1002
{
1000
NOSEL
1070
     0
1002
}
1002
{
1000
BEHIND
1070
     0
1002
}
1002
{
1000
OTHER
1070
     0
1002
}
1002
{
1000
REACTOR
1002
}
1001
GENIUS_GENCEN_19
1002
{
1040
2.794
1002
}
  0
LINE
  5
4347
330
1F
100
AcDbEntity
  8
0
100
AcDbLine
 10
312.8381650614589
 20
315.3755928369534
 30
0.0
 11
312.8381650614589
 21
316.3755928369534
 31
0.0
1001
GENIUS_GENOBJ-N-CEN_13
1002
{
1000
OWNER
1000
GEN
1002
}
1001
GENIUS_GENODEF_13
1002
{
1000
HIER
1070
     0
1002
}
1002
{
1000
MANEDIT
1070
     0
1002
}
1002
{
1000
NOSEL
1070
     0
1002
}
1002
{
1000
BEHIND
1070
     0
1002
}
1002
{
1000
OTHER
1070
     0
1002
}
1002
{
1000
REACTOR
1002
}
1001
GENIUS_GENCEN_19
1002
{
1040
2.794
1002
}
  0
LINE
  5
4349
330
1F
100
AcDbEntity
  8
0
100
AcDbLine
 10
312.3381650614589
 20
315.359716668155
 30
0.0
 11
312.3381650614589
 21
315.3755928369534
 31
0.0
1001
GENIUS_GENOBJ-N-CEN_13
1002
{
1000
OWNER
1000
GEN
1002
}
1001
GENIUS_GENODEF_13
1002
{
1000
HIER
1070
     0
1002
}
1002
{
1000
MANEDIT
1070
     0
1002
}
1002
{
1000
NOSEL
1070
     0
1002
}
1002
{
1000
BEHIND
1070
     0
1002
}
1002
{
1000
OTHER
1070
     0
1002
}
1002
{
1000
REACTOR
1002
}
1001
GENIUS_GENCEN_19
1002
{
1040
2.794
1002
}
  0
LINE
  5
434A
330
1F
100
AcDbEntity
  8
0
100
AcDbLine
 10
312.3381650614589
 20
315.3755928369534
 30
0.0
 11
312.7927990523305
 21
315.3755928369534
 31
0.0
  0
LINE
  5
434B
330
1F
100
AcDbEntity
  8
図面枠-ｷｲﾛ
100
AcDbLine
 10
312.8381650614589
 20
316.3755928369533
 30
0.0
 11
329.8381650614589
 21
316.3755928369535
 31
0.0
  0
ARC
  5
434C
330
1F
100
AcDbEntity
  8
0
100
AcDbCircle
 10
321.338165061459
 20
299.3130928369534
 30
0.0
 40
19.06249999999999
100
AcDbArc
 50
63.51896016962665
 51
116.4810398303733
  0
LINE
  5
434D
330
1F
100
AcDbEntity
  8
AM_7
  6
AM_ISO08W050x2
 62
     1
370
    25
100
AcDbLine
 10
321.3381650614589
 20
321.1695928369534
 30
0.0
 11
321.3381650614589
 21
306.1117512979698
 31
0.0
1001
GENIUS_GENODEF_13
1002
{
1000
HIER
1070
     0
1002
}
1002
{
1000
MANEDIT
1070
     0
1002
}
1002
{
1000
NOSEL
1070
     0
1002
}
1002
{
1000
BEHIND
1070
     0
1002
}
1002
{
1000
OTHER
1070
     0
1002
}
1002
{
1000
REACTOR
1002
}
1001
GENIUS_GENOBJ-N-CEN_13
1002
{
1000
OWNER
1000
GEN
1002
}
1001
GENIUS_GENCEN_19
1002
{
1040
2.794
1002
}
  0
CIRCLE
  5
4368
330
1F
100
AcDbEntity
  8
0
100
AcDbCircle
 10
321.3381650614589
 20
517.8396414825415
 30
0.0
 40
10.0
  0
LINE
  5
4369
330
1F
100
AcDbEntity
  8
ﾁｭｳｼﾝｾﾝ1
 48
0.7
100
AcDbLine
 10
321.3381650614589
 20
530.8396414825415
 30
0.0
 11
321.3381650614588
 21
504.8396414825415
 31
0.0
1001
GENIUS_GENODEF_13
1002
{
1000
HIER
1070
     0
1002
}
1002
{
1000
MANEDIT
1070
     0
1002
}
1002
{
1000
NOSEL
1070
     0
1002
}
1002
{
1000
BEHIND
1070
     0
1002
}
1002
{
1000
OTHER
1070
     0
1002
}
1002
{
1000
REACTOR
1002
}
1001
GENIUS_GENOBJ-N-CEN_13
1002
{
1000
OWNER
1000
GEN
1002
}
1001
GENIUS_GENCEN_19
1002
{
1040
3.0
1002
}
  0
LINE
  5
436A
330
1F
100
AcDbEntity
  8
AM_0
100
AcDbLine
 10
320.3381650614589
 20
522.8396414825415
 30
0.0
 11
320.3381650614589
 21
512.8396414825415
 31
0.0
1001
GENIUS_GENODEF_13
1002
{
1000
HIER
1070
     0
1002
}
1002
{
1000
MANEDIT
1070
     0
1002
}
1002
{
1000
NOSEL
1070
     0
1002
}
1002
{
1000
BEHIND
1070
     0
1002
}
1002
{
1000
OTHER
1070
     0
1002
}
1002
{
1000
REACTOR
1002
}
1001
GENIUS_GENOBJ-N-CEN_13
1002
{
1000
OWNER
1000
GEN
1002
}
1001
GENIUS_GENCEN_19
1002
{
1040
3.0
1002
}
  0
LINE
  5
436B
330
1F
100
AcDbEntity
  8
AM_0
100
AcDbLine
 10
322.3381650614589
 20
522.8396414825415
 30
0.0
 11
322.3381650614589
 21
512.8396414825415
 31
0.0
1001
GENIUS_GENODEF_13
1002
{
1000
HIER
1070
     0
1002
}
1002
{
1000
MANEDIT
1070
     0
1002
}
1002
{
1000
NOSEL
1070
     0
1002
}
1002
{
1000
BEHIND
1070
     0
1002
}
1002
{
1000
OTHER
1070
     0
1002
}
1002
{
1000
REACTOR
1002
}
1001
GENIUS_GENOBJ-N-CEN_13
1002
{
1000
OWNER
1000
GEN
1002
}
1001
GENIUS_GENCEN_19
1002
{
1040
3.0
1002
}
  0
CIRCLE
  5
436C
330
1F
100
AcDbEntity
  8
AM_0
100
AcDbCircle
 10
321.3381650614589
 20
517.8396414825415
 30
0.0
 40
8.500000000000056
  0
CIRCLE
  5
436D
330
1F
100
AcDbEntity
  8
AM_0
100
AcDbCircle
 10
321.3381650614589
 20
517.8396414825415
 30
0.0
 40
8.999999999999971
  0
ARC
  5
436E
330
1F
100
AcDbEntity
  8
AM_0
100
AcDbCircle
 10
321.3381650614589
 20
522.8396414825415
 30
0.0
 40
1.0
100
AcDbArc
 50
0.0
 51
180.0
  0
ARC
  5
436F
330
1F
100
AcDbEntity
  8
AM_0
100
AcDbCircle
 10
321.3381650614589
 20
512.8396414825415
 30
0.0
 40
1.0
100
AcDbArc
 50
180.0
 51
0.0
  0
LINE
  5
4370
330
1F
100
AcDbEntity
  8
ﾁｭｳｼﾝｾﾝ1
 48
0.7
100
AcDbLine
 10
308.3381650614589
 20
517.8396414825415
 30
0.0
 11
334.3381650614589
 21
517.8396414825415
 31
0.0
1001
GENIUS_GENOBJ-N-CEN_13
1002
{
1000
OWNER
1000
GEN
1002
}
1001
GENIUS_GENODEF_13
1002
{
1000
HIER
1070
     0
1002
}
1002
{
1000
MANEDIT
1070
     0
1002
}
1002
{
1000
NOSEL
1070
     0
1002
}
1002
{
1000
BEHIND
1070
     0
1002
}
1002
{
1000
OTHER
1070
     0
1002
}
1002
{
1000
REACTOR
1002
}
1001
GENIUS_GENCEN_19
1002
{
1040
3.0
1002
}
  0
LINE
  5
437D
330
1F
100
AcDbEntity
  8
ﾁｭｳｼﾝｾﾝ
100
AcDbLine
 10
292.3381650614587
 20
503.8396400909808
 30
0.0
 11
513.3381177963555
 21
503.8396449899957
 31
0.0
1001
GENIUS_GENOBJ-N-CEN_13
1002
{
1000
OWNER
1000
GEN
1002
}
1001
GENIUS_GENODEF_13
1002
{
1000
HIER
1070
     0
1002
}
1002
{
1000
MANEDIT
1070
     0
1002
}
1002
{
1000
NOSEL
1070
     0
1002
}
1002
{
1000
BEHIND
1070
     0
1002
}
1002
{
1000
OTHER
1070
     0
1002
}
1002
{
1000
REACTOR
1002
}
1001
GENIUS_GENCEN_19
1002
{
1040
9.0
1002
}
  0
ENDSEC
  0
SECTION
  2
OBJECTS
  0
DICTIONARY
  5
C
330
0
100
AcDbDictionary
281
     1
  3
ACAD_COLOR
350
2196
  3
ACAD_GROUP
350
D
  3
ACAD_LAYOUT
350
1A
  3
ACAD_MATERIAL
350
2195
  3
ACAD_MLINESTYLE
350
17
  3
ACAD_PLOTSETTINGS
350
19
  3
ACAD_PLOTSTYLENAME
350
E
  3
ACAD_TABLESTYLE
350
2197
  3
AcadDim
350
14B1
  3
ACDBHEADERROUNDTRIPXREC
350
43C4
  3
AcDbVariableDictionary
350
34
  3
AcmDictionary
350
47
  3
AMG
350
2B
  3
AMGSNAPSETTINGS
350
81
  3
ASE_INDEX_DICTIONARY
350
2D7B
  3
DWGPROPS
350
43C3
  0
DICTIONARY
  5
2D9C
330
2
100
AcDbDictionary
280
     1
281
     1
  3
ACAD_LAYERSTATES
360
2D9D
  0
DICTIONARY
  5
CC
330
1F
100
AcDbDictionary
280
     1
281
     1
  3
ACAD_SORTENTS
360
2D4D
  0
DICTIONARY
  5
2196
102
{ACAD_REACTORS
330
C
102
}
330
C
100
AcDbDictionary
281
     1
  0
DICTIONARY
  5
D
102
{ACAD_REACTORS
330
C
102
}
330
C
100
AcDbDictionary
281
     1
  0
DICTIONARY
  5
1A
102
{ACAD_REACTORS
330
C
102
}
330
C
100
AcDbDictionary
281
     1
  3
Model
350
22
  3
ﾚｲｱｳﾄ1
350
1E
  3
ﾚｲｱｳﾄ2
350
26
  0
DICTIONARY
  5
2195
102
{ACAD_REACTORS
330
C
102
}
330
C
100
AcDbDictionary
281
     1
  3
Global
350
2E75
  0
DICTIONARY
  5
17
102
{ACAD_REACTORS
330
C
102
}
330
C
100
AcDbDictionary
281
     1
  3
Standard
350
18
  0
DICTIONARY
  5
19
102
{ACAD_REACTORS
330
C
102
}
330
C
100
AcDbDictionary
281
     1
  3
A1
350
7A0
  3
A2
350
7A1
  3
A3外形図
350
7A2
  3
A3部品図
350
7A3
  3
A4外形図
350
7A4
  3
A4製造仕様書
350
7A5
  3
A4部品図
350
7A6
  0
ACDBDICTIONARYWDFLT
  5
E
102
{ACAD_REACTORS
330
C
102
}
330
C
100
AcDbDictionary
281
     1
  3
Normal
350
F
100
AcDbDictionaryWithDefault
340
F
  0
DICTIONARY
  5
2197
102
{ACAD_REACTORS
330
C
102
}
330
C
100
AcDbDictionary
281
     1
  3
Standard
350
2198
  0
XRECORD
  5
14B1
102
{ACAD_REACTORS
330
C
102
}
330
C
100
AcDbXrecord
280
     1
 90
   990106
  3

 60
     0
 61
     0
 62
     4
 63
     4
 64
     1
 65
     0
 66
     0
 67
     3
 68
     1
 69
     0
 70
     0
 71
     0
 72
     0
 40
0.0
170
     0
  0
DICTIONARY
  5
43C4
102
{ACAD_REACTORS
330
C
102
}
330
C
100
AcDbDictionary
281
     1
  0
DICTIONARY
  5
34
102
{ACAD_REACTORS
330
C
102
}
330
C
100
AcDbDictionary
281
     1
  3
CTABLESTYLE
350
22C6
  3
DIMASSOC
350
43A9
  3
INDEXCTL
350
35
  3
PROJECTNAME
350
43AA
  0
DICTIONARY
  5
47
102
{ACAD_REACTORS
330
C
102
}
330
C
100
AcDbDictionary
281
     1
  3
AcmStdDictionary
350
4C
  3
AMDTSECTSYM_ARROWCOLOR
350
21A4
  0
DICTIONARY
  5
2B
102
{ACAD_REACTORS
330
C
102
}
330
C
100
AcDbDictionary
281
     1
  0
DICTIONARY
  5
81
102
{ACAD_REACTORS
330
C
102
}
330
C
100
AcDbDictionary
281
     1
  0
DICTIONARY
  5
2D7B
102
{ACAD_REACTORS
330
C
102
}
330
C
100
AcDbDictionary
281
     1
  3
ASEBlockHierarchyIndexRecord
350
2D7C
1001
DCO15
1040
1618997528.246
  0
XRECORD
  5
43C3
102
{ACAD_REACTORS
330
C
102
}
330
C
100
AcDbXrecord
280
     1
  1
DWGPROPS COOKIE
  2

  3

  4

  6

  7

  8

  9

300
AmdtFileType=84
301
=
302
=
303
=
304
=
305
=
306
=
307
=
308
=
309
=
 40
0.4950269675925926
 41
2452065.605619213
 42
2454770.778912396
  1

 90
        1
  0
DICTIONARY
  5
2D9D
102
{ACAD_REACTORS
330
2D9C
102
}
330
2D9C
100
AcDbDictionary
281
     1
  0
SORTENTSTABLE
  5
2D4D
102
{ACAD_REACTORS
330
CC
102
}
330
CC
100
AcDbSortentsTable
330
1F
331
2E98
  5
2E98
331
2E88
  5
2E88
331
2EA1
  5
2E9F
331
2E91
  5
2E91
331
2E8A
  5
2E8A
331
2E93
  5
2E93
331
2E9C
  5
2E9C
331
2E8C
  5
2E8C
331
2E8E
  5
2E8E
331
2E97
  5
2E97
331
2E90
  5
2E90
331
2E99
  5
2E99
331
2E8B
  5
2E8B
331
2E94
  5
2E94
331
2E8D
  5
2E8D
331
2E96
  5
2E96
331
2E9F
  5
2EA1
331
2E8F
  5
2E8F
  0
LAYOUT
  5
22
102
{ACAD_XDICTIONARY
360
43C7
102
}
102
{ACAD_REACTORS
330
1A
102
}
330
1A
100
AcDbPlotSettings
  1

  2
\\XSERIES235\Canon LASER SHOT LBP-910
  4
A4
  6
AM_VIEW1
 40
5.873749732971191
 41
5.873747825622558
 42
5.873748779296875
 43
5.873748779296875
 44
209.9733276367187
 45
296.9259948730469
 46
0.0
 47
0.34
 48
0.0
 49
0.0
140
0.0
141
0.0
142
1.0
143
3.0
 70
 11936
 72
     1
 73
     1
 74
     2
  7
acad1.ctb
 75
     0
147
0.3341282932256912
148
0.0
149
0.0
100
AcDbLayout
  1
Model
 70
     1
 71
     0
 10
0.0
 20
0.0
 11
12.0
 21
9.0
 12
0.0
 22
0.0
 32
0.0
 14
0.0
 24
0.0
 34
0.0
 15
0.0
 25
0.0
 35
0.0
146
0.0
 13
0.0
 23
0.0
 33
0.0
 16
1.0
 26
0.0
 36
0.0
 17
0.0
 27
1.0
 37
0.0
 76
     0
330
1F
1001
ACAD_PSEXT
1000
\\XSERIES235\Canon LASER SHOT LBP-910
1000
Canon LASER SHOT LBP-910
1000
\\XSERIES235
1000

1070
     0
  0
LAYOUT
  5
1E
102
{ACAD_XDICTIONARY
360
43C5
102
}
102
{ACAD_REACTORS
330
1A
102
}
330
1A
100
AcDbPlotSettings
  1

  2
\\FHKSV01\RICOH imagio MF2700(FAX)
  4

  6

 40
0.0
 41
0.0
 42
0.0
 43
0.0
 44
0.0
 45
0.0
 46
0.0
 47
0.0
 48
0.0
 49
0.0
140
0.0
141
0.0
142
1.0
143
1.0
 70
   688
 72
     0
 73
     0
 74
     5
  7
acad1.ctb
 75
    16
147
1.0
148
0.0
149
0.0
100
AcDbLayout
  1
ﾚｲｱｳﾄ1
 70
     1
 71
     1
 10
0.0
 20
0.0
 11
420.0
 21
297.0
 12
0.0
 22
0.0
 32
0.0
 14
1.000000000000000E+20
 24
1.000000000000000E+20
 34
1.000000000000000E+20
 15
-1.000000000000000E+20
 25
-1.000000000000000E+20
 35
-1.000000000000000E+20
146
0.0
 13
0.0
 23
0.0
 33
0.0
 16
1.0
 26
0.0
 36
0.0
 17
0.0
 27
1.0
 37
0.0
 76
     0
330
1B
  0
LAYOUT
  5
26
102
{ACAD_XDICTIONARY
360
43C9
102
}
102
{ACAD_REACTORS
330
1A
102
}
330
1A
100
AcDbPlotSettings
  1

  2
\\FHKSV01\RICOH imagio MF2700(FAX)
  4

  6

 40
0.0
 41
0.0
 42
0.0
 43
0.0
 44
0.0
 45
0.0
 46
0.0
 47
0.0
 48
0.0
 49
0.0
140
0.0
141
0.0
142
1.0
143
1.0
 70
   688
 72
     0
 73
     0
 74
     5
  7
acad1.ctb
 75
    16
147
1.0
148
0.0
149
0.0
100
AcDbLayout
  1
ﾚｲｱｳﾄ2
 70
     1
 71
     2
 10
0.0
 20
0.0
 11
12.0
 21
9.0
 12
0.0
 22
0.0
 32
0.0
 14
0.0
 24
0.0
 34
0.0
 15
0.0
 25
0.0
 35
0.0
146
0.0
 13
0.0
 23
0.0
 33
0.0
 16
1.0
 26
0.0
 36
0.0
 17
0.0
 27
1.0
 37
0.0
 76
     0
330
23
  0
MATERIAL
  5
2E75
102
{ACAD_XDICTIONARY
360
2E76
102
}
102
{ACAD_REACTORS
330
2195
102
}
330
2195
100
AcDbMaterial
  1
Global
 73
     2
 78
     2
172
     2
176
     2
270
     2
274
     2
  0
MLINESTYLE
  5
18
102
{ACAD_REACTORS
330
17
102
}
330
17
100
AcDbMlineStyle
  2
STANDARD
 70
     0
  3

 62
   256
 51
90.0
 52
90.0
 71
     2
 49
0.5
 62
   256
  6
BYLAYER
 49
-0.5
 62
   256
  6
BYLAYER
  0
PLOTSETTINGS
  5
7A0
102
{ACAD_XDICTIONARY
360
43CB
102
}
102
{ACAD_REACTORS
330
19
102
}
330
19
100
AcDbPlotSettings
  1
A1
  2
\\NETFINITY_5500\HP DesignJet 750C+ (D/A1) by HP)
  4
User267
  6

 40
17.76941680908203
 41
5.789102554321289
 42
17.7694091796875
 43
5.7890625
 44
840.9093017578125
 45
593.97900390625
 46
2.0
 47
13.0
 48
0.0
 49
0.0
140
0.0
141
0.0
142
1.0
143
1.0
 70
  1712
 72
     1
 73
     0
 74
     1
  7
acad.ctb
 75
    16
147
1.0
148
0.0100416569983963
149
0.0078848243487073
  0
PLOTSETTINGS
  5
7A1
102
{ACAD_XDICTIONARY
360
43CD
102
}
102
{ACAD_REACTORS
330
19
102
}
330
19
100
AcDbPlotSettings
  1
A2
  2
\\NETFINITY_5500\HP DesignJet 750C+ (D/A1) by HP)
  4
User266
  6

 40
5.78908348083496
 41
17.76940155029297
 42
5.78912353515625
 43
17.7694091796875
 44
593.97900390625
 45
419.9466552734374
 46
12.0
 47
0.0
 48
0.0
 49
0.0
140
0.0
141
0.0
142
1.0
143
1.0
 70
  1712
 72
     1
 73
     0
 74
     1
  7
acad.ctb
 75
    16
147
1.0
148
0.0100416569983963
149
0.0078848243487073
  0
PLOTSETTINGS
  5
7A2
102
{ACAD_XDICTIONARY
360
43CF
102
}
102
{ACAD_REACTORS
330
19
102
}
330
19
100
AcDbPlotSettings
  1
A3外形図
  2
\\NETFINITY_5500\Canon LASER SHOT LBP-910
  4
A3
  6

 40
5.873749732971191
 41
5.873747825622558
 42
5.873748779296875
 43
5.873748779296875
 44
296.9259948730469
 45
419.9466552734374
 46
0.0
 47
15.0
 48
0.0
 49
0.0
140
0.0
141
0.0
142
1.0
143
1.0
 70
  1712
 72
     1
 73
     1
 74
     1
  7
acad1.ctb
 75
    16
147
1.0
148
0.0024839861629289
149
0.0093761313144114
  0
PLOTSETTINGS
  5
7A3
102
{ACAD_XDICTIONARY
360
43D1
102
}
102
{ACAD_REACTORS
330
19
102
}
330
19
100
AcDbPlotSettings
  1
A3部品図
  2
\\NETFINITY_5500\Canon LASER SHOT LBP-910
  4
A3
  6

 40
5.873749732971191
 41
5.873747825622558
 42
5.873748779296875
 43
5.873748779296875
 44
296.9259948730469
 45
419.9466552734374
 46
0.0
 47
0.0
 48
0.0
 49
0.0
140
0.0
141
0.0
142
1.0
143
1.0
 70
  1712
 72
     1
 73
     1
 74
     1
  7
acad1.ctb
 75
    16
147
1.0
148
0.0024839861629289
149
0.0093761313144114
  0
PLOTSETTINGS
  5
7A4
102
{ACAD_XDICTIONARY
360
43D3
102
}
102
{ACAD_REACTORS
330
19
102
}
330
19
100
AcDbPlotSettings
  1
A4外形図
  2
\\NETFINITY_5500\Canon LASER SHOT LBP-910
  4
A4
  6

 40
5.873749732971191
 41
5.873747825622558
 42
5.873748779296875
 43
5.873748779296875
 44
209.9733276367187
 45
296.9259948730469
 46
0.0
 47
0.0
 48
0.0
 49
0.0
140
0.0
141
0.0
142
1.0
143
1.0
 70
  1712
 72
     1
 73
     1
 74
     1
  7
acad1.ctb
 75
    16
147
1.0
148
0.0115486965655691
149
0.0124955963574962
  0
PLOTSETTINGS
  5
7A5
102
{ACAD_XDICTIONARY
360
43D5
102
}
102
{ACAD_REACTORS
330
19
102
}
330
19
100
AcDbPlotSettings
  1
A4製造仕様書
  2
\\NETFINITY_5500\Canon LASER SHOT LBP-910
  4
A4
  6

 40
5.873749732971191
 41
5.873747825622558
 42
5.873748779296875
 43
5.873748779296875
 44
209.9733276367187
 45
296.9259948730469
 46
15.0
 47
0.0
 48
0.0
 49
0.0
140
0.0
141
0.0
142
1.0
143
1.0
 70
  1712
 72
     1
 73
     0
 74
     1
  7
acad1.ctb
 75
    16
147
1.0
148
0.0115486965655691
149
7.86079562315183
  0
PLOTSETTINGS
  5
7A6
102
{ACAD_XDICTIONARY
360
43D7
102
}
102
{ACAD_REACTORS
330
19
102
}
330
19
100
AcDbPlotSettings
  1
A4部品図
  2
\\NETFINITY_5500\Canon LASER SHOT LBP-910
  4
A4
  6

 40
5.873749732971191
 41
5.873747825622558
 42
5.873748779296875
 43
5.873748779296875
 44
209.9733276367187
 45
296.9259948730469
 46
0.0
 47
0.0
 48
0.0
 49
0.0
140
0.0
141
0.0
142
1.0
143
1.0
 70
  1712
 72
     1
 73
     0
 74
     1
  7
acad1.ctb
 75
    16
147
1.0
148
0.0115486965655691
149
0.0124955963574962
  0
ACDBPLACEHOLDER
  5
F
102
{ACAD_REACTORS
330
E
102
}
330
E
  0
TABLESTYLE
  5
2198
102
{ACAD_REACTORS
330
2197
102
}
330
2197
100
AcDbTableStyle
  3
Standard
 70
     0
 71
     0
 40
1.5
 41
1.5
280
     0
281
     0
  7
STANDARD
140
4.5
170
     2
 62
     0
 63
     7
283
     0
274
    -2
284
     1
 64
     0
275
    -2
285
     1
 65
     0
276
    -2
286
     1
 66
     0
277
    -2
287
     1
 67
     0
278
    -2
288
     1
 68
     0
279
    -2
289
     1
 69
     0
  7
STANDARD
140
6.0
170
     5
 62
     0
 63
     7
283
     0
274
    -2
284
     1
 64
     0
275
    -2
285
     1
 65
     0
276
    -2
286
     1
 66
     0
277
    -2
287
     1
 67
     0
278
    -2
288
     1
 68
     0
279
    -2
289
     1
 69
     0
  7
STANDARD
140
4.5
170
     5
 62
     0
 63
     7
283
     0
274
    -2
284
     1
 64
     0
275
    -2
285
     1
 65
     0
276
    -2
286
     1
 66
     0
277
    -2
287
     1
 67
     0
278
    -2
288
     1
 68
     0
279
    -2
289
     1
 69
     0
  0
DICTIONARYVAR
  5
22C6
102
{ACAD_REACTORS
330
34
102
}
330
34
100
DictionaryVariables
280
     0
  1
STANDARD
  0
DICTIONARYVAR
  5
43A9
102
{ACAD_REACTORS
330
34
102
}
330
34
100
DictionaryVariables
280
     0
  1
1
  0
DICTIONARYVAR
  5
35
102
{ACAD_REACTORS
330
34
102
}
330
34
100
DictionaryVariables
280
     0
  1
0
  0
DICTIONARYVAR
  5
43AA
102
{ACAD_REACTORS
330
34
102
}
330
34
100
DictionaryVariables
280
     0
  1

  0
DICTIONARY
  5
4C
102
{ACAD_REACTORS
330
47
102
}
330
47
100
AcDbDictionary
281
     1
  0
XRECORD
  5
21A4
102
{ACAD_REACTORS
330
47
102
}
330
47
100
AcDbXrecord
280
     1
 90
-1023410169
  0
XRECORD
  5
2D7C
102
{ACAD_REACTORS
330
2D7B
102
}
330
2D7B
100
AcDbXrecord
280
     1
330
1A9A
330
1A9B
330
1A9C
330
1A9D
330
1A9E
330
1A9F
330
7A7
330
7B1
330
7B2
330
7B3
330
7B4
330
7B5
330
7B6
330
7B7
330
7B8
330
7B9
330
7BA
330
7BB
330
7BC
330
7BD
330
7BE
330
7BF
330
7C0
330
7C1
330
7C2
330
7C3
330
7C4
330
7C5
330
0
330
1AA0
330
1AA1
330
1AA2
330
1AA3
330
1AA4
330
1AA5
330
1AA6
330
1AA7
330
1AA8
330
1AA9
330
1AAA
330
1AAB
330
1AAC
330
1AAD
330
1AAE
330
1AAF
330
0
330
0
330
0
330
0
330
0
330
0
330
0
330
0
330
0
330
0
330
0
330
0
330
0
330
0
330
0
  0
DICTIONARY
  5
43C7
330
22
100
AcDbDictionary
280
     1
281
     1
  3
ACAD_XREC_ROUNDTRIP
360
43C8
  0
DICTIONARY
  5
43C5
330
1E
100
AcDbDictionary
280
     1
281
     1
  3
ACAD_XREC_ROUNDTRIP
360
43C6
  0
DICTIONARY
  5
43C9
330
26
100
AcDbDictionary
280
     1
281
     1
  3
ACAD_XREC_ROUNDTRIP
360
43CA
  0
DICTIONARY
  5
2E76
330
2E75
100
AcDbDictionary
280
     1
281
     1
  3
ACAD_XREC_ROUNDTRIP
360
2E77
  0
DICTIONARY
  5
43CB
330
7A0
100
AcDbDictionary
280
     1
281
     1
  3
ACAD_XREC_ROUNDTRIP
360
43CC
  0
DICTIONARY
  5
43CD
330
7A1
100
AcDbDictionary
280
     1
281
     1
  3
ACAD_XREC_ROUNDTRIP
360
43CE
  0
DICTIONARY
  5
43CF
330
7A2
100
AcDbDictionary
280
     1
281
     1
  3
ACAD_XREC_ROUNDTRIP
360
43D0
  0
DICTIONARY
  5
43D1
330
7A3
100
AcDbDictionary
280
     1
281
     1
  3
ACAD_XREC_ROUNDTRIP
360
43D2
  0
DICTIONARY
  5
43D3
330
7A4
100
AcDbDictionary
280
     1
281
     1
  3
ACAD_XREC_ROUNDTRIP
360
43D4
  0
DICTIONARY
  5
43D5
330
7A5
100
AcDbDictionary
280
     1
281
     1
  3
ACAD_XREC_ROUNDTRIP
360
43D6
  0
DICTIONARY
  5
43D7
330
7A6
100
AcDbDictionary
280
     1
281
     1
  3
ACAD_XREC_ROUNDTRIP
360
43D8
  0
XRECORD
  5
43C8
102
{ACAD_REACTORS
330
43C7
102
}
330
43C7
100
AcDbXrecord
280
     1
102
SHADEPLOT
 70
     0
102
SHADEPLOTRESLEVEL
 70
     2
102
SHADEPLOTCUSTOMDPI
 70
   300
  0
XRECORD
  5
43C6
102
{ACAD_REACTORS
330
43C5
102
}
330
43C5
100
AcDbXrecord
280
     1
102
SHADEPLOT
 70
     0
102
SHADEPLOTRESLEVEL
 70
     2
102
SHADEPLOTCUSTOMDPI
 70
   300
  0
XRECORD
  5
43CA
102
{ACAD_REACTORS
330
43C9
102
}
330
43C9
100
AcDbXrecord
280
     1
102
SHADEPLOT
 70
     0
102
SHADEPLOTRESLEVEL
 70
     2
102
SHADEPLOTCUSTOMDPI
 70
   300
  0
XRECORD
  5
2E77
102
{ACAD_REACTORS
330
2E76
102
}
330
2E76
100
AcDbXrecord
280
     1
102
MATERIAL
148
0.0
149
0.0
149
0.0
 93
        0
 94
      127
282
     0
 72
     1
 77
     1
171
     1
175
     1
179
     1
273
     0
  0
XRECORD
  5
43CC
102
{ACAD_REACTORS
330
43CB
102
}
330
43CB
100
AcDbXrecord
280
     1
102
SHADEPLOT
 70
     0
102
SHADEPLOTRESLEVEL
 70
     2
102
SHADEPLOTCUSTOMDPI
 70
   300
  0
XRECORD
  5
43CE
102
{ACAD_REACTORS
330
43CD
102
}
330
43CD
100
AcDbXrecord
280
     1
102
SHADEPLOT
 70
     0
102
SHADEPLOTRESLEVEL
 70
     2
102
SHADEPLOTCUSTOMDPI
 70
   300
  0
XRECORD
  5
43D0
102
{ACAD_REACTORS
330
43CF
102
}
330
43CF
100
AcDbXrecord
280
     1
102
SHADEPLOT
 70
     0
102
SHADEPLOTRESLEVEL
 70
     2
102
SHADEPLOTCUSTOMDPI
 70
   300
  0
XRECORD
  5
43D2
102
{ACAD_REACTORS
330
43D1
102
}
330
43D1
100
AcDbXrecord
280
     1
102
SHADEPLOT
 70
     0
102
SHADEPLOTRESLEVEL
 70
     2
102
SHADEPLOTCUSTOMDPI
 70
   300
  0
XRECORD
  5
43D4
102
{ACAD_REACTORS
330
43D3
102
}
330
43D3
100
AcDbXrecord
280
     1
102
SHADEPLOT
 70
     0
102
SHADEPLOTRESLEVEL
 70
     2
102
SHADEPLOTCUSTOMDPI
 70
   300
  0
XRECORD
  5
43D6
102
{ACAD_REACTORS
330
43D5
102
}
330
43D5
100
AcDbXrecord
280
     1
102
SHADEPLOT
 70
     0
102
SHADEPLOTRESLEVEL
 70
     2
102
SHADEPLOTCUSTOMDPI
 70
   300
  0
XRECORD
  5
43D8
102
{ACAD_REACTORS
330
43D7
102
}
330
43D7
100
AcDbXrecord
280
     1
102
SHADEPLOT
 70
     0
102
SHADEPLOTRESLEVEL
 70
     2
102
SHADEPLOTCUSTOMDPI
 70
   300
  0
ENDSEC
  0
EOF
