  0
SECTION
  2
HEADER
  9
$ACADVER
  1
AC1015
  9
$ACADMAINTVER
 70
    20
  9
$DWGCODEPAGE
  3
ANSI_932
  9
$INSBASE
 10
0.0
 20
0.0
 30
0.0
  9
$EXTMIN
 10
296.3208870367623
 20
202.0259078573561
 30
-0.0000000000000058
  9
$EXTMAX
 10
763.9252185577352
 20
566.9667228217569
 30
0.0000000000000104
  9
$LIMMIN
 10
0.0
 20
0.0
  9
$LIMMAX
 10
853.5
 20
555.0000000000001
  9
$ORTHOMODE
 70
     1
  9
$REGENMODE
 70
     1
  9
$FILLMODE
 70
     1
  9
$QTEXTMODE
 70
     0
  9
$MIRRTEXT
 70
     1
  9
$LTSCALE
 40
3.0
  9
$ATTMODE
 70
     1
  9
$TEXTSIZE
 40
2.5
  9
$TRACEWID
 40
1.0
  9
$TEXTSTYLE
  7
STANDARD
  9
$CLAYER
  8
AM_0
  9
$CELTYPE
  6
ByLayer
  9
$CECOLOR
 62
   256
  9
$CELTSCALE
 40
1.0
  9
$DISPSILH
 70
     0
  9
$DIMSCALE
 40
1.0
  9
$DIMASZ
 40
2.5
  9
$DIMEXO
 40
1.0
  9
$DIMDLI
 40
8.0
  9
$DIMRND
 40
0.0
  9
$DIMDLE
 40
0.0
  9
$DIMEXE
 40
0.6
  9
$DIMTP
 40
0.1
  9
$DIMTM
 40
0.1
  9
$DIMTXT
 40
2.5
  9
$DIMCEN
 40
0.0
  9
$DIMTSZ
 40
0.0
  9
$DIMTOL
 70
     0
  9
$DIMLIM
 70
     0
  9
$DIMTIH
 70
     0
  9
$DIMTOH
 70
     0
  9
$DIMSE1
 70
     0
  9
$DIMSE2
 70
     0
  9
$DIMTAD
 70
     1
  9
$DIMZIN
 70
     8
  9
$DIMBLK
  1

  9
$DIMASO
 70
     1
  9
$DIMSHO
 70
     1
  9
$DIMPOST
  1

  9
$DIMAPOST
  1
"
  9
$DIMALT
 70
     0
  9
$DIMALTD
 70
     2
  9
$DIMALTF
 40
0.0393701
  9
$DIMLFAC
 40
1.0
  9
$DIMTOFL
 70
     1
  9
$DIMTVP
 40
0.0
  9
$DIMTIX
 70
     0
  9
$DIMSOXD
 70
     0
  9
$DIMSAH
 70
     0
  9
$DIMBLK1
  1

  9
$DIMBLK2
  1

  9
$DIMSTYLE
  2
AM_ISO
  9
$DIMCLRD
 70
   256
  9
$DIMCLRE
 70
   256
  9
$DIMCLRT
 70
     4
  9
$DIMTFAC
 40
0.71
  9
$DIMGAP
 40
0.8
  9
$DIMJUST
 70
     0
  9
$DIMSD1
 70
     0
  9
$DIMSD2
 70
     0
  9
$DIMTOLJ
 70
     0
  9
$DIMTZIN
 70
     8
  9
$DIMALTZ
 70
     0
  9
$DIMALTTZ
 70
     0
  9
$DIMUPT
 70
     0
  9
$DIMDEC
 70
     2
  9
$DIMTDEC
 70
     2
  9
$DIMALTU
 70
     2
  9
$DIMALTTD
 70
     2
  9
$DIMTXSTY
  7
STANDARD
  9
$DIMAUNIT
 70
     0
  9
$DIMADEC
 70
     0
  9
$DIMALTRND
 40
0.0
  9
$DIMAZIN
 70
     2
  9
$DIMDSEP
 70
    46
  9
$DIMATFIT
 70
     3
  9
$DIMFRAC
 70
     0
  9
$DIMLDRBLK
  1

  9
$DIMLUNIT
 70
     2
  9
$DIMLWD
 70
    -1
  9
$DIMLWE
 70
    -1
  9
$DIMTMOVE
 70
     0
  9
$LUNITS
 70
     2
  9
$LUPREC
 70
     2
  9
$SKETCHINC
 40
1.0
  9
$FILLETRAD
 40
5.0
  9
$AUNITS
 70
     0
  9
$AUPREC
 70
     0
  9
$MENU
  1
.
  9
$ELEVATION
 40
0.0
  9
$PELEVATION
 40
0.0
  9
$THICKNESS
 40
0.0
  9
$LIMCHECK
 70
     0
  9
$CHAMFERA
 40
6.0
  9
$CHAMFERB
 40
3.0
  9
$CHAMFERC
 40
20.0
  9
$CHAMFERD
 40
0.0
  9
$SKPOLY
 70
     0
  9
$TDCREATE
 40
2452065.605619213
  9
$TDUCREATE
 40
2452065.230619213
  9
$TDUPDATE
 40
2454770.831041447
  9
$TDUUPDATE
 40
2454770.456041447
  9
$TDINDWG
 40
0.4989075579
  9
$TDUSRTIMER
 40
0.4989073727
  9
$USRTIMER
 70
     1
  9
$ANGBASE
 50
0.0
  9
$ANGDIR
 70
     0
  9
$PDMODE
 70
     0
  9
$PDSIZE
 40
0.0
  9
$PLINEWID
 40
0.0
  9
$SPLFRAME
 70
     0
  9
$SPLINETYPE
 70
     6
  9
$SPLINESEGS
 70
     8
  9
$HANDSEED
  5
3FED
  9
$SURFTAB1
 70
     6
  9
$SURFTAB2
 70
     6
  9
$SURFTYPE
 70
     6
  9
$SURFU
 70
     6
  9
$SURFV
 70
     6
  9
$UCSBASE
  2

  9
$UCSNAME
  2

  9
$UCSORG
 10
0.0
 20
0.0
 30
0.0
  9
$UCSXDIR
 10
1.0
 20
0.0
 30
0.0
  9
$UCSYDIR
 10
0.0
 20
1.0
 30
0.0
  9
$UCSORTHOREF
  2

  9
$UCSORTHOVIEW
 70
     0
  9
$UCSORGTOP
 10
0.0
 20
0.0
 30
0.0
  9
$UCSORGBOTTOM
 10
0.0
 20
0.0
 30
0.0
  9
$UCSORGLEFT
 10
0.0
 20
0.0
 30
0.0
  9
$UCSORGRIGHT
 10
0.0
 20
0.0
 30
0.0
  9
$UCSORGFRONT
 10
0.0
 20
0.0
 30
0.0
  9
$UCSORGBACK
 10
0.0
 20
0.0
 30
0.0
  9
$PUCSBASE
  2

  9
$PUCSNAME
  2

  9
$PUCSORG
 10
0.0
 20
0.0
 30
0.0
  9
$PUCSXDIR
 10
1.0
 20
0.0
 30
0.0
  9
$PUCSYDIR
 10
0.0
 20
1.0
 30
0.0
  9
$PUCSORTHOREF
  2

  9
$PUCSORTHOVIEW
 70
     0
  9
$PUCSORGTOP
 10
0.0
 20
0.0
 30
0.0
  9
$PUCSORGBOTTOM
 10
0.0
 20
0.0
 30
0.0
  9
$PUCSORGLEFT
 10
0.0
 20
0.0
 30
0.0
  9
$PUCSORGRIGHT
 10
0.0
 20
0.0
 30
0.0
  9
$PUCSORGFRONT
 10
0.0
 20
0.0
 30
0.0
  9
$PUCSORGBACK
 10
0.0
 20
0.0
 30
0.0
  9
$USERI1
 70
     0
  9
$USERI2
 70
     0
  9
$USERI3
 70
     0
  9
$USERI4
 70
     0
  9
$USERI5
 70
     0
  9
$USERR1
 40
0.0
  9
$USERR2
 40
0.0
  9
$USERR3
 40
0.0
  9
$USERR4
 40
0.0
  9
$USERR5
 40
0.0
  9
$WORLDVIEW
 70
     1
  9
$SHADEDGE
 70
     3
  9
$SHADEDIF
 70
    70
  9
$TILEMODE
 70
     1
  9
$MAXACTVP
 70
    64
  9
$PINSBASE
 10
0.0
 20
0.0
 30
0.0
  9
$PLIMCHECK
 70
     0
  9
$PEXTMIN
 10
1.000000000000000E+20
 20
1.000000000000000E+20
 30
1.000000000000000E+20
  9
$PEXTMAX
 10
-1.000000000000000E+20
 20
-1.000000000000000E+20
 30
-1.000000000000000E+20
  9
$PLIMMIN
 10
0.0
 20
0.0
  9
$PLIMMAX
 10
420.0
 20
297.0
  9
$UNITMODE
 70
     0
  9
$VISRETAIN
 70
     1
  9
$PLINEGEN
 70
     0
  9
$PSLTSCALE
 70
     1
  9
$TREEDEPTH
 70
  3020
  9
$CMLSTYLE
  2
Standard
  9
$CMLJUST
 70
     0
  9
$CMLSCALE
 40
20.0
  9
$PROXYGRAPHICS
 70
     1
  9
$MEASUREMENT
 70
     1
  9
$CELWEIGHT
370
    -1
  9
$ENDCAPS
280
     0
  9
$JOINSTYLE
280
     0
  9
$LWDISPLAY
290
     0
  9
$INSUNITS
 70
     4
  9
$HYPERLINKBASE
  1

  9
$STYLESHEET
  1
acad1.ctb
  9
$XEDIT
290
     1
  9
$CEPSNTYPE
380
     0
  9
$PSTYLEMODE
290
     1
  9
$FINGERPRINTGUID
  2
{91B11402-3528-11D5-BE34-000255C217F4}
  9
$VERSIONGUID
  2
{156DA403-F0EC-4E74-8447-A0E3F45D937D}
  9
$EXTNAMES
290
     1
  9
$PSVPSCALE
 40
0.0
  9
$OLESTARTUP
290
     0
  0
ENDSEC
  0
SECTION
  2
CLASSES
  0
CLASS
  1
ACDBDICTIONARYWDFLT
  2
AcDbDictionaryWithDefault
  3
ObjectDBX Classes
 90
        0
280
     0
281
     0
  0
CLASS
  1
ACDBPLACEHOLDER
  2
AcDbPlaceHolder
  3
ObjectDBX Classes
 90
        0
280
     0
281
     0
  0
CLASS
  1
LAYOUT
  2
AcDbLayout
  3
ObjectDBX Classes
 90
        0
280
     0
281
     0
  0
CLASS
  1
AMGSETTINGSOBJ
  2
AmgSettingsObj
  3
"AcadM|Product Description: AutoCAD Mechanical 2000|Company: Autodesk"
 90
        0
280
     0
281
     0
  0
CLASS
  1
ACME_DOCUMENT
  2
AcMeDbDoc
  3
AcMeServices
 90
        0
280
     0
281
     0
  0
CLASS
  1
ACMESCOPE
  2
AcMeScope
  3
AcMeServices
 90
        0
280
     0
281
     0
  0
CLASS
  1
ACMECOMMANDHISTORY
  2
AcMeCommandHistory
  3
AcMeServices
 90
        0
280
     0
281
     0
  0
CLASS
  1
DICTIONARYVAR
  2
AcDbDictionaryVar
  3
ObjectDBX Classes
 90
        0
280
     0
281
     0
  0
CLASS
  1
ACIMSYSVARMAN
  2
AcImSysVarManager
  3
AcMeServices
 90
        0
280
     0
281
     0
  0
CLASS
  1
ACIMREALSYSVAR
  2
AcImRealSysVar
  3
AcMeServices
 90
        0
280
     0
281
     0
  0
CLASS
  1
ACIMINTSYSVAR
  2
AcImIntSysVar
  3
AcMeServices
 90
        0
280
     0
281
     0
  0
CLASS
  1
ACMEDRAWINGMAN
  2
AcMeDrawingMan
  3
AcMeServices
 90
        0
280
     0
281
     0
  0
CLASS
  1
ACMEVIEW
  2
AcMeView
  3
AcMeServices
 90
        0
280
     0
281
     0
  0
CLASS
  1
ACDBENTITYCACHE
  2
AcMeEntityCache
  3
AcMeServices
 90
        0
280
     0
281
     0
  0
CLASS
  1
GSMANAGER
  2
AcMeGSManager
  3
AcMeServices
 90
        0
280
     0
281
     0
  0
CLASS
  1
AMDTINTERNALREACTOR
  2
AmdtInternalReactor
  3
AcMeServices
 90
        0
280
     0
281
     0
  0
CLASS
  1
ACMESTATEMGR
  2
AcMeStateMgr
  3
AcMeServices
 90
        0
280
     0
281
     0
  0
CLASS
  1
ACGREFMASTER
  2
AcGrefMaster
  3
AcAttribServices
 90
        0
280
     0
281
     0
  0
CLASS
  1
ACME_DATABASE
  2
AcMeDbDatabase
  3
AcMeServices
 90
        0
280
     0
281
     0
  0
CLASS
  1
ACRFINSADJUSTERMGR
  2
AcRfInsAdjusterMgr
  3
AcMeServices
 90
        0
280
     0
281
     0
  0
CLASS
  1
ACGREFACADMASTER
  2
AcGrefacadMaster
  3
AcGrefServices
 90
        0
280
     0
281
     0
  0
CLASS
  1
AMIMASTER
  2
AmiMaster
  3
AmiServices
 90
        0
280
     0
281
     0
  0
CLASS
  1
ACMDATADICTIONARY
  2
AcmDataDictionary
  3
"AcmSymBB|Product Description: AutoCAD Mechanical 2004 DX|Company: Autodesk"
 90
        0
280
     0
281
     0
  0
CLASS
  1
ACMDATAENTRYBLOCK
  2
AcmDataEntryBlock
  3
"AcmSymBB|Product Description: AutoCAD Mechanical 2004 DX|Company: Autodesk"
 90
        0
280
     0
281
     0
  0
CLASS
  1
ACIMSTRSYSVAR
  2
AcImStrSysVar
  3
AcMeServices
 90
        0
280
     0
281
     0
  0
CLASS
  1
ACMSTANDARDISO
  2
AcmStandardISO
  3
"Amdt_StdImp|Product Description: AutoCAD Mechanical 2004 DX|Company: Autodesk"
 90
        0
280
     0
281
     0
  0
CLASS
  1
AMGOBJPROPCFG
  2
AmgObjPropCfg
  3
"AmgLay|Product Description: AutoCAD Mechanical 2000|Company: Autodesk"
 90
        1
280
     0
281
     0
  0
CLASS
  1
AMDTEDGESTANDARDISO
  2
AmdtEdgeStdISO
  3
"Amdt_StdImp|Product Description: AutoCAD Mechanical 2004 DX|Company: Autodesk"
 90
        0
280
     0
281
     0
  0
CLASS
  1
ACMSURFSTANDARDISO
  2
AcmSurfTextStdISO
  3
"Amdt_StdImp|Product Description: AutoCAD Mechanical 2004 DX|Company: Autodesk"
 90
        0
280
     0
281
     0
  0
CLASS
  1
ACMFCFSTANDARDISO
  2
AcmFCFStdISO
  3
"Amdt_StdImp|Product Description: AutoCAD Mechanical 2004 DX|Company: Autodesk"
 90
        0
280
     0
281
     0
  0
CLASS
  1
ACMWELDSTANDARDISO
  2
AcmWeldingStdISO
  3
"Amdt_StdImp|Product Description: AutoCAD Mechanical 2004 DX|Company: Autodesk"
 90
        0
280
     0
281
     0
  0
CLASS
  1
ACMIDSTANDARDISO
  2
AcmIdStdISO
  3
"Amdt_StdImp|Product Description: AutoCAD Mechanical 2004 DX|Company: Autodesk"
 90
        0
280
     0
281
     0
  0
CLASS
  1
ACMDATUMSTANDARDISO
  2
AcmDatumStdISO
  3
"Amdt_StdImp|Product Description: AutoCAD Mechanical 2004 DX|Company: Autodesk"
 90
        0
280
     0
281
     0
  0
CLASS
  1
ACMBOMSTANDARDISO
  2
AcmBOMStdISO
  3
"Amdt_StdImp|Product Description: AutoCAD Mechanical 2004 DX|Company: Autodesk"
 90
        0
280
     0
281
     0
  0
CLASS
  1
ACMDETAILSTANDARDISO
  2
AmdtDetailSymStdISO
  3
"Amdt_StdImp|Product Description: AutoCAD Mechanical 2004 DX|Company: Autodesk"
 90
        0
280
     0
281
     0
  0
CLASS
  1
ACMSECTIONSTANDARDISO
  2
AmdtSectionSymStdISO
  3
"Amdt_StdImp|Product Description: AutoCAD Mechanical 2004 DX|Company: Autodesk"
 90
        0
280
     0
281
     0
  0
CLASS
  1
ACMCENTERLINESTANDARDISO
  2
AmdtCenterLineStdISO
  3
"Amdt_StdImp|Product Description: AutoCAD Mechanical 2004 DX|Company: Autodesk"
 90
        0
280
     0
281
     0
  0
CLASS
  1
ACAMGLAYSTD
  2
AcAmgLayStd
  3
"AcAmgLayStd|Product Description: AutoCAD Mechanical 2000|Company: Autodesk"
 90
        0
280
     0
281
     0
  0
CLASS
  1
ACAMGDIMSTD
  2
AcAmgDimStd
  3
"AcAmgDimStd|Product Description: AutoCAD Mechanical 2000|Company: Autodesk"
 90
        0
280
     0
281
     0
  0
CLASS
  1
ACAMGTITLESTD
  2
AcAmgTitleStd
  3
"TITLEAPP"
 90
        0
280
     0
281
     0
  0
CLASS
  1
ACAMGFILTERDAT
  2
AcAmgFilterDat
  3
"AcadM|Product Description: AutoCAD Mechanical 2000|Company: Autodesk"
 90
        0
280
     0
281
     0
  0
CLASS
  1
AMDTFORMULAUPDATEDISPATCHER
  2
AmdtFormulaUpdateDispatcher
  3
AcMeServices
 90
        0
280
     0
281
     0
  0
CLASS
  1
LAYER_INDEX
  2
AcDbLayerIndex
  3
ObjectDBX Classes
 90
    32768
280
     0
281
     0
  0
CLASS
  1
IDBUFFER
  2
AcDbIdBuffer
  3
ObjectDBX Classes
 90
    32768
280
     0
281
     0
  0
CLASS
  1
PLOTSETTINGS
  2
AcDbPlotSettings
  3
ObjectDBX Classes
 90
        0
280
     0
281
     0
  0
CLASS
  1
ACMSTANDARDANSI
  2
AcmStandardANSI
  3
"Amdt_StdImp|Product Description: AutoCAD Mechanical 2004 DX|Company: Autodesk"
 90
        0
280
     0
281
     0
  0
CLASS
  1
ACMSURFSTANDARDANSI
  2
AcmSurfTextStdANSI
  3
"Amdt_StdImp|Product Description: AutoCAD Mechanical 2004 DX|Company: Autodesk"
 90
        0
280
     0
281
     0
  0
CLASS
  1
ACMFCFSTANDARDANSI
  2
AcmFCFStdANSI
  3
"Amdt_StdImp|Product Description: AutoCAD Mechanical 2004 DX|Company: Autodesk"
 90
        0
280
     0
281
     0
  0
CLASS
  1
ACMWELDSTANDARDANSI
  2
AcmWeldingStdANSI
  3
"Amdt_StdImp|Product Description: AutoCAD Mechanical 2004 DX|Company: Autodesk"
 90
        0
280
     0
281
     0
  0
CLASS
  1
ACMIDSTANDARDANSI
  2
AcmIdStdANSI
  3
"Amdt_StdImp|Product Description: AutoCAD Mechanical 2004 DX|Company: Autodesk"
 90
        0
280
     0
281
     0
  0
CLASS
  1
ACMDATUMSTANDARDANSI
  2
AcmDatumStdANSI
  3
"Amdt_StdImp|Product Description: AutoCAD Mechanical 2004 DX|Company: Autodesk"
 90
        0
280
     0
281
     0
  0
CLASS
  1
ACMBOMSTANDARDANSI
  2
AcmBOMStdANSI
  3
"Amdt_StdImp|Product Description: AutoCAD Mechanical 2004 DX|Company: Autodesk"
 90
        0
280
     0
281
     0
  0
CLASS
  1
ACMDETAILSTANDARDANSI
  2
AmdtDetailSymStdANSI
  3
"Amdt_StdImp|Product Description: AutoCAD Mechanical 2004 DX|Company: Autodesk"
 90
        0
280
     0
281
     0
  0
CLASS
  1
ACMSECTIONSTANDARDANSI
  2
AmdtSectionSymStdANSI
  3
"Amdt_StdImp|Product Description: AutoCAD Mechanical 2004 DX|Company: Autodesk"
 90
        0
280
     0
281
     0
  0
CLASS
  1
ACMCENTERLINESTANDARDANSI
  2
AmdtCenterLineStdANSI
  3
"Amdt_StdImp|Product Description: AutoCAD Mechanical 2004 DX|Company: Autodesk"
 90
        0
280
     0
281
     0
  0
CLASS
  1
ACMSTANDARDJIS
  2
AcmStandardJIS
  3
"Amdt_StdImp|Product Description: AutoCAD Mechanical 2004 DX|Company: Autodesk"
 90
        0
280
     0
281
     0
  0
CLASS
  1
ACMSURFSTANDARDJIS
  2
AcmSurfTextStdJIS
  3
"Amdt_StdImp|Product Description: AutoCAD Mechanical 2004 DX|Company: Autodesk"
 90
        0
280
     0
281
     0
  0
CLASS
  1
ACMFCFSTANDARDJIS
  2
AcmFCFStdJIS
  3
"Amdt_StdImp|Product Description: AutoCAD Mechanical 2004 DX|Company: Autodesk"
 90
        0
280
     0
281
     0
  0
CLASS
  1
ACMWELDSTANDARDJIS
  2
AcmWeldingStdJIS
  3
"Amdt_StdImp|Product Description: AutoCAD Mechanical 2004 DX|Company: Autodesk"
 90
        0
280
     0
281
     0
  0
CLASS
  1
ACMIDSTANDARDJIS
  2
AcmIdStdJIS
  3
"Amdt_StdImp|Product Description: AutoCAD Mechanical 2004 DX|Company: Autodesk"
 90
        0
280
     0
281
     0
  0
CLASS
  1
ACMDATUMSTANDARDJIS
  2
AcmDatumStdJIS
  3
"Amdt_StdImp|Product Description: AutoCAD Mechanical 2004 DX|Company: Autodesk"
 90
        0
280
     0
281
     0
  0
CLASS
  1
ACMBOMSTANDARDJIS
  2
AcmBOMStdJIS
  3
"Amdt_StdImp|Product Description: AutoCAD Mechanical 2004 DX|Company: Autodesk"
 90
        0
280
     0
281
     0
  0
CLASS
  1
ACMDETAILSTANDARDJIS
  2
AmdtDetailSymStdJIS
  3
"Amdt_StdImp|Product Description: AutoCAD Mechanical 2004 DX|Company: Autodesk"
 90
        0
280
     0
281
     0
  0
CLASS
  1
ACMSECTIONSTANDARDJIS
  2
AmdtSectionSymStdJIS
  3
"Amdt_StdImp|Product Description: AutoCAD Mechanical 2004 DX|Company: Autodesk"
 90
        0
280
     0
281
     0
  0
CLASS
  1
ACMCENTERLINESTANDARDJIS
  2
AmdtCenterLineStdJIS
  3
"Amdt_StdImp|Product Description: AutoCAD Mechanical 2004 DX|Company: Autodesk"
 90
        0
280
     0
281
     0
  0
CLASS
  1
TABLESTYLE
  2
AcDbTableStyle
  3
ObjectDBX Classes
 90
     2047
280
     0
281
     0
  0
CLASS
  1
AM_DRAWING_MGR
  2
AcDmDwgMgr
  3
AcMechDwgViewMgmt
 90
        0
280
     0
281
     0
  0
CLASS
  1
AM_DWG_DOCUMENT
  2
AcDmDwgDocument
  3
AcMechDwgViewMgmt
 90
        0
280
     0
281
     0
  0
CLASS
  1
AM_DWG_SHEET
  2
AcDmSheet
  3
AcMechDwgViewMgmt
 90
        0
280
     0
281
     0
  0
CLASS
  1
AM_VIEWDIMPARMAP
  2
AcDmViewDimParMap
  3
AcMechDwgViewMgmt
 90
        0
280
     0
281
     0
  0
CLASS
  1
AM_DWGMGR_NAME
  2
AcDmDwgMgrName
  3
AcMechDwgViewMgmt
 90
        0
280
     0
281
     0
  0
CLASS
  1
AMDTMENUSTATEMGR
  2
AmdtMenuStateMgr
  3
McadcomServices
 90
        0
280
     0
281
     0
  0
CLASS
  1
AMDTMCOMMENUSTATE
  2
AmdtMcomMenuState
  3
McadcomServices
 90
        0
280
     0
281
     0
  0
CLASS
  1
MAPIAMMOUDLE
  2
MApiAmModule
  3
MApiAmServices
 90
        0
280
     0
281
     0
  0
CLASS
  1
AMDTADMENUSTATE
  2
AmdtAdMenuState
  3
DesignerServices
 90
        0
280
     0
281
     0
  0
CLASS
  1
ADAPPL
  2
AcAdAppl
  3
DesignerServices
 90
        0
280
     0
281
     0
  0
CLASS
  1
DEPMGR
  2
AcAdDepMgr
  3
DesignerServices
 90
        0
280
     0
281
     0
  0
CLASS
  1
PARAMMGR
  2
AcAdParamMgr
  3
DesignerServices
 90
        0
280
     0
281
     0
  0
CLASS
  1
PARAMSCOPE
  2
AcAdParamScope
  3
DesignerServices
 90
        0
280
     0
281
     0
  0
CLASS
  1
NAMEDAPPL
  2
AcAdNamedAppl
  3
DesignerServices
 90
        0
280
     0
281
     0
  0
CLASS
  1
AMDTDMMENUSTATE
  2
AmdtDmMenuState
  3
AcMechDwgViewMgmt
 90
        0
280
     0
281
     0
  0
CLASS
  1
AMDTAMMENUSTATE
  2
AmdtAmMenuState
  3
DesignerAssemblies
 90
        0
280
     0
281
     0
  0
CLASS
  1
ACAMPROJECT
  2
AcAmProject
  3
DesignerAssemblies
 90
        0
280
     0
281
     0
  0
CLASS
  1
ACAMGRCOMPDEF
  2
AcAmGrCompDef
  3
DesignerAssemblies
 90
        0
280
     0
281
     0
  0
CLASS
  1
ACCMCONTEXT
  2
AcCmContext
  3
DesignerAssemblies
 90
        0
280
     0
281
     0
  0
CLASS
  1
ACAMCOMPDEF
  2
AcAmCompDef
  3
DesignerAssemblies
 90
        0
280
     0
281
     0
  0
CLASS
  1
ACAMCOMPDEFMGR
  2
AcAmCompDefMgr
  3
DesignerAssemblies
 90
        0
280
     0
281
     0
  0
CLASS
  1
AMCONTEXTMGR
  2
AcAmContextMgr
  3
DesignerAssemblies
 90
        0
280
     0
281
     0
  0
CLASS
  1
ACAMCONTEXTMODELER
  2
AcAmContextModeler
  3
DesignerAssemblies
 90
        0
280
     0
281
     0
  0
CLASS
  1
ACMTHREADLINESTANDARDISO
  2
AmdtThreadLineStdISO
  3
"Amdt_StdImp|Product Description: AutoCAD Mechanical 2004 DX|Company: Autodesk"
 90
        0
280
     0
281
     0
  0
CLASS
  1
ACMNOTESTANDARDISO
  2
AmdtNoteStdISO
  3
"Amdt_StdImp|Product Description: AutoCAD Mechanical 2004 DX|Company: Autodesk"
 90
        0
280
     0
281
     0
  0
CLASS
  1
AMDTNOTETEMPLATEDB
  2
AmdtNoteTemplateDB
  3
AMDT_STDIMP_MODULE_NAME
 90
        0
280
     0
281
     0
  0
CLASS
  1
ACMTHREADLINESTANDARDANSI
  2
AmdtThreadLineStdANSI
  3
"Amdt_StdImp|Product Description: AutoCAD Mechanical 2004 DX|Company: Autodesk"
 90
        0
280
     0
281
     0
  0
CLASS
  1
ACMNOTESTANDARDANSI
  2
AmdtNoteStdANSI
  3
"Amdt_StdImp|Product Description: AutoCAD Mechanical 2004 DX|Company: Autodesk"
 90
        0
280
     0
281
     0
  0
CLASS
  1
ACMTHREADLINESTANDARDJIS
  2
AmdtThreadLineStdJIS
  3
"Amdt_StdImp|Product Description: AutoCAD Mechanical 2004 DX|Company: Autodesk"
 90
        0
280
     0
281
     0
  0
CLASS
  1
ACMNOTESTANDARDJIS
  2
AmdtNoteStdJIS
  3
"Amdt_StdImp|Product Description: AutoCAD Mechanical 2004 DX|Company: Autodesk"
 90
        0
280
     0
281
     0
  0
CLASS
  1
CATALOGSTATE
  2
AcAmCatalogState
  3
DesignerAssemblies
 90
        0
280
     0
281
     0
  0
CLASS
  1
ACAMGRCOMPDEFSET
  2
AcAmGrCompDefSet
  3
DesignerAssemblies
 90
        0
280
     0
281
     0
  0
CLASS
  1
AMDTBROWSERDBTAB
  2
AmdtBrowserDbTab
  3
McadcomServices
 90
        0
280
     0
281
     0
  0
CLASS
  1
CBROWSERAPPOBJECT
  2
CBrowserAppObject
  3
McadcomServices
 90
        0
280
     0
281
     0
  0
CLASS
  1
DM_PLACEHOLDER
  2
AcDmSelsetPlaceholder
  3
AcMechDwgViewMgmt
 90
        0
280
     0
281
     0
  0
CLASS
  1
DIMASSOC
  2
AcDbDimAssoc
  3
"AcDbDimAssoc|Product Desc:     AcDim ARX App For Dimension|Company:          Autodesk, Inc.|WEB Address:      www.autodesk.com"
 90
    32768
280
     0
281
     0
  0
CLASS
  1
SORTENTSTABLE
  2
AcDbSortentsTable
  3
ObjectDBX Classes
 90
        0
280
     0
281
     0
  0
CLASS
  1
STDPART2D
  2
AmgStdPart
  3
"AmgStdPart|Product Description: AutoCAD Mechanical 2000|Company: Autodesk"
 90
    33791
280
     0
281
     1
  0
CLASS
  1
AMDTNOTE
  2
AmdtNote
  3
"AcmSymBB|Product Description: AutoCAD Mechanical 2004 DX|Company: Autodesk"
 90
    33791
280
     0
281
     1
  0
CLASS
  1
ACMDATUMID
  2
AcmDatumId
  3
"AcmSymBB|Product Description: AutoCAD Mechanical 2004 DX|Company: Autodesk"
 90
    33791
280
     0
281
     1
  0
CLASS
  1
ACRFATTGENMGR
  2
AcRfAttGeneralMgr
  3
AcAttribServices
 90
        0
280
     0
281
     0
  0
ENDSEC
  0
SECTION
  2
TABLES
  0
TABLE
  2
VPORT
  5
8
330
0
100
AcDbSymbolTable
 70
    16
  0
VPORT
  5
3FD6
330
8
100
AcDbSymbolTableRecord
100
AcDbViewportTableRecord
  2
*Active
 70
     0
 10
0.0
 20
0.0
 11
1.0
 21
1.0
 12
530.1230527972487
 22
384.4963153395566
 13
0.0
 23
0.0
 14
7.5
 24
7.5
 15
30.0
 25
30.0
 16
0.0
 26
0.0
 36
1.0
 17
0.0
 27
0.0
 37
0.0
 40
367.6143740483892
 41
1.475550122249388
 42
50.0
 43
0.0
 44
0.0
 50
0.0
 51
0.0
 71
     0
 72
   100
 73
     1
 74
     3
 75
     0
 76
     0
 77
     0
 78
     0
281
     0
 65
     1
110
0.0
120
0.0
130
0.0
111
1.0
121
0.0
131
0.0
112
0.0
122
1.0
132
0.0
 79
     0
146
0.0
  0
ENDTAB
  0
TABLE
  2
LTYPE
  5
5
330
0
100
AcDbSymbolTable
 70
    21
  0
LTYPE
  5
14
330
5
100
AcDbSymbolTableRecord
100
AcDbLinetypeTableRecord
  2
ByBlock
 70
     0
  3

 72
    65
 73
     0
 40
0.0
  0
LTYPE
  5
15
330
5
100
AcDbSymbolTableRecord
100
AcDbLinetypeTableRecord
  2
ByLayer
 70
     0
  3

 72
    65
 73
     0
 40
0.0
  0
LTYPE
  5
16
330
5
100
AcDbSymbolTableRecord
100
AcDbLinetypeTableRecord
  2
Continuous
 70
     0
  3
Solid line
 72
    65
 73
     0
 40
0.0
  0
LTYPE
  5
4F
330
5
100
AcDbSymbolTableRecord
100
AcDbLinetypeTableRecord
  2
AM_ISO02W050
 70
     0
  3
__ __ __ __ __ __ __ __ __ __ __ __ __ __ __
 72
    65
 73
     2
 40
7.5
 49
6.0
 74
     0
 49
-1.5
 74
     0
  0
LTYPE
  5
50
330
5
100
AcDbSymbolTableRecord
100
AcDbLinetypeTableRecord
  2
AM_ISO08W050
 70
     0
  3
____ . ____ . ____ . ____ . ____ . ____ . ____
 72
    65
 73
     4
 40
18.0
 49
12.0
 74
     0
 49
-1.5
 74
     0
 49
3.0
 74
     0
 49
-1.5
 74
     0
  0
LTYPE
  5
51
330
5
100
AcDbSymbolTableRecord
100
AcDbLinetypeTableRecord
  2
AM_ISO09W050
 70
     0
  3
_____ . . _____ . . _____ . . ____ .. ____
 72
    65
 73
     6
 40
22.5
 49
12.0
 74
     0
 49
-1.5
 74
     0
 49
3.0
 74
     0
 49
-1.5
 74
     0
 49
3.0
 74
     0
 49
-1.5
 74
     0
  0
LTYPE
  5
52
330
5
100
AcDbSymbolTableRecord
100
AcDbLinetypeTableRecord
  2
Amconstr
 70
     0
  3
_______________________
 72
    65
 73
     2
 40
9999.0
 49
9999.0
 74
     0
 49
0.0
 74
     0
  0
LTYPE
  5
53
330
5
100
AcDbSymbolTableRecord
100
AcDbLinetypeTableRecord
  2
AM_ISO08W050x2
 70
     0
  3
__ . __ . __ . __ . __ . __
 72
    65
 73
     4
 40
9.0
 49
6.0
 74
     0
 49
-0.75
 74
     0
 49
1.5
 74
     0
 49
-0.75
 74
     0
  0
LTYPE
  5
54
330
5
100
AcDbSymbolTableRecord
100
AcDbLinetypeTableRecord
  2
AM_ISO02W050x2
 70
     0
  3
 _ _ _ _ _ _ _ _ _ _ _ _
 72
    65
 73
     2
 40
3.75
 49
3.0
 74
     0
 49
-0.75
 74
     0
  0
LTYPE
  5
57
330
5
100
AcDbSymbolTableRecord
100
AcDbLinetypeTableRecord
  2
Amzigzag
 70
     0
  3
/\/-/\/-/\/-/\/-/\/-/\/
 72
    65
 73
     2
 40
11.0001
 49
0.0001
 74
     4
 75
   135
340
56
 46
0.04
 50
0.0
 44
0.0
 45
0.0
 49
-11.0
 74
     0
  0
LTYPE
  5
64
330
5
100
AcDbSymbolTableRecord
100
AcDbLinetypeTableRecord
  2
ACISOWELD
 70
     0
  3
_ _ _ _ _
 72
    65
 73
     2
 40
2.0
 49
2.0
 74
     0
 49
-1.0
 74
     0
  0
LTYPE
  5
65
330
5
100
AcDbSymbolTableRecord
100
AcDbLinetypeTableRecord
  2
ACISOTGB
 70
     0
  3
__ . . __ . .
 72
    65
 73
     6
 40
9.0
 49
4.0
 74
     0
 49
-1.0
 74
     0
 49
1.0
 74
     0
 49
-1.0
 74
     0
 49
1.0
 74
     0
 49
-1.0
 74
     0
  0
LTYPE
  5
66
330
5
100
AcDbSymbolTableRecord
100
AcDbLinetypeTableRecord
  2
ACISOTGL
 70
     0
  3
_ _ _ _ _
 72
    65
 73
     2
 40
3.0
 49
2.0
 74
     0
 49
-1.0
 74
     0
  0
LTYPE
  5
69
330
5
100
AcDbSymbolTableRecord
100
AcDbLinetypeTableRecord
  2
CENTER
 70
     0
  3
__ . __
 72
    65
 73
     4
 40
7.0
 49
4.0
 74
     0
 49
-1.0
 74
     0
 49
1.0
 74
     0
 49
-1.0
 74
     0
  0
LTYPE
  5
6C2
330
5
100
AcDbSymbolTableRecord
100
AcDbLinetypeTableRecord
  2
HIDDEN
 70
     0
  3
Hidden __ __ __ __ __ __ __ __ __ __ __ __ __ _
 72
    65
 73
     2
 40
9.524999999999998
 49
6.349999999999999
 74
     0
 49
-3.174999999999999
 74
     0
  0
LTYPE
  5
6C3
330
5
100
AcDbSymbolTableRecord
100
AcDbLinetypeTableRecord
  2
PHANTOM2
 70
     0
  3
Phantom (.5x) ___ _ _ ___ _ _ ___ _ _ ___ _ _
 72
    65
 73
     6
 40
31.75
 49
15.875
 74
     0
 49
-3.174999999999999
 74
     0
 49
3.174999999999999
 74
     0
 49
-3.174999999999999
 74
     0
 49
3.174999999999999
 74
     0
 49
-3.174999999999999
 74
     0
  0
LTYPE
  5
6C6
330
5
100
AcDbSymbolTableRecord
100
AcDbLinetypeTableRecord
  2
ACANSTGBM
 70
     0
  3
__ . . __ . .
 72
    65
 73
     6
 40
9.0
 49
4.0
 74
     0
 49
-1.0
 74
     0
 49
1.0
 74
     0
 49
-1.0
 74
     0
 49
1.0
 74
     0
 49
-1.0
 74
     0
  0
LTYPE
  5
6C7
330
5
100
AcDbSymbolTableRecord
100
AcDbLinetypeTableRecord
  2
ACANSTGLM
 70
     0
  3
_ _ _ _ _
 72
    65
 73
     2
 40
3.0
 49
2.0
 74
     0
 49
-1.0
 74
     0
  0
LTYPE
  5
6CA
330
5
100
AcDbSymbolTableRecord
100
AcDbLinetypeTableRecord
  2
GEN7
 70
     0
  3
____ . ____ . ____ . ____ . ____ . ____ . ____
 72
    65
 73
     4
 40
14.25
 49
9.75
 74
     0
 49
-1.5
 74
     0
 49
1.5
 74
     0
 49
-1.5
 74
     0
  0
LTYPE
  5
6D6
330
5
100
AcDbSymbolTableRecord
100
AcDbLinetypeTableRecord
  2
GEN3B
 70
     0
  3
 - - - - -
 72
    65
 73
     2
 40
1.0
 49
0.5
 74
     0
 49
-0.5
 74
     0
  0
LTYPE
  5
6D8
330
5
100
AcDbSymbolTableRecord
100
AcDbLinetypeTableRecord
  2
GEN7A
 70
     0
  3
__ . __ . __
 72
    65
 73
     4
 40
7.375
 49
4.75
 74
     0
 49
-0.875
 74
     0
 49
0.875
 74
     0
 49
-0.875
 74
     0
  0
LTYPE
  5
6E0
330
5
100
AcDbSymbolTableRecord
100
AcDbLinetypeTableRecord
  2
ACJISTGB
 70
     0
  3
__ . . __ . .
 72
    65
 73
     6
 40
9.0
 49
4.0
 74
     0
 49
-1.0
 74
     0
 49
1.0
 74
     0
 49
-1.0
 74
     0
 49
1.0
 74
     0
 49
-1.0
 74
     0
  0
LTYPE
  5
6E1
330
5
100
AcDbSymbolTableRecord
100
AcDbLinetypeTableRecord
  2
ACJISTGL
 70
     0
  3
_ _ _ _ _
 72
    65
 73
     2
 40
3.0
 49
2.0
 74
     0
 49
-1.0
 74
     0
  0
ENDTAB
  0
TABLE
  2
LAYER
  5
2
102
{ACAD_XDICTIONARY
360
2D9C
102
}
330
0
100
AcDbSymbolTable
 70
    10
  0
LAYER
  5
10
330
2
100
AcDbSymbolTableRecord
100
AcDbLayerTableRecord
  2
0
 70
     0
 62
     7
  6
Continuous
370
    -3
390
F
  0
LAYER
  5
106
330
2
100
AcDbSymbolTableRecord
100
AcDbLayerTableRecord
  2
AM_5
 70
     0
 62
     2
  6
Continuous
370
    35
390
F
  0
LAYER
  5
124
330
2
100
AcDbSymbolTableRecord
100
AcDbLayerTableRecord
  2
Defpoints
 70
     0
 62
     7
  6
Continuous
290
     0
370
    -3
390
F
  0
LAYER
  5
6FC
330
2
100
AcDbSymbolTableRecord
100
AcDbLayerTableRecord
  2
ｶｸﾚｾﾝ2
 70
     0
 62
     3
  6
GEN3B
370
    -3
390
F
  0
LAYER
  5
6FE
330
2
100
AcDbSymbolTableRecord
100
AcDbLayerTableRecord
  2
ﾁｭｳｼﾝｾﾝ
 70
     0
 62
     1
  6
GEN7
370
    -3
390
F
  0
LAYER
  5
6FF
330
2
100
AcDbSymbolTableRecord
100
AcDbLayerTableRecord
  2
ﾁｭｳｼﾝｾﾝ1
 70
     0
 62
     1
  6
GEN7A
370
    -3
390
F
  0
LAYER
  5
71A
330
2
100
AcDbSymbolTableRecord
100
AcDbLayerTableRecord
  2
AM_7
 70
     0
 62
     1
  6
AM_ISO08W050
370
    25
390
F
  0
LAYER
  5
71D
330
2
100
AcDbSymbolTableRecord
100
AcDbLayerTableRecord
  2
AM_0
 70
     0
 62
     7
  6
Continuous
370
    50
390
F
  0
LAYER
  5
1A93
330
2
100
AcDbSymbolTableRecord
100
AcDbLayerTableRecord
  2
図面枠-ｷｲﾛ
 70
     0
 62
     2
  6
Continuous
370
    -3
390
F
  0
ENDTAB
  0
TABLE
  2
STYLE
  5
3
330
0
100
AcDbSymbolTable
 70
     8
  0
STYLE
  5
11
330
3
100
AcDbSymbolTableRecord
100
AcDbTextStyleTableRecord
  2
STANDARD
 70
     0
 40
0.0
 41
0.8299999999999998
 50
0.0
 71
     0
 42
2.5
  3
t.shx
  4
bigfont.shx
  0
STYLE
  5
56
330
3
100
AcDbSymbolTableRecord
100
AcDbTextStyleTableRecord
  2

 70
     1
 40
0.0
 41
1.0
 50
0.0
 71
     0
 42
2.5
  3
ltypeshp.shx
  4

  0
STYLE
  5
58
330
3
100
AcDbSymbolTableRecord
100
AcDbTextStyleTableRecord
  2
ACISOTS
 70
     0
 40
1.0
 41
1.0
 50
0.0
 71
     0
 42
2.5
  3
isocp.shx
  4
extfont.shx
  0
STYLE
  5
63
330
3
100
AcDbSymbolTableRecord
100
AcDbTextStyleTableRecord
  2
ACISOGDT
 70
     0
 40
0.0
 41
1.0
 50
0.0
 71
     0
 42
2.5
  3
amgdt.shx
  4

  0
STYLE
  5
73A
330
3
100
AcDbSymbolTableRecord
100
AcDbTextStyleTableRecord
  2
ACANSTS
 70
     0
 40
1.0
 41
1.0
 50
0.0
 71
     0
 42
2.5
  3
romans.shx
  4
bigfont.shx
  0
STYLE
  5
73B
330
3
100
AcDbSymbolTableRecord
100
AcDbTextStyleTableRecord
  2
ACANSGDT
 70
     0
 40
0.0
 41
1.0
 50
0.0
 71
     0
 42
2.5
  3
amgdtans.shx
  4

  0
STYLE
  5
73D
330
3
100
AcDbSymbolTableRecord
100
AcDbTextStyleTableRecord
  2
ACJISTS
 70
     0
 40
1.0
 41
1.0
 50
0.0
 71
     0
 42
2.5
  3
isocp.shx
  4
bigfont.shx
  0
STYLE
  5
73E
330
3
100
AcDbSymbolTableRecord
100
AcDbTextStyleTableRecord
  2
ACJISGDT
 70
     0
 40
0.0
 41
1.0
 50
0.0
 71
     0
 42
2.5
  3
amgdt.shx
  4

  0
ENDTAB
  0
TABLE
  2
VIEW
  5
6
330
0
100
AcDbSymbolTable
 70
     6
  0
VIEW
  5
C2
330
6
100
AcDbSymbolTableRecord
100
AcDbViewTableRecord
  2
AM_VIEW1
 70
     0
 40
277.5000000000001
 10
249.6477900552487
 20
416.2500000000001
 41
499.2955801104973
 11
0.0
 21
0.0
 31
1.0
 12
0.0
 22
0.0
 32
0.0
 42
50.0
 43
0.0
 44
0.0
 50
0.0
 71
     0
281
     0
 72
     0
  0
VIEW
  5
C3
330
6
100
AcDbSymbolTableRecord
100
AcDbViewTableRecord
  2
AM_VIEW2
 70
     0
 40
277.5000000000001
 10
603.8522099447513
 20
416.2500000000001
 41
499.2955801104973
 11
0.0
 21
0.0
 31
1.0
 12
0.0
 22
0.0
 32
0.0
 42
50.0
 43
0.0
 44
0.0
 50
0.0
 71
     0
281
     0
 72
     0
  0
VIEW
  5
C4
330
6
100
AcDbSymbolTableRecord
100
AcDbViewTableRecord
  2
AM_VIEW3
 70
     0
 40
277.5000000000001
 10
249.6477900552487
 20
138.75
 41
499.2955801104973
 11
0.0
 21
0.0
 31
1.0
 12
0.0
 22
0.0
 32
0.0
 42
50.0
 43
0.0
 44
0.0
 50
0.0
 71
     0
281
     0
 72
     0
  0
VIEW
  5
C5
330
6
100
AcDbSymbolTableRecord
100
AcDbViewTableRecord
  2
AM_VIEW4
 70
     0
 40
277.5000000000001
 10
603.8522099447513
 20
138.75
 41
499.2955801104973
 11
0.0
 21
0.0
 31
1.0
 12
0.0
 22
0.0
 32
0.0
 42
50.0
 43
0.0
 44
0.0
 50
0.0
 71
     0
281
     0
 72
     0
  0
VIEW
  5
C6
330
6
100
AcDbSymbolTableRecord
100
AcDbViewTableRecord
  2
AM_VIEW5
 70
     0
 40
277.5000000000001
 10
426.75
 20
277.5000000000001
 41
499.2955801104972
 11
0.0
 21
0.0
 31
1.0
 12
0.0
 22
0.0
 32
0.0
 42
50.0
 43
0.0
 44
0.0
 50
0.0
 71
     0
281
     0
 72
     0
  0
VIEW
  5
C7
330
6
100
AcDbSymbolTableRecord
100
AcDbViewTableRecord
  2
AM_VIEW6
 70
     0
 40
554.9944500000001
 10
426.75
 20
277.5
 41
998.5811743093925
 11
0.0
 21
0.0
 31
1.0
 12
0.0
 22
0.0
 32
0.0
 42
50.0
 43
0.0
 44
0.0
 50
0.0
 71
     0
281
     0
 72
     0
  0
ENDTAB
  0
TABLE
  2
UCS
  5
7
330
0
100
AcDbSymbolTable
 70
     0
  0
ENDTAB
  0
TABLE
  2
APPID
  5
9
330
0
100
AcDbSymbolTable
 70
    95
  0
APPID
  5
12
330
9
100
AcDbSymbolTableRecord
100
AcDbRegAppTableRecord
  2
ACAD
 70
     0
  0
APPID
  5
30
330
9
100
AcDbSymbolTableRecord
100
AcDbRegAppTableRecord
  2
MCAD_NO_VIS
 70
     0
  0
APPID
  5
31
330
9
100
AcDbSymbolTableRecord
100
AcDbRegAppTableRecord
  2
ACAD_TEMP_GRAPHIC
 70
     0
  0
APPID
  5
44
330
9
100
AcDbSymbolTableRecord
100
AcDbRegAppTableRecord
  2
ACATTRIBSERVICES
 70
     0
  0
APPID
  5
8D
330
9
100
AcDbSymbolTableRecord
100
AcDbRegAppTableRecord
  2
GENIUS_GENREC_14
 70
     0
  0
APPID
  5
8E
330
9
100
AcDbSymbolTableRecord
100
AcDbRegAppTableRecord
  2
GENIUS_GENOBJ-N-REC_13
 70
     0
  0
APPID
  5
8F
330
9
100
AcDbSymbolTableRecord
100
AcDbRegAppTableRecord
  2
GENIUS_GENODEF_13
 70
     0
  0
APPID
  5
BD
330
9
100
AcDbSymbolTableRecord
100
AcDbRegAppTableRecord
  2
GENIUS_GENOLIS_13
 70
     0
  0
APPID
  5
BE
330
9
100
AcDbSymbolTableRecord
100
AcDbRegAppTableRecord
  2
GENIUS_GENOBJ-N-TIT_13
 70
     0
  0
APPID
  5
BF
330
9
100
AcDbSymbolTableRecord
100
AcDbRegAppTableRecord
  2
GENIUS_GENOENT_13
 70
     0
  0
APPID
  5
C0
330
9
100
AcDbSymbolTableRecord
100
AcDbRegAppTableRecord
  2
GENIUS_GENTITLE_13
 70
     0
  0
APPID
  5
C1
330
9
100
AcDbSymbolTableRecord
100
AcDbRegAppTableRecord
  2
GENIUS_GENOREF_13
 70
     0
  0
APPID
  5
C8
330
9
100
AcDbSymbolTableRecord
100
AcDbRegAppTableRecord
  2
GENIUS_GENSCREG_15
 70
     0
  0
APPID
  5
C9
330
9
100
AcDbSymbolTableRecord
100
AcDbRegAppTableRecord
  2
GENIUS_GENOBJ-N-SDF_13
 70
     0
  0
APPID
  5
103
330
9
100
AcDbSymbolTableRecord
100
AcDbRegAppTableRecord
  2
GENIUS_GENFIL_13
 70
     0
  0
APPID
  5
104
330
9
100
AcDbSymbolTableRecord
100
AcDbRegAppTableRecord
  2
GENIUS_GENOBJ-N-CHA_13
 70
     0
  0
APPID
  5
13E
330
9
100
AcDbSymbolTableRecord
100
AcDbRegAppTableRecord
  2
GENIUS_GENDTOL_13
 70
     0
  0
APPID
  5
187
330
9
100
AcDbSymbolTableRecord
100
AcDbRegAppTableRecord
  2
GENIUS_GENOBJ-N-FIL_13
 70
     0
  0
APPID
  5
75A
330
9
100
AcDbSymbolTableRecord
100
AcDbRegAppTableRecord
  2
AD_DRAW
 70
     0
  0
APPID
  5
75B
330
9
100
AcDbSymbolTableRecord
100
AcDbRegAppTableRecord
  2
DESIGNERASSEMBLIES
 70
     0
  0
APPID
  5
75C
330
9
100
AcDbSymbolTableRecord
100
AcDbRegAppTableRecord
  2
ASURF_PCURVE_APPNAME
 70
     0
  0
APPID
  5
75D
330
9
100
AcDbSymbolTableRecord
100
AcDbRegAppTableRecord
  2
GENIUS_GE3SECT_13
 70
     0
  0
APPID
  5
75E
330
9
100
AcDbSymbolTableRecord
100
AcDbRegAppTableRecord
  2
GENIUS_GENCFG_13
 70
     0
  0
APPID
  5
75F
330
9
100
AcDbSymbolTableRecord
100
AcDbRegAppTableRecord
  2
GENIUS_GE3CFG0_13
 70
     0
  0
APPID
  5
760
330
9
100
AcDbSymbolTableRecord
100
AcDbRegAppTableRecord
  2
GENIUS_GENCFG0_13
 70
     0
  0
APPID
  5
761
330
9
100
AcDbSymbolTableRecord
100
AcDbRegAppTableRecord
  2
GENIUS_GENCFG1_13
 70
     0
  0
APPID
  5
762
330
9
100
AcDbSymbolTableRecord
100
AcDbRegAppTableRecord
  2
GENIUS_GENCFG2_13
 70
     0
  0
APPID
  5
763
330
9
100
AcDbSymbolTableRecord
100
AcDbRegAppTableRecord
  2
GENIUS_GENCFG3_13
 70
     0
  0
APPID
  5
764
330
9
100
AcDbSymbolTableRecord
100
AcDbRegAppTableRecord
  2
GENIUS_GENCFG4_13
 70
     0
  0
APPID
  5
765
330
9
100
AcDbSymbolTableRecord
100
AcDbRegAppTableRecord
  2
GENIUS_GEVCFG0_13
 70
     0
  0
APPID
  5
766
330
9
100
AcDbSymbolTableRecord
100
AcDbRegAppTableRecord
  2
GENIUS_GENHINW_13
 70
     0
  0
APPID
  5
767
330
9
100
AcDbSymbolTableRecord
100
AcDbRegAppTableRecord
  2
GENIUS_FIRSTVISTXT_14
 70
     0
  0
APPID
  5
768
330
9
100
AcDbSymbolTableRecord
100
AcDbRegAppTableRecord
  2
GENIUS_GENOBJ-N-LEADER_13
 70
     0
  0
APPID
  5
769
330
9
100
AcDbSymbolTableRecord
100
AcDbRegAppTableRecord
  2
GEV_VCCNULL_SWITCH_OFF
 70
     0
  0
APPID
  5
76A
330
9
100
AcDbSymbolTableRecord
100
AcDbRegAppTableRecord
  2
GENIUS_GEFCFG0_13
 70
     0
  0
APPID
  5
76B
330
9
100
AcDbSymbolTableRecord
100
AcDbRegAppTableRecord
  2
GENIUS_GENZVEED_13
 70
     0
  0
APPID
  5
76C
330
9
100
AcDbSymbolTableRecord
100
AcDbRegAppTableRecord
  2
GENIUS_GENSCREG_13
 70
     0
  0
APPID
  5
76D
330
9
100
AcDbSymbolTableRecord
100
AcDbRegAppTableRecord
  2
GENIUS_DUMCFG0_13
 70
     0
  0
APPID
  5
76E
330
9
100
AcDbSymbolTableRecord
100
AcDbRegAppTableRecord
  2
GEVID936201362
 70
     0
  0
APPID
  5
76F
330
9
100
AcDbSymbolTableRecord
100
AcDbRegAppTableRecord
  2
GEVDC
 70
     0
  0
APPID
  5
770
330
9
100
AcDbSymbolTableRecord
100
AcDbRegAppTableRecord
  2
GEVCON
 70
     0
  0
APPID
  5
771
330
9
100
AcDbSymbolTableRecord
100
AcDbRegAppTableRecord
  2
VCC
 70
     0
  0
APPID
  5
772
330
9
100
AcDbSymbolTableRecord
100
AcDbRegAppTableRecord
  2
GEVPT
 70
     0
  0
APPID
  5
773
330
9
100
AcDbSymbolTableRecord
100
AcDbRegAppTableRecord
  2
GEVIT
 70
     0
  0
APPID
  5
774
330
9
100
AcDbSymbolTableRecord
100
AcDbRegAppTableRecord
  2
GENBH
 70
     0
  0
APPID
  5
775
330
9
100
AcDbSymbolTableRecord
100
AcDbRegAppTableRecord
  2
GEVMK
 70
     0
  0
APPID
  5
776
330
9
100
AcDbSymbolTableRecord
100
AcDbRegAppTableRecord
  2
GENIUS_GENBH_13
 70
     0
  0
APPID
  5
777
330
9
100
AcDbSymbolTableRecord
100
AcDbRegAppTableRecord
  2
GENIUS_GENOBJ-NBEHI-BHF_13
 70
     0
  0
APPID
  5
778
330
9
100
AcDbSymbolTableRecord
100
AcDbRegAppTableRecord
  2
GENIUS_GENOBJ-NBEHI-BHB_13
 70
     0
  0
APPID
  5
779
330
9
100
AcDbSymbolTableRecord
100
AcDbRegAppTableRecord
  2
GENIUS_GENOBJ-F-DESC_13
 70
     0
  0
APPID
  5
77A
330
9
100
AcDbSymbolTableRecord
100
AcDbRegAppTableRecord
  2
GENIUS_GEFDESC_14
 70
     0
  0
APPID
  5
77B
330
9
100
AcDbSymbolTableRecord
100
AcDbRegAppTableRecord
  2
GENIUS_GENOBJ-F-PART_13
 70
     0
  0
APPID
  5
77C
330
9
100
AcDbSymbolTableRecord
100
AcDbRegAppTableRecord
  2
GENIUS_GEFSTDP_13
 70
     0
  0
APPID
  5
77D
330
9
100
AcDbSymbolTableRecord
100
AcDbRegAppTableRecord
  2
GENIUS_GEFPARTINS_13
 70
     0
  0
APPID
  5
77E
330
9
100
AcDbSymbolTableRecord
100
AcDbRegAppTableRecord
  2
GENIUS_GENTRA_14
 70
     0
  0
APPID
  5
77F
330
9
100
AcDbSymbolTableRecord
100
AcDbRegAppTableRecord
  2
GENIUS_GENINF13_13
 70
     0
  0
APPID
  5
780
330
9
100
AcDbSymbolTableRecord
100
AcDbRegAppTableRecord
  2
GENIUS_GENOBJ-N-INFOPT_13
 70
     0
  0
APPID
  5
781
330
9
100
AcDbSymbolTableRecord
100
AcDbRegAppTableRecord
  2
GENIUS_GENOBJ-N-RSSYM_13
 70
     0
  0
APPID
  5
782
330
9
100
AcDbSymbolTableRecord
100
AcDbRegAppTableRecord
  2
GENIUS_GENSYMENT_13
 70
     0
  0
APPID
  5
783
330
9
100
AcDbSymbolTableRecord
100
AcDbRegAppTableRecord
  2
GENIUS_GENSCSYM_13
 70
     0
  0
APPID
  5
784
330
9
100
AcDbSymbolTableRecord
100
AcDbRegAppTableRecord
  2
GENIUS_GEFINFNAM_13
 70
     0
  0
APPID
  5
785
330
9
100
AcDbSymbolTableRecord
100
AcDbRegAppTableRecord
  2
GENIUS_GENOBJ-N-CEN_13
 70
     0
  0
APPID
  5
786
330
9
100
AcDbSymbolTableRecord
100
AcDbRegAppTableRecord
  2
GENIUS_GENOBJ-N-CRS_13
 70
     0
  0
APPID
  5
787
330
9
100
AcDbSymbolTableRecord
100
AcDbRegAppTableRecord
  2
GENIUS_GENOBJ-N-CRC_13
 70
     0
  0
APPID
  5
788
330
9
100
AcDbSymbolTableRecord
100
AcDbRegAppTableRecord
  2
GENIUS_GENCRC_14
 70
     0
  0
APPID
  5
789
330
9
100
AcDbSymbolTableRecord
100
AcDbRegAppTableRecord
  2
GEVID942827039
 70
     0
  0
APPID
  5
78A
330
9
100
AcDbSymbolTableRecord
100
AcDbRegAppTableRecord
  2
GEVID942827040
 70
     0
  0
APPID
  5
78B
330
9
100
AcDbSymbolTableRecord
100
AcDbRegAppTableRecord
  2
GEVID942827041
 70
     0
  0
APPID
  5
78C
330
9
100
AcDbSymbolTableRecord
100
AcDbRegAppTableRecord
  2
GENIUS_GENOBJ-F-SCPASSM_13
 70
     0
  0
APPID
  5
78D
330
9
100
AcDbSymbolTableRecord
100
AcDbRegAppTableRecord
  2
GENIUS_GENDIMSH_14
 70
     0
  0
APPID
  5
78E
330
9
100
AcDbSymbolTableRecord
100
AcDbRegAppTableRecord
  2
GEVID942827042
 70
     0
  0
APPID
  5
78F
330
9
100
AcDbSymbolTableRecord
100
AcDbRegAppTableRecord
  2
GEVID946020473
 70
     0
  0
APPID
  5
790
330
9
100
AcDbSymbolTableRecord
100
AcDbRegAppTableRecord
  2
GEVID946020474
 70
     0
  0
APPID
  5
791
330
9
100
AcDbSymbolTableRecord
100
AcDbRegAppTableRecord
  2
GEVID946020475
 70
     0
  0
APPID
  5
792
330
9
100
AcDbSymbolTableRecord
100
AcDbRegAppTableRecord
  2
GENIUS_GENOBJ-N-HTC_13
 70
     0
  0
APPID
  5
793
330
9
100
AcDbSymbolTableRecord
100
AcDbRegAppTableRecord
  2
GENIUS_GENHATCH_13
 70
     0
  0
APPID
  5
794
330
9
100
AcDbSymbolTableRecord
100
AcDbRegAppTableRecord
  2
GEVID948854295
 70
     0
  0
APPID
  5
795
330
9
100
AcDbSymbolTableRecord
100
AcDbRegAppTableRecord
  2
GEVID939402019
 70
     0
  0
APPID
  5
796
330
9
100
AcDbSymbolTableRecord
100
AcDbRegAppTableRecord
  2
GEVID952919491
 70
     0
  0
APPID
  5
797
330
9
100
AcDbSymbolTableRecord
100
AcDbRegAppTableRecord
  2
GEVID952919492
 70
     0
  0
APPID
  5
798
330
9
100
AcDbSymbolTableRecord
100
AcDbRegAppTableRecord
  2
GENIUS_GEFWELD_13
 70
     0
  0
APPID
  5
799
330
9
100
AcDbSymbolTableRecord
100
AcDbRegAppTableRecord
  2
GENIUS_GENOBJ-F-WELS_13
 70
     0
  0
APPID
  5
79A
330
9
100
AcDbSymbolTableRecord
100
AcDbRegAppTableRecord
  2
GEVID952919493
 70
     0
  0
APPID
  5
79B
330
9
100
AcDbSymbolTableRecord
100
AcDbRegAppTableRecord
  2
GENIUS_GENOBJ-N-RSBK_13
 70
     0
  0
APPID
  5
79C
330
9
100
AcDbSymbolTableRecord
100
AcDbRegAppTableRecord
  2
GENIUS_GENOBJ-N-LIB_13
 70
     0
  0
APPID
  5
79D
330
9
100
AcDbSymbolTableRecord
100
AcDbRegAppTableRecord
  2
GENIUS_GENSCALE_13
 70
     0
  0
APPID
  5
79E
330
9
100
AcDbSymbolTableRecord
100
AcDbRegAppTableRecord
  2
GEVID986376691
 70
     0
  0
APPID
  5
79F
330
9
100
AcDbSymbolTableRecord
100
AcDbRegAppTableRecord
  2
DCO15
 70
     0
  0
APPID
  5
1A97
330
9
100
AcDbSymbolTableRecord
100
AcDbRegAppTableRecord
  2
GEVID988070561
 70
     0
  0
APPID
  5
1A98
330
9
100
AcDbSymbolTableRecord
100
AcDbRegAppTableRecord
  2
GEVID988070562
 70
     0
  0
APPID
  5
1A99
330
9
100
AcDbSymbolTableRecord
100
AcDbRegAppTableRecord
  2
GEVID988070563
 70
     0
  0
APPID
  5
2201
330
9
100
AcDbSymbolTableRecord
100
AcDbRegAppTableRecord
  2
ACADM_DIM_EDIT
 70
     0
  0
APPID
  5
2202
330
9
100
AcDbSymbolTableRecord
100
AcDbRegAppTableRecord
  2
AMDT_DM_ADJ
 70
     0
  0
APPID
  5
222C
330
9
100
AcDbSymbolTableRecord
100
AcDbRegAppTableRecord
  2
ACAD_PSEXT
 70
     0
  0
APPID
  5
222D
330
9
100
AcDbSymbolTableRecord
100
AcDbRegAppTableRecord
  2
GENIUS_GENCEN_19
 70
     0
  0
ENDTAB
  0
TABLE
  2
DIMSTYLE
  5
A
330
0
100
AcDbSymbolTable
 70
    16
100
AcDbDimStyleTable
 71
     2
340
6C
340
71
  0
DIMSTYLE
105
6C
330
A
100
AcDbSymbolTableRecord
100
AcDbDimStyleTableRecord
  2
AM_ISO
 70
     0
  4
"
 41
2.5
 42
1.0
 43
8.0
 44
0.6
 47
0.1
 48
0.1
 73
     0
 74
     0
 77
     1
 78
     8
 79
     2
140
2.5
141
0.0
143
0.0393701
146
0.71
147
0.8
172
     1
176
   256
177
   256
178
     4
271
     2
272
     2
283
     0
284
     8
340
11
371
    -1
372
    -1
  0
DIMSTYLE
105
6D
330
A
100
AcDbSymbolTableRecord
100
AcDbDimStyleTableRecord
  2
AM_ISO$3
 70
     0
  4
"
 41
2.5
 42
1.0
 43
8.0
 44
0.6
 47
0.1
 48
0.1
 73
     0
 77
     1
 78
     8
 79
     2
140
2.5
141
0.0
143
0.0393701
146
0.71
147
0.8
176
   256
177
   256
178
     4
271
     2
272
     2
283
     0
284
     8
288
     1
289
     0
340
11
371
    -1
372
    -1
  0
DIMSTYLE
105
6E
330
A
100
AcDbSymbolTableRecord
100
AcDbDimStyleTableRecord
  2
AM_ISO$4
 70
     0
  4
"
 41
2.5
 42
1.0
 43
8.0
 44
0.6
 47
0.1
 48
0.1
 73
     0
 77
     1
 78
     8
 79
     2
140
2.5
141
0.0
143
0.0393701
146
0.71
147
0.8
176
   256
177
   256
178
     4
271
     2
272
     2
283
     0
284
     8
288
     1
289
     0
340
11
371
    -1
372
    -1
  0
DIMSTYLE
105
6F
330
A
100
AcDbSymbolTableRecord
100
AcDbDimStyleTableRecord
  2
AM_ISO$6
 70
     0
  4
"
 41
2.5
 42
1.0
 43
8.0
 44
0.6
 47
0.1
 48
0.1
 73
     0
 74
     0
 78
     8
 79
     2
140
2.5
141
0.0
143
0.0393701
146
0.71
147
0.8
172
     1
176
   256
177
   256
178
     4
271
     2
272
     2
283
     0
284
     8
340
11
371
    -1
372
    -1
  0
DIMSTYLE
105
70
330
A
100
AcDbSymbolTableRecord
100
AcDbDimStyleTableRecord
  2
AM_ISO$7
 70
     0
  4
"
 41
2.5
 42
1.0
 43
8.0
 44
0.6
 47
0.1
 48
0.1
 73
     0
 74
     0
 77
     1
 78
     8
 79
     2
140
2.5
141
0.0
143
0.0393701
146
0.71
147
0.8
172
     1
176
   256
177
   256
178
     4
271
     2
272
     2
283
     0
284
     8
340
11
371
    -1
372
    -1
  0
DIMSTYLE
105
71
330
A
100
AcDbSymbolTableRecord
100
AcDbDimStyleTableRecord
  2
AM_ISO$SF
 70
     0
  4
"
 41
2.5
 42
1.0
 43
10.0
 44
1.0
 47
0.1
 48
0.1
 73
     0
 74
     0
 75
     1
 76
     1
 77
     1
 78
     8
 79
     2
140
3.5
141
0.0
143
0.0393701
146
0.71
147
1.5
172
     1
176
   256
177
   256
178
     2
271
     2
272
     3
274
     4
283
     0
284
     8
340
11
371
    -1
372
    -1
  0
DIMSTYLE
105
76
330
A
100
AcDbSymbolTableRecord
100
AcDbDimStyleTableRecord
  2
AM_ISO$SH
 70
     0
  4
"
 41
2.5
 42
1.0
 43
10.0
 44
1.0
 47
0.1
 48
0.1
 73
     0
 74
     0
 75
     1
 76
     1
 77
     1
 78
     8
 79
     2
140
3.5
141
0.0
143
0.0393701
144
2.0
146
0.71
147
1.5
172
     1
173
     1
176
   256
177
   256
178
     2
271
     2
272
     3
274
     4
283
     0
284
     8
340
11
343
72
371
    -1
372
    -1
  0
DIMSTYLE
105
740
330
A
100
AcDbSymbolTableRecord
100
AcDbDimStyleTableRecord
  2
STANDARD
 70
     0
340
11
  0
DIMSTYLE
105
748
330
A
100
AcDbSymbolTableRecord
100
AcDbDimStyleTableRecord
  2
AM_JIS
 70
     0
  4
"
 41
2.5
 42
1.0
 43
7.0
 44
1.0
 47
0.1
 48
0.1000000001
 73
     0
 74
     0
 77
     3
 78
     8
 79
     2
140
2.5
141
0.0
143
0.0393701
146
0.71
147
1.0
172
     1
176
   256
177
   256
178
     4
271
     2
272
     2
283
     0
284
     8
340
11
371
    -1
372
    -1
  0
DIMSTYLE
105
749
330
A
100
AcDbSymbolTableRecord
100
AcDbDimStyleTableRecord
  2
AM_JIS$3
 70
     0
  4
"
 41
2.5
 42
1.0
 43
7.0
 44
1.0
 47
0.1
 48
0.1000000001
 73
     0
 77
     3
 78
     8
 79
     2
140
2.5
141
0.0
143
0.0393701
146
0.71
147
1.0
176
   256
177
   256
178
     4
271
     2
272
     2
283
     0
284
     8
288
     1
289
     0
340
11
371
    -1
372
    -1
  0
DIMSTYLE
105
74A
330
A
100
AcDbSymbolTableRecord
100
AcDbDimStyleTableRecord
  2
AM_JIS$4
 70
     0
  4
"
 41
2.5
 42
1.0
 43
7.0
 44
1.0
 47
0.1
 48
0.1000000001
 73
     0
 74
     0
 77
     3
 78
     8
 79
     2
140
2.5
141
0.0
143
0.0393701
146
0.71
147
1.0
176
   256
177
   256
178
     4
271
     2
272
     2
283
     0
284
     8
288
     1
289
     0
340
11
371
    -1
372
    -1
  0
DIMSTYLE
105
74B
330
A
100
AcDbSymbolTableRecord
100
AcDbDimStyleTableRecord
  2
AM_JIS$6
 70
     0
  4
"
 41
2.5
 42
1.0
 43
7.0
 44
1.0
 47
0.1
 48
0.1000000001
 73
     0
 74
     0
 78
     8
 79
     2
140
2.5
141
0.0
143
0.0393701
146
0.71
147
1.0
172
     1
176
   256
177
   256
178
     4
271
     2
272
     2
283
     0
284
     8
340
11
371
    -1
372
    -1
  0
DIMSTYLE
105
74C
330
A
100
AcDbSymbolTableRecord
100
AcDbDimStyleTableRecord
  2
AM_JIS$7
 70
     0
  4
"
 41
2.5
 42
1.0
 43
7.0
 44
1.0
 47
0.1
 48
0.1000000001
 73
     0
 74
     0
 77
     3
 78
     8
 79
     2
140
2.5
141
0.0
143
0.0393701
146
0.71
147
1.0
172
     1
176
   256
177
   256
178
     4
271
     2
272
     2
283
     0
284
     8
340
11
371
    -1
372
    -1
  0
DIMSTYLE
105
74D
330
A
100
AcDbSymbolTableRecord
100
AcDbDimStyleTableRecord
  2
AM_JIS$SF
 70
     0
  4
"
 41
2.5
 42
1.0
 43
10.0
 44
1.0
 47
0.1
 48
0.1
 73
     0
 74
     0
 75
     1
 76
     1
 77
     3
 78
     8
 79
     2
140
3.5
141
0.0
143
0.0393701
146
0.71
147
1.5
172
     1
176
   256
177
   256
178
     4
271
     2
272
     3
274
     4
283
     0
340
11
341
319
342
319
343
319
344
319
371
    -1
372
    -1
  0
DIMSTYLE
105
74E
330
A
100
AcDbSymbolTableRecord
100
AcDbDimStyleTableRecord
  2
AM_JIS$SH
 70
     0
  4
"
 41
2.5
 42
1.0
 43
10.0
 44
1.0
 47
0.1
 48
0.1
 73
     0
 74
     0
 75
     1
 77
     3
 78
     8
 79
     2
140
3.5
141
0.0
143
0.0393701
146
0.71
147
1.5
172
     1
173
     1
176
   256
177
   256
178
     4
271
     2
272
     2
281
     1
283
     0
340
11
343
577
371
    -1
372
    -1
  0
DIMSTYLE
105
2351
330
A
100
AcDbSymbolTableRecord
100
AcDbDimStyleTableRecord
  2
AM_ISO$0
 70
     0
  4
"
 41
2.5
 42
1.0
 43
8.0
 44
0.6
 47
0.1
 48
0.1
 73
     0
 74
     0
 77
     1
 78
     8
 79
     2
140
2.5
141
0.0
143
0.0393701
146
0.71
147
0.8
172
     1
176
   256
177
   256
178
     4
271
     2
272
     2
283
     0
284
     8
340
11
371
    -1
372
    -1
  0
ENDTAB
  0
TABLE
  2
BLOCK_RECORD
  5
1
330
0
100
AcDbSymbolTable
 70
     6
  0
BLOCK_RECORD
  5
1F
102
{ACAD_XDICTIONARY
360
CC
102
}
330
1
100
AcDbSymbolTableRecord
100
AcDbBlockTableRecord
  2
*Model_Space
340
22
  0
BLOCK_RECORD
  5
1B
330
1
100
AcDbSymbolTableRecord
100
AcDbBlockTableRecord
  2
*Paper_Space
340
1E
  0
BLOCK_RECORD
  5
23
330
1
100
AcDbSymbolTableRecord
100
AcDbBlockTableRecord
  2
*Paper_Space0
340
26
  0
BLOCK_RECORD
  5
72
330
1
100
AcDbSymbolTableRecord
100
AcDbBlockTableRecord
  2
GENAXEH
340
0
  0
BLOCK_RECORD
  5
319
330
1
100
AcDbSymbolTableRecord
100
AcDbBlockTableRecord
  2
_Open30
340
0
  0
BLOCK_RECORD
  5
577
330
1
100
AcDbSymbolTableRecord
100
AcDbBlockTableRecord
  2
_None
340
0
  0
ENDTAB
  0
ENDSEC
  0
SECTION
  2
BLOCKS
  0
BLOCK
  5
20
330
1F
100
AcDbEntity
  8
0
100
AcDbBlockBegin
  2
*Model_Space
 70
     0
 10
0.0
 20
0.0
 30
0.0
  3
*Model_Space
  1

  0
ENDBLK
  5
21
330
1F
100
AcDbEntity
  8
0
100
AcDbBlockEnd
  0
BLOCK
  5
1C
330
1B
100
AcDbEntity
 67
     1
  8
0
100
AcDbBlockBegin
  2
*Paper_Space
 70
     0
 10
0.0
 20
0.0
 30
0.0
  3
*Paper_Space
  1

  0
ENDBLK
  5
1D
330
1B
100
AcDbEntity
 67
     1
  8
0
100
AcDbBlockEnd
  0
BLOCK
  5
24
330
23
100
AcDbEntity
  8
0
100
AcDbBlockBegin
  2
*Paper_Space0
 70
     0
 10
0.0
 20
0.0
 30
0.0
  3
*Paper_Space0
  1

  0
ENDBLK
  5
25
330
23
100
AcDbEntity
  8
0
100
AcDbBlockEnd
  0
BLOCK
  5
74
330
72
100
AcDbEntity
  8
0
100
AcDbBlockBegin
  2
GENAXEH
 70
     0
 10
0.0
 20
0.0
 30
0.0
  3
GENAXEH
  1

  0
LINE
  5
73
330
72
100
AcDbEntity
  8
0
100
AcDbLine
 10
-1.0
 20
0.0
 30
0.0
 11
1.0
 21
0.0
 31
0.0
  0
ENDBLK
  5
75
330
72
100
AcDbEntity
  8
0
100
AcDbBlockEnd
  0
BLOCK
  5
31D
330
319
100
AcDbEntity
  8
0
100
AcDbBlockBegin
  2
_Open30
 70
     0
 10
0.0
 20
0.0
 30
0.0
  3
_Open30
  1

  0
LINE
  5
31A
330
319
100
AcDbEntity
  8
0
 62
     0
370
    -2
100
AcDbLine
 10
-1.0
 20
0.26794919
 30
0.0
 11
0.0
 21
0.0
 31
0.0
  0
LINE
  5
31B
330
319
100
AcDbEntity
  8
0
 62
     0
370
    -2
100
AcDbLine
 10
0.0
 20
0.0
 30
0.0
 11
-1.0
 21
-0.26794919
 31
0.0
  0
LINE
  5
31C
330
319
100
AcDbEntity
  8
0
 62
     0
370
    -2
100
AcDbLine
 10
0.0
 20
0.0
 30
0.0
 11
-1.0
 21
0.0
 31
0.0
  0
ENDBLK
  5
31E
330
319
100
AcDbEntity
  8
0
100
AcDbBlockEnd
  0
BLOCK
  5
578
330
577
100
AcDbEntity
  8
0
100
AcDbBlockBegin
  2
_None
 70
     0
 10
0.0
 20
0.0
 30
0.0
  3
_None
  1

  0
ENDBLK
  5
579
330
577
100
AcDbEntity
  8
0
100
AcDbBlockEnd
  0
ENDSEC
  0
SECTION
  2
ENTITIES
  0
LINE
  5
3242
330
1F
100
AcDbEntity
  8
ﾁｭｳｼﾝｾﾝ
 48
0.8
100
AcDbLine
 10
649.0676785972222
 20
301.6049191828915
 30
0.0
 11
721.9335865972221
 21
301.6049191828915
 31
0.0
  0
LINE
  5
3243
330
1F
100
AcDbEntity
  8
AM_0
100
AcDbLine
 10
482.8849922836139
 20
289.1049181828914
 30
0.0
 11
484.8849422836138
 21
289.1049181828914
 31
0.0
  0
LINE
  5
3244
330
1F
100
AcDbEntity
  8
AM_0
100
AcDbLine
 10
482.8849922836139
 20
314.1049141828914
 30
0.0
 11
484.8849422836138
 21
314.1049141828914
 31
0.0
  0
LINE
  5
3245
330
1F
100
AcDbEntity
  8
AM_0
100
AcDbLine
 10
484.8849422836138
 20
313.6049041828913
 30
0.0
 11
524.8849922836138
 21
313.6049041828913
 31
0.0
  0
LINE
  5
3246
330
1F
100
AcDbEntity
  8
AM_0
100
AcDbLine
 10
524.8849922836138
 20
316.6049041828913
 30
0.0
 11
524.8849922836138
 21
289.6049191828915
 31
0.0
  0
LINE
  5
3247
330
1F
100
AcDbEntity
  8
AM_0
100
AcDbLine
 10
484.8849422836138
 20
289.6049191828915
 30
0.0
 11
524.8849922836138
 21
289.6049191828915
 31
0.0
  0
LINE
  5
3248
330
1F
100
AcDbEntity
  8
AM_0
100
AcDbLine
 10
484.8849422836138
 20
314.1049141828914
 30
0.0
 11
484.8849422836138
 21
289.1049181828914
 31
0.0
  0
LINE
  5
3249
330
1F
100
AcDbEntity
  8
ﾁｭｳｼﾝｾﾝ
 48
0.8
100
AcDbLine
 10
528.5974622836138
 20
301.6049191828915
 30
0.0
 11
400.9842662540827
 21
301.6049191828915
 31
0.0
  0
LINE
  5
324A
330
1F
100
AcDbEntity
  8
ﾁｭｳｼﾝｾﾝ
 48
0.8
100
AcDbLine
 10
685.5006325972222
 20
356.6704915269935
 30
0.0
 11
685.5006325972222
 21
202.3706461828914
 31
0.0
  0
LINE
  5
324B
330
1F
100
AcDbEntity
  8
AM_0
100
AcDbLine
 10
492.8849522836141
 20
316.6049041828913
 30
0.0
 11
492.8849522836141
 21
313.6049041828913
 31
0.0
  0
LINE
  5
324C
330
1F
100
AcDbEntity
  8
AM_0
100
AcDbLine
 10
627.9428035972223
 20
320.6248141828915
 30
0.0
 11
632.5232035972223
 21
324.1395241828914
 31
0.0
  0
LINE
  5
324D
330
1F
100
AcDbEntity
  8
AM_0
100
AcDbLine
 10
632.5232035972223
 20
324.1394941828913
 30
0.0
 11
631.7696035972221
 21
329.8636141828914
 31
0.0
  0
LINE
  5
324E
330
1F
100
AcDbEntity
  8
AM_0
100
AcDbLine
 10
631.7696035972221
 20
329.8635841828913
 30
0.0
 11
626.4356035972221
 21
332.0730241828914
 31
0.0
  0
LINE
  5
324F
330
1F
100
AcDbEntity
  8
AM_0
100
AcDbLine
 10
626.4356335972223
 20
332.0730241828914
 30
0.0
 11
621.8551735972222
 21
328.5583441828914
 31
0.0
  0
LINE
  5
3250
330
1F
100
AcDbEntity
  8
AM_0
100
AcDbLine
 10
621.8551735972222
 20
328.5583441828914
 30
0.0
 11
622.6087435972224
 21
322.8342241828913
 31
0.0
  0
LINE
  5
3251
330
1F
100
AcDbEntity
  8
AM_0
100
AcDbLine
 10
622.6087435972224
 20
322.8342241828913
 30
0.0
 11
627.9427735972224
 21
320.6247841828914
 31
0.0
  0
LINE
  5
3252
330
1F
100
AcDbEntity
  8
AM_0
100
AcDbLine
 10
738.4781095972223
 20
324.1394041828914
 30
0.0
 11
743.0585395972221
 21
320.6247241828914
 31
0.0
  0
LINE
  5
3253
330
1F
100
AcDbEntity
  8
AM_0
100
AcDbLine
 10
739.2316825972222
 20
329.8635241828915
 30
0.0
 11
738.4780795972224
 21
324.1394041828914
 31
0.0
  0
LINE
  5
3254
330
1F
100
AcDbEntity
  8
AM_0
100
AcDbLine
 10
744.5657275972221
 20
332.0729641828914
 30
0.0
 11
739.2316975972221
 21
329.8635541828914
 31
0.0
  0
LINE
  5
3255
330
1F
100
AcDbEntity
  8
AM_0
100
AcDbLine
 10
749.1461575972223
 20
328.5582541828915
 30
0.0
 11
744.5657275972221
 21
332.0729341828914
 31
0.0
  0
LINE
  5
3256
330
1F
100
AcDbEntity
  8
AM_0
100
AcDbLine
 10
743.0585395972221
 20
320.6247541828913
 30
0.0
 11
748.3925695972222
 21
322.8341641828915
 31
0.0
  0
LINE
  5
3257
330
1F
100
AcDbEntity
  8
AM_0
100
AcDbLine
 10
709.0474615972224
 20
217.2144751828914
 30
0.0
 11
708.2938765972222
 21
211.4903671828915
 31
0.0
  0
LINE
  5
3258
330
1F
100
AcDbEntity
  8
AM_0
100
AcDbLine
 10
708.2938915972222
 20
211.4903521828915
 30
0.0
 11
712.874318597222
 21
207.9756751828914
 31
0.0
  0
LINE
  5
3259
330
1F
100
AcDbEntity
  8
AM_0
100
AcDbLine
 10
714.3815215972223
 20
219.4239001828914
 30
0.0
 11
709.0474915972223
 21
217.2144751828914
 31
0.0
  0
LINE
  5
325A
330
1F
100
AcDbEntity
  8
AM_0
100
AcDbLine
 10
718.9619365972222
 20
215.9091901828915
 30
0.0
 11
714.3815065972224
 21
219.4238851828914
 31
0.0
  0
LINE
  5
325B
330
1F
100
AcDbEntity
  8
AM_0
100
AcDbLine
 10
712.874318597222
 20
207.9756901828914
 30
0.0
 11
718.2083485972221
 21
210.1851151828914
 31
0.0
  0
LINE
  5
325C
330
1F
100
AcDbEntity
  8
AM_0
100
AcDbLine
 10
718.2083185972222
 20
210.1851001828915
 30
0.0
 11
718.9619215972222
 21
215.9092081828914
 31
0.0
  0
LINE
  5
325D
330
1F
100
AcDbEntity
  8
AM_0
100
AcDbLine
 10
662.7073885972224
 20
211.4903821828914
 30
0.0
 11
661.9537855972223
 21
217.2144901828914
 31
0.0
  0
LINE
  5
325E
330
1F
100
AcDbEntity
  8
AM_0
100
AcDbLine
 10
658.1269435972223
 20
207.9756901828914
 30
0.0
 11
662.7073885972224
 21
211.4903671828915
 31
0.0
  0
LINE
  5
325F
330
1F
100
AcDbEntity
  8
AM_0
100
AcDbLine
 10
661.9538155972223
 20
217.2144601828915
 30
0.0
 11
656.6198005972222
 21
219.4238851828914
 31
0.0
  0
LINE
  5
3260
330
1F
100
AcDbEntity
  8
AM_0
100
AcDbLine
 10
656.6197705972223
 20
219.4239001828914
 30
0.0
 11
652.039355597222
 21
215.9092081828914
 31
0.0
  0
LINE
  5
3261
330
1F
100
AcDbEntity
  8
AM_0
100
AcDbLine
 10
652.7929585972222
 20
210.1850851828914
 30
0.0
 11
658.1269735972222
 21
207.9756571828914
 31
0.0
  0
LINE
  5
3262
330
1F
100
AcDbEntity
  8
AM_0
100
AcDbLine
 10
652.0393255972221
 20
215.9092231828914
 30
0.0
 11
652.7929285972223
 21
210.1851151828914
 31
0.0
  0
LINE
  5
3263
330
1F
100
AcDbEntity
  8
AM_0
100
AcDbLine
 10
689.5006165972223
 20
316.6049041828913
 30
0.0
 11
689.5006165972223
 21
309.6049141828914
 31
0.0
  0
LINE
  5
3264
330
1F
100
AcDbEntity
  8
AM_0
100
AcDbLine
 10
681.5006305972224
 20
316.6049041828913
 30
0.0
 11
681.5006305972224
 21
309.6049141828914
 31
0.0
  0
LINE
  5
3265
330
1F
100
AcDbEntity
  8
AM_0
100
AcDbLine
 10
681.5006305972224
 20
316.6049041828913
 30
0.0
 11
689.5006165972223
 21
316.6049041828913
 31
0.0
  0
LINE
  5
3266
330
1F
100
AcDbEntity
  8
AM_0
100
AcDbLine
 10
681.5006305972224
 20
309.6049141828914
 30
0.0
 11
689.5006165972223
 21
309.6049141828914
 31
0.0
  0
LINE
  5
3267
330
1F
100
AcDbEntity
  8
AM_0
100
AcDbLine
 10
492.8849522836141
 20
316.6049041828913
 30
0.0
 11
524.8849922836138
 21
316.6049041828913
 31
0.0
  0
LINE
  5
326E
330
1F
100
AcDbEntity
  8
AM_0
100
AcDbLine
 10
429.8849522836141
 20
332.1224341828915
 30
0.0
 11
432.8849522836141
 21
332.1224341828915
 31
0.0
  0
LINE
  5
326F
330
1F
100
AcDbEntity
  8
AM_0
100
AcDbLine
 10
429.8849522836141
 20
320.5754041828914
 30
0.0
 11
432.8849522836141
 21
320.5754041828914
 31
0.0
  0
LINE
  5
3270
330
1F
100
AcDbEntity
  8
AM_0
100
AcDbLine
 10
429.8849522836141
 20
323.4621541828915
 30
0.0
 11
432.8849522836141
 21
323.4621541828915
 31
0.0
  0
LINE
  5
3271
330
1F
100
AcDbEntity
  8
AM_0
100
AcDbLine
 10
429.8849522836141
 20
329.2356541828914
 30
0.0
 11
432.8849522836141
 21
329.2356541828914
 31
0.0
  0
LINE
  5
3272
330
1F
100
AcDbEntity
  8
AM_0
100
AcDbLine
 10
433.8849422836139
 20
321.5753641828915
 30
0.0
 11
433.8849422836139
 21
331.1224141828914
 31
0.0
  0
LINE
  5
3273
330
1F
100
AcDbEntity
  8
AM_0
100
AcDbLine
 10
429.8849522836141
 20
333.1224241828914
 30
0.0
 11
429.8849522836141
 21
319.5754141828914
 31
0.0
  0
LINE
  5
3274
330
1F
100
AcDbEntity
  8
AM_0
100
AcDbLine
 10
749.1460945972221
 20
328.5583141828915
 30
0.0
 11
748.3925095972223
 21
322.8342241828913
 31
0.0
  0
LINE
  5
3275
330
1F
100
AcDbEntity
  8
AM_0
100
AcDbLine
 10
428.8850222836138
 20
333.1224241828914
 30
0.0
 11
429.8849522836141
 21
333.1224241828914
 31
0.0
  0
LINE
  5
3276
330
1F
100
AcDbEntity
  8
AM_0
100
AcDbLine
 10
428.8850222836138
 20
319.5754141828914
 30
0.0
 11
429.8849522836141
 21
319.5754141828914
 31
0.0
  0
LINE
  5
327E
330
1F
100
AcDbEntity
  8
AM_0
100
AcDbLine
 10
482.8849922836139
 20
276.2596111828914
 30
0.0
 11
482.8849922836139
 21
326.9502241828913
 31
0.0
  0
LINE
  5
327F
330
1F
100
AcDbEntity
  8
AM_0
100
AcDbLine
 10
763.5006325972222
 20
218.6049301828914
 30
0.0
 11
752.7322165972222
 21
321.2351041828914
 31
0.0
  0
LINE
  5
3280
330
1F
100
AcDbEntity
  8
AM_0
100
AcDbLine
 10
731.5006465972222
 20
209.6049301828914
 30
0.0
 11
727.5006325972221
 21
209.6049301828914
 31
0.0
  0
LINE
  5
3281
330
1F
100
AcDbEntity
  8
AM_0
100
AcDbLine
 10
732.5006335972224
 20
207.6049471828915
 30
0.0
 11
638.5006735972222
 21
207.6049471828915
 31
0.0
  0
LINE
  5
3282
330
1F
100
AcDbEntity
  8
AM_0
100
AcDbLine
 10
643.5006295972222
 20
209.6049301828914
 30
0.0
 11
639.5006305972223
 21
209.6049301828914
 31
0.0
  0
LINE
  5
3283
330
1F
100
AcDbEntity
  8
AM_0
100
AcDbLine
 10
724.5006325972221
 20
218.6049301828914
 30
0.0
 11
724.5006325972221
 21
212.6049301828914
 31
0.0
  0
LINE
  5
3284
330
1F
100
AcDbEntity
  8
AM_0
100
AcDbLine
 10
733.5006325972222
 20
206.6049301828914
 30
0.0
 11
733.5006325972222
 21
216.6049471828915
 31
0.0
  0
LINE
  5
3285
330
1F
100
AcDbEntity
  8
ﾁｭｳｼﾝｾﾝ1
 48
0.9
100
AcDbLine
 10
620.5006435972222
 20
223.1503861828914
 30
0.0
 11
620.5006435972222
 21
202.0594741828914
 31
0.0
  0
LINE
  5
3286
330
1F
100
AcDbEntity
  8
ﾁｭｳｼﾝｾﾝ1
 48
0.9
100
AcDbLine
 10
750.5006485972224
 20
223.1503861828914
 30
0.0
 11
750.5006485972224
 21
202.0594741828914
 31
0.0
  0
LINE
  5
3287
330
1F
100
AcDbEntity
  8
AM_0
100
AcDbLine
 10
651.5006305972224
 20
223.6049311828915
 30
0.0
 11
719.5006465972222
 21
223.6049311828915
 31
0.0
  0
LINE
  5
3288
330
1F
100
AcDbEntity
  8
ﾁｭｳｼﾝｾﾝ1
 48
0.9
100
AcDbLine
 10
470.8849922836139
 20
223.1503861828914
 30
0.0
 11
470.8849922836138
 21
203.172013536727
 31
0.0
  0
LINE
  5
3289
330
1F
100
AcDbEntity
  8
AM_0
100
AcDbLine
 10
388.8850022836141
 20
206.6049301828914
 30
0.0
 11
413.8850222836138
 21
206.6049301828914
 31
0.0
  0
LINE
  5
328A
330
1F
100
AcDbEntity
  8
AM_0
100
AcDbLine
 10
390.8849522836141
 20
218.6049301828914
 30
0.0
 11
409.834362283614
 21
218.6049301828914
 31
0.0
  0
LINE
  5
328B
330
1F
100
AcDbEntity
  8
AM_0
100
AcDbLine
 10
457.8849722836141
 20
206.6049301828914
 30
0.0
 11
482.8849922836139
 21
206.6049301828914
 31
0.0
  0
LINE
  5
328C
330
1F
100
AcDbEntity
  8
ﾁｭｳｼﾝｾﾝ1
 48
0.9
100
AcDbLine
 10
400.885002283614
 20
223.1503861828914
 30
0.0
 11
400.885002283614
 21
203.172013536727
 31
0.0
  0
LINE
  5
328D
330
1F
100
AcDbEntity
  8
AM_0
100
AcDbLine
 10
417.8849522836141
 20
352.6049341828914
 30
0.0
 11
417.8849522836141
 21
237.4620781828915
 31
0.0
  0
LINE
  5
328E
330
1F
100
AcDbEntity
  8
AM_0
100
AcDbLine
 10
417.8850122836139
 20
352.6049341828914
 30
0.0
 11
462.0158822836138
 21
351.4493041828913
 31
0.0
  0
LINE
  5
328F
330
1F
100
AcDbEntity
  8
AM_0
100
AcDbLine
 10
471.4492022836139
 20
335.3429641828915
 30
0.0
 11
477.146472283614
 21
334.8445141828914
 31
0.0
  0
LINE
  5
3290
330
1F
100
AcDbEntity
  8
AM_0
100
AcDbLine
 10
479.8849922836138
 20
331.8559141828915
 30
0.0
 11
479.8849922836138
 21
222.3494851828914
 31
0.0
  0
LINE
  5
3291
330
1F
100
AcDbEntity
  8
AM_0
100
AcDbLine
 10
388.8850022836141
 20
216.6049171828914
 30
0.0
 11
388.8850022836141
 21
206.6049301828914
 31
0.0
  0
LINE
  5
3292
330
1F
100
AcDbEntity
  8
AM_0
100
AcDbLine
 10
414.884952283614
 20
207.6049171828914
 30
0.0
 11
456.884952283614
 21
207.6049171828914
 31
0.0
  0
LINE
  5
3293
330
1F
100
AcDbEntity
  8
AM_0
100
AcDbLine
 10
482.8849922836139
 20
216.6049171828914
 30
0.0
 11
482.8849922836139
 21
206.6049301828914
 31
0.0
  0
LINE
  5
3294
330
1F
100
AcDbEntity
  8
AM_0
100
AcDbLine
 10
420.8849522836141
 20
221.6049301828914
 30
0.0
 11
420.8849522836141
 21
251.6049331828914
 31
0.0
  0
LINE
  5
3295
330
1F
100
AcDbEntity
  8
ｶｸﾚｾﾝ2
 48
1.5
100
AcDbLine
 10
406.8850022836141
 20
218.6049301828914
 30
0.0
 11
406.8850022836141
 21
206.6049301828914
 31
0.0
  0
LINE
  5
3296
330
1F
100
AcDbEntity
  8
ｶｸﾚｾﾝ2
 48
1.5
100
AcDbLine
 10
394.8850022836141
 20
218.6049301828914
 30
0.0
 11
394.8850022836141
 21
206.6049301828914
 31
0.0
  0
LINE
  5
3297
330
1F
100
AcDbEntity
  8
ｶｸﾚｾﾝ2
 48
1.5
100
AcDbLine
 10
626.5006735972222
 20
218.6049301828914
 30
0.0
 11
626.5006735972222
 21
206.6049301828914
 31
0.0
  0
LINE
  5
3298
330
1F
100
AcDbEntity
  8
ｶｸﾚｾﾝ2
 48
1.5
100
AcDbLine
 10
614.5006735972222
 20
218.6049301828914
 30
0.0
 11
614.5006735972222
 21
206.6049301828914
 31
0.0
  0
LINE
  5
3299
330
1F
100
AcDbEntity
  8
AM_0
100
AcDbLine
 10
607.5006235972222
 20
206.6049301828914
 30
0.0
 11
607.5006235972222
 21
218.6049301828914
 31
0.0
  0
LINE
  5
329A
330
1F
100
AcDbEntity
  8
AM_0
100
AcDbLine
 10
607.5006235972222
 20
206.6049301828914
 30
0.0
 11
637.5006235972222
 21
206.6049301828914
 31
0.0
  0
LINE
  5
329B
330
1F
100
AcDbEntity
  8
AM_0
100
AcDbLine
 10
635.5006735972222
 20
218.6049301828914
 30
0.0
 11
609.5006335972221
 21
218.6049301828914
 31
0.0
  0
LINE
  5
329C
330
1F
100
AcDbEntity
  8
AM_0
100
AcDbLine
 10
420.8849522836141
 20
288.8211961828913
 30
0.0
 11
420.8849522836141
 21
252.1293931828914
 31
0.0
  0
LINE
  5
329D
330
1F
100
AcDbEntity
  8
AM_0
100
AcDbLine
 10
458.8849922836138
 20
218.6049301828914
 30
0.0
 11
480.884952283614
 21
218.6049301828914
 31
0.0
  0
LINE
  5
329E
330
1F
100
AcDbEntity
  8
AM_0
100
AcDbLine
 10
409.834362283614
 20
218.6049301828914
 30
0.0
 11
417.8849522836141
 21
218.6049301828914
 31
0.0
  0
LINE
  5
329F
330
1F
100
AcDbEntity
  8
ｶｸﾚｾﾝ2
 48
1.5
100
AcDbLine
 10
476.8849922836138
 20
218.6049301828914
 30
0.0
 11
476.8849922836138
 21
206.6049301828914
 31
0.0
  0
LINE
  5
32A0
330
1F
100
AcDbEntity
  8
ｶｸﾚｾﾝ2
 48
1.5
100
AcDbLine
 10
744.5006335972224
 20
218.6049301828914
 30
0.0
 11
744.5006335972224
 21
206.6049301828914
 31
0.0
  0
LINE
  5
32A1
330
1F
100
AcDbEntity
  8
AM_0
100
AcDbLine
 10
431.8850222836138
 20
333.1323841828914
 30
0.0
 11
466.8849722836141
 21
333.1323841828914
 31
0.0
  0
LINE
  5
32A2
330
1F
100
AcDbEntity
  8
ｶｸﾚｾﾝ2
 48
1.5
100
AcDbLine
 10
464.8849922836139
 20
218.6049301828914
 30
0.0
 11
464.8849922836139
 21
206.6049301828914
 31
0.0
  0
LINE
  5
32A3
330
1F
100
AcDbEntity
  8
AM_0
100
AcDbLine
 10
413.8850222836138
 20
206.6049301828914
 30
0.0
 11
413.8850222836138
 21
206.6049301828914
 31
0.0
  0
LINE
  5
32A4
330
1F
100
AcDbEntity
  8
AM_0
100
AcDbLine
 10
453.8849522836141
 20
311.3957341828915
 30
0.0
 11
453.8849522836141
 21
223.6049311828915
 31
0.0
  0
LINE
  5
32A5
330
1F
100
AcDbEntity
  8
AM_0
100
AcDbLine
 10
607.5006235972222
 20
218.6049301828914
 30
0.0
 11
618.2690635972221
 21
321.2351041828914
 31
0.0
  0
LINE
  5
32A6
330
1F
100
AcDbEntity
  8
AM_0
100
AcDbLine
 10
466.8849722836141
 20
346.4510341828914
 30
0.0
 11
466.8849722836141
 21
237.6457351828914
 31
0.0
  0
LINE
  5
32A7
330
1F
100
AcDbEntity
  8
ｶｸﾚｾﾝ2
 48
1.5
100
AcDbLine
 10
756.5006485972223
 20
218.6049301828914
 30
0.0
 11
756.5006485972223
 21
206.6049301828914
 31
0.0
  0
LINE
  5
32A8
330
1F
100
AcDbEntity
  8
AM_0
100
AcDbLine
 10
763.5006325972222
 20
206.6049301828914
 30
0.0
 11
733.5006325972222
 21
206.6049301828914
 31
0.0
  0
LINE
  5
32A9
330
1F
100
AcDbEntity
  8
AM_0
100
AcDbLine
 10
735.5006335972224
 20
218.6049301828914
 30
0.0
 11
761.5006495972222
 21
218.6049301828914
 31
0.0
  0
LINE
  5
32AA
330
1F
100
AcDbEntity
  8
AM_0
100
AcDbLine
 10
453.8849522836141
 20
233.6457481828913
 30
0.0
 11
462.8849522836141
 21
233.6457481828913
 31
0.0
  0
LINE
  5
32AB
330
1F
100
AcDbEntity
  8
AM_0
100
AcDbLine
 10
646.5006295972222
 20
218.6049301828914
 30
0.0
 11
646.5006295972222
 21
212.6049301828914
 31
0.0
  0
LINE
  5
32AC
330
1F
100
AcDbEntity
  8
AM_0
100
AcDbLine
 10
637.5006235972222
 20
206.6049301828914
 30
0.0
 11
637.5006235972222
 21
216.6049471828915
 31
0.0
  0
LINE
  5
32AD
330
1F
100
AcDbEntity
  8
AM_0
100
AcDbLine
 10
738.5006335972224
 20
316.8574741828915
 30
0.0
 11
738.5006335972224
 21
255.6049171828914
 31
0.0
  0
LINE
  5
32AE
330
1F
100
AcDbEntity
  8
AM_0
100
AcDbLine
 10
763.5006325972222
 20
206.6049301828914
 30
0.0
 11
763.5006325972222
 21
218.6049301828914
 31
0.0
  0
LINE
  5
32AF
330
1F
100
AcDbEntity
  8
AM_0
100
AcDbLine
 10
461.8849922836139
 20
319.3957141828914
 30
0.0
 11
466.8849722836141
 21
319.3957141828914
 31
0.0
  0
LINE
  5
32B0
330
1F
100
AcDbEntity
  8
AM_0
100
AcDbLine
 10
632.5006735972221
 20
316.8574741828915
 30
0.0
 11
632.5006735972221
 21
255.6049171828914
 31
0.0
  0
LINE
  5
32B1
330
1F
100
AcDbEntity
  8
AM_0
100
AcDbLine
 10
637.5006235972222
 20
286.6049191828915
 30
0.0
 11
637.5006235972222
 21
223.6049311828915
 31
0.0
  0
LINE
  5
32B2
330
1F
100
AcDbEntity
  8
AM_0
100
AcDbLine
 10
733.5006325972222
 20
286.6049191828915
 30
0.0
 11
733.5006325972222
 21
223.6049311828915
 31
0.0
  0
LINE
  5
32B3
330
1F
100
AcDbEntity
  8
AM_0
100
AcDbLine
 10
457.8849722836141
 20
206.6049301828914
 30
0.0
 11
457.8849722836141
 21
206.6049301828914
 31
0.0
  0
LINE
  5
32B4
330
1F
100
AcDbEntity
  8
AM_0
100
AcDbLine
 10
414.7255322836137
 20
222.5674111828914
 30
0.0
 11
420.776112283614
 21
251.0918701828914
 31
0.0
  0
LINE
  5
32B5
330
1F
100
AcDbEntity
  8
AM_0
100
AcDbLine
 10
428.8850222836138
 20
338.1317041828915
 30
0.0
 11
428.8850222836138
 21
315.2296741828915
 31
0.0
  0
LINE
  5
32B6
330
1F
100
AcDbEntity
  8
AM_0
100
AcDbLine
 10
480.884982283614
 20
329.2596241828915
 30
0.0
 11
481.8850022836141
 21
328.6822741828914
 31
0.0
  0
LINE
  5
32B7
330
1F
100
AcDbEntity
  8
AM_0
100
AcDbLine
 10
480.884982283614
 20
273.9502231828914
 30
0.0
 11
481.8849722836141
 21
274.5275551828914
 31
0.0
  0
LINE
  5
32B8
330
1F
100
AcDbEntity
  8
AM_0
100
AcDbLine
 10
431.8850222836138
 20
352.1597641828914
 30
0.0
 11
431.8850222836138
 21
333.1323841828914
 31
0.0
  0
LINE
  5
32B9
330
1F
100
AcDbEntity
  8
AM_0
100
AcDbLine
 10
431.8849622836139
 20
352.1597641828914
 30
0.0
 11
445.466922283614
 21
333.1323841828914
 31
0.0
  0
LINE
  5
32BA
330
1F
100
AcDbEntity
  8
AM_0
100
AcDbLine
 10
431.8850222836138
 20
314.9536441828914
 30
0.0
 11
431.8850222836138
 21
288.8211961828913
 31
0.0
  0
LINE
  5
32BB
330
1F
100
AcDbEntity
  8
AM_0
100
AcDbLine
 10
444.7146122836141
 20
314.9536441828914
 30
0.0
 11
431.8849622836139
 21
288.8211961828913
 31
0.0
  0
LINE
  5
32BC
330
1F
100
AcDbEntity
  8
AM_0
100
AcDbLine
 10
420.8849522836141
 20
288.8211961828913
 30
0.0
 11
431.8850222836138
 21
288.8211961828913
 31
0.0
  0
LINE
  5
32BD
330
1F
100
AcDbEntity
  8
AM_0
100
AcDbLine
 10
431.8850222836138
 20
314.9536441828914
 30
0.0
 11
454.7197022836139
 21
314.9536441828914
 31
0.0
  0
LINE
  5
32C8
330
1F
100
AcDbEntity
  8
ﾁｭｳｼﾝｾﾝ
 48
0.8
100
AcDbLine
 10
747.2354665972224
 20
281.6049181828914
 30
0.0
 11
623.9961235972223
 21
281.6049181828914
 31
0.0
  0
CIRCLE
  5
32D5
330
1F
100
AcDbEntity
  8
AM_0
100
AcDbCircle
 10
627.1891735972222
 20
326.3489041828915
 30
0.0
 40
4.9999998
  0
CIRCLE
  5
32D6
330
1F
100
AcDbEntity
  8
AM_0
100
AcDbCircle
 10
743.8121095972223
 20
326.3488441828915
 30
0.0
 40
4.9999998
  0
CIRCLE
  5
32D7
330
1F
100
AcDbEntity
  8
AM_0
100
AcDbCircle
 10
713.6278735972223
 20
213.6997951828914
 30
0.0
 40
4.9999998
  0
CIRCLE
  5
32D8
330
1F
100
AcDbEntity
  8
AM_0
100
AcDbCircle
 10
657.3733405972221
 20
213.6997951828914
 30
0.0
 40
4.9999998
  0
ARC
  5
32D9
330
1F
100
AcDbEntity
  8
AM_0
100
AcDbCircle
 10
685.5006325972222
 20
301.6049191828915
 30
0.0
 40
12.0000003
100
AcDbArc
 50
109.4712200000001
 51
70.52878899999932
  0
ARC
  5
32DB
330
1F
100
AcDbEntity
  8
AM_0
100
AcDbCircle
 10
432.8849522836141
 20
324.4621141828914
 30
0.0
 40
1.000000019999999
100
AcDbArc
 50
270.0
 51
0.0
  0
ARC
  5
32DC
330
1F
100
AcDbEntity
  8
AM_0
100
AcDbCircle
 10
432.8849522836141
 20
328.2356641828915
 30
0.0
 40
1.000000019999999
100
AcDbArc
 50
0.0
 51
90.00000299999932
  0
ARC
  5
32DD
330
1F
100
AcDbEntity
  8
AM_0
100
AcDbCircle
 10
432.8849522836141
 20
330.2356441828914
 30
0.0
 40
1.000000019999999
100
AcDbArc
 50
270.0
 51
0.0
  0
ARC
  5
32DE
330
1F
100
AcDbEntity
  8
AM_0
100
AcDbCircle
 10
432.8849522836141
 20
322.4621641828914
 30
0.0
 40
1.000000019999999
100
AcDbArc
 50
0.0
 51
90.00000299999932
  0
ARC
  5
32DF
330
1F
100
AcDbEntity
  8
AM_0
100
AcDbCircle
 10
432.8849522836141
 20
321.5753641828915
 30
0.0
 40
1.000000019999999
100
AcDbArc
 50
270.0
 51
0.0
  0
ARC
  5
32E0
330
1F
100
AcDbEntity
  8
AM_0
100
AcDbCircle
 10
432.8849522836141
 20
331.1224141828914
 30
0.0
 40
1.000000019999999
100
AcDbArc
 50
0.0
 51
90.00000299999932
  0
CIRCLE
  5
32E3
330
1F
100
AcDbEntity
  8
AM_0
 62
     2
100
AcDbCircle
 10
685.5006325972222
 20
301.6049191828915
 30
0.0
 40
4.000000199999999
  0
CIRCLE
  5
32E4
330
1F
100
AcDbEntity
  8
AM_0
100
AcDbCircle
 10
685.5006325972222
 20
301.6049191828915
 30
0.0
 40
3.0
  0
ARC
  5
32E8
330
1F
100
AcDbEntity
  8
AM_0
100
AcDbCircle
 10
746.0887675972222
 20
312.4769041828914
 30
0.0
 40
3.0
100
AcDbArc
 50
27.00057299999915
 51
84.29426100000069
  0
ARC
  5
32E9
330
1F
100
AcDbEntity
  8
AM_0
100
AcDbCircle
 10
476.8849922836138
 20
331.8559141828915
 30
0.0
 40
3.0
100
AcDbArc
 50
0.0
 51
84.99999700000037
  0
ARC
  5
32EA
330
1F
100
AcDbEntity
  8
AM_0
100
AcDbCircle
 10
471.8849522836141
 20
340.3239241828913
 30
0.0
 40
5.0000001
100
AcDbArc
 50
179.9999900000006
 51
265.0000000000003
  0
ARC
  5
32EB
330
1F
100
AcDbEntity
  8
AM_0
100
AcDbCircle
 10
624.9125035972224
 20
312.4769041828914
 30
0.0
 40
3.0
100
AcDbArc
 50
95.70573800000063
 51
152.9994200000007
  0
ARC
  5
32EC
330
1F
100
AcDbEntity
  8
AM_0
100
AcDbCircle
 10
632.5006735972221
 20
223.6049311828915
 30
0.0
 40
5.0000001
100
AcDbArc
 50
270.0
 51
0.0
  0
ARC
  5
32ED
330
1F
100
AcDbEntity
  8
AM_0
100
AcDbCircle
 10
637.5006235972222
 20
316.8574741828915
 30
0.0
 40
5.0000001
100
AcDbArc
 50
138.7194100000002
 51
180.0000099999994
  0
ARC
  5
32EE
330
1F
100
AcDbEntity
  8
AM_0
100
AcDbCircle
 10
639.9991945972222
 20
332.1382741828914
 30
0.0
 40
3.0
100
AcDbArc
 50
132.0006500000004
 51
189.29434
  0
ARC
  5
32EF
330
1F
100
AcDbEntity
  8
AM_0
100
AcDbCircle
 10
733.5006325972222
 20
316.8574741828915
 30
0.0
 40
5.0000001
100
AcDbArc
 50
0.0
 51
41.2805909999993
  0
ARC
  5
32F0
330
1F
100
AcDbEntity
  8
AM_0
100
AcDbCircle
 10
732.5006335972224
 20
206.6049301828914
 30
0.0
 40
1.000000019999999
100
AcDbArc
 50
0.0
 51
90.00000299999932
  0
ARC
  5
32F1
330
1F
100
AcDbEntity
  8
AM_0
100
AcDbCircle
 10
638.5006735972222
 20
206.6049301828914
 30
0.0
 40
1.000000019999999
100
AcDbArc
 50
90.00000299999932
 51
180.0000099999994
  0
ARC
  5
32F2
330
1F
100
AcDbEntity
  8
AM_0
100
AcDbCircle
 10
643.5006295972222
 20
212.6049301828914
 30
0.0
 40
3.0
100
AcDbArc
 50
270.0
 51
0.0
  0
ARC
  5
32F3
330
1F
100
AcDbEntity
  8
AM_0
100
AcDbCircle
 10
639.5006305972223
 20
207.6049471828915
 30
0.0
 40
2.00000007
100
AcDbArc
 50
90.00000299999932
 51
180.0000099999994
  0
ARC
  5
32F4
330
1F
100
AcDbEntity
  8
AM_0
100
AcDbCircle
 10
730.5678775972222
 20
337.4413441828914
 30
0.0
 40
5.0000001
100
AcDbArc
 50
334.9370299999996
 51
64.58244399999981
  0
ARC
  5
32F5
330
1F
100
AcDbEntity
  8
AM_0
100
AcDbCircle
 10
429.8849522836141
 20
338.1317041828915
 30
0.0
 40
1.000000019999999
100
AcDbArc
 50
90.00000299999932
 51
180.0000099999994
  0
ARC
  5
32F6
330
1F
100
AcDbEntity
  8
AM_0
100
AcDbCircle
 10
456.884952283614
 20
206.6049301828914
 30
0.0
 40
1.000000019999999
100
AcDbArc
 50
0.0
 51
90.00000299999932
  0
ARC
  5
32F7
330
1F
100
AcDbEntity
  8
AM_0
100
AcDbCircle
 10
415.8850022836141
 20
252.1293931828914
 30
0.0
 40
5.0000001
100
AcDbArc
 50
348.0238700000007
 51
0.0
  0
ARC
  5
32F8
330
1F
100
AcDbEntity
  8
AM_0
100
AcDbCircle
 10
685.5006325972222
 20
301.6049191828915
 30
0.0
 40
26.5000026
100
AcDbArc
 50
90.00000299999932
 51
270.0
  0
ARC
  5
32F9
330
1F
100
AcDbEntity
  8
AM_0
100
AcDbCircle
 10
685.5006325972222
 20
281.6049181828914
 30
0.0
 40
71.00000099999999
100
AcDbArc
 50
5.989814199999339
 51
27.00057299999915
  0
ARC
  5
32FA
330
1F
100
AcDbEntity
  8
AM_0
100
AcDbCircle
 10
609.5006335972221
 20
216.6049471828915
 30
0.0
 40
2.00000007
100
AcDbArc
 50
90.00000299999932
 51
180.0000099999994
  0
ARC
  5
32FB
330
1F
100
AcDbEntity
  8
AM_0
100
AcDbCircle
 10
417.8849522836141
 20
221.6049301828914
 30
0.0
 40
3.0
100
AcDbArc
 50
270.0
 51
0.0
  0
ARC
  5
32FC
330
1F
100
AcDbEntity
  8
AM_0
100
AcDbCircle
 10
685.5006325972222
 20
286.6049191828915
 30
0.0
 40
48.0
100
AcDbArc
 50
0.0
 51
180.0000099999994
  0
ARC
  5
32FD
330
1F
100
AcDbEntity
  8
AM_0
100
AcDbCircle
 10
462.8849522836141
 20
237.6457351828914
 30
0.0
 40
4.000000199999999
100
AcDbArc
 50
270.0
 51
0.0
  0
ARC
  5
32FE
330
1F
100
AcDbEntity
  8
AM_0
100
AcDbCircle
 10
623.2223635972222
 20
329.3926741828913
 30
0.0
 40
13.9999986
100
AcDbArc
 50
266.8006400000006
 51
25.06296900000027
  0
ARC
  5
32FF
330
1F
100
AcDbEntity
  8
AM_0
100
AcDbCircle
 10
738.5006335972224
 20
223.6049311828915
 30
0.0
 40
5.0000001
100
AcDbArc
 50
179.9999900000006
 51
270.0
  0
ARC
  5
3300
330
1F
100
AcDbEntity
  8
AM_0
100
AcDbCircle
 10
727.5006325972221
 20
212.6049301828914
 30
0.0
 40
3.0
100
AcDbArc
 50
179.9999900000006
 51
270.0
  0
ARC
  5
3301
330
1F
100
AcDbEntity
  8
AM_0
100
AcDbCircle
 10
461.8849922836139
 20
346.4510341828914
 30
0.0
 40
5.0000001
100
AcDbArc
 50
0.0
 51
88.49999700000074
  0
ARC
  5
3302
330
1F
100
AcDbEntity
  8
AM_0
100
AcDbCircle
 10
484.8849722836141
 20
222.3494851828914
 30
0.0
 40
5.0000001
100
AcDbArc
 50
179.9999900000006
 51
235.1501100000004
  0
ARC
  5
3303
330
1F
100
AcDbEntity
  8
AM_0
100
AcDbCircle
 10
480.884952283614
 20
216.6049171828914
 30
0.0
 40
2.00000007
100
AcDbArc
 50
0.0
 51
90.00000299999932
  0
ARC
  5
3304
330
1F
100
AcDbEntity
  8
AM_0
100
AcDbCircle
 10
390.8849522836141
 20
216.6049171828914
 30
0.0
 40
2.00000007
100
AcDbArc
 50
90.00000299999932
 51
180.0000099999994
  0
ARC
  5
3305
330
1F
100
AcDbEntity
  8
AM_0
100
AcDbCircle
 10
414.884952283614
 20
206.6049301828914
 30
0.0
 40
1.000000019999999
100
AcDbArc
 50
90.00000299999932
 51
180.0000099999994
  0
ARC
  5
3306
330
1F
100
AcDbEntity
  8
AM_0
100
AcDbCircle
 10
635.5006735972222
 20
216.6049471828915
 30
0.0
 40
2.00000007
100
AcDbArc
 50
0.0
 51
90.00000299999932
  0
ARC
  5
3307
330
1F
100
AcDbEntity
  8
AM_0
100
AcDbCircle
 10
747.778907597222
 20
329.3926741828913
 30
0.0
 40
13.9999986
100
AcDbArc
 50
154.9370399999996
 51
273.1993700000008
  0
ARC
  5
3308
330
1F
100
AcDbEntity
  8
AM_0
100
AcDbCircle
 10
458.8849922836138
 20
223.6049311828915
 30
0.0
 40
5.0000001
100
AcDbArc
 50
180.0000099999994
 51
270.0
  0
ARC
  5
3309
330
1F
100
AcDbEntity
  8
AM_0
100
AcDbCircle
 10
685.5006325972222
 20
301.6049191828915
 30
0.0
 40
26.5000026
100
AcDbArc
 50
270.0
 51
90.00000299999932
  0
ARC
  5
330A
330
1F
100
AcDbEntity
  8
AM_0
100
AcDbCircle
 10
761.5006495972222
 20
216.6049471828915
 30
0.0
 40
2.00000007
100
AcDbArc
 50
0.0
 51
90.00000299999932
  0
ARC
  5
330B
330
1F
100
AcDbEntity
  8
AM_0
100
AcDbCircle
 10
651.5006305972224
 20
218.6049301828914
 30
0.0
 40
5.0000001
100
AcDbArc
 50
90.00000299999932
 51
180.0000099999994
  0
ARC
  5
330C
330
1F
100
AcDbEntity
  8
AM_0
100
AcDbCircle
 10
685.5006325972222
 20
281.6049181828914
 30
0.0
 40
71.00000099999999
100
AcDbArc
 50
47.99935900000032
 51
132.0006500000004
  0
ARC
  5
330D
330
1F
100
AcDbEntity
  8
AM_0
100
AcDbCircle
 10
735.5006335972224
 20
216.6049471828915
 30
0.0
 40
2.00000007
100
AcDbArc
 50
90.00000299999932
 51
180.0000099999994
  0
ARC
  5
330E
330
1F
100
AcDbEntity
  8
AM_0
100
AcDbCircle
 10
719.5006465972222
 20
218.6049301828914
 30
0.0
 40
5.0000001
100
AcDbArc
 50
0.0
 51
90.00000299999932
  0
ARC
  5
330F
330
1F
100
AcDbEntity
  8
AM_0
100
AcDbCircle
 10
685.5006325972222
 20
281.6049181828914
 30
0.0
 40
71.00000099999999
100
AcDbArc
 50
152.9994200000007
 51
174.0101900000002
  0
ARC
  5
3310
330
1F
100
AcDbEntity
  8
AM_0
100
AcDbCircle
 10
461.8849922836139
 20
311.3957341828915
 30
0.0
 40
8.000000099999999
100
AcDbArc
 50
90.00000299999932
 51
180.0000099999994
  0
ARC
  5
3311
330
1F
100
AcDbEntity
  8
AM_0
100
AcDbCircle
 10
409.834362283614
 20
223.6049311828915
 30
0.0
 40
5.0000001
100
AcDbArc
 50
270.0
 51
348.0238700000007
  0
ARC
  5
3312
330
1F
100
AcDbEntity
  8
AM_0
100
AcDbCircle
 10
666.5006305972224
 20
255.6049171828914
 30
0.0
 40
34.000002
100
AcDbArc
 50
179.9999900000006
 51
211.4669699999997
  0
ARC
  5
3313
330
1F
100
AcDbEntity
  8
AM_0
100
AcDbCircle
 10
748.8393025972222
 20
310.4222641828915
 30
0.0
 40
5.0000001
100
AcDbArc
 50
5.989815499999885
 51
93.19935899999942
  0
ARC
  5
3314
330
1F
100
AcDbEntity
  8
AM_0
100
AcDbCircle
 10
731.5006465972222
 20
207.6049471828915
 30
0.0
 40
2.00000007
100
AcDbArc
 50
0.0
 51
90.00000299999932
  0
ARC
  5
3315
330
1F
100
AcDbEntity
  8
AM_0
100
AcDbCircle
 10
704.5006465972222
 20
255.6049171828914
 30
0.0
 40
34.000002
100
AcDbArc
 50
328.5330200000005
 51
0.0
  0
ARC
  5
3316
330
1F
100
AcDbEntity
  8
AM_0
100
AcDbCircle
 10
480.884952283614
 20
276.2596111828914
 30
0.0
 40
2.00000007
100
AcDbArc
 50
299.9999999999997
 51
0.0
  0
ARC
  5
3317
330
1F
100
AcDbEntity
  8
AM_0
100
AcDbCircle
 10
481.8849722836141
 20
330.9916741828914
 30
0.0
 40
2.00000007
100
AcDbArc
 50
179.9999900000006
 51
240.0000099999997
  0
ARC
  5
3318
330
1F
100
AcDbEntity
  8
AM_0
100
AcDbCircle
 10
481.8849722836141
 20
272.2181671828914
 30
0.0
 40
2.00000007
100
AcDbArc
 50
119.9999999999997
 51
180.0000099999994
  0
ARC
  5
3319
330
1F
100
AcDbEntity
  8
AM_0
100
AcDbCircle
 10
480.884952283614
 20
326.9502241828913
 30
0.0
 40
2.00000007
100
AcDbArc
 50
0.0
 51
60.00000199999989
  0
ARC
  5
331A
330
1F
100
AcDbEntity
  8
AM_0
100
AcDbCircle
 10
638.1598735972221
 20
319.1480641828915
 30
0.0
 40
20.0000007
100
AcDbArc
 50
121.7361700000007
 51
174.0101900000002
  0
ARC
  5
331B
330
1F
100
AcDbEntity
  8
AM_0
100
AcDbCircle
 10
732.8414065972221
 20
319.1480641828915
 30
0.0
 40
20.0000007
100
AcDbArc
 50
5.989815499999885
 51
58.26383599999955
  0
ARC
  5
331C
330
1F
100
AcDbEntity
  8
AM_0
100
AcDbCircle
 10
640.4333995972224
 20
337.4413441828914
 30
0.0
 40
5.0000001
100
AcDbArc
 50
115.4175600000001
 51
205.0629700000004
  0
ARC
  5
331D
330
1F
100
AcDbEntity
  8
AM_0
100
AcDbCircle
 10
685.5006325972222
 20
242.6049331828914
 30
0.0
 40
110.000004
100
AcDbArc
 50
58.26383599999955
 51
121.7361700000007
  0
ARC
  5
331E
330
1F
100
AcDbEntity
  8
AM_0
100
AcDbCircle
 10
731.0020975972221
 20
332.1382741828914
 30
0.0
 40
3.0
100
AcDbArc
 50
350.7056700000007
 51
47.99935900000032
  0
ARC
  5
331F
330
1F
100
AcDbEntity
  8
AM_0
100
AcDbCircle
 10
622.1619835972221
 20
310.4222641828915
 30
0.0
 40
5.0000001
100
AcDbArc
 50
86.80063900000067
 51
174.0101900000002
  0
ARC
  5
3320
330
1F
100
AcDbEntity
  8
AM_0
100
AcDbCircle
 10
429.8849522836141
 20
315.2296741828915
 30
0.0
 40
1.000000019999999
100
AcDbArc
 50
179.9999900000006
 51
270.0
  0
ARC
  5
3321
330
1F
100
AcDbEntity
  8
AM_0
100
AcDbCircle
 10
429.8849522836141
 20
312.2296741828915
 30
0.0
 40
2.00000007
100
AcDbArc
 50
0.0
 51
90.00000299999932
  0
ARC
  5
3322
330
1F
100
AcDbEntity
  8
AM_0
100
AcDbCircle
 10
429.8849522836141
 20
341.1317041828914
 30
0.0
 40
2.00000007
100
AcDbArc
 50
270.0
 51
0.0
  0
LINE
  5
3959
330
1F
100
AcDbEntity
  8
AM_0
100
AcDbLine
 10
412.8850022836139
 20
352.6264796828914
 30
0.0
 11
417.884952283614
 21
352.6264796828914
 31
0.0
  0
LINE
  5
395A
330
1F
100
AcDbEntity
  8
AM_0
100
AcDbLine
 10
380.884962283614
 20
218.1264776828914
 30
0.0
 11
389.3468822836141
 21
217.9048916828914
 31
0.0
  0
LINE
  5
395B
330
1F
100
AcDbEntity
  8
AM_0
100
AcDbLine
 10
405.884952283614
 20
331.1264996828914
 30
0.0
 11
405.884952283614
 21
316.4938076828914
 31
0.0
  0
LINE
  5
395C
330
1F
100
AcDbEntity
  8
AM_0
100
AcDbLine
 10
380.884962283614
 20
345.1264796828914
 30
0.0
 11
408.937332283614
 21
345.8610596828914
 31
0.0
  0
LINE
  5
395D
330
1F
100
AcDbEntity
  8
AM_0
100
AcDbLine
 10
410.884962283614
 20
350.6264996828913
 30
0.0
 11
410.884962283614
 21
335.1264596828914
 31
0.0
  0
LINE
  5
395E
330
1F
100
AcDbEntity
  8
AM_0
100
AcDbLine
 10
405.884952283614
 20
225.9964886828914
 30
0.0
 11
410.3649422836141
 21
225.9964886828914
 31
0.0
  0
LINE
  5
395F
330
1F
100
AcDbEntity
  8
AM_0
100
AcDbLine
 10
405.884952283614
 20
314.4938066828913
 30
0.0
 11
410.325642283614
 21
314.4938066828913
 31
0.0
  0
LINE
  5
3960
330
1F
100
AcDbEntity
  8
AM_0
100
AcDbLine
 10
407.8849622836139
 20
324.0144896828914
 30
0.0
 11
410.884962283614
 21
324.0144896828914
 31
0.0
  0
LINE
  5
3961
330
1F
100
AcDbEntity
  8
AM_0
100
AcDbLine
 10
407.8849622836139
 20
333.1264796828914
 30
0.0
 11
408.884952283614
 21
333.1264796828914
 31
0.0
  0
LINE
  5
3962
330
1F
100
AcDbEntity
  8
AM_0
100
AcDbLine
 10
405.884952283614
 20
223.9964726828914
 30
0.0
 11
405.884952283614
 21
218.6264936828913
 31
0.0
  0
LINE
  5
3963
330
1F
100
AcDbEntity
  8
AM_0
100
AcDbLine
 10
410.884962283614
 20
324.0144896828914
 30
0.0
 11
410.884962283614
 21
221.0294336828913
 31
0.0
  0
LINE
  5
3964
330
1F
100
AcDbEntity
  8
AM_0
100
AcDbLine
 10
380.884962283614
 20
333.1264796828914
 30
0.0
 11
406.885002283614
 21
333.1264796828914
 31
0.0
  0
LINE
  5
3965
330
1F
100
AcDbEntity
  8
AM_0
100
AcDbLine
 10
380.884962283614
 20
318.7744166828914
 30
0.0
 11
405.884952283614
 21
318.7744166828914
 31
0.0
  0
LINE
  5
3966
330
1F
100
AcDbEntity
  8
AM_0
100
AcDbLine
 10
380.884962283614
 20
244.4785616828914
 30
0.0
 11
410.884962283614
 21
244.4785616828914
 31
0.0
  0
LINE
  5
3967
330
1F
100
AcDbEntity
  8
AM_0
100
AcDbLine
 10
380.884962283614
 20
230.1264776828914
 30
0.0
 11
410.884962283614
 21
230.1264776828914
 31
0.0
  0
ARC
  5
3969
330
1F
100
AcDbEntity
  8
AM_0
100
AcDbCircle
 10
412.8850022836139
 20
350.6264996828913
 30
0.0
 40
2.00000007
100
AcDbArc
 50
90.00000300000095
 51
180.0000100000009
  0
ARC
  5
396A
330
1F
100
AcDbEntity
  8
AM_0
100
AcDbCircle
 10
408.884952283614
 20
335.1264596828914
 30
0.0
 40
2.00000007
100
AcDbArc
 50
270.0
 51
0.0
  0
ARC
  5
396B
330
1F
100
AcDbEntity
  8
AM_0
100
AcDbCircle
 10
407.8849622836139
 20
331.1264996828914
 30
0.0
 40
2.00000007
100
AcDbArc
 50
90.00000300000095
 51
180.0000100000009
  0
ARC
  5
396C
330
1F
100
AcDbEntity
  8
AM_0
100
AcDbCircle
 10
407.8849622836139
 20
326.0144996828914
 30
0.0
 40
2.00000007
100
AcDbArc
 50
179.999989999999
 51
270.0
  0
ARC
  5
396D
330
1F
100
AcDbEntity
  8
AM_0
100
AcDbCircle
 10
403.885002283614
 20
316.4938076828914
 30
0.0
 40
2.00000007
100
AcDbArc
 50
270.0
 51
0.0
  0
ARC
  5
396E
330
1F
100
AcDbEntity
  8
AM_0
100
AcDbCircle
 10
403.885002283614
 20
223.9964726828914
 30
0.0
 40
2.00000007
100
AcDbArc
 50
0.0
 51
90.00000300000095
  0
ARC
  5
396F
330
1F
100
AcDbEntity
  8
AM_0
100
AcDbCircle
 10
408.884952283614
 20
347.8603796828914
 30
0.0
 40
2.00000007
100
AcDbArc
 50
271.4999999999994
 51
0.0
  0
LINE
  5
3983
330
1F
100
AcDbEntity
  8
AM_7
100
AcDbLine
 10
296.3849833632878
 20
281.6049181828914
 30
0.0
 11
412.6693563446615
 21
281.6049181828914
 31
0.0
1001
GENIUS_GENOBJ-N-CEN_13
1002
{
1000
OWNER
1000
GEN
1002
}
1001
GENIUS_GENODEF_13
1002
{
1000
HIER
1070
     0
1002
}
1002
{
1000
MANEDIT
1070
     0
1002
}
1002
{
1000
NOSEL
1070
     0
1002
}
1002
{
1000
BEHIND
1070
     0
1002
}
1002
{
1000
OTHER
1070
     0
1002
}
1002
{
1000
REACTOR
1002
}
1001
GENIUS_GENCEN_19
1002
{
1040
9.0
1002
}
  0
LINE
  5
3DB6
330
1F
100
AcDbEntity
  8
AM_0
100
AcDbLine
 10
428.884932283614
 20
438.7878489422174
 30
0.0
 11
428.884932283614
 21
418.1431289422174
 31
0.0
  0
LINE
  5
3DB7
330
1F
100
AcDbEntity
  8
AM_0
100
AcDbLine
 10
429.8849322836142
 20
437.3171389422174
 30
0.0
 11
429.8849322836142
 21
423.7700889422174
 31
0.0
  0
LINE
  5
3DB8
330
1F
100
AcDbEntity
  8
AM_0
100
AcDbLine
 10
428.884932283614
 20
423.7700889422174
 30
0.0
 11
429.8849322836142
 21
423.7700889422174
 31
0.0
  0
LINE
  5
3DB9
330
1F
100
AcDbEntity
  8
AM_0
100
AcDbLine
 10
428.884932283614
 20
437.3171389422174
 30
0.0
 11
429.8849322836142
 21
437.3171389422174
 31
0.0
  0
LINE
  5
3DBA
330
1F
100
AcDbEntity
  8
AM_0
100
AcDbLine
 10
433.8849022836141
 20
425.7700889422173
 30
0.0
 11
433.8849022836141
 21
435.3171089422175
 31
0.0
  0
LINE
  5
3DBB
330
1F
100
AcDbEntity
  8
AM_0
100
AcDbLine
 10
429.8849322836142
 20
433.4303589422175
 30
0.0
 11
432.884932283614
 21
433.4303589422175
 31
0.0
  0
LINE
  5
3DBC
330
1F
100
AcDbEntity
  8
AM_0
100
AcDbLine
 10
429.8849322836142
 20
427.6568589422175
 30
0.0
 11
432.884932283614
 21
427.6568589422175
 31
0.0
  0
LINE
  5
3DBD
330
1F
100
AcDbEntity
  8
AM_0
100
AcDbLine
 10
429.8849322836142
 20
424.7700889422174
 30
0.0
 11
432.884932283614
 21
424.7700889422174
 31
0.0
  0
LINE
  5
3DBE
330
1F
100
AcDbEntity
  8
AM_0
100
AcDbLine
 10
429.8849322836142
 20
436.3171389422173
 30
0.0
 11
432.884932283614
 21
436.3171389422173
 31
0.0
  0
LINE
  5
3DBF
330
1F
100
AcDbEntity
  8
AM_0
100
AcDbLine
 10
388.884932283614
 20
564.0688189422174
 30
0.0
 11
388.884932283614
 21
552.6169489422174
 31
0.0
  0
LINE
  5
3DC2
330
1F
100
AcDbEntity
  8
AM_0
100
AcDbLine
 10
482.884932283614
 20
563.2832389422175
 30
0.0
 11
482.884932283614
 21
540.4269089422175
 31
0.0
  0
LINE
  5
3DC3
330
1F
100
AcDbEntity
  8
AM_0
100
AcDbLine
 10
420.8849622836141
 20
566.8550789422173
 30
0.0
 11
480.9372922836141
 21
565.2825689422172
 31
0.0
  0
LINE
  5
3DC4
330
1F
100
AcDbEntity
  8
AM_0
100
AcDbLine
 10
390.832592283614
 20
566.0681189422176
 30
0.0
 11
420.8849322836142
 21
566.8550789422173
 31
0.0
  0
LINE
  5
3DC5
330
1F
100
AcDbEntity
  8
AM_0
100
AcDbLine
 10
417.884932283614
 20
559.8550789422175
 30
0.0
 11
417.884932283614
 21
417.8550789422174
 31
0.0
  0
LINE
  5
3DC6
330
1F
100
AcDbEntity
  8
ﾁｭｳｼﾝｾﾝ1
 48
0.7
100
AcDbLine
 10
470.884932283614
 20
562.4635239422175
 30
0.0
 11
470.884932283614
 21
545.2466339422175
 31
0.0
  0
LINE
  5
3DC7
330
1F
100
AcDbEntity
  8
AM_0
100
AcDbLine
 10
479.884932283614
 20
538.4000289422174
 30
0.0
 11
479.884932283614
 21
439.3101189422174
 31
0.0
  0
LINE
  5
3DC9
330
1F
100
AcDbEntity
  8
AM_0
100
AcDbLine
 10
480.8500522836141
 20
462.2840289422175
 30
0.0
 11
481.919842283614
 21
462.3213889422174
 31
0.0
  0
LINE
  5
3DCA
330
1F
100
AcDbEntity
  8
AM_0
100
AcDbLine
 10
480.850012283614
 20
515.4261189422174
 30
0.0
 11
481.919842283614
 21
515.3887689422171
 31
0.0
  0
LINE
  5
3DCB
330
1F
100
AcDbEntity
  8
AM_0
100
AcDbLine
 10
482.884932283614
 20
463.3207389422174
 30
0.0
 11
482.884932283614
 21
514.3893789422172
 31
0.0
  0
LINE
  5
3DCC
330
1F
100
AcDbEntity
  8
AM_0
100
AcDbLine
 10
479.884962283614
 20
538.4000589422173
 30
0.0
 11
480.9372922836141
 21
538.4276189422174
 31
0.0
  0
LINE
  5
3DCE
330
1F
100
AcDbEntity
  8
AM_0
100
AcDbLine
 10
482.884932283614
 20
414.4269089422174
 30
0.0
 11
482.884932283614
 21
437.2832389422176
 31
0.0
  0
LINE
  5
3DCF
330
1F
100
AcDbEntity
  8
AM_0
100
AcDbLine
 10
388.884932283614
 20
413.6413589422175
 30
0.0
 11
388.884932283614
 21
425.0932089422175
 31
0.0
  0
LINE
  5
3DD0
330
1F
100
AcDbEntity
  8
AM_0
100
AcDbLine
 10
420.8849622836141
 20
410.8551089422174
 30
0.0
 11
480.9372922836141
 21
412.4276189422173
 31
0.0
  0
LINE
  5
3DD1
330
1F
100
AcDbEntity
  8
AM_0
100
AcDbLine
 10
390.832592283614
 20
411.6419989422173
 30
0.0
 11
420.8849322836142
 21
410.8550789422173
 31
0.0
  0
LINE
  5
3DD3
330
1F
100
AcDbEntity
  8
AM_0
100
AcDbLine
 10
420.8849322836142
 20
562.9990889422174
 30
0.0
 11
413.884932283614
 21
566.6717889422174
 31
0.0
  0
LINE
  5
3DD4
330
1F
100
AcDbEntity
  8
AM_0
100
AcDbLine
 10
418.287972283614
 20
559.8445189422175
 30
0.0
 11
413.884962283614
 21
562.1546389422174
 31
0.0
  0
LINE
  5
3DD5
330
1F
100
AcDbEntity
  8
AM_0
100
AcDbLine
 10
413.884932283614
 20
566.6717589422176
 30
0.0
 11
413.884932283614
 21
562.1546689422175
 31
0.0
  0
LINE
  5
3DD6
330
1F
100
AcDbEntity
  8
AM_0
100
AcDbLine
 10
480.9372922836141
 20
439.2825389422173
 30
0.0
 11
479.884932283614
 21
439.3100889422172
 31
0.0
  0
LINE
  5
3DD7
330
1F
100
AcDbEntity
  8
AM_0
100
AcDbLine
 10
466.884962283614
 20
438.6040689422175
 30
0.0
 11
466.884962283614
 21
539.1060789422172
 31
0.0
  0
LINE
  5
3DD8
330
1F
100
AcDbEntity
  8
AM_0
100
AcDbLine
 10
475.320722283614
 20
537.2543689422175
 30
0.0
 11
470.6232122836141
 21
537.6653489422174
 31
0.0
  0
LINE
  5
3DD9
330
1F
100
AcDbEntity
  8
AM_0
100
AcDbLine
 10
475.320722283614
 20
440.4557489422172
 30
0.0
 11
470.6232122836141
 21
440.0447689422175
 31
0.0
  0
LINE
  5
3DDA
330
1F
100
AcDbEntity
  8
AM_0
100
AcDbLine
 10
464.146432283614
 20
435.6155089422173
 30
0.0
 11
458.449142283614
 21
435.1170689422175
 31
0.0
  0
LINE
  5
3DDB
330
1F
100
AcDbEntity
  8
AM_0
100
AcDbLine
 10
453.884932283614
 20
416.8518689422174
 30
0.0
 11
453.884932283614
 21
430.1360489422174
 31
0.0
  0
LINE
  5
3DDC
330
1F
100
AcDbEntity
  8
AM_0
100
AcDbLine
 10
420.8849322836142
 20
559.7765189422175
 30
0.0
 11
420.8849322836142
 21
562.9990889422174
 31
0.0
  0
LINE
  5
3DDD
330
1F
100
AcDbEntity
  8
AM_0
100
AcDbLine
 10
413.884932283614
 20
411.0383989422174
 30
0.0
 11
413.884932283614
 21
415.5554889422175
 31
0.0
  0
LINE
  5
3DDE
330
1F
100
AcDbEntity
  8
AM_0
100
AcDbLine
 10
418.2879422836142
 20
417.8656389422174
 30
0.0
 11
413.884932283614
 21
415.5555189422172
 31
0.0
  0
LINE
  5
3DDF
330
1F
100
AcDbEntity
  8
AM_0
100
AcDbLine
 10
420.8849322836142
 20
414.7110589422173
 30
0.0
 11
413.884932283614
 21
411.0383989422174
 31
0.0
  0
LINE
  5
3DE0
330
1F
100
AcDbEntity
  8
AM_0
100
AcDbLine
 10
420.8849322836142
 20
417.9336289422172
 30
0.0
 11
420.8849322836142
 21
414.7110589422173
 31
0.0
  0
LINE
  5
3DE1
330
1F
100
AcDbEntity
  8
AM_0
100
AcDbLine
 10
430.6208022836141
 20
418.1885689422174
 30
0.0
 11
417.884962283614
 21
417.8550789422174
 31
0.0
  0
LINE
  5
3DE2
330
1F
100
AcDbEntity
  8
AM_0
100
AcDbLine
 10
430.6208022836141
 20
559.5215789422172
 30
0.0
 11
417.884962283614
 21
559.8550789422175
 31
0.0
  0
LINE
  5
3DE4
330
1F
100
AcDbEntity
  8
ﾁｭｳｼﾝｾﾝ1
 48
0.7
100
AcDbLine
 10
462.319122283614
 20
553.8550789422174
 30
0.0
 11
479.450742283614
 21
553.8550789422174
 31
0.0
  0
LINE
  5
3DE5
330
1F
100
AcDbEntity
  8
AM_0
100
AcDbLine
 10
428.884932283614
 20
438.7878489422174
 30
0.0
 11
431.884932283614
 21
438.7878489422174
 31
0.0
  0
LINE
  5
3DE6
330
1F
100
AcDbEntity
  8
AM_0
100
AcDbLine
 10
431.8849622836141
 20
438.7878489422174
 30
0.0
 11
431.8849622836141
 21
538.9223089422174
 31
0.0
  0
LINE
  5
3DE7
330
1F
100
AcDbEntity
  8
AM_0
100
AcDbLine
 10
431.8849622836141
 20
438.7878489422174
 30
0.0
 11
445.466932283614
 21
441.3462289422175
 31
0.0
  0
LINE
  5
3DE8
330
1F
100
AcDbEntity
  8
AM_0
100
AcDbLine
 10
432.9813622836142
 20
418.8518089422174
 30
0.0
 11
443.6181422836141
 21
424.9650289422174
 31
0.0
  0
LINE
  5
3DE9
330
1F
100
AcDbEntity
  8
AM_0
100
AcDbLine
 10
453.884932283614
 20
547.5740689422174
 30
0.0
 11
453.884932283614
 21
560.8582789422173
 31
0.0
  0
LINE
  5
3DEA
330
1F
100
AcDbEntity
  8
AM_0
100
AcDbLine
 10
463.963512283614
 20
441.8305689422175
 30
0.0
 11
445.466932283614
 21
441.3462289422175
 31
0.0
  0
LINE
  5
3DEB
330
1F
100
AcDbEntity
  8
AM_0
100
AcDbLine
 10
450.963482283614
 20
425.7587889422175
 30
0.0
 11
445.9787422836141
 21
425.6282689422174
 31
0.0
  0
LINE
  5
3DEC
330
1F
100
AcDbEntity
  8
AM_0
100
AcDbLine
 10
464.146432283614
 20
542.0946689422175
 30
0.0
 11
458.449172283614
 21
542.5931089422174
 31
0.0
  0
LINE
  5
3DED
330
1F
100
AcDbEntity
  8
AM_0
100
AcDbLine
 10
432.981392283614
 20
558.8583089422172
 30
0.0
 11
443.6181422836141
 21
552.7451189422174
 31
0.0
  0
LINE
  5
3DEE
330
1F
100
AcDbEntity
  8
AM_0
100
AcDbLine
 10
431.8849622836141
 20
538.9223389422174
 30
0.0
 11
445.466932283614
 21
536.3639589422176
 31
0.0
  0
LINE
  5
3DEF
330
1F
100
AcDbEntity
  8
AM_0
100
AcDbLine
 10
463.963512283614
 20
535.8795789422173
 30
0.0
 11
445.466902283614
 21
536.3639289422174
 31
0.0
  0
LINE
  5
3DF0
330
1F
100
AcDbEntity
  8
AM_0
100
AcDbLine
 10
450.963482283614
 20
551.9513589422174
 30
0.0
 11
445.9787422836141
 21
552.0818789422174
 31
0.0
  0
LINE
  5
3DF1
330
1F
100
AcDbEntity
  8
AM_0
100
AcDbLine
 10
429.8849322836142
 20
541.3930389422173
 30
0.0
 11
432.884932283614
 21
541.3930389422173
 31
0.0
  0
LINE
  5
3DF2
330
1F
100
AcDbEntity
  8
AM_0
100
AcDbLine
 10
429.8849322836142
 20
552.9400389422173
 30
0.0
 11
432.884932283614
 21
552.9400389422173
 31
0.0
  0
LINE
  5
3DF3
330
1F
100
AcDbEntity
  8
AM_0
100
AcDbLine
 10
429.8849322836142
 20
550.0532889422174
 30
0.0
 11
432.884932283614
 21
550.0532889422174
 31
0.0
  0
LINE
  5
3DF4
330
1F
100
AcDbEntity
  8
AM_0
100
AcDbLine
 10
429.8849322836142
 20
544.2797889422174
 30
0.0
 11
432.884932283614
 21
544.2797889422174
 31
0.0
  0
LINE
  5
3DF5
330
1F
100
AcDbEntity
  8
AM_0
100
AcDbLine
 10
433.8849022836141
 20
551.9400689422174
 30
0.0
 11
433.8849022836141
 21
542.3930389422174
 31
0.0
  0
LINE
  5
3DF6
330
1F
100
AcDbEntity
  8
AM_0
100
AcDbLine
 10
428.884932283614
 20
540.3930089422175
 30
0.0
 11
429.8849322836142
 21
540.3930089422175
 31
0.0
  0
LINE
  5
3DF7
330
1F
100
AcDbEntity
  8
AM_0
100
AcDbLine
 10
428.884932283614
 20
553.9400689422175
 30
0.0
 11
429.8849322836142
 21
553.9400689422175
 31
0.0
  0
LINE
  5
3DF8
330
1F
100
AcDbEntity
  8
AM_0
100
AcDbLine
 10
429.8849322836142
 20
540.3930089422175
 30
0.0
 11
429.8849322836142
 21
553.9400689422175
 31
0.0
  0
LINE
  5
3DF9
330
1F
100
AcDbEntity
  8
AM_0
100
AcDbLine
 10
428.884932283614
 20
538.9223089422174
 30
0.0
 11
428.884932283614
 21
559.5670189422174
 31
0.0
  0
LINE
  5
3DFA
330
1F
100
AcDbEntity
  8
AM_0
100
AcDbLine
 10
428.884932283614
 20
538.9223089422174
 30
0.0
 11
431.884932283614
 21
538.9223089422174
 31
0.0
  0
LINE
  5
3DFB
330
1F
100
AcDbEntity
  8
AM_0
100
AcDbLine
 10
417.884962283614
 20
417.8550789422174
 30
0.0
 11
412.8326222836141
 21
417.9873689422173
 31
0.0
  0
LINE
  5
3DFC
330
1F
100
AcDbEntity
  8
AM_0
100
AcDbLine
 10
417.884932283614
 20
559.8550789422175
 30
0.0
 11
412.8326222836141
 21
559.7227789422174
 31
0.0
  0
LINE
  5
3DFD
330
1F
100
AcDbEntity
  8
AM_0
100
AcDbLine
 10
410.8849622836141
 20
419.9866989422174
 30
0.0
 11
410.8849622836141
 21
557.7234489422173
 31
0.0
  0
LINE
  5
3DFF
330
1F
100
AcDbEntity
  8
AM_0
100
AcDbLine
 10
406.1247622836141
 20
424.6941589422174
 30
0.0
 11
380.8849922836141
 21
425.3550789422174
 31
0.0
  0
LINE
  5
3E00
330
1F
100
AcDbEntity
  8
AM_0
100
AcDbLine
 10
407.8849322836139
 20
423.6437989422173
 30
0.0
 11
408.8849622836141
 21
423.6437989422173
 31
0.0
  0
LINE
  5
3E01
330
1F
100
AcDbEntity
  8
AM_0
100
AcDbLine
 10
405.884932283614
 20
425.6437989422172
 30
0.0
 11
405.884932283614
 21
434.8150389422174
 31
0.0
  0
LINE
  5
3E02
330
1F
100
AcDbEntity
  8
AM_0
100
AcDbLine
 10
405.884932283614
 20
552.0663789422173
 30
0.0
 11
405.884932283614
 21
542.8951189422173
 31
0.0
  0
LINE
  5
3E03
330
1F
100
AcDbEntity
  8
AM_0
100
AcDbLine
 10
406.1247622836141
 20
553.0159989422174
 30
0.0
 11
380.8849922836141
 21
552.3550789422174
 31
0.0
  0
LINE
  5
3E04
330
1F
100
AcDbEntity
  8
AM_0
100
AcDbLine
 10
407.8849322836139
 20
554.0663789422174
 30
0.0
 11
408.8849622836141
 21
554.0663789422174
 31
0.0
  0
LINE
  5
3E05
330
1F
100
AcDbEntity
  8
AM_0
100
AcDbLine
 10
380.884962283614
 20
436.8150389422175
 30
0.0
 11
410.8849622836141
 21
436.8150389422175
 31
0.0
  0
LINE
  5
3E06
330
1F
100
AcDbEntity
  8
AM_0
100
AcDbLine
 10
380.884962283614
 20
451.7050489422174
 30
0.0
 11
410.8849622836141
 21
451.7050489422174
 31
0.0
  0
LINE
  5
3E07
330
1F
100
AcDbEntity
  8
AM_0
100
AcDbLine
 10
380.884962283614
 20
526.0050989422174
 30
0.0
 11
410.8849622836141
 21
526.0050989422174
 31
0.0
  0
LINE
  5
3E08
330
1F
100
AcDbEntity
  8
AM_0
100
AcDbLine
 10
380.884962283614
 20
540.8951189422175
 30
0.0
 11
410.8849622836141
 21
540.8951189422175
 31
0.0
  0
LINE
  5
3E09
330
1F
100
AcDbEntity
  8
AM_0
100
AcDbLine
 10
492.884932283614
 20
492.8550489422174
 30
0.0
 11
524.884932283614
 21
492.8550489422174
 31
0.0
  0
LINE
  5
3E0A
330
1F
100
AcDbEntity
  8
AM_0
100
AcDbLine
 10
492.884932283614
 20
492.8550489422174
 30
0.0
 11
492.884932283614
 21
484.8550789422174
 31
0.0
  0
LINE
  5
3E0B
330
1F
100
AcDbEntity
  8
AM_0
100
AcDbLine
 10
484.884902283614
 20
476.8550789422174
 30
0.0
 11
524.884932283614
 21
476.8550789422174
 31
0.0
  0
LINE
  5
3E0C
330
1F
100
AcDbEntity
  8
AM_0
100
AcDbLine
 10
484.884902283614
 20
500.8550789422174
 30
0.0
 11
524.884932283614
 21
500.8550789422174
 31
0.0
  0
LINE
  5
3E0D
330
1F
100
AcDbEntity
  8
AM_0
100
AcDbLine
 10
484.884902283614
 20
501.3550489422174
 30
0.0
 11
484.884902283614
 21
476.3551089422175
 31
0.0
  0
LINE
  5
3E0E
330
1F
100
AcDbEntity
  8
AM_0
100
AcDbLine
 10
524.884932283614
 20
500.8550789422174
 30
0.0
 11
524.884932283614
 21
476.8550789422174
 31
0.0
  0
LINE
  5
3E0F
330
1F
100
AcDbEntity
  8
AM_0
100
AcDbLine
 10
482.884932283614
 20
501.3550489422174
 30
0.0
 11
484.884902283614
 21
501.3550489422174
 31
0.0
  0
LINE
  5
3E10
330
1F
100
AcDbEntity
  8
AM_0
100
AcDbLine
 10
482.884932283614
 20
476.3551089422175
 30
0.0
 11
484.884902283614
 21
476.3551089422175
 31
0.0
  0
LINE
  5
3E11
330
1F
100
AcDbEntity
  8
AM_0
100
AcDbLine
 10
492.884932283614
 20
484.8550789422174
 30
0.0
 11
524.884932283614
 21
484.8550789422174
 31
0.0
  0
ARC
  5
3E12
330
1F
100
AcDbEntity
  8
AM_0
100
AcDbCircle
 10
432.884932283614
 20
435.3171089422175
 30
0.0
 40
1.0
100
AcDbArc
 50
0.0
 51
90.00000300000095
  0
ARC
  5
3E13
330
1F
100
AcDbEntity
  8
AM_0
100
AcDbCircle
 10
432.884932283614
 20
432.4303589422173
 30
0.0
 40
1.0
100
AcDbArc
 50
0.0
 51
90.00000300000095
  0
ARC
  5
3E14
330
1F
100
AcDbEntity
  8
AM_0
100
AcDbCircle
 10
432.884932283614
 20
426.6568589422173
 30
0.0
 40
1.0
100
AcDbArc
 50
0.0
 51
90.00000300000095
  0
ARC
  5
3E15
330
1F
100
AcDbEntity
  8
AM_0
100
AcDbCircle
 10
432.884932283614
 20
425.7700889422173
 30
0.0
 40
1.0
100
AcDbArc
 50
269.999989999999
 51
0.0000006832462478
  0
ARC
  5
3E16
330
1F
100
AcDbEntity
  8
AM_0
100
AcDbCircle
 10
432.884932283614
 20
428.6568289422174
 30
0.0
 40
1.0
100
AcDbArc
 50
269.999989999999
 51
0.0000006832462478
  0
ARC
  5
3E17
330
1F
100
AcDbEntity
  8
AM_0
100
AcDbCircle
 10
432.884932283614
 20
434.4303589422175
 30
0.0
 40
1.0
100
AcDbArc
 50
269.999989999999
 51
0.0000006832462478
  0
ARC
  5
3E18
330
1F
100
AcDbEntity
  8
AM_0
100
AcDbCircle
 10
480.884932283614
 20
563.2832389422175
 30
0.0
 40
2.0
100
AcDbArc
 50
0.0
 51
88.49999700000074
  0
ARC
  5
3E19
330
1F
100
AcDbEntity
  8
AM_0
100
AcDbCircle
 10
390.884932283614
 20
564.0688189422174
 30
0.0
 40
2.0
100
AcDbArc
 50
91.50000100000154
 51
180.000010000001
  0
ARC
  5
3E1A
330
1F
100
AcDbEntity
  8
AM_0
100
AcDbCircle
 10
480.884932283614
 20
540.4269089422175
 30
0.0
 40
2.0
100
AcDbArc
 50
271.4999999999995
 51
0.0
  0
ARC
  5
3E1B
330
1F
100
AcDbEntity
  8
AM_0
100
AcDbCircle
 10
400.8849322836142
 20
553.8550789422174
 30
0.0
 40
6.0
100
AcDbArc
 50
359.4575100000011
 51
190.8612100000011
  0
CIRCLE
  5
3E1C
330
1F
100
AcDbEntity
  8
AM_0
100
AcDbCircle
 10
470.884932283614
 20
553.8550789422174
 30
0.0
 40
6.0
  0
ARC
  5
3E1D
330
1F
100
AcDbEntity
  8
AM_0
100
AcDbCircle
 10
480.884932283614
 20
461.2846089422173
 30
0.0
 40
1.0
100
AcDbArc
 50
91.99999800000055
 51
180.000010000001
  0
ARC
  5
3E1E
330
1F
100
AcDbEntity
  8
AM_0
100
AcDbCircle
 10
481.884932283614
 20
463.3207389422174
 30
0.0
 40
1.0
100
AcDbArc
 50
272.0000000000004
 51
0.0
  0
ARC
  5
3E1F
330
1F
100
AcDbEntity
  8
AM_0
100
AcDbCircle
 10
480.884932283614
 20
516.4255389422173
 30
0.0
 40
1.0
100
AcDbArc
 50
180.000010000001
 51
267.9999999999997
  0
ARC
  5
3E20
330
1F
100
AcDbEntity
  8
AM_0
100
AcDbCircle
 10
481.884932283614
 20
514.3893789422172
 30
0.0
 40
1.0
100
AcDbArc
 50
0.0
 51
87.99999999999965
  0
ARC
  5
3E21
330
1F
100
AcDbEntity
  8
AM_0
100
AcDbCircle
 10
480.884932283614
 20
414.4269089422174
 30
0.0
 40
2.0
100
AcDbArc
 50
271.4999999999995
 51
0.0
  0
ARC
  5
3E22
330
1F
100
AcDbEntity
  8
AM_0
100
AcDbCircle
 10
390.884932283614
 20
413.6413589422175
 30
0.0
 40
2.0
100
AcDbArc
 50
180.000010000001
 51
268.5000000000005
  0
ARC
  5
3E23
330
1F
100
AcDbEntity
  8
AM_0
100
AcDbCircle
 10
480.884932283614
 20
437.2832389422176
 30
0.0
 40
2.0
100
AcDbArc
 50
0.0
 51
88.49999700000074
  0
ARC
  5
3E24
330
1F
100
AcDbEntity
  8
ｶｸﾚｾﾝ2
 48
1.5
100
AcDbCircle
 10
400.8849322836142
 20
423.8550789422173
 30
0.0
 40
6.0
100
AcDbArc
 50
0.542560400000739
 51
169.1387899999989
  0
CIRCLE
  5
3E25
330
1F
100
AcDbEntity
  8
AM_0
100
AcDbCircle
 10
470.884932283614
 20
423.8550789422173
 30
0.0
 40
6.0
  0
ARC
  5
3E26
330
1F
100
AcDbEntity
  8
AM_0
100
AcDbCircle
 10
474.884932283614
 20
532.2734089422175
 30
0.0
 40
5.0
100
AcDbArc
 50
0.0
 51
85.0000040000012
  0
ARC
  5
3E27
330
1F
100
AcDbEntity
  8
AM_0
100
AcDbCircle
 10
474.884932283614
 20
445.4367089422173
 30
0.0
 40
5.0
100
AcDbArc
 50
274.9999999999997
 51
0.0
  0
ARC
  5
3E28
330
1F
100
AcDbEntity
  8
AM_0
100
AcDbCircle
 10
458.884932283614
 20
430.1360489422174
 30
0.0
 40
5.0
100
AcDbArc
 50
95.00000199999858
 51
180.000010000001
  0
ARC
  5
3E29
330
1F
100
AcDbEntity
  8
AM_0
100
AcDbCircle
 10
458.884932283614
 20
547.5740689422174
 30
0.0
 40
5.0
100
AcDbArc
 50
180.000010000001
 51
265.0000100000007
  0
ARC
  5
3E2A
330
1F
100
AcDbEntity
  8
AM_0
100
AcDbCircle
 10
458.884932283614
 20
416.8518689422174
 30
0.0
 40
5.0
100
AcDbArc
 50
180.000010000001
 51
271.4999999999995
  0
ARC
  5
3E2B
330
1F
100
AcDbEntity
  8
AM_0
100
AcDbCircle
 10
458.884932283614
 20
560.8582789422173
 30
0.0
 40
5.0
100
AcDbArc
 50
88.49999700000074
 51
180.000010000001
  0
ARC
  5
3E2C
330
1F
100
AcDbEntity
  8
AM_0
100
AcDbCircle
 10
450.8849322836142
 20
428.7577589422174
 30
0.0
 40
3.0
100
AcDbArc
 50
271.4999999999995
 51
0.0
  0
ARC
  5
3E2D
330
1F
100
AcDbEntity
  8
AM_0
100
AcDbCircle
 10
430.4899122836141
 20
423.1868589422175
 30
0.0
 40
5.0
100
AcDbArc
 50
271.4999999999995
 51
299.8870199999992
  0
ARC
  5
3E2E
330
1F
100
AcDbEntity
  8
AM_0
100
AcDbCircle
 10
446.109602283614
 20
420.6299789422174
 30
0.0
 40
5.0
100
AcDbArc
 50
91.50000100000154
 51
119.8870199999991
  0
ARC
  5
3E2F
330
1F
100
AcDbEntity
  8
AM_0
100
AcDbCircle
 10
463.884962283614
 20
444.8295289422175
 30
0.0
 40
3.0
100
AcDbArc
 50
271.4999999999995
 51
0.0
  0
ARC
  5
3E30
330
1F
100
AcDbEntity
  8
AM_0
100
AcDbCircle
 10
463.884962283614
 20
438.6040689422175
 30
0.0
 40
3.0
100
AcDbArc
 50
274.9999999999997
 51
0.0
  0
ARC
  5
3E31
330
1F
100
AcDbEntity
  8
AM_0
100
AcDbCircle
 10
471.0589722836139
 20
435.0637889422173
 30
0.0
 40
5.0
100
AcDbArc
 50
95.00000199999858
 51
153.7343299999997
  0
ARC
  5
3E32
330
1F
100
AcDbEntity
  8
AM_0
100
AcDbCircle
 10
471.0589722836139
 20
542.6463389422174
 30
0.0
 40
5.0
100
AcDbArc
 50
206.2656700000002
 51
265.0000100000007
  0
ARC
  5
3E33
330
1F
100
AcDbEntity
  8
AM_0
100
AcDbCircle
 10
463.884962283614
 20
532.8806189422175
 30
0.0
 40
3.0
100
AcDbArc
 50
0.0
 51
88.49999700000074
  0
ARC
  5
3E34
330
1F
100
AcDbEntity
  8
AM_0
100
AcDbCircle
 10
430.4899122836141
 20
554.5232889422175
 30
0.0
 40
5.0
100
AcDbArc
 50
60.11298000000088
 51
88.49999700000074
  0
ARC
  5
3E35
330
1F
100
AcDbEntity
  8
AM_0
100
AcDbCircle
 10
463.884962283614
 20
539.1060789422172
 30
0.0
 40
3.0
100
AcDbArc
 50
0.0
 51
85.0000040000012
  0
ARC
  5
3E36
330
1F
100
AcDbEntity
  8
AM_0
100
AcDbCircle
 10
446.109602283614
 20
557.0801689422174
 30
0.0
 40
5.0
100
AcDbArc
 50
240.1129800000009
 51
268.5000000000005
  0
ARC
  5
3E37
330
1F
100
AcDbEntity
  8
AM_0
100
AcDbCircle
 10
450.8849322836142
 20
548.9523989422174
 30
0.0
 40
3.0
100
AcDbArc
 50
0.0
 51
88.49999700000074
  0
ARC
  5
3E38
330
1F
100
AcDbEntity
  8
AM_0
100
AcDbCircle
 10
432.884932283614
 20
543.2797889422174
 30
0.0
 40
1.0
100
AcDbArc
 50
0.0
 51
90.00000300000095
  0
ARC
  5
3E39
330
1F
100
AcDbEntity
  8
AM_0
100
AcDbCircle
 10
432.884932283614
 20
549.0533189422174
 30
0.0
 40
1.0
100
AcDbArc
 50
0.0
 51
90.00000300000095
  0
ARC
  5
3E3A
330
1F
100
AcDbEntity
  8
AM_0
100
AcDbCircle
 10
432.884932283614
 20
551.9400689422174
 30
0.0
 40
1.0
100
AcDbArc
 50
0.0
 51
90.00000300000095
  0
ARC
  5
3E3B
330
1F
100
AcDbEntity
  8
AM_0
100
AcDbCircle
 10
432.884932283614
 20
551.0532889422174
 30
0.0
 40
1.0
100
AcDbArc
 50
269.999989999999
 51
0.0000006832462478
  0
ARC
  5
3E3C
330
1F
100
AcDbEntity
  8
AM_0
100
AcDbCircle
 10
432.884932283614
 20
545.2797889422174
 30
0.0
 40
1.0
100
AcDbArc
 50
269.999989999999
 51
0.0000006832462478
  0
ARC
  5
3E3D
330
1F
100
AcDbEntity
  8
AM_0
100
AcDbCircle
 10
432.884932283614
 20
542.3930389422174
 30
0.0
 40
1.0
100
AcDbArc
 50
269.999989999999
 51
0.0000006832462478
  0
ARC
  5
3E3E
330
1F
100
AcDbEntity
  8
AM_0
100
AcDbCircle
 10
533.373672283614
 20
488.8550789422175
 30
0.0
 40
101.4887199999999
100
AcDbArc
 50
151.8933300000002
 51
208.1066699999997
  0
ARC
  5
3E3F
330
1F
100
AcDbEntity
  8
AM_0
100
AcDbCircle
 10
412.8849622836141
 20
419.9866989422174
 30
0.0
 40
2.0
100
AcDbArc
 50
180.000010000001
 51
268.5000000000005
  0
ARC
  5
3E40
330
1F
100
AcDbEntity
  8
AM_0
100
AcDbCircle
 10
412.8849622836141
 20
557.7234489422173
 30
0.0
 40
2.0
100
AcDbArc
 50
91.50000100000154
 51
180.000010000001
  0
ARC
  5
3E41
330
1F
100
AcDbEntity
  8
AM_0
100
AcDbCircle
 10
407.8849322836139
 20
425.6437989422172
 30
0.0
 40
2.0
100
AcDbArc
 50
180.000010000001
 51
270.0
  0
ARC
  5
3E42
330
1F
100
AcDbEntity
  8
AM_0
100
AcDbCircle
 10
408.8849622836141
 20
421.6437989422173
 30
0.0
 40
2.0
100
AcDbArc
 50
0.0
 51
90.00000300000095
  0
ARC
  5
3E43
330
1F
100
AcDbEntity
  8
AM_0
100
AcDbCircle
 10
408.8849622836141
 20
556.0663789422173
 30
0.0
 40
2.0
100
AcDbArc
 50
270.0
 51
0.0
  0
ARC
  5
3E44
330
1F
100
AcDbEntity
  8
AM_0
100
AcDbCircle
 10
407.8849322836139
 20
552.0663789422173
 30
0.0
 40
2.0
100
AcDbArc
 50
90.00000300000095
 51
180.000010000001
  0
ARC
  5
3E45
330
1F
100
AcDbEntity
  8
AM_0
100
AcDbCircle
 10
403.884932283614
 20
434.8150389422174
 30
0.0
 40
2.0
100
AcDbArc
 50
0.0
 51
90.00000300000095
  0
ARC
  5
3E46
330
1F
100
AcDbEntity
  8
AM_0
100
AcDbCircle
 10
403.884932283614
 20
542.8951189422173
 30
0.0
 40
2.0
100
AcDbArc
 50
270.0
 51
0.0
  0
ARC
  5
3E47
330
1F
100
AcDbEntity
  8
ｶｸﾚｾﾝ2
 48
1.5
100
AcDbCircle
 10
400.8849322836142
 20
553.8550789422174
 30
0.0
 40
6.0
100
AcDbArc
 50
190.8612100000011
 51
359.4575200000008
  0
ARC
  5
3E48
330
1F
100
AcDbEntity
  8
AM_0
100
AcDbCircle
 10
400.8849322836142
 20
423.8550789422173
 30
0.0
 40
6.0
100
AcDbArc
 50
169.1387899999989
 51
0.5425729200004517
  0
ARC
  5
3E49
330
1F
100
AcDbEntity
  8
AM_0
100
AcDbCircle
 10
492.884932283614
 20
488.8550489422175
 30
0.0
 40
3.9999962
100
AcDbArc
 50
90.00000300000095
 51
270.0
  0
LINE
  5
3E6F
330
1F
100
AcDbEntity
  8
ﾁｭｳｼﾝｾﾝ1
 48
0.7
100
AcDbLine
 10
470.884932283614
 20
432.4635239422175
 30
0.0
 11
470.884932283614
 21
415.2466339422174
 31
0.0
  0
LINE
  5
3E70
330
1F
100
AcDbEntity
  8
ﾁｭｳｼﾝｾﾝ1
 48
0.7
100
AcDbLine
 10
462.319122283614
 20
423.8550789422173
 30
0.0
 11
479.450742283614
 21
423.8550789422173
 31
0.0
  0
LINE
  5
3E71
330
1F
100
AcDbEntity
  8
ﾁｭｳｼﾝｾﾝ1
 48
0.7
100
AcDbLine
 10
400.8849322836142
 20
432.4635239422175
 30
0.0
 11
400.8849322836142
 21
415.2466339422174
 31
0.0
  0
LINE
  5
3E72
330
1F
100
AcDbEntity
  8
ﾁｭｳｼﾝｾﾝ1
 48
0.7
100
AcDbLine
 10
392.3191222836143
 20
423.8550789422173
 30
0.0
 11
409.4507422836143
 21
423.8550789422173
 31
0.0
  0
LINE
  5
3E73
330
1F
100
AcDbEntity
  8
ﾁｭｳｼﾝｾﾝ1
 48
0.7
100
AcDbLine
 10
400.8849322836142
 20
562.4635239422175
 30
0.0
 11
400.8849322836142
 21
545.2466339422175
 31
0.0
  0
LINE
  5
3E74
330
1F
100
AcDbEntity
  8
ﾁｭｳｼﾝｾﾝ1
 48
0.7
100
AcDbLine
 10
392.3191222836143
 20
553.8550789422174
 30
0.0
 11
409.4507422836143
 21
553.8550789422174
 31
0.0
  0
LINE
  5
3EDA
330
1F
100
AcDbEntity
  8
AM_7
100
AcDbLine
 10
296.3849795487172
 20
488.8550744422173
 30
0.0
 11
533.884932283614
 21
488.8550744422173
 31
0.0
1001
GENIUS_GENOBJ-N-CEN_13
1002
{
1000
OWNER
1000
GEN
1002
}
1001
GENIUS_GENODEF_13
1002
{
1000
HIER
1070
     0
1002
}
1002
{
1000
MANEDIT
1070
     0
1002
}
1002
{
1000
NOSEL
1070
     0
1002
}
1002
{
1000
BEHIND
1070
     0
1002
}
1002
{
1000
OTHER
1070
     0
1002
}
1002
{
1000
REACTOR
1002
}
1001
GENIUS_GENCEN_19
1002
{
1040
9.0
1002
}
  0
TEXT
  5
3EE3
330
1F
100
AcDbEntity
  8
AM_0
100
AcDbText
 10
605.857118578426
 20
417.2737713362858
 30
0.0
 40
7.5
  1
ＶＸ０４－０１５～０５０Ｈ－Ｔ２（Ｔ４）
 41
0.8299999999999998
100
AcDbText
  0
LINE
  5
3F86
330
1F
100
AcDbEntity
  8
0
  6
Continuous
 62
     7
100
AcDbLine
 10
380.8849922836141
 20
345.6049526828913
 30
0.0
 11
380.8849922836141
 21
217.6049526828915
 31
0.0
  0
LINE
  5
3F87
330
1F
100
AcDbEntity
  8
0
100
AcDbLine
 10
348.1761314715802
 20
313.0992514546454
 30
0.0
 11
320.4897118533953
 21
312.1324203771069
 31
0.0
  0
ARC
  5
3F88
330
1F
100
AcDbEntity
  8
0
100
AcDbCircle
 10
320.3850133632877
 20
315.1305928581642
 30
0.0
 40
3.0
100
AcDbArc
 50
180.0
 51
272.0000000000004
1001
GENIUS_GENOBJ-N-FIL_13
1002
{
1000
OWNER
1000
GEN
1002
}
1001
GENIUS_GENODEF_13
1002
{
1000
HIER
1070
     0
1002
}
1002
{
1000
MANEDIT
1070
     0
1002
}
1002
{
1000
NOSEL
1070
     0
1002
}
1002
{
1000
BEHIND
1070
     0
1002
}
1002
{
1000
OTHER
1070
     0
1002
}
1002
{
1000
REACTOR
1002
}
  0
LINE
  5
3F89
330
1F
100
AcDbEntity
  8
0
100
AcDbLine
 10
372.8151932902089
 20
345.3231490923979
 30
0.0
 11
380.8849922836141
 21
345.6049526828913
 31
0.0
  0
LINE
  5
3F8A
330
1F
100
AcDbEntity
  8
0
100
AcDbLine
 10
370.884992283614
 20
343.3243674383597
 30
0.0
 11
370.8849922836173
 21
219.8855379274231
 31
0.0
  0
ARC
  5
3F8B
330
1F
100
AcDbEntity
  8
0
100
AcDbCircle
 10
372.8849922836141
 20
343.3243674383597
 30
0.0
 40
2.0
100
AcDbArc
 50
92.00000000000041
 51
180.0
1001
GENIUS_GENOBJ-N-FIL_13
1002
{
1000
OWNER
1000
GEN
1002
}
1001
GENIUS_GENODEF_13
1002
{
1000
HIER
1070
     0
1002
}
1002
{
1000
MANEDIT
1070
     0
1002
}
1002
{
1000
NOSEL
1070
     0
1002
}
1002
{
1000
BEHIND
1070
     0
1002
}
1002
{
1000
OTHER
1070
     0
1002
}
1002
{
1000
REACTOR
1002
}
  0
ARC
  5
3F8C
330
1F
100
AcDbEntity
  8
0
100
AcDbCircle
 10
365.884992283614
 20
341.1760204947569
 30
0.0
 40
5.0
100
AcDbArc
 50
315.0
 51
0.0
1001
GENIUS_GENOBJ-N-FIL_13
1002
{
1000
OWNER
1000
GEN
1002
}
1001
GENIUS_GENODEF_13
1002
{
1000
HIER
1070
     0
1002
}
1002
{
1000
MANEDIT
1070
     0
1002
}
1002
{
1000
NOSEL
1070
     0
1002
}
1002
{
1000
BEHIND
1070
     0
1002
}
1002
{
1000
OTHER
1070
     0
1002
}
1002
{
1000
REACTOR
1002
}
  0
LINE
  5
3F8D
330
1F
100
AcDbEntity
  8
0
100
AcDbLine
 10
346.152680853768
 20
314.3726412530451
 30
0.0
 11
369.4205261895468
 21
337.6404865888241
 31
0.0
  0
ARC
  5
3F8E
330
1F
100
AcDbEntity
  8
0
100
AcDbCircle
 10
342.6171469478352
 20
317.9081751589777
 30
0.0
 40
5.0
100
AcDbArc
 50
272.0000000000004
 51
315.0
1001
GENIUS_GENOBJ-N-FIL_13
1002
{
1000
OWNER
1000
GEN
1002
}
1001
GENIUS_GENODEF_13
1002
{
1000
HIER
1070
     0
1002
}
1002
{
1000
MANEDIT
1070
     0
1002
}
1002
{
1000
NOSEL
1070
     0
1002
}
1002
{
1000
BEHIND
1070
     0
1002
}
1002
{
1000
OTHER
1070
     0
1002
}
1002
{
1000
REACTOR
1002
}
  0
LINE
  5
3F8F
330
1F
100
AcDbEntity
  8
0
100
AcDbLine
 10
348.1761314715803
 20
250.1106539111372
 30
0.0
 11
320.4897118533953
 21
251.0774849886758
 31
0.0
  0
ARC
  5
3F90
330
1F
100
AcDbEntity
  8
0
100
AcDbCircle
 10
320.3850133632878
 20
248.0793125076186
 30
0.0
 40
3.0
100
AcDbArc
 50
87.99999999999959
 51
180.0
1001
GENIUS_GENOBJ-N-FIL_13
1002
{
1000
OWNER
1000
GEN
1002
}
1001
GENIUS_GENODEF_13
1002
{
1000
HIER
1070
     0
1002
}
1002
{
1000
MANEDIT
1070
     0
1002
}
1002
{
1000
NOSEL
1070
     0
1002
}
1002
{
1000
BEHIND
1070
     0
1002
}
1002
{
1000
OTHER
1070
     0
1002
}
1002
{
1000
REACTOR
1002
}
  0
LINE
  5
3F91
330
1F
100
AcDbEntity
  8
0
100
AcDbLine
 10
372.8151932902089
 20
217.8867562733848
 30
0.0
 11
380.8849922836141
 21
217.6049526828915
 31
0.0
  0
ARC
  5
3F92
330
1F
100
AcDbEntity
  8
0
100
AcDbCircle
 10
372.8849922836141
 20
219.8855379274231
 30
0.0
 40
2.0
100
AcDbArc
 50
180.0
 51
267.9999999999996
1001
GENIUS_GENOBJ-N-FIL_13
1002
{
1000
OWNER
1000
GEN
1002
}
1001
GENIUS_GENODEF_13
1002
{
1000
HIER
1070
     0
1002
}
1002
{
1000
MANEDIT
1070
     0
1002
}
1002
{
1000
NOSEL
1070
     0
1002
}
1002
{
1000
BEHIND
1070
     0
1002
}
1002
{
1000
OTHER
1070
     0
1002
}
1002
{
1000
REACTOR
1002
}
  0
ARC
  5
3F93
330
1F
100
AcDbEntity
  8
0
100
AcDbCircle
 10
365.884992283614
 20
222.0338848710259
 30
0.0
 40
5.0
100
AcDbArc
 50
0.0
 51
45.0
1001
GENIUS_GENOBJ-N-FIL_13
1002
{
1000
OWNER
1000
GEN
1002
}
1001
GENIUS_GENODEF_13
1002
{
1000
HIER
1070
     0
1002
}
1002
{
1000
MANEDIT
1070
     0
1002
}
1002
{
1000
NOSEL
1070
     0
1002
}
1002
{
1000
BEHIND
1070
     0
1002
}
1002
{
1000
OTHER
1070
     0
1002
}
1002
{
1000
REACTOR
1002
}
  0
LINE
  5
3F94
330
1F
100
AcDbEntity
  8
0
100
AcDbLine
 10
346.152680853768
 20
248.8372641127377
 30
0.0
 11
369.4205261895468
 21
225.5694187769587
 31
0.0
  0
ARC
  5
3F95
330
1F
100
AcDbEntity
  8
0
100
AcDbCircle
 10
342.6171469478352
 20
245.3017302068051
 30
0.0
 40
5.0
100
AcDbArc
 50
45.0
 51
87.99999999999959
1001
GENIUS_GENOBJ-N-FIL_13
1002
{
1000
OWNER
1000
GEN
1002
}
1001
GENIUS_GENODEF_13
1002
{
1000
HIER
1070
     0
1002
}
1002
{
1000
MANEDIT
1070
     0
1002
}
1002
{
1000
NOSEL
1070
     0
1002
}
1002
{
1000
BEHIND
1070
     0
1002
}
1002
{
1000
OTHER
1070
     0
1002
}
1002
{
1000
REACTOR
1002
}
  0
ARC
  5
3F96
330
1F
100
AcDbEntity
  8
図面枠-ｷｲﾛ
100
AcDbCircle
 10
430.7866646468952
 20
281.6049526828915
 30
0.0
 40
81.58989117312721
100
AcDbArc
 50
162.1810811943914
 51
197.8189188056104
  0
ARC
  5
3F97
330
1F
100
AcDbEntity
  8
図面枠-ｷｲﾛ
100
AcDbCircle
 10
348.3506289550928
 20
255.1076080462328
 30
0.0
 40
5.0
100
AcDbArc
 50
267.9999999999996
 51
17.81891880560857
1001
GENIUS_GENOBJ-N-FIL_13
1002
{
1000
OWNER
1000
GEN
1002
}
1001
GENIUS_GENODEF_13
1002
{
1000
HIER
1070
     0
1002
}
1002
{
1000
MANEDIT
1070
     0
1002
}
1002
{
1000
NOSEL
1070
     0
1002
}
1002
{
1000
BEHIND
1070
     0
1002
}
1002
{
1000
OTHER
1070
     0
1002
}
1002
{
1000
REACTOR
1002
}
  0
ARC
  5
3F98
330
1F
100
AcDbEntity
  8
図面枠-ｷｲﾛ
100
AcDbCircle
 10
348.3506289550927
 20
308.10229731955
 30
0.0
 40
5.0
100
AcDbArc
 50
342.1810811943914
 51
92.00000000000041
1001
GENIUS_GENODEF_13
1002
{
1000
HIER
1070
     0
1002
}
1002
{
1000
MANEDIT
1070
     0
1002
}
1002
{
1000
NOSEL
1070
     0
1002
}
1002
{
1000
BEHIND
1070
     0
1002
}
1002
{
1000
OTHER
1070
     0
1002
}
1002
{
1000
REACTOR
1002
}
1001
GENIUS_GENOBJ-N-FIL_13
1002
{
1000
OWNER
1000
GEN
1002
}
  0
LINE
  5
3F99
330
1F
100
AcDbEntity
  8
AM_0
100
AcDbLine
 10
380.8849922836141
 20
345.1049476828914
 30
0.0
 11
380.8849922836141
 21
218.1048886828914
 31
0.0
  0
LINE
  5
3F9A
330
1F
100
AcDbEntity
  8
AM_0
100
AcDbLine
 10
380.8849922836141
 20
333.1049476828914
 30
0.0
 11
370.8849922836142
 21
333.1049476828912
 31
0.0
  0
LINE
  5
3F9B
330
1F
100
AcDbEntity
  8
AM_0
100
AcDbLine
 10
380.8849922836141
 20
319.6012606828914
 30
0.0
 11
370.8849922836146
 21
319.6012606828912
 31
0.0
  0
LINE
  5
3F9C
330
1F
100
AcDbEntity
  8
AM_0
100
AcDbLine
 10
380.8849922836141
 20
243.6086446828914
 30
0.0
 11
370.8849922836166
 21
243.6086446828912
 31
0.0
  0
LINE
  5
3F9D
330
1F
100
AcDbEntity
  8
AM_0
100
AcDbLine
 10
380.8849922836141
 20
230.1049666828915
 30
0.0
 11
370.884992283617
 21
230.1049666828911
 31
0.0
  0
LINE
  5
3F9E
330
1F
100
AcDbEntity
  8
AM_0
100
AcDbLine
 10
380.8849922836141
 20
424.8550744422173
 30
0.0
 11
380.8849922836141
 21
552.8550744422174
 31
0.0
  0
LINE
  5
3F9F
330
1F
100
AcDbEntity
  8
0
100
AcDbLine
 10
356.1337512490844
 20
520.6272595531323
 30
0.0
 11
320.4897070012505
 21
519.3825421001998
 31
0.0
  0
ARC
  5
3FA0
330
1F
100
AcDbEntity
  8
0
100
AcDbCircle
 10
320.3850085111429
 20
522.380714581257
 30
0.0
 40
3.0
100
AcDbArc
 50
180.0
 51
272.0000000000004
1001
GENIUS_GENOBJ-N-FIL_13
1002
{
1000
OWNER
1000
GEN
1002
}
1001
GENIUS_GENODEF_13
1002
{
1000
HIER
1070
     0
1002
}
1002
{
1000
MANEDIT
1070
     0
1002
}
1002
{
1000
NOSEL
1070
     0
1002
}
1002
{
1000
BEHIND
1070
     0
1002
}
1002
{
1000
OTHER
1070
     0
1002
}
1002
{
1000
REACTOR
1002
}
  0
LINE
  5
3FA1
330
1F
100
AcDbEntity
  8
0
100
AcDbLine
 10
356.1337422706663
 20
457.0828896448352
 30
0.0
 11
320.4897070012505
 21
458.3276067842346
 31
0.0
  0
LINE
  5
3FA2
330
1F
100
AcDbEntity
  8
0
100
AcDbLine
 10
372.8151894756384
 20
552.5732708517237
 30
0.0
 11
380.8849884690435
 21
552.8550744422171
 31
0.0
  0
LINE
  5
3FA3
330
1F
100
AcDbEntity
  8
0
100
AcDbLine
 10
370.8849884690434
 20
550.5744891976855
 30
0.0
 11
370.8849884690467
 21
427.1356586117899
 31
0.0
  0
ARC
  5
3FA4
330
1F
100
AcDbEntity
  8
0
100
AcDbCircle
 10
372.8849884690435
 20
550.5744891976855
 30
0.0
 40
2.0
100
AcDbArc
 50
92.00000000000041
 51
180.0
1001
GENIUS_GENOBJ-N-FIL_13
1002
{
1000
OWNER
1000
GEN
1002
}
1001
GENIUS_GENODEF_13
1002
{
1000
HIER
1070
     0
1002
}
1002
{
1000
MANEDIT
1070
     0
1002
}
1002
{
1000
NOSEL
1070
     0
1002
}
1002
{
1000
BEHIND
1070
     0
1002
}
1002
{
1000
OTHER
1070
     0
1002
}
1002
{
1000
REACTOR
1002
}
  0
ARC
  5
3FA5
330
1F
100
AcDbEntity
  8
0
100
AcDbCircle
 10
365.8849884690435
 20
548.4261422540826
 30
0.0
 40
5.0
100
AcDbArc
 50
315.0
 51
0.0
1001
GENIUS_GENOBJ-N-FIL_13
1002
{
1000
OWNER
1000
GEN
1002
}
1001
GENIUS_GENODEF_13
1002
{
1000
HIER
1070
     0
1002
}
1002
{
1000
MANEDIT
1070
     0
1002
}
1002
{
1000
NOSEL
1070
     0
1002
}
1002
{
1000
BEHIND
1070
     0
1002
}
1002
{
1000
OTHER
1070
     0
1002
}
1002
{
1000
REACTOR
1002
}
  0
LINE
  5
3FA6
330
1F
100
AcDbEntity
  8
0
100
AcDbLine
 10
346.1526770391974
 20
521.6227630123707
 30
0.0
 11
369.4205223749762
 21
544.8906083481498
 31
0.0
  0
ARC
  5
3FA7
330
1F
100
AcDbEntity
  8
0
100
AcDbCircle
 10
342.6171431332647
 20
525.1582969183034
 30
0.0
 40
5.0
100
AcDbArc
 50
272.0000000000004
 51
315.0
1001
GENIUS_GENOBJ-N-FIL_13
1002
{
1000
OWNER
1000
GEN
1002
}
1001
GENIUS_GENODEF_13
1002
{
1000
HIER
1070
     0
1002
}
1002
{
1000
MANEDIT
1070
     0
1002
}
1002
{
1000
NOSEL
1070
     0
1002
}
1002
{
1000
BEHIND
1070
     0
1002
}
1002
{
1000
OTHER
1070
     0
1002
}
1002
{
1000
REACTOR
1002
}
  0
LINE
  5
3FA8
330
1F
100
AcDbEntity
  8
0
100
AcDbLine
 10
346.1526770391975
 20
456.0873858720634
 30
0.0
 11
369.4205223749762
 21
432.8195405362845
 31
0.0
  0
ARC
  5
3FA9
330
1F
100
AcDbEntity
  8
0
100
AcDbCircle
 10
342.6171431332647
 20
452.5518519661308
 30
0.0
 40
5.0
100
AcDbArc
 50
45.0
 51
87.99999999999959
1001
GENIUS_GENOBJ-N-FIL_13
1002
{
1000
OWNER
1000
GEN
1002
}
1001
GENIUS_GENODEF_13
1002
{
1000
HIER
1070
     0
1002
}
1002
{
1000
MANEDIT
1070
     0
1002
}
1002
{
1000
NOSEL
1070
     0
1002
}
1002
{
1000
BEHIND
1070
     0
1002
}
1002
{
1000
OTHER
1070
     0
1002
}
1002
{
1000
REACTOR
1002
}
  0
LINE
  5
3FAA
330
1F
100
AcDbEntity
  8
AM_5
 62
     2
100
AcDbLine
 10
370.8849884690441
 20
526.9550738461906
 30
0.0
 11
380.8849900127525
 21
526.9550744422172
 31
0.0
1001
GENIUS_GENODEF_13
1002
{
1000
HIER
1070
     0
1002
}
1002
{
1000
MANEDIT
1070
     0
1002
}
1002
{
1000
NOSEL
1070
     0
1002
}
1002
{
1000
BEHIND
1070
     0
1002
}
1002
{
1000
OTHER
1070
     0
1002
}
1002
{
1000
REACTOR
1002
}
1001
GENIUS_GENOBJ-N-CEN_13
1002
{
1000
OWNER
1000
GEN
1002
}
1001
GENIUS_GENCEN_19
1002
{
1040
2.794
1002
}
  0
LINE
  5
3FAB
330
1F
100
AcDbEntity
  8
AM_5
 62
     2
100
AcDbLine
 10
370.8849884690461
 20
450.7550738461906
 30
0.0
 11
380.8849945544756
 21
450.7550744422175
 31
0.0
1001
GENIUS_GENODEF_13
1002
{
1000
HIER
1070
     0
1002
}
1002
{
1000
MANEDIT
1070
     0
1002
}
1002
{
1000
NOSEL
1070
     0
1002
}
1002
{
1000
BEHIND
1070
     0
1002
}
1002
{
1000
OTHER
1070
     0
1002
}
1002
{
1000
REACTOR
1002
}
1001
GENIUS_GENOBJ-N-CEN_13
1002
{
1000
OWNER
1000
GEN
1002
}
1001
GENIUS_GENCEN_19
1002
{
1040
2.794
1002
}
  0
LINE
  5
3FAC
330
1F
100
AcDbEntity
  8
0
100
AcDbLine
 10
370.8849884690464
 20
437.3550738461904
 30
0.0
 11
380.8849953531513
 21
437.3550744422174
 31
0.0
1001
GENIUS_GENODEF_13
1002
{
1000
HIER
1070
     0
1002
}
1002
{
1000
MANEDIT
1070
     0
1002
}
1002
{
1000
NOSEL
1070
     0
1002
}
1002
{
1000
BEHIND
1070
     0
1002
}
1002
{
1000
OTHER
1070
     0
1002
}
1002
{
1000
REACTOR
1002
}
1001
GENIUS_GENOBJ-N-CEN_13
1002
{
1000
OWNER
1000
GEN
1002
}
1001
GENIUS_GENCEN_19
1002
{
1040
2.794
1002
}
  0
LINE
  5
3FAD
330
1F
100
AcDbEntity
  8
0
100
AcDbLine
 10
370.8849884690437
 20
540.3550738461905
 30
0.0
 11
380.8849892140768
 21
540.3550744422171
 31
0.0
1001
GENIUS_GENODEF_13
1002
{
1000
HIER
1070
     0
1002
}
1002
{
1000
MANEDIT
1070
     0
1002
}
1002
{
1000
NOSEL
1070
     0
1002
}
1002
{
1000
BEHIND
1070
     0
1002
}
1002
{
1000
OTHER
1070
     0
1002
}
1002
{
1000
REACTOR
1002
}
1001
GENIUS_GENOBJ-N-CEN_13
1002
{
1000
OWNER
1000
GEN
1002
}
1001
GENIUS_GENCEN_19
1002
{
1040
2.794
1002
}
  0
LINE
  5
3FAE
330
1F
100
AcDbEntity
  8
0
100
AcDbLine
 10
372.8151970711871
 20
425.1368770707481
 30
0.0
 11
380.8849960981846
 21
424.8550744422177
 31
0.0
  0
ARC
  5
3FAF
330
1F
100
AcDbEntity
  8
0
100
AcDbCircle
 10
372.8849958263268
 20
427.1356587331067
 30
0.0
 40
2.0
100
AcDbArc
 50
180.0000068299612
 51
268.0000068299623
1001
GENIUS_GENOBJ-N-FIL_13
1002
{
1000
OWNER
1000
GEN
1002
}
1001
GENIUS_GENODEF_13
1002
{
1000
HIER
1070
     0
1002
}
1002
{
1000
MANEDIT
1070
     0
1002
}
1002
{
1000
NOSEL
1070
     0
1002
}
1002
{
1000
BEHIND
1070
     0
1002
}
1002
{
1000
OTHER
1070
     0
1002
}
1002
{
1000
REACTOR
1002
}
  0
ARC
  5
3FB0
330
1F
100
AcDbEntity
  8
0
100
AcDbCircle
 10
365.8849955702324
 20
429.2840048422722
 30
0.0
 40
5.0
100
AcDbArc
 50
0.0000068299611879
 51
45.00000682996222
1001
GENIUS_GENOBJ-N-FIL_13
1002
{
1000
OWNER
1000
GEN
1002
}
1001
GENIUS_GENODEF_13
1002
{
1000
HIER
1070
     0
1002
}
1002
{
1000
MANEDIT
1070
     0
1002
}
1002
{
1000
NOSEL
1070
     0
1002
}
1002
{
1000
BEHIND
1070
     0
1002
}
1002
{
1000
OTHER
1070
     0
1002
}
1002
{
1000
REACTOR
1002
}
  0
LINE
  5
3FB1
330
1F
100
AcDbEntity
  8
0
100
AcDbLine
 10
380.8849884690435
 20
552.8550744422171
 30
0.0
 11
380.8849960981846
 21
424.8550744422177
 31
0.0
  0
ARC
  5
3FB2
330
1F
100
AcDbEntity
  8
AM_5
 62
     2
100
AcDbCircle
 10
384.1496632152622
 20
488.8550703852913
 30
0.0
 40
38.83431186232895
100
AcDbArc
 50
133.1867259405564
 51
226.8132567814285
  0
ARC
  5
3FB3
330
1F
100
AcDbEntity
  8
AM_5
 62
     2
100
AcDbCircle
 10
356.2035412640714
 20
459.0816712988733
 30
0.0
 40
2.0
100
AcDbArc
 50
267.9999999999996
 51
46.81325678142335
1001
GENIUS_GENODEF_13
1002
{
1000
HIER
1070
     0
1002
}
1002
{
1000
MANEDIT
1070
     0
1002
}
1002
{
1000
NOSEL
1070
     0
1002
}
1002
{
1000
BEHIND
1070
     0
1002
}
1002
{
1000
OTHER
1070
     0
1002
}
1002
{
1000
REACTOR
1002
}
1001
GENIUS_GENOBJ-N-FIL_13
1002
{
1000
OWNER
1000
GEN
1002
}
  0
ARC
  5
3FB4
330
1F
100
AcDbEntity
  8
AM_5
 62
     2
100
AcDbCircle
 10
356.2035502424894
 20
518.6284778990941
 30
0.0
 40
2.0
100
AcDbArc
 50
313.1867259405564
 51
92.00000000000041
1001
GENIUS_GENODEF_13
1002
{
1000
HIER
1070
     0
1002
}
1002
{
1000
MANEDIT
1070
     0
1002
}
1002
{
1000
NOSEL
1070
     0
1002
}
1002
{
1000
BEHIND
1070
     0
1002
}
1002
{
1000
OTHER
1070
     0
1002
}
1002
{
1000
REACTOR
1002
}
1001
GENIUS_GENOBJ-N-FIL_13
1002
{
1000
OWNER
1000
GEN
1002
}
  0
CIRCLE
  5
3FB5
330
1F
100
AcDbEntity
  8
0
100
AcDbCircle
 10
327.3850095487174
 20
503.3550711342708
 30
0.0
 40
10.0
  0
LINE
  5
3FB6
330
1F
100
AcDbEntity
  8
ﾁｭｳｼﾝｾﾝ1
 48
0.7
100
AcDbLine
 10
327.3850095487174
 20
516.3550711342708
 30
0.0
 11
327.3850095487173
 21
490.3550711342708
 31
0.0
1001
GENIUS_GENODEF_13
1002
{
1000
HIER
1070
     0
1002
}
1002
{
1000
MANEDIT
1070
     0
1002
}
1002
{
1000
NOSEL
1070
     0
1002
}
1002
{
1000
BEHIND
1070
     0
1002
}
1002
{
1000
OTHER
1070
     0
1002
}
1002
{
1000
REACTOR
1002
}
1001
GENIUS_GENOBJ-N-CEN_13
1002
{
1000
OWNER
1000
GEN
1002
}
1001
GENIUS_GENCEN_19
1002
{
1040
3.0
1002
}
  0
LINE
  5
3FB7
330
1F
100
AcDbEntity
  8
AM_0
100
AcDbLine
 10
326.3850095487174
 20
508.3550711342708
 30
0.0
 11
326.3850095487174
 21
498.3550711342708
 31
0.0
1001
GENIUS_GENODEF_13
1002
{
1000
HIER
1070
     0
1002
}
1002
{
1000
MANEDIT
1070
     0
1002
}
1002
{
1000
NOSEL
1070
     0
1002
}
1002
{
1000
BEHIND
1070
     0
1002
}
1002
{
1000
OTHER
1070
     0
1002
}
1002
{
1000
REACTOR
1002
}
1001
GENIUS_GENOBJ-N-CEN_13
1002
{
1000
OWNER
1000
GEN
1002
}
1001
GENIUS_GENCEN_19
1002
{
1040
3.0
1002
}
  0
LINE
  5
3FB8
330
1F
100
AcDbEntity
  8
AM_0
100
AcDbLine
 10
328.3850095487174
 20
508.3550711342708
 30
0.0
 11
328.3850095487174
 21
498.3550711342708
 31
0.0
1001
GENIUS_GENODEF_13
1002
{
1000
HIER
1070
     0
1002
}
1002
{
1000
MANEDIT
1070
     0
1002
}
1002
{
1000
NOSEL
1070
     0
1002
}
1002
{
1000
BEHIND
1070
     0
1002
}
1002
{
1000
OTHER
1070
     0
1002
}
1002
{
1000
REACTOR
1002
}
1001
GENIUS_GENOBJ-N-CEN_13
1002
{
1000
OWNER
1000
GEN
1002
}
1001
GENIUS_GENCEN_19
1002
{
1040
3.0
1002
}
  0
CIRCLE
  5
3FB9
330
1F
100
AcDbEntity
  8
AM_0
100
AcDbCircle
 10
327.3850095487174
 20
503.3550711342708
 30
0.0
 40
8.500000000000056
  0
CIRCLE
  5
3FBA
330
1F
100
AcDbEntity
  8
AM_0
100
AcDbCircle
 10
327.3850095487174
 20
503.3550711342708
 30
0.0
 40
8.999999999999971
  0
ARC
  5
3FBB
330
1F
100
AcDbEntity
  8
AM_0
100
AcDbCircle
 10
327.3850095487174
 20
508.3550711342708
 30
0.0
 40
1.0
100
AcDbArc
 50
0.0
 51
180.0
  0
ARC
  5
3FBC
330
1F
100
AcDbEntity
  8
AM_0
100
AcDbCircle
 10
327.3850095487174
 20
498.3550711342708
 30
0.0
 40
1.0
100
AcDbArc
 50
180.0
 51
0.0
  0
LINE
  5
3FBD
330
1F
100
AcDbEntity
  8
ﾁｭｳｼﾝｾﾝ1
 48
0.7
100
AcDbLine
 10
314.3850095487174
 20
503.3550711342708
 30
0.0
 11
340.3850095487174
 21
503.3550711342708
 31
0.0
1001
GENIUS_GENOBJ-N-CEN_13
1002
{
1000
OWNER
1000
GEN
1002
}
1001
GENIUS_GENODEF_13
1002
{
1000
HIER
1070
     0
1002
}
1002
{
1000
MANEDIT
1070
     0
1002
}
1002
{
1000
NOSEL
1070
     0
1002
}
1002
{
1000
BEHIND
1070
     0
1002
}
1002
{
1000
OTHER
1070
     0
1002
}
1002
{
1000
REACTOR
1002
}
1001
GENIUS_GENCEN_19
1002
{
1040
3.0
1002
}
  0
LINE
  5
3FBE
330
1F
100
AcDbEntity
  8
0
100
AcDbLine
 10
305.3850133632878
 20
321.5834146828915
 30
0.0
 11
305.3850133632878
 21
241.5834146828915
 31
0.0
  0
LINE
  5
3FBF
330
1F
100
AcDbEntity
  8
0
100
AcDbLine
 10
317.3850133632878
 20
318.5834146828915
 30
0.0
 11
317.3850133632878
 21
244.5834146828915
 31
0.0
  0
ARC
  5
3FC0
330
1F
100
AcDbEntity
  8
AM_0
100
AcDbCircle
 10
314.3850133632879
 20
318.5834146828915
 30
0.0
 40
3.0
100
AcDbArc
 50
0.0
 51
90.0
1001
GENIUS_GENODEF_13
1002
{
1000
HIER
1070
     0
1002
}
1002
{
1000
MANEDIT
1070
     0
1002
}
1002
{
1000
NOSEL
1070
     0
1002
}
1002
{
1000
BEHIND
1070
     0
1002
}
1002
{
1000
OTHER
1070
     0
1002
}
1002
{
1000
REACTOR
1002
}
1001
GENIUS_GENOBJ-N-FIL_13
1002
{
1000
OWNER
1000
GEN
1002
}
  0
ARC
  5
3FC1
330
1F
100
AcDbEntity
  8
AM_0
100
AcDbCircle
 10
314.3850133632877
 20
244.5834146828914
 30
0.0
 40
3.0
100
AcDbArc
 50
270.0
 51
0.0
1001
GENIUS_GENODEF_13
1002
{
1000
HIER
1070
     0
1002
}
1002
{
1000
MANEDIT
1070
     0
1002
}
1002
{
1000
NOSEL
1070
     0
1002
}
1002
{
1000
BEHIND
1070
     0
1002
}
1002
{
1000
OTHER
1070
     0
1002
}
1002
{
1000
REACTOR
1002
}
1001
GENIUS_GENOBJ-N-FIL_13
1002
{
1000
OWNER
1000
GEN
1002
}
  0
LINE
  5
3FC2
330
1F
100
AcDbEntity
  8
AM_0
100
AcDbLine
 10
305.3850133632878
 20
321.5834146828915
 30
0.0
 11
314.3850133632878
 21
321.5834146828915
 31
0.0
  0
LINE
  5
3FC3
330
1F
100
AcDbEntity
  8
AM_0
100
AcDbLine
 10
305.3850133632878
 20
241.5834146828915
 30
0.0
 11
314.3850133632877
 21
241.5834146828914
 31
0.0
  0
LINE
  5
3FC4
330
1F
100
AcDbEntity
  8
0
100
AcDbLine
 10
335.8850095487174
 20
312.6700360191821
 30
0.0
 11
335.8850095487174
 21
312.9834191828908
 31
0.0
1001
GENIUS_GENOBJ-N-CEN_13
1002
{
1000
OWNER
1000
GEN
1002
}
1001
GENIUS_GENODEF_13
1002
{
1000
HIER
1070
     0
1002
}
1002
{
1000
MANEDIT
1070
     0
1002
}
1002
{
1000
NOSEL
1070
     0
1002
}
1002
{
1000
BEHIND
1070
     0
1002
}
1002
{
1000
OTHER
1070
     0
1002
}
1002
{
1000
REACTOR
1002
}
1001
GENIUS_GENCEN_19
1002
{
1040
2.794
1002
}
  0
LINE
  5
3FC5
330
1F
100
AcDbEntity
  8
0
100
AcDbLine
 10
318.8850095487174
 20
312.5325188491578
 30
0.0
 11
318.8850095487174
 21
312.9834191828908
 31
0.0
1001
GENIUS_GENOBJ-N-CEN_13
1002
{
1000
OWNER
1000
GEN
1002
}
1001
GENIUS_GENODEF_13
1002
{
1000
HIER
1070
     0
1002
}
1002
{
1000
MANEDIT
1070
     0
1002
}
1002
{
1000
NOSEL
1070
     0
1002
}
1002
{
1000
BEHIND
1070
     0
1002
}
1002
{
1000
OTHER
1070
     0
1002
}
1002
{
1000
REACTOR
1002
}
1001
GENIUS_GENCEN_19
1002
{
1040
2.794
1002
}
  0
LINE
  5
3FC6
330
1F
100
AcDbEntity
  8
図面枠-ｷｲﾛ
100
AcDbLine
 10
318.8850095487174
 20
312.9834191828907
 30
0.0
 11
335.8850095487174
 21
312.9834191828908
 31
0.0
  0
ARC
  5
3FC7
330
1F
100
AcDbEntity
  8
0
100
AcDbCircle
 10
327.3850095487175
 20
295.9209191828908
 30
0.0
 40
19.06249999999999
100
AcDbArc
 50
63.51896016962665
 51
116.4810398303733
  0
LINE
  5
3FC8
330
1F
100
AcDbEntity
  8
0
100
AcDbLine
 10
305.3850085111429
 20
528.8550699422172
 30
0.0
 11
305.3850085111429
 21
448.8550699422171
 31
0.0
  0
LINE
  5
3FC9
330
1F
100
AcDbEntity
  8
0
100
AcDbLine
 10
317.3850085111429
 20
525.8550699422172
 30
0.0
 11
317.3850085111429
 21
451.8550699422172
 31
0.0
  0
ARC
  5
3FCA
330
1F
100
AcDbEntity
  8
0
100
AcDbCircle
 10
320.3850085111429
 20
455.3294343031772
 30
0.0
 40
3.0
100
AcDbArc
 50
87.99999999999959
 51
180.0
1001
GENIUS_GENODEF_13
1002
{
1000
HIER
1070
     0
1002
}
1002
{
1000
MANEDIT
1070
     0
1002
}
1002
{
1000
NOSEL
1070
     0
1002
}
1002
{
1000
BEHIND
1070
     0
1002
}
1002
{
1000
OTHER
1070
     0
1002
}
1002
{
1000
REACTOR
1002
}
1001
GENIUS_GENOBJ-N-FIL_13
1002
{
1000
OWNER
1000
GEN
1002
}
  0
ARC
  5
3FCB
330
1F
100
AcDbEntity
  8
AM_0
100
AcDbCircle
 10
314.385008511143
 20
525.8550699422172
 30
0.0
 40
3.0
100
AcDbArc
 50
0.0
 51
90.0
1001
GENIUS_GENODEF_13
1002
{
1000
HIER
1070
     0
1002
}
1002
{
1000
MANEDIT
1070
     0
1002
}
1002
{
1000
NOSEL
1070
     0
1002
}
1002
{
1000
BEHIND
1070
     0
1002
}
1002
{
1000
OTHER
1070
     0
1002
}
1002
{
1000
REACTOR
1002
}
1001
GENIUS_GENOBJ-N-FIL_13
1002
{
1000
OWNER
1000
GEN
1002
}
  0
ARC
  5
3FCC
330
1F
100
AcDbEntity
  8
AM_0
100
AcDbCircle
 10
314.3850085111429
 20
451.8550699422171
 30
0.0
 40
3.0
100
AcDbArc
 50
270.0
 51
0.0
1001
GENIUS_GENODEF_13
1002
{
1000
HIER
1070
     0
1002
}
1002
{
1000
MANEDIT
1070
     0
1002
}
1002
{
1000
NOSEL
1070
     0
1002
}
1002
{
1000
BEHIND
1070
     0
1002
}
1002
{
1000
OTHER
1070
     0
1002
}
1002
{
1000
REACTOR
1002
}
1001
GENIUS_GENOBJ-N-FIL_13
1002
{
1000
OWNER
1000
GEN
1002
}
  0
LINE
  5
3FCD
330
1F
100
AcDbEntity
  8
AM_0
100
AcDbLine
 10
305.3850085111429
 20
528.8550699422172
 30
0.0
 11
314.3850085111429
 21
528.8550699422172
 31
0.0
  0
LINE
  5
3FCE
330
1F
100
AcDbEntity
  8
AM_0
100
AcDbLine
 10
305.3850085111429
 20
448.8550699422171
 30
0.0
 11
314.3850085111429
 21
448.8550699422171
 31
0.0
  0
ENDSEC
  0
SECTION
  2
OBJECTS
  0
DICTIONARY
  5
C
330
0
100
AcDbDictionary
281
     1
  3
ACAD_COLOR
350
2196
  3
ACAD_GROUP
350
D
  3
ACAD_LAYOUT
350
1A
  3
ACAD_MATERIAL
350
2195
  3
ACAD_MLINESTYLE
350
17
  3
ACAD_PLOTSETTINGS
350
19
  3
ACAD_PLOTSTYLENAME
350
E
  3
ACAD_TABLESTYLE
350
2197
  3
AcadDim
350
14B1
  3
ACDBHEADERROUNDTRIPXREC
350
3FD8
  3
AcDbVariableDictionary
350
34
  3
AcmDictionary
350
47
  3
AMG
350
2B
  3
AMGSNAPSETTINGS
350
81
  3
ASE_INDEX_DICTIONARY
350
2D7B
  3
DWGPROPS
350
3FD7
  0
DICTIONARY
  5
2D9C
330
2
100
AcDbDictionary
280
     1
281
     1
  3
ACAD_LAYERSTATES
360
2D9D
  0
DICTIONARY
  5
CC
330
1F
100
AcDbDictionary
280
     1
281
     1
  3
ACAD_SORTENTS
360
2D4D
  0
DICTIONARY
  5
2196
102
{ACAD_REACTORS
330
C
102
}
330
C
100
AcDbDictionary
281
     1
  0
DICTIONARY
  5
D
102
{ACAD_REACTORS
330
C
102
}
330
C
100
AcDbDictionary
281
     1
  0
DICTIONARY
  5
1A
102
{ACAD_REACTORS
330
C
102
}
330
C
100
AcDbDictionary
281
     1
  3
Model
350
22
  3
ﾚｲｱｳﾄ1
350
1E
  3
ﾚｲｱｳﾄ2
350
26
  0
DICTIONARY
  5
2195
102
{ACAD_REACTORS
330
C
102
}
330
C
100
AcDbDictionary
281
     1
  0
DICTIONARY
  5
17
102
{ACAD_REACTORS
330
C
102
}
330
C
100
AcDbDictionary
281
     1
  3
Standard
350
18
  0
DICTIONARY
  5
19
102
{ACAD_REACTORS
330
C
102
}
330
C
100
AcDbDictionary
281
     1
  3
A1
350
7A0
  3
A2
350
7A1
  3
A3外形図
350
7A2
  3
A3部品図
350
7A3
  3
A4外形図
350
7A4
  3
A4製造仕様書
350
7A5
  3
A4部品図
350
7A6
  0
ACDBDICTIONARYWDFLT
  5
E
102
{ACAD_REACTORS
330
C
102
}
330
C
100
AcDbDictionary
281
     1
  3
Normal
350
F
100
AcDbDictionaryWithDefault
340
F
  0
DICTIONARY
  5
2197
102
{ACAD_REACTORS
330
C
102
}
330
C
100
AcDbDictionary
281
     1
  3
Standard
350
2198
  0
XRECORD
  5
14B1
102
{ACAD_REACTORS
330
C
102
}
330
C
100
AcDbXrecord
280
     1
 90
   990106
  3

 60
     0
 61
     0
 62
     4
 63
     4
 64
     1
 65
     0
 66
     0
 67
     3
 68
     1
 69
     0
 70
     0
 71
     0
 72
     0
 40
0.0
170
     0
  0
DICTIONARY
  5
3FD8
102
{ACAD_REACTORS
330
C
102
}
330
C
100
AcDbDictionary
281
     1
  0
DICTIONARY
  5
34
102
{ACAD_REACTORS
330
C
102
}
330
C
100
AcDbDictionary
281
     1
  3
CTABLESTYLE
350
22C6
  3
DIMASSOC
350
3FD4
  3
INDEXCTL
350
35
  3
PROJECTNAME
350
3FD5
  0
DICTIONARY
  5
47
102
{ACAD_REACTORS
330
C
102
}
330
C
100
AcDbDictionary
281
     1
  3
AcmStdDictionary
350
4C
  3
AMDTSECTSYM_ARROWCOLOR
350
21A4
  0
DICTIONARY
  5
2B
102
{ACAD_REACTORS
330
C
102
}
330
C
100
AcDbDictionary
281
     1
  0
DICTIONARY
  5
81
102
{ACAD_REACTORS
330
C
102
}
330
C
100
AcDbDictionary
281
     1
  0
DICTIONARY
  5
2D7B
102
{ACAD_REACTORS
330
C
102
}
330
C
100
AcDbDictionary
281
     1
  3
ASEBlockHierarchyIndexRecord
350
2D7C
1001
DCO15
1040
1618997538.121
  0
XRECORD
  5
3FD7
102
{ACAD_REACTORS
330
C
102
}
330
C
100
AcDbXrecord
280
     1
  1
DWGPROPS COOKIE
  2

  3

  4

  6

  7

  8
ISHIGURE
  9

300
AmdtFileType=84
301
=
302
=
303
=
304
=
305
=
306
=
307
=
308
=
309
=
 40
0.4989071990740741
 41
2452065.605619213
 42
2454770.831041447
  1

 90
        1
  0
DICTIONARY
  5
2D9D
102
{ACAD_REACTORS
330
2D9C
102
}
330
2D9C
100
AcDbDictionary
281
     1
  0
SORTENTSTABLE
  5
2D4D
102
{ACAD_REACTORS
330
CC
102
}
330
CC
100
AcDbSortentsTable
330
1F
331
32F0
  5
32F0
331
3272
  5
3272
331
32A9
  5
32A9
331
32F8
  5
32F8
331
32B1
  5
32B1
331
3300
  5
3300
331
3282
  5
3282
331
3243
  5
3243
331
32B9
  5
32B9
331
3308
  5
3308
331
324B
  5
324B
331
328A
  5
328A
331
3310
  5
3310
331
3253
  5
3253
331
3292
  5
3292
331
32D9
  5
32D9
331
325B
  5
325B
331
329A
  5
329A
331
3318
  5
3318
331
3263
  5
3263
331
32A2
  5
32A2
331
3320
  5
3320
331
32E9
  5
32E9
331
32F1
  5
32F1
331
3273
  5
3273
331
32AA
  5
32AA
331
32F9
  5
32F9
331
32B2
  5
32B2
331
3301
  5
3301
331
3283
  5
3283
331
3244
  5
3244
331
32BA
  5
32BA
331
3309
  5
3309
331
324C
  5
324C
331
328B
  5
328B
331
3311
  5
3311
331
3254
  5
3254
331
3293
  5
3293
331
3319
  5
3319
331
329B
  5
329B
331
325C
  5
325C
331
3264
  5
3264
331
32A3
  5
32A3
331
3321
  5
3321
331
32EA
  5
32EA
331
32F2
  5
32F2
331
3274
  5
3274
331
32AB
  5
32AB
331
32FA
  5
32FA
331
32B3
  5
32B3
331
3302
  5
3302
331
3284
  5
3284
331
3245
  5
3245
331
32BB
  5
32BB
331
330A
  5
330A
331
324D
  5
324D
331
328C
  5
328C
331
3312
  5
3312
331
3255
  5
3255
331
3294
  5
3294
331
32DB
  5
32DB
331
325D
  5
325D
331
329C
  5
329C
331
331A
  5
331A
331
32E3
  5
32E3
331
3265
  5
3265
331
32A4
  5
32A4
331
3322
  5
3322
331
32EB
  5
32EB
331
32F3
  5
32F3
331
3275
  5
3275
331
32AC
  5
32AC
331
32FB
  5
32FB
331
32B4
  5
32B4
331
3303
  5
3303
331
3285
  5
3285
331
3246
  5
3246
331
32BC
  5
32BC
331
330B
  5
330B
331
324E
  5
324E
331
328D
  5
328D
331
3295
  5
3295
331
3256
  5
3256
331
3313
  5
3313
331
32DC
  5
32DC
331
325E
  5
325E
331
329D
  5
329D
331
331B
  5
331B
331
32E4
  5
32E4
331
3266
  5
3266
331
32A5
  5
32A5
331
32EC
  5
32EC
331
326E
  5
326E
331
32F4
  5
32F4
331
3276
  5
3276
331
32AD
  5
32AD
331
32FC
  5
32FC
331
327E
  5
327E
331
32B5
  5
32B5
331
3304
  5
3304
331
3286
  5
3286
331
3247
  5
3247
331
32BD
  5
32BD
331
330C
  5
330C
331
324F
  5
324F
331
328E
  5
328E
331
3314
  5
3314
331
32D5
  5
32D5
331
3257
  5
3257
331
3296
  5
3296
331
32DD
  5
32DD
331
325F
  5
325F
331
329E
  5
329E
331
331C
  5
331C
331
3267
  5
3267
331
32A6
  5
32A6
331
32ED
  5
32ED
331
326F
  5
326F
331
32F5
  5
32F5
331
32AE
  5
32AE
331
32FD
  5
32FD
331
327F
  5
327F
331
32B6
  5
32B6
331
3305
  5
3305
331
3287
  5
3287
331
3248
  5
3248
331
330D
  5
330D
331
328F
  5
328F
331
3250
  5
3250
331
3315
  5
3315
331
32D6
  5
32D6
331
3258
  5
3258
331
3297
  5
3297
331
32DE
  5
32DE
331
3260
  5
3260
331
329F
  5
329F
331
331D
  5
331D
331
32A7
  5
32A7
331
32EE
  5
32EE
331
3270
  5
3270
331
32F6
  5
32F6
331
32AF
  5
32AF
331
32FE
  5
32FE
331
32B7
  5
32B7
331
3280
  5
3280
331
3306
  5
3306
331
3249
  5
3249
331
3288
  5
3288
331
330E
  5
330E
331
3251
  5
3251
331
3290
  5
3290
331
3316
  5
3316
331
32D7
  5
32D7
331
3259
  5
3259
331
3298
  5
3298
331
32DF
  5
32DF
331
3261
  5
3261
331
32A0
  5
32A0
331
331E
  5
331E
331
32EF
  5
32EF
331
3271
  5
3271
331
32A8
  5
32A8
331
32F7
  5
32F7
331
32B0
  5
32B0
331
32FF
  5
32FF
331
3281
  5
3281
331
3242
  5
3242
331
32B8
  5
32B8
331
3307
  5
3307
331
32C8
  5
32C8
331
324A
  5
324A
331
3289
  5
3289
331
330F
  5
330F
331
3252
  5
3252
331
3291
  5
3291
331
3317
  5
3317
331
32D8
  5
32D8
331
325A
  5
325A
331
3299
  5
3299
331
32A1
  5
32A1
331
3262
  5
3262
331
32E0
  5
32E0
331
331F
  5
331F
331
32E8
  5
32E8
  0
LAYOUT
  5
22
102
{ACAD_XDICTIONARY
360
3FDB
102
}
102
{ACAD_REACTORS
330
1A
102
}
330
1A
100
AcDbPlotSettings
  1

  2
\\XSERIES235\Canon LASER SHOT LBP-910
  4
A4
  6
AM_VIEW1
 40
5.873749732971191
 41
5.873747825622558
 42
5.873748779296875
 43
5.873748779296875
 44
209.9733276367187
 45
296.9259948730469
 46
0.0
 47
0.34
 48
0.0
 49
0.0
140
0.0
141
0.0
142
1.0
143
3.0
 70
 11936
 72
     1
 73
     1
 74
     2
  7
acad1.ctb
 75
     0
147
0.3341282932256912
148
0.0
149
0.0
100
AcDbLayout
  1
Model
 70
     1
 71
     0
 10
0.0
 20
0.0
 11
12.0
 21
9.0
 12
0.0
 22
0.0
 32
0.0
 14
0.0
 24
0.0
 34
0.0
 15
0.0
 25
0.0
 35
0.0
146
0.0
 13
0.0
 23
0.0
 33
0.0
 16
1.0
 26
0.0
 36
0.0
 17
0.0
 27
1.0
 37
0.0
 76
     0
330
1F
1001
ACAD_PSEXT
1000
\\XSERIES235\Canon LASER SHOT LBP-910
1000
Canon LASER SHOT LBP-910
1000
\\XSERIES235
1000

1070
     0
  0
LAYOUT
  5
1E
102
{ACAD_XDICTIONARY
360
3FD9
102
}
102
{ACAD_REACTORS
330
1A
102
}
330
1A
100
AcDbPlotSettings
  1

  2
\\FHKSV01\RICOH imagio MF2700(FAX)
  4

  6

 40
0.0
 41
0.0
 42
0.0
 43
0.0
 44
0.0
 45
0.0
 46
0.0
 47
0.0
 48
0.0
 49
0.0
140
0.0
141
0.0
142
1.0
143
1.0
 70
   688
 72
     0
 73
     0
 74
     5
  7
acad1.ctb
 75
    16
147
1.0
148
0.0
149
0.0
100
AcDbLayout
  1
ﾚｲｱｳﾄ1
 70
     1
 71
     1
 10
0.0
 20
0.0
 11
420.0
 21
297.0
 12
0.0
 22
0.0
 32
0.0
 14
1.000000000000000E+20
 24
1.000000000000000E+20
 34
1.000000000000000E+20
 15
-1.000000000000000E+20
 25
-1.000000000000000E+20
 35
-1.000000000000000E+20
146
0.0
 13
0.0
 23
0.0
 33
0.0
 16
1.0
 26
0.0
 36
0.0
 17
0.0
 27
1.0
 37
0.0
 76
     0
330
1B
  0
LAYOUT
  5
26
102
{ACAD_XDICTIONARY
360
3FDD
102
}
102
{ACAD_REACTORS
330
1A
102
}
330
1A
100
AcDbPlotSettings
  1

  2
\\FHKSV01\RICOH imagio MF2700(FAX)
  4

  6

 40
0.0
 41
0.0
 42
0.0
 43
0.0
 44
0.0
 45
0.0
 46
0.0
 47
0.0
 48
0.0
 49
0.0
140
0.0
141
0.0
142
1.0
143
1.0
 70
   688
 72
     0
 73
     0
 74
     5
  7
acad1.ctb
 75
    16
147
1.0
148
0.0
149
0.0
100
AcDbLayout
  1
ﾚｲｱｳﾄ2
 70
     1
 71
     2
 10
0.0
 20
0.0
 11
12.0
 21
9.0
 12
0.0
 22
0.0
 32
0.0
 14
0.0
 24
0.0
 34
0.0
 15
0.0
 25
0.0
 35
0.0
146
0.0
 13
0.0
 23
0.0
 33
0.0
 16
1.0
 26
0.0
 36
0.0
 17
0.0
 27
1.0
 37
0.0
 76
     0
330
23
  0
MLINESTYLE
  5
18
102
{ACAD_REACTORS
330
17
102
}
330
17
100
AcDbMlineStyle
  2
STANDARD
 70
     0
  3

 62
   256
 51
90.0
 52
90.0
 71
     2
 49
0.5
 62
   256
  6
BYLAYER
 49
-0.5
 62
   256
  6
BYLAYER
  0
PLOTSETTINGS
  5
7A0
102
{ACAD_XDICTIONARY
360
3FDF
102
}
102
{ACAD_REACTORS
330
19
102
}
330
19
100
AcDbPlotSettings
  1
A1
  2
\\NETFINITY_5500\HP DesignJet 750C+ (D/A1) by HP)
  4
User267
  6

 40
17.76941680908203
 41
5.789102554321289
 42
17.7694091796875
 43
5.7890625
 44
840.9093017578125
 45
593.97900390625
 46
2.0
 47
13.0
 48
0.0
 49
0.0
140
0.0
141
0.0
142
1.0
143
1.0
 70
  1712
 72
     1
 73
     0
 74
     1
  7
acad.ctb
 75
    16
147
1.0
148
0.0100416569983963
149
0.0078848243487073
  0
PLOTSETTINGS
  5
7A1
102
{ACAD_XDICTIONARY
360
3FE1
102
}
102
{ACAD_REACTORS
330
19
102
}
330
19
100
AcDbPlotSettings
  1
A2
  2
\\NETFINITY_5500\HP DesignJet 750C+ (D/A1) by HP)
  4
User266
  6

 40
5.78908348083496
 41
17.76940155029297
 42
5.78912353515625
 43
17.7694091796875
 44
593.97900390625
 45
419.9466552734374
 46
12.0
 47
0.0
 48
0.0
 49
0.0
140
0.0
141
0.0
142
1.0
143
1.0
 70
  1712
 72
     1
 73
     0
 74
     1
  7
acad.ctb
 75
    16
147
1.0
148
0.0100416569983963
149
0.0078848243487073
  0
PLOTSETTINGS
  5
7A2
102
{ACAD_XDICTIONARY
360
3FE3
102
}
102
{ACAD_REACTORS
330
19
102
}
330
19
100
AcDbPlotSettings
  1
A3外形図
  2
\\NETFINITY_5500\Canon LASER SHOT LBP-910
  4
A3
  6

 40
5.873749732971191
 41
5.873747825622558
 42
5.873748779296875
 43
5.873748779296875
 44
296.9259948730469
 45
419.9466552734374
 46
0.0
 47
15.0
 48
0.0
 49
0.0
140
0.0
141
0.0
142
1.0
143
1.0
 70
  1712
 72
     1
 73
     1
 74
     1
  7
acad1.ctb
 75
    16
147
1.0
148
0.0024839861629289
149
0.0093761313144114
  0
PLOTSETTINGS
  5
7A3
102
{ACAD_XDICTIONARY
360
3FE5
102
}
102
{ACAD_REACTORS
330
19
102
}
330
19
100
AcDbPlotSettings
  1
A3部品図
  2
\\NETFINITY_5500\Canon LASER SHOT LBP-910
  4
A3
  6

 40
5.873749732971191
 41
5.873747825622558
 42
5.873748779296875
 43
5.873748779296875
 44
296.9259948730469
 45
419.9466552734374
 46
0.0
 47
0.0
 48
0.0
 49
0.0
140
0.0
141
0.0
142
1.0
143
1.0
 70
  1712
 72
     1
 73
     1
 74
     1
  7
acad1.ctb
 75
    16
147
1.0
148
0.0024839861629289
149
0.0093761313144114
  0
PLOTSETTINGS
  5
7A4
102
{ACAD_XDICTIONARY
360
3FE7
102
}
102
{ACAD_REACTORS
330
19
102
}
330
19
100
AcDbPlotSettings
  1
A4外形図
  2
\\NETFINITY_5500\Canon LASER SHOT LBP-910
  4
A4
  6

 40
5.873749732971191
 41
5.873747825622558
 42
5.873748779296875
 43
5.873748779296875
 44
209.9733276367187
 45
296.9259948730469
 46
0.0
 47
0.0
 48
0.0
 49
0.0
140
0.0
141
0.0
142
1.0
143
1.0
 70
  1712
 72
     1
 73
     1
 74
     1
  7
acad1.ctb
 75
    16
147
1.0
148
0.0115486965655691
149
0.0124955963574962
  0
PLOTSETTINGS
  5
7A5
102
{ACAD_XDICTIONARY
360
3FE9
102
}
102
{ACAD_REACTORS
330
19
102
}
330
19
100
AcDbPlotSettings
  1
A4製造仕様書
  2
\\NETFINITY_5500\Canon LASER SHOT LBP-910
  4
A4
  6

 40
5.873749732971191
 41
5.873747825622558
 42
5.873748779296875
 43
5.873748779296875
 44
209.9733276367187
 45
296.9259948730469
 46
15.0
 47
0.0
 48
0.0
 49
0.0
140
0.0
141
0.0
142
1.0
143
1.0
 70
  1712
 72
     1
 73
     0
 74
     1
  7
acad1.ctb
 75
    16
147
1.0
148
0.0115486965655691
149
7.86079562315183
  0
PLOTSETTINGS
  5
7A6
102
{ACAD_XDICTIONARY
360
3FEB
102
}
102
{ACAD_REACTORS
330
19
102
}
330
19
100
AcDbPlotSettings
  1
A4部品図
  2
\\NETFINITY_5500\Canon LASER SHOT LBP-910
  4
A4
  6

 40
5.873749732971191
 41
5.873747825622558
 42
5.873748779296875
 43
5.873748779296875
 44
209.9733276367187
 45
296.9259948730469
 46
0.0
 47
0.0
 48
0.0
 49
0.0
140
0.0
141
0.0
142
1.0
143
1.0
 70
  1712
 72
     1
 73
     0
 74
     1
  7
acad1.ctb
 75
    16
147
1.0
148
0.0115486965655691
149
0.0124955963574962
  0
ACDBPLACEHOLDER
  5
F
102
{ACAD_REACTORS
330
E
102
}
330
E
  0
TABLESTYLE
  5
2198
102
{ACAD_REACTORS
330
2197
102
}
330
2197
100
AcDbTableStyle
  3
Standard
 70
     0
 71
     0
 40
1.5
 41
1.5
280
     0
281
     0
  7
STANDARD
140
4.5
170
     2
 62
     0
 63
     7
283
     0
274
    -2
284
     1
 64
     0
275
    -2
285
     1
 65
     0
276
    -2
286
     1
 66
     0
277
    -2
287
     1
 67
     0
278
    -2
288
     1
 68
     0
279
    -2
289
     1
 69
     0
  7
STANDARD
140
6.0
170
     5
 62
     0
 63
     7
283
     0
274
    -2
284
     1
 64
     0
275
    -2
285
     1
 65
     0
276
    -2
286
     1
 66
     0
277
    -2
287
     1
 67
     0
278
    -2
288
     1
 68
     0
279
    -2
289
     1
 69
     0
  7
STANDARD
140
4.5
170
     5
 62
     0
 63
     7
283
     0
274
    -2
284
     1
 64
     0
275
    -2
285
     1
 65
     0
276
    -2
286
     1
 66
     0
277
    -2
287
     1
 67
     0
278
    -2
288
     1
 68
     0
279
    -2
289
     1
 69
     0
  0
DICTIONARYVAR
  5
22C6
102
{ACAD_REACTORS
330
34
102
}
330
34
100
DictionaryVariables
280
     0
  1
STANDARD
  0
DICTIONARYVAR
  5
3FD4
102
{ACAD_REACTORS
330
34
102
}
330
34
100
DictionaryVariables
280
     0
  1
1
  0
DICTIONARYVAR
  5
35
102
{ACAD_REACTORS
330
34
102
}
330
34
100
DictionaryVariables
280
     0
  1
0
  0
DICTIONARYVAR
  5
3FD5
102
{ACAD_REACTORS
330
34
102
}
330
34
100
DictionaryVariables
280
     0
  1

  0
DICTIONARY
  5
4C
102
{ACAD_REACTORS
330
47
102
}
330
47
100
AcDbDictionary
281
     1
  0
XRECORD
  5
21A4
102
{ACAD_REACTORS
330
47
102
}
330
47
100
AcDbXrecord
280
     1
 90
-1023410169
  0
XRECORD
  5
2D7C
102
{ACAD_REACTORS
330
2D7B
102
}
330
2D7B
100
AcDbXrecord
280
     1
330
0
330
0
330
0
330
0
330
0
330
0
330
0
330
0
330
0
330
0
330
0
330
0
330
0
330
0
330
0
330
0
330
0
330
0
330
0
330
0
330
0
330
0
330
0
330
0
330
0
330
0
330
0
330
0
330
0
330
0
330
0
330
0
330
0
330
0
330
0
330
0
330
0
330
0
330
0
330
0
330
0
330
0
330
0
330
0
330
0
330
0
330
0
330
0
330
0
330
0
330
0
330
0
330
0
330
0
330
0
330
0
330
0
330
0
330
0
330
0
  0
DICTIONARY
  5
3FDB
330
22
100
AcDbDictionary
280
     1
281
     1
  3
ACAD_XREC_ROUNDTRIP
360
3FDC
  0
DICTIONARY
  5
3FD9
330
1E
100
AcDbDictionary
280
     1
281
     1
  3
ACAD_XREC_ROUNDTRIP
360
3FDA
  0
DICTIONARY
  5
3FDD
330
26
100
AcDbDictionary
280
     1
281
     1
  3
ACAD_XREC_ROUNDTRIP
360
3FDE
  0
DICTIONARY
  5
3FDF
330
7A0
100
AcDbDictionary
280
     1
281
     1
  3
ACAD_XREC_ROUNDTRIP
360
3FE0
  0
DICTIONARY
  5
3FE1
330
7A1
100
AcDbDictionary
280
     1
281
     1
  3
ACAD_XREC_ROUNDTRIP
360
3FE2
  0
DICTIONARY
  5
3FE3
330
7A2
100
AcDbDictionary
280
     1
281
     1
  3
ACAD_XREC_ROUNDTRIP
360
3FE4
  0
DICTIONARY
  5
3FE5
330
7A3
100
AcDbDictionary
280
     1
281
     1
  3
ACAD_XREC_ROUNDTRIP
360
3FE6
  0
DICTIONARY
  5
3FE7
330
7A4
100
AcDbDictionary
280
     1
281
     1
  3
ACAD_XREC_ROUNDTRIP
360
3FE8
  0
DICTIONARY
  5
3FE9
330
7A5
100
AcDbDictionary
280
     1
281
     1
  3
ACAD_XREC_ROUNDTRIP
360
3FEA
  0
DICTIONARY
  5
3FEB
330
7A6
100
AcDbDictionary
280
     1
281
     1
  3
ACAD_XREC_ROUNDTRIP
360
3FEC
  0
XRECORD
  5
3FDC
102
{ACAD_REACTORS
330
3FDB
102
}
330
3FDB
100
AcDbXrecord
280
     1
102
SHADEPLOT
 70
     0
102
SHADEPLOTRESLEVEL
 70
     2
102
SHADEPLOTCUSTOMDPI
 70
   300
  0
XRECORD
  5
3FDA
102
{ACAD_REACTORS
330
3FD9
102
}
330
3FD9
100
AcDbXrecord
280
     1
102
SHADEPLOT
 70
     0
102
SHADEPLOTRESLEVEL
 70
     2
102
SHADEPLOTCUSTOMDPI
 70
   300
  0
XRECORD
  5
3FDE
102
{ACAD_REACTORS
330
3FDD
102
}
330
3FDD
100
AcDbXrecord
280
     1
102
SHADEPLOT
 70
     0
102
SHADEPLOTRESLEVEL
 70
     2
102
SHADEPLOTCUSTOMDPI
 70
   300
  0
XRECORD
  5
3FE0
102
{ACAD_REACTORS
330
3FDF
102
}
330
3FDF
100
AcDbXrecord
280
     1
102
SHADEPLOT
 70
     0
102
SHADEPLOTRESLEVEL
 70
     2
102
SHADEPLOTCUSTOMDPI
 70
   300
  0
XRECORD
  5
3FE2
102
{ACAD_REACTORS
330
3FE1
102
}
330
3FE1
100
AcDbXrecord
280
     1
102
SHADEPLOT
 70
     0
102
SHADEPLOTRESLEVEL
 70
     2
102
SHADEPLOTCUSTOMDPI
 70
   300
  0
XRECORD
  5
3FE4
102
{ACAD_REACTORS
330
3FE3
102
}
330
3FE3
100
AcDbXrecord
280
     1
102
SHADEPLOT
 70
     0
102
SHADEPLOTRESLEVEL
 70
     2
102
SHADEPLOTCUSTOMDPI
 70
   300
  0
XRECORD
  5
3FE6
102
{ACAD_REACTORS
330
3FE5
102
}
330
3FE5
100
AcDbXrecord
280
     1
102
SHADEPLOT
 70
     0
102
SHADEPLOTRESLEVEL
 70
     2
102
SHADEPLOTCUSTOMDPI
 70
   300
  0
XRECORD
  5
3FE8
102
{ACAD_REACTORS
330
3FE7
102
}
330
3FE7
100
AcDbXrecord
280
     1
102
SHADEPLOT
 70
     0
102
SHADEPLOTRESLEVEL
 70
     2
102
SHADEPLOTCUSTOMDPI
 70
   300
  0
XRECORD
  5
3FEA
102
{ACAD_REACTORS
330
3FE9
102
}
330
3FE9
100
AcDbXrecord
280
     1
102
SHADEPLOT
 70
     0
102
SHADEPLOTRESLEVEL
 70
     2
102
SHADEPLOTCUSTOMDPI
 70
   300
  0
XRECORD
  5
3FEC
102
{ACAD_REACTORS
330
3FEB
102
}
330
3FEB
100
AcDbXrecord
280
     1
102
SHADEPLOT
 70
     0
102
SHADEPLOTRESLEVEL
 70
     2
102
SHADEPLOTCUSTOMDPI
 70
   300
  0
ENDSEC
  0
EOF
