  0
SECTION
  2
HEADER
  9
$ACADVER
  1
AC1015
  9
$ACADMAINTVER
 70
    20
  9
$DWGCODEPAGE
  3
ANSI_932
  9
$INSBASE
 10
0.0
 20
0.0
 30
0.0
  9
$EXTMIN
 10
281.9121474758786
 20
212.2135318595449
 30
0.0
  9
$EXTMAX
 10
775.4443202398406
 20
631.3211229392519
 30
0.0
  9
$LIMMIN
 10
0.0
 20
0.0
  9
$LIMMAX
 10
853.5
 20
555.0000000000001
  9
$ORTHOMODE
 70
     1
  9
$REGENMODE
 70
     1
  9
$FILLMODE
 70
     1
  9
$QTEXTMODE
 70
     0
  9
$MIRRTEXT
 70
     1
  9
$LTSCALE
 40
3.0
  9
$ATTMODE
 70
     1
  9
$TEXTSIZE
 40
2.5
  9
$TRACEWID
 40
1.0
  9
$TEXTSTYLE
  7
STANDARD
  9
$CLAYER
  8
AM_0
  9
$CELTYPE
  6
ByLayer
  9
$CECOLOR
 62
   256
  9
$CELTSCALE
 40
1.0
  9
$DISPSILH
 70
     0
  9
$DIMSCALE
 40
1.0
  9
$DIMASZ
 40
2.5
  9
$DIMEXO
 40
1.0
  9
$DIMDLI
 40
8.0
  9
$DIMRND
 40
0.0
  9
$DIMDLE
 40
0.0
  9
$DIMEXE
 40
0.6
  9
$DIMTP
 40
0.1
  9
$DIMTM
 40
0.1
  9
$DIMTXT
 40
2.5
  9
$DIMCEN
 40
0.0
  9
$DIMTSZ
 40
0.0
  9
$DIMTOL
 70
     0
  9
$DIMLIM
 70
     0
  9
$DIMTIH
 70
     0
  9
$DIMTOH
 70
     0
  9
$DIMSE1
 70
     0
  9
$DIMSE2
 70
     0
  9
$DIMTAD
 70
     1
  9
$DIMZIN
 70
     8
  9
$DIMBLK
  1

  9
$DIMASO
 70
     1
  9
$DIMSHO
 70
     1
  9
$DIMPOST
  1

  9
$DIMAPOST
  1
"
  9
$DIMALT
 70
     0
  9
$DIMALTD
 70
     2
  9
$DIMALTF
 40
0.0393701
  9
$DIMLFAC
 40
1.0
  9
$DIMTOFL
 70
     1
  9
$DIMTVP
 40
0.0
  9
$DIMTIX
 70
     0
  9
$DIMSOXD
 70
     0
  9
$DIMSAH
 70
     0
  9
$DIMBLK1
  1

  9
$DIMBLK2
  1

  9
$DIMSTYLE
  2
AM_ISO
  9
$DIMCLRD
 70
   256
  9
$DIMCLRE
 70
   256
  9
$DIMCLRT
 70
     4
  9
$DIMTFAC
 40
0.71
  9
$DIMGAP
 40
0.8
  9
$DIMJUST
 70
     0
  9
$DIMSD1
 70
     0
  9
$DIMSD2
 70
     0
  9
$DIMTOLJ
 70
     0
  9
$DIMTZIN
 70
     8
  9
$DIMALTZ
 70
     0
  9
$DIMALTTZ
 70
     0
  9
$DIMUPT
 70
     0
  9
$DIMDEC
 70
     2
  9
$DIMTDEC
 70
     2
  9
$DIMALTU
 70
     2
  9
$DIMALTTD
 70
     2
  9
$DIMTXSTY
  7
STANDARD
  9
$DIMAUNIT
 70
     0
  9
$DIMADEC
 70
     0
  9
$DIMALTRND
 40
0.0
  9
$DIMAZIN
 70
     2
  9
$DIMDSEP
 70
    46
  9
$DIMATFIT
 70
     3
  9
$DIMFRAC
 70
     0
  9
$DIMLDRBLK
  1

  9
$DIMLUNIT
 70
     2
  9
$DIMLWD
 70
    -1
  9
$DIMLWE
 70
    -1
  9
$DIMTMOVE
 70
     0
  9
$LUNITS
 70
     2
  9
$LUPREC
 70
     2
  9
$SKETCHINC
 40
1.0
  9
$FILLETRAD
 40
5.0
  9
$AUNITS
 70
     0
  9
$AUPREC
 70
     0
  9
$MENU
  1
.
  9
$ELEVATION
 40
0.0
  9
$PELEVATION
 40
0.0
  9
$THICKNESS
 40
0.0
  9
$LIMCHECK
 70
     0
  9
$CHAMFERA
 40
6.0
  9
$CHAMFERB
 40
3.0
  9
$CHAMFERC
 40
20.0
  9
$CHAMFERD
 40
0.0
  9
$SKPOLY
 70
     0
  9
$TDCREATE
 40
2452065.605619213
  9
$TDUCREATE
 40
2452065.230619213
  9
$TDUPDATE
 40
2454770.834075104
  9
$TDUUPDATE
 40
2454770.459075104
  9
$TDINDWG
 40
0.4840081250
  9
$TDUSRTIMER
 40
0.4840077546
  9
$USRTIMER
 70
     1
  9
$ANGBASE
 50
0.0
  9
$ANGDIR
 70
     0
  9
$PDMODE
 70
     0
  9
$PDSIZE
 40
0.0
  9
$PLINEWID
 40
0.0
  9
$SPLFRAME
 70
     0
  9
$SPLINETYPE
 70
     6
  9
$SPLINESEGS
 70
     8
  9
$HANDSEED
  5
47FD
  9
$SURFTAB1
 70
     6
  9
$SURFTAB2
 70
     6
  9
$SURFTYPE
 70
     6
  9
$SURFU
 70
     6
  9
$SURFV
 70
     6
  9
$UCSBASE
  2

  9
$UCSNAME
  2

  9
$UCSORG
 10
0.0
 20
0.0
 30
0.0
  9
$UCSXDIR
 10
1.0
 20
0.0
 30
0.0
  9
$UCSYDIR
 10
0.0
 20
1.0
 30
0.0
  9
$UCSORTHOREF
  2

  9
$UCSORTHOVIEW
 70
     0
  9
$UCSORGTOP
 10
0.0
 20
0.0
 30
0.0
  9
$UCSORGBOTTOM
 10
0.0
 20
0.0
 30
0.0
  9
$UCSORGLEFT
 10
0.0
 20
0.0
 30
0.0
  9
$UCSORGRIGHT
 10
0.0
 20
0.0
 30
0.0
  9
$UCSORGFRONT
 10
0.0
 20
0.0
 30
0.0
  9
$UCSORGBACK
 10
0.0
 20
0.0
 30
0.0
  9
$PUCSBASE
  2

  9
$PUCSNAME
  2

  9
$PUCSORG
 10
0.0
 20
0.0
 30
0.0
  9
$PUCSXDIR
 10
1.0
 20
0.0
 30
0.0
  9
$PUCSYDIR
 10
0.0
 20
1.0
 30
0.0
  9
$PUCSORTHOREF
  2

  9
$PUCSORTHOVIEW
 70
     0
  9
$PUCSORGTOP
 10
0.0
 20
0.0
 30
0.0
  9
$PUCSORGBOTTOM
 10
0.0
 20
0.0
 30
0.0
  9
$PUCSORGLEFT
 10
0.0
 20
0.0
 30
0.0
  9
$PUCSORGRIGHT
 10
0.0
 20
0.0
 30
0.0
  9
$PUCSORGFRONT
 10
0.0
 20
0.0
 30
0.0
  9
$PUCSORGBACK
 10
0.0
 20
0.0
 30
0.0
  9
$USERI1
 70
     0
  9
$USERI2
 70
     0
  9
$USERI3
 70
     0
  9
$USERI4
 70
     0
  9
$USERI5
 70
     0
  9
$USERR1
 40
0.0
  9
$USERR2
 40
0.0
  9
$USERR3
 40
0.0
  9
$USERR4
 40
0.0
  9
$USERR5
 40
0.0
  9
$WORLDVIEW
 70
     1
  9
$SHADEDGE
 70
     3
  9
$SHADEDIF
 70
    70
  9
$TILEMODE
 70
     1
  9
$MAXACTVP
 70
    64
  9
$PINSBASE
 10
0.0
 20
0.0
 30
0.0
  9
$PLIMCHECK
 70
     0
  9
$PEXTMIN
 10
1.000000000000000E+20
 20
1.000000000000000E+20
 30
1.000000000000000E+20
  9
$PEXTMAX
 10
-1.000000000000000E+20
 20
-1.000000000000000E+20
 30
-1.000000000000000E+20
  9
$PLIMMIN
 10
0.0
 20
0.0
  9
$PLIMMAX
 10
420.0
 20
297.0
  9
$UNITMODE
 70
     0
  9
$VISRETAIN
 70
     1
  9
$PLINEGEN
 70
     0
  9
$PSLTSCALE
 70
     1
  9
$TREEDEPTH
 70
  3020
  9
$CMLSTYLE
  2
Standard
  9
$CMLJUST
 70
     0
  9
$CMLSCALE
 40
20.0
  9
$PROXYGRAPHICS
 70
     1
  9
$MEASUREMENT
 70
     1
  9
$CELWEIGHT
370
    -1
  9
$ENDCAPS
280
     0
  9
$JOINSTYLE
280
     0
  9
$LWDISPLAY
290
     0
  9
$INSUNITS
 70
     4
  9
$HYPERLINKBASE
  1

  9
$STYLESHEET
  1
ACAD1.CTB
  9
$XEDIT
290
     1
  9
$CEPSNTYPE
380
     0
  9
$PSTYLEMODE
290
     1
  9
$FINGERPRINTGUID
  2
{91B11402-3528-11D5-BE34-000255C217F4}
  9
$VERSIONGUID
  2
{D13356FD-68E3-4BE0-9FF8-6DCCCDF5EBD6}
  9
$EXTNAMES
290
     1
  9
$PSVPSCALE
 40
0.0
  9
$OLESTARTUP
290
     0
  0
ENDSEC
  0
SECTION
  2
CLASSES
  0
CLASS
  1
ACDBDICTIONARYWDFLT
  2
AcDbDictionaryWithDefault
  3
ObjectDBX Classes
 90
        0
280
     0
281
     0
  0
CLASS
  1
ACDBPLACEHOLDER
  2
AcDbPlaceHolder
  3
ObjectDBX Classes
 90
        0
280
     0
281
     0
  0
CLASS
  1
LAYOUT
  2
AcDbLayout
  3
ObjectDBX Classes
 90
        0
280
     0
281
     0
  0
CLASS
  1
AMGSETTINGSOBJ
  2
AmgSettingsObj
  3
"AcadM|Product Description: AutoCAD Mechanical 2000|Company: Autodesk"
 90
        0
280
     0
281
     0
  0
CLASS
  1
ACME_DOCUMENT
  2
AcMeDbDoc
  3
AcMeServices
 90
        0
280
     0
281
     0
  0
CLASS
  1
ACMESCOPE
  2
AcMeScope
  3
AcMeServices
 90
        0
280
     0
281
     0
  0
CLASS
  1
ACMECOMMANDHISTORY
  2
AcMeCommandHistory
  3
AcMeServices
 90
        0
280
     0
281
     0
  0
CLASS
  1
DICTIONARYVAR
  2
AcDbDictionaryVar
  3
ObjectDBX Classes
 90
        0
280
     0
281
     0
  0
CLASS
  1
ACIMSYSVARMAN
  2
AcImSysVarManager
  3
AcMeServices
 90
        0
280
     0
281
     0
  0
CLASS
  1
ACIMREALSYSVAR
  2
AcImRealSysVar
  3
AcMeServices
 90
        0
280
     0
281
     0
  0
CLASS
  1
ACIMINTSYSVAR
  2
AcImIntSysVar
  3
AcMeServices
 90
        0
280
     0
281
     0
  0
CLASS
  1
ACMEDRAWINGMAN
  2
AcMeDrawingMan
  3
AcMeServices
 90
        0
280
     0
281
     0
  0
CLASS
  1
ACMEVIEW
  2
AcMeView
  3
AcMeServices
 90
        0
280
     0
281
     0
  0
CLASS
  1
ACDBENTITYCACHE
  2
AcMeEntityCache
  3
AcMeServices
 90
        0
280
     0
281
     0
  0
CLASS
  1
GSMANAGER
  2
AcMeGSManager
  3
AcMeServices
 90
        0
280
     0
281
     0
  0
CLASS
  1
AMDTINTERNALREACTOR
  2
AmdtInternalReactor
  3
AcMeServices
 90
        0
280
     0
281
     0
  0
CLASS
  1
ACMESTATEMGR
  2
AcMeStateMgr
  3
AcMeServices
 90
        0
280
     0
281
     0
  0
CLASS
  1
ACGREFMASTER
  2
AcGrefMaster
  3
AcAttribServices
 90
        0
280
     0
281
     0
  0
CLASS
  1
ACME_DATABASE
  2
AcMeDbDatabase
  3
AcMeServices
 90
        0
280
     0
281
     0
  0
CLASS
  1
ACRFINSADJUSTERMGR
  2
AcRfInsAdjusterMgr
  3
AcMeServices
 90
        0
280
     0
281
     0
  0
CLASS
  1
ACGREFACADMASTER
  2
AcGrefacadMaster
  3
AcGrefServices
 90
        0
280
     0
281
     0
  0
CLASS
  1
AMIMASTER
  2
AmiMaster
  3
AmiServices
 90
        0
280
     0
281
     0
  0
CLASS
  1
ACMDATADICTIONARY
  2
AcmDataDictionary
  3
"AcmSymBB|Product Description: AutoCAD Mechanical 2004 DX|Company: Autodesk"
 90
        0
280
     0
281
     0
  0
CLASS
  1
ACMDATAENTRYBLOCK
  2
AcmDataEntryBlock
  3
"AcmSymBB|Product Description: AutoCAD Mechanical 2004 DX|Company: Autodesk"
 90
    32768
280
     0
281
     0
  0
CLASS
  1
ACIMSTRSYSVAR
  2
AcImStrSysVar
  3
AcMeServices
 90
        0
280
     0
281
     0
  0
CLASS
  1
ACMSTANDARDISO
  2
AcmStandardISO
  3
"Amdt_StdImp|Product Description: AutoCAD Mechanical 2004 DX|Company: Autodesk"
 90
        0
280
     0
281
     0
  0
CLASS
  1
AMGOBJPROPCFG
  2
AmgObjPropCfg
  3
"AmgLay|Product Description: AutoCAD Mechanical 2000|Company: Autodesk"
 90
        1
280
     0
281
     0
  0
CLASS
  1
AMDTEDGESTANDARDISO
  2
AmdtEdgeStdISO
  3
"Amdt_StdImp|Product Description: AutoCAD Mechanical 2004 DX|Company: Autodesk"
 90
    32768
280
     0
281
     0
  0
CLASS
  1
ACMSURFSTANDARDISO
  2
AcmSurfTextStdISO
  3
"Amdt_StdImp|Product Description: AutoCAD Mechanical 2004 DX|Company: Autodesk"
 90
        0
280
     0
281
     0
  0
CLASS
  1
ACMFCFSTANDARDISO
  2
AcmFCFStdISO
  3
"Amdt_StdImp|Product Description: AutoCAD Mechanical 2004 DX|Company: Autodesk"
 90
        0
280
     0
281
     0
  0
CLASS
  1
ACMWELDSTANDARDISO
  2
AcmWeldingStdISO
  3
"Amdt_StdImp|Product Description: AutoCAD Mechanical 2004 DX|Company: Autodesk"
 90
        0
280
     0
281
     0
  0
CLASS
  1
ACMIDSTANDARDISO
  2
AcmIdStdISO
  3
"Amdt_StdImp|Product Description: AutoCAD Mechanical 2004 DX|Company: Autodesk"
 90
        0
280
     0
281
     0
  0
CLASS
  1
ACMDATUMSTANDARDISO
  2
AcmDatumStdISO
  3
"Amdt_StdImp|Product Description: AutoCAD Mechanical 2004 DX|Company: Autodesk"
 90
        0
280
     0
281
     0
  0
CLASS
  1
ACMBOMSTANDARDISO
  2
AcmBOMStdISO
  3
"Amdt_StdImp|Product Description: AutoCAD Mechanical 2004 DX|Company: Autodesk"
 90
        0
280
     0
281
     0
  0
CLASS
  1
ACMDETAILSTANDARDISO
  2
AmdtDetailSymStdISO
  3
"Amdt_StdImp|Product Description: AutoCAD Mechanical 2004 DX|Company: Autodesk"
 90
        0
280
     0
281
     0
  0
CLASS
  1
ACMSECTIONSTANDARDISO
  2
AmdtSectionSymStdISO
  3
"Amdt_StdImp|Product Description: AutoCAD Mechanical 2004 DX|Company: Autodesk"
 90
        0
280
     0
281
     0
  0
CLASS
  1
ACMCENTERLINESTANDARDISO
  2
AmdtCenterLineStdISO
  3
"Amdt_StdImp|Product Description: AutoCAD Mechanical 2004 DX|Company: Autodesk"
 90
        0
280
     0
281
     0
  0
CLASS
  1
ACAMGLAYSTD
  2
AcAmgLayStd
  3
"AcAmgLayStd|Product Description: AutoCAD Mechanical 2000|Company: Autodesk"
 90
        0
280
     0
281
     0
  0
CLASS
  1
ACAMGDIMSTD
  2
AcAmgDimStd
  3
"AcAmgDimStd|Product Description: AutoCAD Mechanical 2000|Company: Autodesk"
 90
        0
280
     0
281
     0
  0
CLASS
  1
ACAMGTITLESTD
  2
AcAmgTitleStd
  3
"TITLEAPP"
 90
        0
280
     0
281
     0
  0
CLASS
  1
ACAMGFILTERDAT
  2
AcAmgFilterDat
  3
"AcadM|Product Description: AutoCAD Mechanical 2000|Company: Autodesk"
 90
    32768
280
     0
281
     0
  0
CLASS
  1
AMDTFORMULAUPDATEDISPATCHER
  2
AmdtFormulaUpdateDispatcher
  3
AcMeServices
 90
    32768
280
     0
281
     0
  0
CLASS
  1
LAYER_INDEX
  2
AcDbLayerIndex
  3
ObjectDBX Classes
 90
    32768
280
     0
281
     0
  0
CLASS
  1
IDBUFFER
  2
AcDbIdBuffer
  3
ObjectDBX Classes
 90
    32768
280
     0
281
     0
  0
CLASS
  1
PLOTSETTINGS
  2
AcDbPlotSettings
  3
ObjectDBX Classes
 90
        0
280
     0
281
     0
  0
CLASS
  1
ACMSTANDARDANSI
  2
AcmStandardANSI
  3
"Amdt_StdImp|Product Description: AutoCAD Mechanical 2004 DX|Company: Autodesk"
 90
    32768
280
     0
281
     0
  0
CLASS
  1
ACMSURFSTANDARDANSI
  2
AcmSurfTextStdANSI
  3
"Amdt_StdImp|Product Description: AutoCAD Mechanical 2004 DX|Company: Autodesk"
 90
    32768
280
     0
281
     0
  0
CLASS
  1
ACMFCFSTANDARDANSI
  2
AcmFCFStdANSI
  3
"Amdt_StdImp|Product Description: AutoCAD Mechanical 2004 DX|Company: Autodesk"
 90
    32768
280
     0
281
     0
  0
CLASS
  1
ACMWELDSTANDARDANSI
  2
AcmWeldingStdANSI
  3
"Amdt_StdImp|Product Description: AutoCAD Mechanical 2004 DX|Company: Autodesk"
 90
    32768
280
     0
281
     0
  0
CLASS
  1
ACMIDSTANDARDANSI
  2
AcmIdStdANSI
  3
"Amdt_StdImp|Product Description: AutoCAD Mechanical 2004 DX|Company: Autodesk"
 90
    32768
280
     0
281
     0
  0
CLASS
  1
ACMDATUMSTANDARDANSI
  2
AcmDatumStdANSI
  3
"Amdt_StdImp|Product Description: AutoCAD Mechanical 2004 DX|Company: Autodesk"
 90
    32768
280
     0
281
     0
  0
CLASS
  1
ACMBOMSTANDARDANSI
  2
AcmBOMStdANSI
  3
"Amdt_StdImp|Product Description: AutoCAD Mechanical 2004 DX|Company: Autodesk"
 90
    32768
280
     0
281
     0
  0
CLASS
  1
ACMDETAILSTANDARDANSI
  2
AmdtDetailSymStdANSI
  3
"Amdt_StdImp|Product Description: AutoCAD Mechanical 2004 DX|Company: Autodesk"
 90
    32768
280
     0
281
     0
  0
CLASS
  1
ACMSECTIONSTANDARDANSI
  2
AmdtSectionSymStdANSI
  3
"Amdt_StdImp|Product Description: AutoCAD Mechanical 2004 DX|Company: Autodesk"
 90
    32768
280
     0
281
     0
  0
CLASS
  1
ACMCENTERLINESTANDARDANSI
  2
AmdtCenterLineStdANSI
  3
"Amdt_StdImp|Product Description: AutoCAD Mechanical 2004 DX|Company: Autodesk"
 90
    32768
280
     0
281
     0
  0
CLASS
  1
ACMSTANDARDJIS
  2
AcmStandardJIS
  3
"Amdt_StdImp|Product Description: AutoCAD Mechanical 2004 DX|Company: Autodesk"
 90
    32768
280
     0
281
     0
  0
CLASS
  1
ACMSURFSTANDARDJIS
  2
AcmSurfTextStdJIS
  3
"Amdt_StdImp|Product Description: AutoCAD Mechanical 2004 DX|Company: Autodesk"
 90
    32768
280
     0
281
     0
  0
CLASS
  1
ACMFCFSTANDARDJIS
  2
AcmFCFStdJIS
  3
"Amdt_StdImp|Product Description: AutoCAD Mechanical 2004 DX|Company: Autodesk"
 90
    32768
280
     0
281
     0
  0
CLASS
  1
ACMWELDSTANDARDJIS
  2
AcmWeldingStdJIS
  3
"Amdt_StdImp|Product Description: AutoCAD Mechanical 2004 DX|Company: Autodesk"
 90
    32768
280
     0
281
     0
  0
CLASS
  1
ACMIDSTANDARDJIS
  2
AcmIdStdJIS
  3
"Amdt_StdImp|Product Description: AutoCAD Mechanical 2004 DX|Company: Autodesk"
 90
    32768
280
     0
281
     0
  0
CLASS
  1
ACMDATUMSTANDARDJIS
  2
AcmDatumStdJIS
  3
"Amdt_StdImp|Product Description: AutoCAD Mechanical 2004 DX|Company: Autodesk"
 90
    32768
280
     0
281
     0
  0
CLASS
  1
ACMBOMSTANDARDJIS
  2
AcmBOMStdJIS
  3
"Amdt_StdImp|Product Description: AutoCAD Mechanical 2004 DX|Company: Autodesk"
 90
    32768
280
     0
281
     0
  0
CLASS
  1
ACMDETAILSTANDARDJIS
  2
AmdtDetailSymStdJIS
  3
"Amdt_StdImp|Product Description: AutoCAD Mechanical 2004 DX|Company: Autodesk"
 90
    32768
280
     0
281
     0
  0
CLASS
  1
ACMSECTIONSTANDARDJIS
  2
AmdtSectionSymStdJIS
  3
"Amdt_StdImp|Product Description: AutoCAD Mechanical 2004 DX|Company: Autodesk"
 90
    32768
280
     0
281
     0
  0
CLASS
  1
ACMCENTERLINESTANDARDJIS
  2
AmdtCenterLineStdJIS
  3
"Amdt_StdImp|Product Description: AutoCAD Mechanical 2004 DX|Company: Autodesk"
 90
    32768
280
     0
281
     0
  0
CLASS
  1
TABLESTYLE
  2
AcDbTableStyle
  3
ObjectDBX Classes
 90
     2047
280
     0
281
     0
  0
CLASS
  1
AM_DRAWING_MGR
  2
AcDmDwgMgr
  3
AcMechDwgViewMgmt
 90
        0
280
     0
281
     0
  0
CLASS
  1
AM_DWG_DOCUMENT
  2
AcDmDwgDocument
  3
AcMechDwgViewMgmt
 90
        0
280
     0
281
     0
  0
CLASS
  1
AM_DWG_SHEET
  2
AcDmSheet
  3
AcMechDwgViewMgmt
 90
        0
280
     0
281
     0
  0
CLASS
  1
AM_VIEWDIMPARMAP
  2
AcDmViewDimParMap
  3
AcMechDwgViewMgmt
 90
        0
280
     0
281
     0
  0
CLASS
  1
AM_DWGMGR_NAME
  2
AcDmDwgMgrName
  3
AcMechDwgViewMgmt
 90
        0
280
     0
281
     0
  0
CLASS
  1
AMDTMENUSTATEMGR
  2
AmdtMenuStateMgr
  3
McadcomServices
 90
        0
280
     0
281
     0
  0
CLASS
  1
AMDTMCOMMENUSTATE
  2
AmdtMcomMenuState
  3
McadcomServices
 90
        0
280
     0
281
     0
  0
CLASS
  1
MAPIAMMOUDLE
  2
MApiAmModule
  3
MApiAmServices
 90
        0
280
     0
281
     0
  0
CLASS
  1
AMDTADMENUSTATE
  2
AmdtAdMenuState
  3
DesignerServices
 90
        0
280
     0
281
     0
  0
CLASS
  1
ADAPPL
  2
AcAdAppl
  3
DesignerServices
 90
        0
280
     0
281
     0
  0
CLASS
  1
DEPMGR
  2
AcAdDepMgr
  3
DesignerServices
 90
        0
280
     0
281
     0
  0
CLASS
  1
PARAMMGR
  2
AcAdParamMgr
  3
DesignerServices
 90
        0
280
     0
281
     0
  0
CLASS
  1
PARAMSCOPE
  2
AcAdParamScope
  3
DesignerServices
 90
        0
280
     0
281
     0
  0
CLASS
  1
NAMEDAPPL
  2
AcAdNamedAppl
  3
DesignerServices
 90
        0
280
     0
281
     0
  0
CLASS
  1
AMDTDMMENUSTATE
  2
AmdtDmMenuState
  3
AcMechDwgViewMgmt
 90
        0
280
     0
281
     0
  0
CLASS
  1
AMDTAMMENUSTATE
  2
AmdtAmMenuState
  3
DesignerAssemblies
 90
        0
280
     0
281
     0
  0
CLASS
  1
ACAMPROJECT
  2
AcAmProject
  3
DesignerAssemblies
 90
        0
280
     0
281
     0
  0
CLASS
  1
ACAMGRCOMPDEF
  2
AcAmGrCompDef
  3
DesignerAssemblies
 90
        0
280
     0
281
     0
  0
CLASS
  1
ACCMCONTEXT
  2
AcCmContext
  3
DesignerAssemblies
 90
        0
280
     0
281
     0
  0
CLASS
  1
ACAMCOMPDEF
  2
AcAmCompDef
  3
DesignerAssemblies
 90
        0
280
     0
281
     0
  0
CLASS
  1
ACAMCOMPDEFMGR
  2
AcAmCompDefMgr
  3
DesignerAssemblies
 90
        0
280
     0
281
     0
  0
CLASS
  1
AMCONTEXTMGR
  2
AcAmContextMgr
  3
DesignerAssemblies
 90
        0
280
     0
281
     0
  0
CLASS
  1
ACAMCONTEXTMODELER
  2
AcAmContextModeler
  3
DesignerAssemblies
 90
        0
280
     0
281
     0
  0
CLASS
  1
ACMTHREADLINESTANDARDISO
  2
AmdtThreadLineStdISO
  3
"Amdt_StdImp|Product Description: AutoCAD Mechanical 2004 DX|Company: Autodesk"
 90
        0
280
     0
281
     0
  0
CLASS
  1
ACMNOTESTANDARDISO
  2
AmdtNoteStdISO
  3
"Amdt_StdImp|Product Description: AutoCAD Mechanical 2004 DX|Company: Autodesk"
 90
        0
280
     0
281
     0
  0
CLASS
  1
AMDTNOTETEMPLATEDB
  2
AmdtNoteTemplateDB
  3
AMDT_STDIMP_MODULE_NAME
 90
        0
280
     0
281
     0
  0
CLASS
  1
ACMTHREADLINESTANDARDANSI
  2
AmdtThreadLineStdANSI
  3
"Amdt_StdImp|Product Description: AutoCAD Mechanical 2004 DX|Company: Autodesk"
 90
    32768
280
     0
281
     0
  0
CLASS
  1
ACMNOTESTANDARDANSI
  2
AmdtNoteStdANSI
  3
"Amdt_StdImp|Product Description: AutoCAD Mechanical 2004 DX|Company: Autodesk"
 90
    32768
280
     0
281
     0
  0
CLASS
  1
ACMTHREADLINESTANDARDJIS
  2
AmdtThreadLineStdJIS
  3
"Amdt_StdImp|Product Description: AutoCAD Mechanical 2004 DX|Company: Autodesk"
 90
    32768
280
     0
281
     0
  0
CLASS
  1
ACMNOTESTANDARDJIS
  2
AmdtNoteStdJIS
  3
"Amdt_StdImp|Product Description: AutoCAD Mechanical 2004 DX|Company: Autodesk"
 90
    32768
280
     0
281
     0
  0
CLASS
  1
CATALOGSTATE
  2
AcAmCatalogState
  3
DesignerAssemblies
 90
        0
280
     0
281
     0
  0
CLASS
  1
ACAMGRCOMPDEFSET
  2
AcAmGrCompDefSet
  3
DesignerAssemblies
 90
        0
280
     0
281
     0
  0
CLASS
  1
AMDTBROWSERDBTAB
  2
AmdtBrowserDbTab
  3
McadcomServices
 90
        0
280
     0
281
     0
  0
CLASS
  1
CBROWSERAPPOBJECT
  2
CBrowserAppObject
  3
McadcomServices
 90
        0
280
     0
281
     0
  0
CLASS
  1
DM_PLACEHOLDER
  2
AcDmSelsetPlaceholder
  3
AcMechDwgViewMgmt
 90
        0
280
     0
281
     0
  0
CLASS
  1
DIMASSOC
  2
AcDbDimAssoc
  3
"AcDbDimAssoc|Product Desc:     AcDim ARX App For Dimension|Company:          Autodesk, Inc.|WEB Address:      www.autodesk.com"
 90
    32768
280
     0
281
     0
  0
CLASS
  1
SORTENTSTABLE
  2
AcDbSortentsTable
  3
ObjectDBX Classes
 90
        0
280
     0
281
     0
  0
CLASS
  1
STDPART2D
  2
AmgStdPart
  3
"AmgStdPart|Product Description: AutoCAD Mechanical 2000|Company: Autodesk"
 90
    33791
280
     0
281
     1
  0
CLASS
  1
AMDTNOTE
  2
AmdtNote
  3
"AcmSymBB|Product Description: AutoCAD Mechanical 2004 DX|Company: Autodesk"
 90
    33791
280
     0
281
     1
  0
CLASS
  1
ACMDATUMID
  2
AcmDatumId
  3
"AcmSymBB|Product Description: AutoCAD Mechanical 2004 DX|Company: Autodesk"
 90
    33791
280
     0
281
     1
  0
CLASS
  1
ACRFATTGENMGR
  2
AcRfAttGeneralMgr
  3
AcAttribServices
 90
    32768
280
     0
281
     0
  0
CLASS
  1
AMDTEDGESTANDARDISO13715
  2
AmdtEdgeStdISO13715
  3
"Amdt_StdImp|Product Description: AutoCAD Mechanical 2004 DX|Company: Autodesk"
 90
        0
280
     0
281
     0
  0
CLASS
  1
ACAMGHOLECHARTSTDISO
  2
AcAmgHoleChartStdISO
  3
ACMSYMBB_MODULE_NAME
 90
        0
280
     0
281
     0
  0
ENDSEC
  0
SECTION
  2
TABLES
  0
TABLE
  2
VPORT
  5
8
330
0
100
AcDbSymbolTable
 70
     4
  0
VPORT
  5
47E6
330
8
100
AcDbSymbolTableRecord
100
AcDbViewportTableRecord
  2
*Active
 70
     0
 10
0.0
 20
0.0
 11
1.0
 21
1.0
 12
528.6672688814019
 22
421.7658407392888
 13
0.0
 23
0.0
 14
7.5
 24
7.5
 15
30.0
 25
30.0
 16
0.0
 26
0.0
 36
1.0
 17
0.0
 27
0.0
 37
0.0
 40
422.1908768488078
 41
1.475550122249388
 42
50.0
 43
0.0
 44
0.0
 50
0.0
 51
0.0
 71
     0
 72
   100
 73
     1
 74
     3
 75
     0
 76
     0
 77
     0
 78
     0
281
     0
 65
     0
110
0.0
120
0.0
130
0.0
111
1.0
121
0.0
131
0.0
112
0.0
122
1.0
132
0.0
 79
     0
146
0.0
  0
ENDTAB
  0
TABLE
  2
LTYPE
  5
5
330
0
100
AcDbSymbolTable
 70
    17
  0
LTYPE
  5
14
330
5
100
AcDbSymbolTableRecord
100
AcDbLinetypeTableRecord
  2
ByBlock
 70
     0
  3

 72
    65
 73
     0
 40
0.0
  0
LTYPE
  5
15
330
5
100
AcDbSymbolTableRecord
100
AcDbLinetypeTableRecord
  2
ByLayer
 70
     0
  3

 72
    65
 73
     0
 40
0.0
  0
LTYPE
  5
16
330
5
100
AcDbSymbolTableRecord
100
AcDbLinetypeTableRecord
  2
Continuous
 70
     0
  3
Solid line
 72
    65
 73
     0
 40
0.0
  0
LTYPE
  5
50
330
5
100
AcDbSymbolTableRecord
100
AcDbLinetypeTableRecord
  2
AM_ISO08W050
 70
     0
  3
____ . ____ . ____ . ____ . ____ . ____ . ____
 72
    65
 73
     4
 40
18.0
 49
12.0
 74
     0
 49
-1.5
 74
     0
 49
3.0
 74
     0
 49
-1.5
 74
     0
  0
LTYPE
  5
53
330
5
100
AcDbSymbolTableRecord
100
AcDbLinetypeTableRecord
  2
AM_ISO08W050x2
 70
     0
  3
__ . __ . __ . __ . __ . __
 72
    65
 73
     4
 40
9.0
 49
6.0
 74
     0
 49
-0.75
 74
     0
 49
1.5
 74
     0
 49
-0.75
 74
     0
  0
LTYPE
  5
6CA
330
5
100
AcDbSymbolTableRecord
100
AcDbLinetypeTableRecord
  2
GEN7
 70
     0
  3
____ . ____ . ____ . ____ . ____ . ____ . ____
 72
    65
 73
     4
 40
14.25
 49
9.75
 74
     0
 49
-1.5
 74
     0
 49
1.5
 74
     0
 49
-1.5
 74
     0
  0
LTYPE
  5
6D6
330
5
100
AcDbSymbolTableRecord
100
AcDbLinetypeTableRecord
  2
GEN3B
 70
     0
  3
 - - - - -
 72
    65
 73
     2
 40
1.0
 49
0.5
 74
     0
 49
-0.5
 74
     0
  0
LTYPE
  5
6D8
330
5
100
AcDbSymbolTableRecord
100
AcDbLinetypeTableRecord
  2
GEN7A
 70
     0
  3
__ . __ . __
 72
    65
 73
     4
 40
7.375
 49
4.75
 74
     0
 49
-0.875
 74
     0
 49
0.875
 74
     0
 49
-0.875
 74
     0
  0
LTYPE
  5
4788
330
5
100
AcDbSymbolTableRecord
100
AcDbLinetypeTableRecord
  2
HIDDEN
 70
     0
  3
Hidden __ __ __ __ __ __ __ __ __ __ __ __ __ _
 72
    65
 73
     2
 40
9.524999999999998
 49
6.349999999999999
 74
     0
 49
-3.174999999999999
 74
     0
  0
LTYPE
  5
4789
330
5
100
AcDbSymbolTableRecord
100
AcDbLinetypeTableRecord
  2
PHANTOM2
 70
     0
  3
Phantom (.5x) ___ _ _ ___ _ _ ___ _ _ ___ _ _
 72
    65
 73
     6
 40
31.75
 49
15.875
 74
     0
 49
-3.174999999999999
 74
     0
 49
3.174999999999999
 74
     0
 49
-3.174999999999999
 74
     0
 49
3.174999999999999
 74
     0
 49
-3.174999999999999
 74
     0
  0
LTYPE
  5
478A
330
5
100
AcDbSymbolTableRecord
100
AcDbLinetypeTableRecord
  2
CENTER
 70
     0
  3
Center ____ _ ____ _ ____ _ ____ _ ____ _ ____
 72
    65
 73
     4
 40
50.8
 49
31.75
 74
     0
 49
-6.349999999999999
 74
     0
 49
6.349999999999999
 74
     0
 49
-6.349999999999999
 74
     0
  0
LTYPE
  5
47B7
330
5
100
AcDbSymbolTableRecord
100
AcDbLinetypeTableRecord
  2
AM_ISO02W050
 70
     0
  3
__ __ __ __ __ __ __ __ __ __ __ __ __ __ __
 72
    65
 73
     2
 40
7.5
 49
6.0
 74
     0
 49
-1.5
 74
     0
  0
LTYPE
  5
47B8
330
5
100
AcDbSymbolTableRecord
100
AcDbLinetypeTableRecord
  2
AM_ISO09W050
 70
     0
  3
_____ . . _____ . . _____ . . ____ .. ____
 72
    65
 73
     6
 40
22.5
 49
12.0
 74
     0
 49
-1.5
 74
     0
 49
3.0
 74
     0
 49
-1.5
 74
     0
 49
3.0
 74
     0
 49
-1.5
 74
     0
  0
LTYPE
  5
47B9
330
5
100
AcDbSymbolTableRecord
100
AcDbLinetypeTableRecord
  2
Amconstr
 70
     0
  3
_______________________
 72
    65
 73
     2
 40
9999.0
 49
9999.0
 74
     0
 49
0.0
 74
     0
  0
LTYPE
  5
47BA
330
5
100
AcDbSymbolTableRecord
100
AcDbLinetypeTableRecord
  2
AM_ISO02W050x2
 70
     0
  3
 _ _ _ _ _ _ _ _ _ _ _ _
 72
    65
 73
     2
 40
3.75
 49
3.0
 74
     0
 49
-0.75
 74
     0
  0
LTYPE
  5
47BD
330
5
100
AcDbSymbolTableRecord
100
AcDbLinetypeTableRecord
  2
Amzigzag
 70
     0
  3
/\/-/\/-/\/-/\/-/\/-/\/
 72
    65
 73
     2
 40
11.0001
 49
0.0001
 74
     4
 75
   135
340
47BC
 46
0.04
 50
0.0
 44
0.0
 45
0.0
 49
-11.0
 74
     0
  0
LTYPE
  5
47CC
330
5
100
AcDbSymbolTableRecord
100
AcDbLinetypeTableRecord
  2
ACISOWELD
 70
     0
  3
_ _ _ _ _
 72
    65
 73
     2
 40
2.0
 49
2.0
 74
     0
 49
-1.0
 74
     0
  0
LTYPE
  5
47CD
330
5
100
AcDbSymbolTableRecord
100
AcDbLinetypeTableRecord
  2
ACISOTGB
 70
     0
  3
__ . . __ . .
 72
    65
 73
     6
 40
9.0
 49
4.0
 74
     0
 49
-1.0
 74
     0
 49
1.0
 74
     0
 49
-1.0
 74
     0
 49
1.0
 74
     0
 49
-1.0
 74
     0
  0
LTYPE
  5
47CE
330
5
100
AcDbSymbolTableRecord
100
AcDbLinetypeTableRecord
  2
ACISOTGL
 70
     0
  3
_ _ _ _ _
 72
    65
 73
     2
 40
3.0
 49
2.0
 74
     0
 49
-1.0
 74
     0
  0
ENDTAB
  0
TABLE
  2
LAYER
  5
2
102
{ACAD_XDICTIONARY
360
2D9C
102
}
330
0
100
AcDbSymbolTable
 70
     9
  0
LAYER
  5
10
330
2
100
AcDbSymbolTableRecord
100
AcDbLayerTableRecord
  2
0
 70
     0
 62
     7
  6
Continuous
370
    -3
390
F
  0
LAYER
  5
106
330
2
100
AcDbSymbolTableRecord
100
AcDbLayerTableRecord
  2
AM_5
 70
     0
 62
     2
  6
Continuous
370
    35
390
F
  0
LAYER
  5
124
330
2
100
AcDbSymbolTableRecord
100
AcDbLayerTableRecord
  2
Defpoints
 70
     0
 62
     7
  6
Continuous
290
     0
370
    -3
390
F
  0
LAYER
  5
6FC
330
2
100
AcDbSymbolTableRecord
100
AcDbLayerTableRecord
  2
ｶｸﾚｾﾝ2
 70
     0
 62
     3
  6
GEN3B
370
    -3
390
F
  0
LAYER
  5
6FE
330
2
100
AcDbSymbolTableRecord
100
AcDbLayerTableRecord
  2
ﾁｭｳｼﾝｾﾝ
 70
     0
 62
     1
  6
GEN7
370
    -3
390
F
  0
LAYER
  5
6FF
330
2
100
AcDbSymbolTableRecord
100
AcDbLayerTableRecord
  2
ﾁｭｳｼﾝｾﾝ1
 70
     0
 62
     1
  6
GEN7A
370
    -3
390
F
  0
LAYER
  5
71A
330
2
100
AcDbSymbolTableRecord
100
AcDbLayerTableRecord
  2
AM_7
 70
     0
 62
     1
  6
AM_ISO08W050
370
    25
390
F
  0
LAYER
  5
71D
330
2
100
AcDbSymbolTableRecord
100
AcDbLayerTableRecord
  2
AM_0
 70
     0
 62
     7
  6
Continuous
370
    50
390
F
  0
LAYER
  5
1A93
330
2
100
AcDbSymbolTableRecord
100
AcDbLayerTableRecord
  2
図面枠-ｷｲﾛ
 70
     0
 62
     2
  6
Continuous
370
    -3
390
F
  0
ENDTAB
  0
TABLE
  2
STYLE
  5
3
330
0
100
AcDbSymbolTable
 70
     4
  0
STYLE
  5
11
330
3
100
AcDbSymbolTableRecord
100
AcDbTextStyleTableRecord
  2
STANDARD
 70
     0
 40
0.0
 41
0.8299999999999998
 50
0.0
 71
     0
 42
2.5
  3
t.shx
  4
bigfont.shx
  0
STYLE
  5
47BC
330
3
100
AcDbSymbolTableRecord
100
AcDbTextStyleTableRecord
  2

 70
     1
 40
0.0
 41
1.0
 50
0.0
 71
     0
 42
2.5
  3
ltypeshp.shx
  4

  0
STYLE
  5
47BE
330
3
100
AcDbSymbolTableRecord
100
AcDbTextStyleTableRecord
  2
ACISOTS
 70
     0
 40
1.0
 41
1.0
 50
0.0
 71
     0
 42
2.5
  3
isocp.shx
  4
extfont.shx
  0
STYLE
  5
47CB
330
3
100
AcDbSymbolTableRecord
100
AcDbTextStyleTableRecord
  2
ACISOGDT
 70
     0
 40
0.0
 41
1.0
 50
0.0
 71
     0
 42
2.5
  3
amgdt.shx
  4

  0
ENDTAB
  0
TABLE
  2
VIEW
  5
6
330
0
100
AcDbSymbolTable
 70
     6
  0
VIEW
  5
C2
330
6
100
AcDbSymbolTableRecord
100
AcDbViewTableRecord
  2
AM_VIEW1
 70
     0
 40
277.5000000000001
 10
249.6477900552487
 20
416.2500000000001
 41
499.2955801104972
 11
0.0
 21
0.0
 31
1.0
 12
0.0
 22
0.0
 32
0.0
 42
50.0
 43
0.0
 44
0.0
 50
0.0
 71
     0
281
     0
 72
     0
  0
VIEW
  5
C3
330
6
100
AcDbSymbolTableRecord
100
AcDbViewTableRecord
  2
AM_VIEW2
 70
     0
 40
277.5000000000001
 10
603.8522099447512
 20
416.2500000000001
 41
499.2955801104972
 11
0.0
 21
0.0
 31
1.0
 12
0.0
 22
0.0
 32
0.0
 42
50.0
 43
0.0
 44
0.0
 50
0.0
 71
     0
281
     0
 72
     0
  0
VIEW
  5
C4
330
6
100
AcDbSymbolTableRecord
100
AcDbViewTableRecord
  2
AM_VIEW3
 70
     0
 40
277.5000000000001
 10
249.6477900552487
 20
138.75
 41
499.2955801104972
 11
0.0
 21
0.0
 31
1.0
 12
0.0
 22
0.0
 32
0.0
 42
50.0
 43
0.0
 44
0.0
 50
0.0
 71
     0
281
     0
 72
     0
  0
VIEW
  5
C5
330
6
100
AcDbSymbolTableRecord
100
AcDbViewTableRecord
  2
AM_VIEW4
 70
     0
 40
277.5000000000001
 10
603.8522099447512
 20
138.75
 41
499.2955801104972
 11
0.0
 21
0.0
 31
1.0
 12
0.0
 22
0.0
 32
0.0
 42
50.0
 43
0.0
 44
0.0
 50
0.0
 71
     0
281
     0
 72
     0
  0
VIEW
  5
C6
330
6
100
AcDbSymbolTableRecord
100
AcDbViewTableRecord
  2
AM_VIEW5
 70
     0
 40
277.5000000000001
 10
426.75
 20
277.5000000000001
 41
499.2955801104971
 11
0.0
 21
0.0
 31
1.0
 12
0.0
 22
0.0
 32
0.0
 42
50.0
 43
0.0
 44
0.0
 50
0.0
 71
     0
281
     0
 72
     0
  0
VIEW
  5
C7
330
6
100
AcDbSymbolTableRecord
100
AcDbViewTableRecord
  2
AM_VIEW6
 70
     0
 40
554.9944500000001
 10
426.75
 20
277.5
 41
998.5811743093924
 11
0.0
 21
0.0
 31
1.0
 12
0.0
 22
0.0
 32
0.0
 42
50.0
 43
0.0
 44
0.0
 50
0.0
 71
     0
281
     0
 72
     0
  0
ENDTAB
  0
TABLE
  2
UCS
  5
7
330
0
100
AcDbSymbolTable
 70
     0
  0
ENDTAB
  0
TABLE
  2
APPID
  5
9
330
0
100
AcDbSymbolTable
 70
    95
  0
APPID
  5
12
330
9
100
AcDbSymbolTableRecord
100
AcDbRegAppTableRecord
  2
ACAD
 70
     0
  0
APPID
  5
30
330
9
100
AcDbSymbolTableRecord
100
AcDbRegAppTableRecord
  2
MCAD_NO_VIS
 70
     0
  0
APPID
  5
31
330
9
100
AcDbSymbolTableRecord
100
AcDbRegAppTableRecord
  2
ACAD_TEMP_GRAPHIC
 70
     0
  0
APPID
  5
44
330
9
100
AcDbSymbolTableRecord
100
AcDbRegAppTableRecord
  2
ACATTRIBSERVICES
 70
     0
  0
APPID
  5
8D
330
9
100
AcDbSymbolTableRecord
100
AcDbRegAppTableRecord
  2
GENIUS_GENREC_14
 70
     0
  0
APPID
  5
8E
330
9
100
AcDbSymbolTableRecord
100
AcDbRegAppTableRecord
  2
GENIUS_GENOBJ-N-REC_13
 70
     0
  0
APPID
  5
8F
330
9
100
AcDbSymbolTableRecord
100
AcDbRegAppTableRecord
  2
GENIUS_GENODEF_13
 70
     0
  0
APPID
  5
BD
330
9
100
AcDbSymbolTableRecord
100
AcDbRegAppTableRecord
  2
GENIUS_GENOLIS_13
 70
     0
  0
APPID
  5
BE
330
9
100
AcDbSymbolTableRecord
100
AcDbRegAppTableRecord
  2
GENIUS_GENOBJ-N-TIT_13
 70
     0
  0
APPID
  5
BF
330
9
100
AcDbSymbolTableRecord
100
AcDbRegAppTableRecord
  2
GENIUS_GENOENT_13
 70
     0
  0
APPID
  5
C0
330
9
100
AcDbSymbolTableRecord
100
AcDbRegAppTableRecord
  2
GENIUS_GENTITLE_13
 70
     0
  0
APPID
  5
C1
330
9
100
AcDbSymbolTableRecord
100
AcDbRegAppTableRecord
  2
GENIUS_GENOREF_13
 70
     0
  0
APPID
  5
C8
330
9
100
AcDbSymbolTableRecord
100
AcDbRegAppTableRecord
  2
GENIUS_GENSCREG_15
 70
     0
  0
APPID
  5
C9
330
9
100
AcDbSymbolTableRecord
100
AcDbRegAppTableRecord
  2
GENIUS_GENOBJ-N-SDF_13
 70
     0
  0
APPID
  5
103
330
9
100
AcDbSymbolTableRecord
100
AcDbRegAppTableRecord
  2
GENIUS_GENFIL_13
 70
     0
  0
APPID
  5
104
330
9
100
AcDbSymbolTableRecord
100
AcDbRegAppTableRecord
  2
GENIUS_GENOBJ-N-CHA_13
 70
     0
  0
APPID
  5
13E
330
9
100
AcDbSymbolTableRecord
100
AcDbRegAppTableRecord
  2
GENIUS_GENDTOL_13
 70
     0
  0
APPID
  5
187
330
9
100
AcDbSymbolTableRecord
100
AcDbRegAppTableRecord
  2
GENIUS_GENOBJ-N-FIL_13
 70
     0
  0
APPID
  5
75A
330
9
100
AcDbSymbolTableRecord
100
AcDbRegAppTableRecord
  2
AD_DRAW
 70
     0
  0
APPID
  5
75B
330
9
100
AcDbSymbolTableRecord
100
AcDbRegAppTableRecord
  2
DESIGNERASSEMBLIES
 70
     0
  0
APPID
  5
75C
330
9
100
AcDbSymbolTableRecord
100
AcDbRegAppTableRecord
  2
ASURF_PCURVE_APPNAME
 70
     0
  0
APPID
  5
75D
330
9
100
AcDbSymbolTableRecord
100
AcDbRegAppTableRecord
  2
GENIUS_GE3SECT_13
 70
     0
  0
APPID
  5
75E
330
9
100
AcDbSymbolTableRecord
100
AcDbRegAppTableRecord
  2
GENIUS_GENCFG_13
 70
     0
  0
APPID
  5
75F
330
9
100
AcDbSymbolTableRecord
100
AcDbRegAppTableRecord
  2
GENIUS_GE3CFG0_13
 70
     0
  0
APPID
  5
760
330
9
100
AcDbSymbolTableRecord
100
AcDbRegAppTableRecord
  2
GENIUS_GENCFG0_13
 70
     0
  0
APPID
  5
761
330
9
100
AcDbSymbolTableRecord
100
AcDbRegAppTableRecord
  2
GENIUS_GENCFG1_13
 70
     0
  0
APPID
  5
762
330
9
100
AcDbSymbolTableRecord
100
AcDbRegAppTableRecord
  2
GENIUS_GENCFG2_13
 70
     0
  0
APPID
  5
763
330
9
100
AcDbSymbolTableRecord
100
AcDbRegAppTableRecord
  2
GENIUS_GENCFG3_13
 70
     0
  0
APPID
  5
764
330
9
100
AcDbSymbolTableRecord
100
AcDbRegAppTableRecord
  2
GENIUS_GENCFG4_13
 70
     0
  0
APPID
  5
765
330
9
100
AcDbSymbolTableRecord
100
AcDbRegAppTableRecord
  2
GENIUS_GEVCFG0_13
 70
     0
  0
APPID
  5
766
330
9
100
AcDbSymbolTableRecord
100
AcDbRegAppTableRecord
  2
GENIUS_GENHINW_13
 70
     0
  0
APPID
  5
767
330
9
100
AcDbSymbolTableRecord
100
AcDbRegAppTableRecord
  2
GENIUS_FIRSTVISTXT_14
 70
     0
  0
APPID
  5
768
330
9
100
AcDbSymbolTableRecord
100
AcDbRegAppTableRecord
  2
GENIUS_GENOBJ-N-LEADER_13
 70
     0
  0
APPID
  5
769
330
9
100
AcDbSymbolTableRecord
100
AcDbRegAppTableRecord
  2
GEV_VCCNULL_SWITCH_OFF
 70
     0
  0
APPID
  5
76A
330
9
100
AcDbSymbolTableRecord
100
AcDbRegAppTableRecord
  2
GENIUS_GEFCFG0_13
 70
     0
  0
APPID
  5
76B
330
9
100
AcDbSymbolTableRecord
100
AcDbRegAppTableRecord
  2
GENIUS_GENZVEED_13
 70
     0
  0
APPID
  5
76C
330
9
100
AcDbSymbolTableRecord
100
AcDbRegAppTableRecord
  2
GENIUS_GENSCREG_13
 70
     0
  0
APPID
  5
76D
330
9
100
AcDbSymbolTableRecord
100
AcDbRegAppTableRecord
  2
GENIUS_DUMCFG0_13
 70
     0
  0
APPID
  5
76E
330
9
100
AcDbSymbolTableRecord
100
AcDbRegAppTableRecord
  2
GEVID936201362
 70
     0
  0
APPID
  5
76F
330
9
100
AcDbSymbolTableRecord
100
AcDbRegAppTableRecord
  2
GEVDC
 70
     0
  0
APPID
  5
770
330
9
100
AcDbSymbolTableRecord
100
AcDbRegAppTableRecord
  2
GEVCON
 70
     0
  0
APPID
  5
771
330
9
100
AcDbSymbolTableRecord
100
AcDbRegAppTableRecord
  2
VCC
 70
     0
  0
APPID
  5
772
330
9
100
AcDbSymbolTableRecord
100
AcDbRegAppTableRecord
  2
GEVPT
 70
     0
  0
APPID
  5
773
330
9
100
AcDbSymbolTableRecord
100
AcDbRegAppTableRecord
  2
GEVIT
 70
     0
  0
APPID
  5
774
330
9
100
AcDbSymbolTableRecord
100
AcDbRegAppTableRecord
  2
GENBH
 70
     0
  0
APPID
  5
775
330
9
100
AcDbSymbolTableRecord
100
AcDbRegAppTableRecord
  2
GEVMK
 70
     0
  0
APPID
  5
776
330
9
100
AcDbSymbolTableRecord
100
AcDbRegAppTableRecord
  2
GENIUS_GENBH_13
 70
     0
  0
APPID
  5
777
330
9
100
AcDbSymbolTableRecord
100
AcDbRegAppTableRecord
  2
GENIUS_GENOBJ-NBEHI-BHF_13
 70
     0
  0
APPID
  5
778
330
9
100
AcDbSymbolTableRecord
100
AcDbRegAppTableRecord
  2
GENIUS_GENOBJ-NBEHI-BHB_13
 70
     0
  0
APPID
  5
779
330
9
100
AcDbSymbolTableRecord
100
AcDbRegAppTableRecord
  2
GENIUS_GENOBJ-F-DESC_13
 70
     0
  0
APPID
  5
77A
330
9
100
AcDbSymbolTableRecord
100
AcDbRegAppTableRecord
  2
GENIUS_GEFDESC_14
 70
     0
  0
APPID
  5
77B
330
9
100
AcDbSymbolTableRecord
100
AcDbRegAppTableRecord
  2
GENIUS_GENOBJ-F-PART_13
 70
     0
  0
APPID
  5
77C
330
9
100
AcDbSymbolTableRecord
100
AcDbRegAppTableRecord
  2
GENIUS_GEFSTDP_13
 70
     0
  0
APPID
  5
77D
330
9
100
AcDbSymbolTableRecord
100
AcDbRegAppTableRecord
  2
GENIUS_GEFPARTINS_13
 70
     0
  0
APPID
  5
77E
330
9
100
AcDbSymbolTableRecord
100
AcDbRegAppTableRecord
  2
GENIUS_GENTRA_14
 70
     0
  0
APPID
  5
77F
330
9
100
AcDbSymbolTableRecord
100
AcDbRegAppTableRecord
  2
GENIUS_GENINF13_13
 70
     0
  0
APPID
  5
780
330
9
100
AcDbSymbolTableRecord
100
AcDbRegAppTableRecord
  2
GENIUS_GENOBJ-N-INFOPT_13
 70
     0
  0
APPID
  5
781
330
9
100
AcDbSymbolTableRecord
100
AcDbRegAppTableRecord
  2
GENIUS_GENOBJ-N-RSSYM_13
 70
     0
  0
APPID
  5
782
330
9
100
AcDbSymbolTableRecord
100
AcDbRegAppTableRecord
  2
GENIUS_GENSYMENT_13
 70
     0
  0
APPID
  5
783
330
9
100
AcDbSymbolTableRecord
100
AcDbRegAppTableRecord
  2
GENIUS_GENSCSYM_13
 70
     0
  0
APPID
  5
784
330
9
100
AcDbSymbolTableRecord
100
AcDbRegAppTableRecord
  2
GENIUS_GEFINFNAM_13
 70
     0
  0
APPID
  5
785
330
9
100
AcDbSymbolTableRecord
100
AcDbRegAppTableRecord
  2
GENIUS_GENOBJ-N-CEN_13
 70
     0
  0
APPID
  5
786
330
9
100
AcDbSymbolTableRecord
100
AcDbRegAppTableRecord
  2
GENIUS_GENOBJ-N-CRS_13
 70
     0
  0
APPID
  5
787
330
9
100
AcDbSymbolTableRecord
100
AcDbRegAppTableRecord
  2
GENIUS_GENOBJ-N-CRC_13
 70
     0
  0
APPID
  5
788
330
9
100
AcDbSymbolTableRecord
100
AcDbRegAppTableRecord
  2
GENIUS_GENCRC_14
 70
     0
  0
APPID
  5
789
330
9
100
AcDbSymbolTableRecord
100
AcDbRegAppTableRecord
  2
GEVID942827039
 70
     0
  0
APPID
  5
78A
330
9
100
AcDbSymbolTableRecord
100
AcDbRegAppTableRecord
  2
GEVID942827040
 70
     0
  0
APPID
  5
78B
330
9
100
AcDbSymbolTableRecord
100
AcDbRegAppTableRecord
  2
GEVID942827041
 70
     0
  0
APPID
  5
78C
330
9
100
AcDbSymbolTableRecord
100
AcDbRegAppTableRecord
  2
GENIUS_GENOBJ-F-SCPASSM_13
 70
     0
  0
APPID
  5
78D
330
9
100
AcDbSymbolTableRecord
100
AcDbRegAppTableRecord
  2
GENIUS_GENDIMSH_14
 70
     0
  0
APPID
  5
78E
330
9
100
AcDbSymbolTableRecord
100
AcDbRegAppTableRecord
  2
GEVID942827042
 70
     0
  0
APPID
  5
78F
330
9
100
AcDbSymbolTableRecord
100
AcDbRegAppTableRecord
  2
GEVID946020473
 70
     0
  0
APPID
  5
790
330
9
100
AcDbSymbolTableRecord
100
AcDbRegAppTableRecord
  2
GEVID946020474
 70
     0
  0
APPID
  5
791
330
9
100
AcDbSymbolTableRecord
100
AcDbRegAppTableRecord
  2
GEVID946020475
 70
     0
  0
APPID
  5
792
330
9
100
AcDbSymbolTableRecord
100
AcDbRegAppTableRecord
  2
GENIUS_GENOBJ-N-HTC_13
 70
     0
  0
APPID
  5
793
330
9
100
AcDbSymbolTableRecord
100
AcDbRegAppTableRecord
  2
GENIUS_GENHATCH_13
 70
     0
  0
APPID
  5
794
330
9
100
AcDbSymbolTableRecord
100
AcDbRegAppTableRecord
  2
GEVID948854295
 70
     0
  0
APPID
  5
795
330
9
100
AcDbSymbolTableRecord
100
AcDbRegAppTableRecord
  2
GEVID939402019
 70
     0
  0
APPID
  5
796
330
9
100
AcDbSymbolTableRecord
100
AcDbRegAppTableRecord
  2
GEVID952919491
 70
     0
  0
APPID
  5
797
330
9
100
AcDbSymbolTableRecord
100
AcDbRegAppTableRecord
  2
GEVID952919492
 70
     0
  0
APPID
  5
798
330
9
100
AcDbSymbolTableRecord
100
AcDbRegAppTableRecord
  2
GENIUS_GEFWELD_13
 70
     0
  0
APPID
  5
799
330
9
100
AcDbSymbolTableRecord
100
AcDbRegAppTableRecord
  2
GENIUS_GENOBJ-F-WELS_13
 70
     0
  0
APPID
  5
79A
330
9
100
AcDbSymbolTableRecord
100
AcDbRegAppTableRecord
  2
GEVID952919493
 70
     0
  0
APPID
  5
79B
330
9
100
AcDbSymbolTableRecord
100
AcDbRegAppTableRecord
  2
GENIUS_GENOBJ-N-RSBK_13
 70
     0
  0
APPID
  5
79C
330
9
100
AcDbSymbolTableRecord
100
AcDbRegAppTableRecord
  2
GENIUS_GENOBJ-N-LIB_13
 70
     0
  0
APPID
  5
79D
330
9
100
AcDbSymbolTableRecord
100
AcDbRegAppTableRecord
  2
GENIUS_GENSCALE_13
 70
     0
  0
APPID
  5
79E
330
9
100
AcDbSymbolTableRecord
100
AcDbRegAppTableRecord
  2
GEVID986376691
 70
     0
  0
APPID
  5
79F
330
9
100
AcDbSymbolTableRecord
100
AcDbRegAppTableRecord
  2
DCO15
 70
     0
  0
APPID
  5
1A97
330
9
100
AcDbSymbolTableRecord
100
AcDbRegAppTableRecord
  2
GEVID988070561
 70
     0
  0
APPID
  5
1A98
330
9
100
AcDbSymbolTableRecord
100
AcDbRegAppTableRecord
  2
GEVID988070562
 70
     0
  0
APPID
  5
1A99
330
9
100
AcDbSymbolTableRecord
100
AcDbRegAppTableRecord
  2
GEVID988070563
 70
     0
  0
APPID
  5
2201
330
9
100
AcDbSymbolTableRecord
100
AcDbRegAppTableRecord
  2
ACADM_DIM_EDIT
 70
     0
  0
APPID
  5
2202
330
9
100
AcDbSymbolTableRecord
100
AcDbRegAppTableRecord
  2
AMDT_DM_ADJ
 70
     0
  0
APPID
  5
222C
330
9
100
AcDbSymbolTableRecord
100
AcDbRegAppTableRecord
  2
ACAD_PSEXT
 70
     0
  0
APPID
  5
222D
330
9
100
AcDbSymbolTableRecord
100
AcDbRegAppTableRecord
  2
GENIUS_GENCEN_19
 70
     0
  0
ENDTAB
  0
TABLE
  2
DIMSTYLE
  5
A
330
0
100
AcDbSymbolTable
 70
     8
100
AcDbDimStyleTable
 71
     1
340
6C
  0
DIMSTYLE
105
6C
330
A
100
AcDbSymbolTableRecord
100
AcDbDimStyleTableRecord
  2
AM_ISO
 70
     0
  4
"
 41
2.5
 42
1.0
 43
8.0
 44
0.6
 47
0.1
 48
0.1
 73
     0
 74
     0
 77
     1
 78
     8
 79
     2
140
2.5
141
0.0
143
0.0393701
146
0.71
147
0.8
172
     1
176
   256
177
   256
178
     4
271
     2
272
     2
283
     0
284
     8
340
11
371
    -1
372
    -1
  0
DIMSTYLE
105
740
330
A
100
AcDbSymbolTableRecord
100
AcDbDimStyleTableRecord
  2
STANDARD
 70
     0
340
11
  0
DIMSTYLE
105
47D8
330
A
100
AcDbSymbolTableRecord
100
AcDbDimStyleTableRecord
  2
AM_ISO$3
 70
     0
  4
"
 41
2.5
 42
1.0
 43
8.0
 44
0.6
 47
0.1
 48
0.1
 73
     0
 77
     1
 78
     8
 79
     2
140
2.5
141
0.0
143
0.0393701
146
0.71
147
0.8
176
   256
177
   256
178
     4
271
     2
272
     2
283
     0
284
     8
288
     1
289
     0
340
11
371
    -1
372
    -1
  0
DIMSTYLE
105
47D9
330
A
100
AcDbSymbolTableRecord
100
AcDbDimStyleTableRecord
  2
AM_ISO$4
 70
     0
  4
"
 41
2.5
 42
1.0
 43
8.0
 44
0.6
 47
0.1
 48
0.1
 73
     0
 77
     1
 78
     8
 79
     2
140
2.5
141
0.0
143
0.0393701
146
0.71
147
0.8
176
   256
177
   256
178
     4
271
     2
272
     2
283
     0
284
     8
288
     1
289
     0
340
11
371
    -1
372
    -1
  0
DIMSTYLE
105
47DA
330
A
100
AcDbSymbolTableRecord
100
AcDbDimStyleTableRecord
  2
AM_ISO$6
 70
     0
  4
"
 41
2.5
 42
1.0
 43
8.0
 44
0.6
 47
0.1
 48
0.1
 73
     0
 74
     0
 78
     8
 79
     2
140
2.5
141
0.0
143
0.0393701
146
0.71
147
0.8
172
     1
176
   256
177
   256
178
     4
271
     2
272
     2
283
     0
284
     8
340
11
371
    -1
372
    -1
  0
DIMSTYLE
105
47DB
330
A
100
AcDbSymbolTableRecord
100
AcDbDimStyleTableRecord
  2
AM_ISO$7
 70
     0
  4
"
 41
2.5
 42
1.0
 43
8.0
 44
0.6
 47
0.1
 48
0.1
 73
     0
 74
     0
 77
     1
 78
     8
 79
     2
140
5.0
141
0.0
143
0.0393701
146
0.71
147
1.5
172
     1
176
   256
177
   256
178
     4
271
     2
272
     2
283
     0
284
     8
340
11
371
    -1
372
    -1
  0
DIMSTYLE
105
47DC
330
A
100
AcDbSymbolTableRecord
100
AcDbDimStyleTableRecord
  2
AM_ISO$SF
 70
     0
  4
"
 41
2.5
 42
1.0
 43
8.0
 44
0.6
 47
0.1
 48
0.1
 73
     0
 74
     0
 75
     1
 76
     1
 77
     1
 78
     8
 79
     2
140
2.5
141
0.0
143
0.0393701
146
0.71
147
0.8
172
     1
176
   256
177
   256
178
     4
271
     2
272
     2
283
     0
284
     8
340
11
371
    -1
372
    -1
  0
DIMSTYLE
105
47E1
330
A
100
AcDbSymbolTableRecord
100
AcDbDimStyleTableRecord
  2
AM_ISO$SH
 70
     0
  4
"
 41
2.5
 42
1.0
 43
8.0
 44
0.6
 47
0.1
 48
0.1
 73
     0
 74
     0
 75
     1
 76
     1
 77
     1
 78
     8
 79
     2
140
2.5
141
0.0
143
0.0393701
144
2.0
146
0.71
147
0.8
172
     1
173
     1
176
   256
177
   256
178
     4
271
     2
272
     2
283
     0
284
     8
340
11
343
47DD
371
    -1
372
    -1
  0
ENDTAB
  0
TABLE
  2
BLOCK_RECORD
  5
1
330
0
100
AcDbSymbolTable
 70
     3
  0
BLOCK_RECORD
  5
1F
102
{ACAD_XDICTIONARY
360
CC
102
}
330
1
100
AcDbSymbolTableRecord
100
AcDbBlockTableRecord
  2
*Model_Space
340
22
  0
BLOCK_RECORD
  5
1B
330
1
100
AcDbSymbolTableRecord
100
AcDbBlockTableRecord
  2
*Paper_Space
340
1E
  0
BLOCK_RECORD
  5
23
330
1
100
AcDbSymbolTableRecord
100
AcDbBlockTableRecord
  2
*Paper_Space0
340
26
  0
BLOCK_RECORD
  5
47DD
330
1
100
AcDbSymbolTableRecord
100
AcDbBlockTableRecord
  2
GENAXEH
340
0
  0
ENDTAB
  0
ENDSEC
  0
SECTION
  2
BLOCKS
  0
BLOCK
  5
20
330
1F
100
AcDbEntity
  8
0
100
AcDbBlockBegin
  2
*Model_Space
 70
     0
 10
0.0
 20
0.0
 30
0.0
  3
*Model_Space
  1

  0
ENDBLK
  5
21
330
1F
100
AcDbEntity
  8
0
100
AcDbBlockEnd
  0
BLOCK
  5
1C
330
1B
100
AcDbEntity
 67
     1
  8
0
100
AcDbBlockBegin
  2
*Paper_Space
 70
     0
 10
0.0
 20
0.0
 30
0.0
  3
*Paper_Space
  1

  0
ENDBLK
  5
1D
330
1B
100
AcDbEntity
 67
     1
  8
0
100
AcDbBlockEnd
  0
BLOCK
  5
24
330
23
100
AcDbEntity
  8
0
100
AcDbBlockBegin
  2
*Paper_Space0
 70
     0
 10
0.0
 20
0.0
 30
0.0
  3
*Paper_Space0
  1

  0
ENDBLK
  5
25
330
23
100
AcDbEntity
  8
0
100
AcDbBlockEnd
  0
BLOCK
  5
47DF
330
47DD
100
AcDbEntity
  8
0
100
AcDbBlockBegin
  2
GENAXEH
 70
     0
 10
0.0
 20
0.0
 30
0.0
  3
GENAXEH
  1

  0
LINE
  5
47DE
330
47DD
100
AcDbEntity
  8
0
100
AcDbLine
 10
-1.0
 20
0.0
 30
0.0
 11
1.0
 21
0.0
 31
0.0
  0
ENDBLK
  5
47E0
330
47DD
100
AcDbEntity
  8
0
100
AcDbBlockEnd
  0
ENDSEC
  0
SECTION
  2
ENTITIES
  0
LINE
  5
3DCE
330
1F
100
AcDbEntity
  8
AM_0
100
AcDbLine
 10
486.9086298485651
 20
306.7482628595449
 30
0.0
 11
489.908629848565
 21
306.7482628595449
 31
0.0
  0
LINE
  5
3DCF
330
1F
100
AcDbEntity
  8
AM_0
100
AcDbLine
 10
531.9086598485649
 20
338.7482938595448
 30
0.0
 11
531.9086598485649
 21
307.7482618595449
 31
0.0
  0
LINE
  5
3DD0
330
1F
100
AcDbEntity
  8
AM_0
100
AcDbLine
 10
489.908629848565
 20
335.7482938595448
 30
0.0
 11
531.9086598485649
 21
335.7482938595448
 31
0.0
  0
LINE
  5
3DD1
330
1F
100
AcDbEntity
  8
AM_0
100
AcDbLine
 10
489.908629848565
 20
336.7482628595449
 30
0.0
 11
489.908629848565
 21
306.7482628595449
 31
0.0
  0
LINE
  5
3DD2
330
1F
100
AcDbEntity
  8
AM_0
100
AcDbLine
 10
489.908629848565
 20
307.7482618595449
 30
0.0
 11
531.9086598485649
 21
307.7482618595449
 31
0.0
  0
LINE
  5
3DD3
330
1F
100
AcDbEntity
  8
ﾁｭｳｼﾝｾﾝ
100
AcDbLine
 10
385.2676098485651
 20
321.7482628595448
 30
0.0
 11
536.8564398485651
 21
321.7482628595448
 31
0.0
  0
LINE
  5
3DD4
330
1F
100
AcDbEntity
  8
AM_0
100
AcDbLine
 10
499.9086198485652
 20
338.7482938595448
 30
0.0
 11
531.9086598485649
 21
338.7482938595448
 31
0.0
  0
LINE
  5
3DD5
330
1F
100
AcDbEntity
  8
AM_0
100
AcDbLine
 10
499.9086198485652
 20
338.7482938595448
 30
0.0
 11
499.9086198485652
 21
335.7482938595448
 31
0.0
  0
LINE
  5
3DD6
330
1F
100
AcDbEntity
  8
AM_0
100
AcDbLine
 10
486.9086298485651
 20
336.7482628595449
 30
0.0
 11
489.908629848565
 21
336.7482628595449
 31
0.0
  0
LINE
  5
3DD7
330
1F
100
AcDbEntity
  8
AM_0
100
AcDbLine
 10
681.0301025776342
 20
338.7482938595448
 30
0.0
 11
689.0300885776342
 21
338.7482938595448
 31
0.0
  0
LINE
  5
3DD8
330
1F
100
AcDbEntity
  8
AM_0
100
AcDbLine
 10
689.0300885776342
 20
331.7482618595449
 30
0.0
 11
689.0300885776342
 21
338.7482938595448
 31
0.0
  0
LINE
  5
3DD9
330
1F
100
AcDbEntity
  8
AM_0
100
AcDbLine
 10
681.0301025776342
 20
331.7482618595449
 30
0.0
 11
681.0301025776342
 21
338.7482938595448
 31
0.0
  0
LINE
  5
3DDA
330
1F
100
AcDbEntity
  8
AM_0
100
AcDbLine
 10
681.0301025776342
 20
331.7482618595449
 30
0.0
 11
689.0300885776342
 21
331.7482618595449
 31
0.0
  0
LINE
  5
3DDB
330
1F
100
AcDbEntity
  8
AM_0
100
AcDbLine
 10
483.9086298485652
 20
232.6212448595448
 30
0.0
 11
483.9086298485652
 21
357.9992788595449
 31
0.0
  0
LINE
  5
3DDC
330
1F
100
AcDbEntity
  8
AM_0
100
AcDbLine
 10
742.0301045776342
 20
230.7482608595449
 30
0.0
 11
773.0301065776342
 21
230.7482608595449
 31
0.0
  0
LINE
  5
3DDD
330
1F
100
AcDbEntity
  8
AM_0
100
AcDbLine
 10
595.0301015776342
 20
215.7482758595449
 30
0.0
 11
595.0301015776342
 21
230.7482608595449
 31
0.0
  0
LINE
  5
3DDE
330
1F
100
AcDbEntity
  8
AM_0
100
AcDbLine
 10
738.0301055776342
 20
217.748258859545
 30
0.0
 11
632.0301335776342
 21
217.748258859545
 31
0.0
  0
LINE
  5
3DDF
330
1F
100
AcDbEntity
  8
ｶｸﾚｾﾝ2
100
AcDbLine
 10
616.0301015776342
 20
230.7482608595449
 30
0.0
 11
616.0301015776342
 21
215.7482758595449
 31
0.0
  0
LINE
  5
3DE0
330
1F
100
AcDbEntity
  8
ｶｸﾚｾﾝ2
100
AcDbLine
 10
604.0301015776342
 20
230.7482608595449
 30
0.0
 11
604.0301015776342
 21
215.7482758595449
 31
0.0
  0
LINE
  5
3DE1
330
1F
100
AcDbEntity
  8
AM_0
100
AcDbLine
 10
459.9086298485651
 20
215.7482608595449
 30
0.0
 11
459.9086298485651
 21
215.7482608595449
 31
0.0
  0
LINE
  5
3DE2
330
1F
100
AcDbEntity
  8
AM_0
100
AcDbLine
 10
404.9086698485651
 20
216.7482598595449
 30
0.0
 11
458.9086698485651
 21
216.7482598595449
 31
0.0
  0
LINE
  5
3DE3
330
1F
100
AcDbEntity
  8
AM_0
100
AcDbLine
 10
378.9086598485651
 20
230.7482608595449
 30
0.0
 11
404.4229698485652
 21
230.7482608595449
 31
0.0
  0
LINE
  5
3DE4
330
1F
100
AcDbEntity
  8
AM_0
100
AcDbLine
 10
486.9086298485651
 20
228.7482748595449
 30
0.0
 11
486.9086298485651
 21
215.7482608595449
 31
0.0
  0
LINE
  5
3DE5
330
1F
100
AcDbEntity
  8
AM_0
100
AcDbLine
 10
376.9086498485651
 20
215.7482608595449
 30
0.0
 11
403.9086198485652
 21
215.7482608595449
 31
0.0
  0
LINE
  5
3DE6
330
1F
100
AcDbEntity
  8
AM_0
100
AcDbLine
 10
458.9086698485651
 20
230.7482608595449
 30
0.0
 11
484.9086198485651
 21
230.7482608595449
 31
0.0
  0
LINE
  5
3DE7
330
1F
100
AcDbEntity
  8
ﾁｭｳｼﾝｾﾝ1
 48
0.5
100
AcDbLine
 10
760.0300925776342
 20
212.8759516954017
 30
0.0
 11
760.0300925776342
 21
233.3416637634972
 31
0.0
  0
LINE
  5
3DE8
330
1F
100
AcDbEntity
  8
ﾁｭｳｼﾝｾﾝ1
 48
0.5
100
AcDbLine
 10
610.0301015776342
 20
212.8759516954017
 30
0.0
 11
610.0301015776342
 21
233.3416637634972
 31
0.0
  0
LINE
  5
3DE9
330
1F
100
AcDbEntity
  8
ｶｸﾚｾﾝ2
100
AcDbLine
 10
754.0301075776342
 20
230.7482608595449
 30
0.0
 11
754.0301075776342
 21
215.7482758595449
 31
0.0
  0
LINE
  5
3DEA
330
1F
100
AcDbEntity
  8
ｶｸﾚｾﾝ2
100
AcDbLine
 10
766.0301075776342
 20
230.7482608595449
 30
0.0
 11
766.0301075776342
 21
215.7482758595449
 31
0.0
  0
LINE
  5
3DEB
330
1F
100
AcDbEntity
  8
AM_0
100
AcDbLine
 10
775.0300985776342
 20
230.7482608595449
 30
0.0
 11
765.4179395776342
 21
308.4878848595448
 31
0.0
  0
LINE
  5
3DEC
330
1F
100
AcDbEntity
  8
AM_0
100
AcDbLine
 10
595.0300715776343
 20
230.7482608595449
 30
0.0
 11
604.6422545776342
 21
308.4878848595448
 31
0.0
  0
LINE
  5
3DED
330
1F
100
AcDbEntity
  8
AM_0
100
AcDbLine
 10
463.9086198485651
 20
352.9815388595449
 30
0.0
 11
471.9086298485652
 21
352.9815388595449
 31
0.0
  0
LINE
  5
3DEE
330
1F
100
AcDbEntity
  8
AM_0
100
AcDbLine
 10
453.9086298485651
 20
243.3615568595449
 30
0.0
 11
466.9086198485651
 21
243.3615568595449
 31
0.0
  0
LINE
  5
3DEF
330
1F
100
AcDbEntity
  8
AM_0
100
AcDbLine
 10
727.0301045776342
 20
222.7482748595449
 30
0.0
 11
727.0301045776342
 21
223.7482738595448
 31
0.0
  0
LINE
  5
3DF0
330
1F
100
AcDbEntity
  8
AM_0
100
AcDbLine
 10
739.0301045776342
 20
235.7482738595448
 30
0.0
 11
739.0301045776342
 21
306.7482628595449
 31
0.0
  0
LINE
  5
3DF1
330
1F
100
AcDbEntity
  8
AM_0
100
AcDbLine
 10
643.0301015776342
 20
222.7482748595449
 30
0.0
 11
643.0301015776342
 21
223.7482738595448
 31
0.0
  0
LINE
  5
3DF2
330
1F
100
AcDbEntity
  8
AM_0
100
AcDbLine
 10
453.9086298485651
 20
235.748258859545
 30
0.0
 11
453.9086298485651
 21
342.9815698595449
 31
0.0
  0
LINE
  5
3DF3
330
1F
100
AcDbEntity
  8
AM_0
100
AcDbLine
 10
459.9086298485651
 20
215.7482608595449
 30
0.0
 11
486.9086298485651
 21
215.7482608595449
 31
0.0
  0
LINE
  5
3DF4
330
1F
100
AcDbEntity
  8
ｶｸﾚｾﾝ2
100
AcDbLine
 10
477.908629848565
 20
230.7482608595449
 30
0.0
 11
477.908629848565
 21
215.7482608595449
 31
0.0
  0
LINE
  5
3DF5
330
1F
100
AcDbEntity
  8
ｶｸﾚｾﾝ2
100
AcDbLine
 10
385.9086498485651
 20
230.7482608595449
 30
0.0
 11
385.9086498485651
 21
215.7482608595449
 31
0.0
  0
LINE
  5
3DF6
330
1F
100
AcDbEntity
  8
ｶｸﾚｾﾝ2
100
AcDbLine
 10
397.9086498485651
 20
230.7482608595449
 30
0.0
 11
397.9086498485651
 21
215.7482608595449
 31
0.0
  0
LINE
  5
3DF7
330
1F
100
AcDbEntity
  8
ｶｸﾚｾﾝ2
100
AcDbLine
 10
465.9086298485651
 20
230.7482608595449
 30
0.0
 11
465.9086298485651
 21
215.7482608595449
 31
0.0
  0
LINE
  5
3DF8
330
1F
100
AcDbEntity
  8
AM_0
100
AcDbLine
 10
413.9086698485652
 20
268.2170878595449
 30
0.0
 11
413.9086698485652
 21
303.5369278595449
 31
0.0
  0
LINE
  5
3DF9
330
1F
100
AcDbEntity
  8
AM_0
100
AcDbLine
 10
476.4728598485651
 20
361.3988188595448
 30
0.0
 11
481.170139848565
 21
360.9878488595449
 31
0.0
  0
LINE
  5
3DFA
330
1F
100
AcDbEntity
  8
AM_0
100
AcDbLine
 10
625.0301015776342
 20
269.5482628595449
 30
0.0
 11
625.0301015776342
 21
350.9982388595448
 31
0.0
  0
LINE
  5
3DFB
330
1F
100
AcDbEntity
  8
AM_0
100
AcDbLine
 10
745.0301045776342
 20
269.5482628595449
 30
0.0
 11
745.0301045776342
 21
350.9982388595448
 31
0.0
  0
LINE
  5
3DFC
330
1F
100
AcDbEntity
  8
AM_0
100
AcDbLine
 10
631.0301015776342
 20
235.7482738595448
 30
0.0
 11
631.0301015776342
 21
306.7482628595449
 31
0.0
  0
LINE
  5
3DFD
330
1F
100
AcDbEntity
  8
AM_0
100
AcDbLine
 10
648.0301025776342
 20
228.7482748595449
 30
0.0
 11
722.0301065776342
 21
228.7482748595449
 31
0.0
  0
LINE
  5
3DFE
330
1F
100
AcDbEntity
  8
AM_0
100
AcDbLine
 10
630.0301025776342
 20
215.7482758595449
 30
0.0
 11
630.0301025776342
 21
228.7482748595449
 31
0.0
  0
LINE
  5
3DFF
330
1F
100
AcDbEntity
  8
AM_0
100
AcDbLine
 10
630.0301025776342
 20
215.7482758595449
 30
0.0
 11
595.0301015776342
 21
215.7482758595449
 31
0.0
  0
LINE
  5
3E00
330
1F
100
AcDbEntity
  8
AM_0
100
AcDbLine
 10
740.0300915776342
 20
215.7482758595449
 30
0.0
 11
775.0300985776342
 21
215.7482758595449
 31
0.0
  0
LINE
  5
3E01
330
1F
100
AcDbEntity
  8
AM_0
100
AcDbLine
 10
740.0300915776342
 20
215.7482758595449
 30
0.0
 11
740.0300915776342
 21
228.7482748595449
 31
0.0
  0
LINE
  5
3E02
330
1F
100
AcDbEntity
  8
AM_0
100
AcDbLine
 10
775.0300985776342
 20
215.7482758595449
 30
0.0
 11
775.0300985776342
 21
230.7482608595449
 31
0.0
  0
LINE
  5
3E03
330
1F
100
AcDbEntity
  8
AM_0
100
AcDbLine
 10
471.9086298485652
 20
248.3615728595449
 30
0.0
 11
471.9086298485652
 21
373.080128859545
 31
0.0
  0
LINE
  5
3E04
330
1F
100
AcDbEntity
  8
AM_0
100
AcDbLine
 10
376.9086498485651
 20
228.7482748595449
 30
0.0
 11
376.9086498485651
 21
215.7482608595449
 31
0.0
  0
LINE
  5
3E05
330
1F
100
AcDbEntity
  8
ﾁｭｳｼﾝｾﾝ
100
AcDbLine
 10
648.9520085776343
 20
321.7482628595448
 30
0.0
 11
721.2883745776342
 21
321.7482628595448
 31
0.0
  0
LINE
  5
3E06
330
1F
100
AcDbEntity
  8
ﾁｭｳｼﾝｾﾝ
100
AcDbLine
 10
685.0301045776342
 20
212.2135318595449
 30
0.0
 11
685.0301045776342
 21
385.0387897405257
 31
0.0
  0
LINE
  5
3E07
330
1F
100
AcDbEntity
  8
ﾁｭｳｼﾝｾﾝ
100
AcDbLine
 10
598.6733915776343
 20
298.5482788595449
 30
0.0
 11
772.5401465776342
 21
298.5482788595449
 31
0.0
  0
LINE
  5
3E08
330
1F
100
AcDbEntity
  8
ﾁｭｳｼﾝｾﾝ1
 48
0.5
100
AcDbLine
 10
471.9085998485651
 20
233.3416637634972
 30
0.0
 11
471.9085998485651
 21
212.8759516954017
 31
0.0
  0
LINE
  5
3E09
330
1F
100
AcDbEntity
  8
ﾁｭｳｼﾝｾﾝ1
 48
0.5
100
AcDbLine
 10
391.9086498485651
 20
233.3416637634972
 30
0.0
 11
391.9086498485651
 21
212.8759516954017
 31
0.0
  0
LINE
  5
3E0A
330
1F
100
AcDbEntity
  8
AM_0
100
AcDbLine
 10
628.0301015776342
 20
230.7482608595449
 30
0.0
 11
597.0301115776343
 21
230.7482608595449
 31
0.0
  0
LINE
  5
3E0B
330
1F
100
AcDbEntity
  8
AM_0
100
AcDbLine
 10
410.9086698485652
 20
379.5482788595449
 30
0.0
 11
467.0395398485651
 21
378.0784588595448
 31
0.0
  0
LINE
  5
3E0C
330
1F
100
AcDbEntity
  8
AM_0
100
AcDbLine
 10
486.9086298485651
 20
293.7224278595449
 30
0.0
 11
486.9086298485651
 21
349.7741188595449
 31
0.0
  0
LINE
  5
3E0D
330
1F
100
AcDbEntity
  8
AM_0
100
AcDbLine
 10
484.8824598485649
 20
292.6951918595449
 30
0.0
 11
485.9347998485652
 21
292.7227498595449
 31
0.0
  0
LINE
  5
3E0E
330
1F
100
AcDbEntity
  8
AM_0
100
AcDbLine
 10
484.8824598485649
 20
350.8012888595449
 30
0.0
 11
485.9347998485652
 21
350.7737488595449
 31
0.0
  0
LINE
  5
3E0F
330
1F
100
AcDbEntity
  8
AM_0
100
AcDbLine
 10
413.8215198485651
 20
267.2876128595449
 30
0.0
 11
407.3707098485651
 21
233.1905818595449
 31
0.0
  0
LINE
  5
3E10
330
1F
100
AcDbEntity
  8
AM_0
100
AcDbLine
 10
403.9086198485652
 20
215.7482608595449
 30
0.0
 11
403.9086198485652
 21
215.7482608595449
 31
0.0
  0
LINE
  5
3E11
330
1F
100
AcDbEntity
  8
AM_0
100
AcDbLine
 10
410.9086698485652
 20
379.5482788595449
 30
0.0
 11
410.9086698485652
 21
251.8911298595449
 31
0.0
  0
LINE
  5
3E12
330
1F
100
AcDbEntity
  8
AM_0
100
AcDbLine
 10
367.4086698485652
 20
362.0482888595449
 30
0.0
 11
389.4957498485652
 21
362.819588859545
 31
0.0
  0
LINE
  5
3E13
330
1F
100
AcDbEntity
  8
AM_0
100
AcDbLine
 10
367.4086698485652
 20
235.0482778595449
 30
0.0
 11
389.6354598485651
 21
234.272093859545
 31
0.0
  0
LINE
  5
3E14
330
1F
100
AcDbEntity
  8
ﾁｭｳｼﾝｾﾝ
100
AcDbLine
 10
281.9121474758786
 20
298.5482788595449
 30
0.0
 11
389.7718411689305
 21
298.5482788595449
 31
0.0
  0
LINE
  5
3E15
330
1F
100
AcDbEntity
  8
AM_0
100
AcDbLine
 10
410.9086998485651
 20
379.5482788595449
 30
0.0
 11
405.8388498485649
 21
379.3712488595448
 31
0.0
  0
LINE
  5
3E16
330
1F
100
AcDbEntity
  8
AM_0
100
AcDbLine
 10
390.0517098485652
 20
234.2283478595449
 30
0.0
 11
391.4295798485651
 21
233.9853958595448
 31
0.0
  0
LINE
  5
3E17
330
1F
100
AcDbEntity
  8
AM_0
100
AcDbLine
 10
390.1895298485651
 20
362.8924588595449
 30
0.0
 11
391.4295798485651
 21
363.1111288595449
 31
0.0
  0
LINE
  5
3E18
330
1F
100
AcDbEntity
  8
AM_0
100
AcDbLine
 10
398.7341598485651
 20
374.3675788595449
 30
0.0
 11
399.3793098485651
 21
374.390108859545
 31
0.0
  0
LINE
  5
3E19
330
1F
100
AcDbEntity
  8
AM_0
100
AcDbLine
 10
393.9086598485652
 20
369.3705988595449
 30
0.0
 11
393.9086598485652
 21
230.7482608595449
 31
0.0
  0
LINE
  5
3E1A
330
1F
100
AcDbEntity
  8
AM_0
100
AcDbLine
 10
367.4086698485652
 20
350.0482888595449
 30
0.0
 11
393.9086598485652
 21
350.0482888595449
 31
0.0
  0
LINE
  5
3E1B
330
1F
100
AcDbEntity
  8
AM_0
100
AcDbLine
 10
367.4086698485652
 20
335.6961988595449
 30
0.0
 11
393.9086598485652
 21
335.6961988595449
 31
0.0
  0
LINE
  5
3E1C
330
1F
100
AcDbEntity
  8
AM_0
100
AcDbLine
 10
367.4086698485652
 20
261.400343859545
 30
0.0
 11
393.9086598485652
 21
261.400343859545
 31
0.0
  0
LINE
  5
3E1D
330
1F
100
AcDbEntity
  8
AM_0
100
AcDbLine
 10
367.4086698485652
 20
247.0482628595449
 30
0.0
 11
393.9086598485652
 21
247.0482628595449
 31
0.0
  0
LINE
  5
3E1E
330
1F
100
AcDbEntity
  8
AM_0
100
AcDbLine
 10
403.9086198485652
 20
377.372468859545
 30
0.0
 11
403.9086198485652
 21
354.882368859545
 31
0.0
  0
LINE
  5
3E1F
330
1F
100
AcDbEntity
  8
AM_0
100
AcDbLine
 10
395.9086698485652
 20
331.697480859545
 30
0.0
 11
401.9086698485652
 21
331.697480859545
 31
0.0
  0
LINE
  5
3E20
330
1F
100
AcDbEntity
  8
AM_0
100
AcDbLine
 10
395.9086698485652
 20
352.882358859545
 30
0.0
 11
401.9086698485652
 21
352.882358859545
 31
0.0
  0
LINE
  5
3E21
330
1F
100
AcDbEntity
  8
AM_0
100
AcDbLine
 10
394.8240498485652
 20
325.2203698595449
 30
0.0
 11
401.9086698485652
 21
325.2203698595449
 31
0.0
  0
LINE
  5
3E22
330
1F
100
AcDbEntity
  8
AM_0
100
AcDbLine
 10
395.9086698485652
 20
237.0042868595449
 30
0.0
 11
401.9086698485652
 21
237.0042868595449
 31
0.0
  0
LINE
  5
3E23
330
1F
100
AcDbEntity
  8
AM_0
100
AcDbLine
 10
403.9086198485652
 20
329.697482859545
 30
0.0
 11
403.9086198485652
 21
239.0042878595449
 31
0.0
  0
LINE
  5
3E24
330
1F
100
AcDbEntity
  8
AM_0
100
AcDbLine
 10
367.4086698485652
 20
362.048258859545
 30
0.0
 11
367.4086698485652
 21
235.0482178595449
 31
0.0
  0
LINE
  5
3E25
330
1F
100
AcDbEntity
  8
AM_0
100
AcDbLine
 10
445.9086198485652
 20
339.0482818595449
 30
0.0
 11
445.9086198485652
 21
321.7482628595448
 31
0.0
  0
LINE
  5
3E26
330
1F
100
AcDbEntity
  8
AM_0
100
AcDbLine
 10
595.0301015776342
 20
230.7482608595449
 30
0.0
 11
602.8212395776343
 21
337.9579498595449
 31
0.0
  0
LINE
  5
3E27
330
1F
100
AcDbEntity
  8
AM_0
100
AcDbLine
 10
758.8359995776343
 20
350.902268859545
 30
0.0
 11
723.2769785776342
 21
369.9497788595448
 31
0.0
  0
LINE
  5
3E28
330
1F
100
AcDbEntity
  8
AM_0
100
AcDbLine
 10
775.0300985776342
 20
230.7482608595449
 30
0.0
 11
767.2389545776343
 21
337.9579498595449
 31
0.0
  0
LINE
  5
3E29
330
1F
100
AcDbEntity
  8
AM_0
100
AcDbLine
 10
611.2242245776342
 20
350.9022988595449
 30
0.0
 11
646.7832155776342
 21
369.949808859545
 31
0.0
  0
ARC
  5
3F0D
330
1F
100
AcDbEntity
  8
AM_0
100
AcDbCircle
 10
685.0301045776342
 20
321.7482628595448
 30
0.0
 40
14.0000013
100
AcDbArc
 50
106.6015399999994
 51
73.39845199999976
  0
CIRCLE
  5
3F0E
330
1F
100
AcDbEntity
  8
AM_5
100
AcDbCircle
 10
685.0301045776342
 20
321.7482628595448
 30
0.0
 40
4.000000199999998
  0
CIRCLE
  5
3F0F
330
1F
100
AcDbEntity
  8
AM_0
100
AcDbCircle
 10
685.0301045776342
 20
321.7482628595448
 30
0.0
 40
3.0
  0
ARC
  5
3F10
330
1F
100
AcDbEntity
  8
AM_0
100
AcDbCircle
 10
466.9086198485651
 20
373.080128859545
 30
0.0
 40
5.000000099999999
100
AcDbArc
 50
0.0
 51
88.49999699999981
  0
ARC
  5
3F11
330
1F
100
AcDbEntity
  8
AM_0
100
AcDbCircle
 10
740.0300915776342
 20
350.9982388595448
 30
0.0
 40
5.000000099999999
100
AcDbArc
 50
0.0
 51
43.64049999999745
  0
ARC
  5
3F12
330
1F
100
AcDbEntity
  8
AM_0
100
AcDbCircle
 10
685.0301045776342
 20
298.5482788595449
 30
0.0
 40
81.00000300000003
100
AcDbArc
 50
7.04859859999756
 51
172.9514000000008
  0
ARC
  5
3F13
330
1F
100
AcDbEntity
  8
AM_0
100
AcDbCircle
 10
773.0301065776342
 20
228.7482748595449
 30
0.0
 40
2.00000007
100
AcDbArc
 50
0.0
 51
90.00000300000015
  0
ARC
  5
3F14
330
1F
100
AcDbEntity
  8
AM_0
100
AcDbCircle
 10
476.9086698485652
 20
366.3798088595449
 30
0.0
 40
5.000000099999999
100
AcDbArc
 50
179.999989999999
 51
264.9999999999996
  0
ARC
  5
3F15
330
1F
100
AcDbEntity
  8
AM_0
100
AcDbCircle
 10
638.0301335776342
 20
222.7482748595449
 30
0.0
 40
5.000000099999999
100
AcDbArc
 50
270.0
 51
0.0
  0
ARC
  5
3F16
330
1F
100
AcDbEntity
  8
AM_0
100
AcDbCircle
 10
632.0301335776342
 20
215.7482758595449
 30
0.0
 40
2.00000007
100
AcDbArc
 50
90.00000300000015
 51
180.0000100000009
  0
ARC
  5
3F17
330
1F
100
AcDbEntity
  8
AM_0
100
AcDbCircle
 10
628.0301015776342
 20
228.7482748595449
 30
0.0
 40
2.00000007
100
AcDbArc
 50
0.0
 51
90.00000300000015
  0
ARC
  5
3F18
330
1F
100
AcDbEntity
  8
AM_0
100
AcDbCircle
 10
732.0301055776342
 20
222.7482748595449
 30
0.0
 40
5.000000099999999
100
AcDbArc
 50
179.999989999999
 51
270.0
  0
ARC
  5
3F19
330
1F
100
AcDbEntity
  8
AM_0
100
AcDbCircle
 10
597.0301115776343
 20
228.7482748595449
 30
0.0
 40
2.00000007
100
AcDbArc
 50
90.00000300000015
 51
180.0000100000009
  0
ARC
  5
3F1A
330
1F
100
AcDbEntity
  8
AM_0
100
AcDbCircle
 10
466.9086198485651
 20
248.3615728595449
 30
0.0
 40
5.000000099999999
100
AcDbArc
 50
270.0
 51
0.0
  0
ARC
  5
3F1B
330
1F
100
AcDbEntity
  8
AM_0
100
AcDbCircle
 10
458.9086698485651
 20
235.748258859545
 30
0.0
 40
5.000000099999999
100
AcDbArc
 50
179.999989999999
 51
270.0
  0
ARC
  5
3F1C
330
1F
100
AcDbEntity
  8
AM_0
100
AcDbCircle
 10
630.0301025776342
 20
350.9982388595448
 30
0.0
 40
5.000000099999999
100
AcDbArc
 50
136.3594900000007
 51
180.0000100000009
  0
ARC
  5
3F1D
330
1F
100
AcDbEntity
  8
AM_0
100
AcDbCircle
 10
685.0301045776342
 20
306.7482628595449
 30
0.0
 40
54.00000300000001
100
AcDbArc
 50
0.0
 51
180.0000100000009
  0
ARC
  5
3F1E
330
1F
100
AcDbEntity
  8
AM_0
100
AcDbCircle
 10
480.9086298485651
 20
357.9992788595449
 30
0.0
 40
3.0
100
AcDbArc
 50
0.0
 51
84.99999700000008
  0
ARC
  5
3F1F
330
1F
100
AcDbEntity
  8
AM_0
100
AcDbCircle
 10
404.9086698485651
 20
215.7482608595449
 30
0.0
 40
1.000000019999998
100
AcDbArc
 50
90.00000300000015
 51
180.0000100000009
  0
ARC
  5
3F20
330
1F
100
AcDbEntity
  8
AM_0
100
AcDbCircle
 10
404.4229698485652
 20
233.7482608595449
 30
0.0
 40
3.0
100
AcDbArc
 50
270.0
 51
349.2868799999994
  0
ARC
  5
3F21
330
1F
100
AcDbEntity
  8
AM_0
100
AcDbCircle
 10
484.9086198485651
 20
228.7482748595449
 30
0.0
 40
2.00000007
100
AcDbArc
 50
0.0
 51
90.00000300000015
  0
ARC
  5
3F22
330
1F
100
AcDbEntity
  8
AM_0
100
AcDbCircle
 10
378.9086598485651
 20
228.7482748595449
 30
0.0
 40
2.00000007
100
AcDbArc
 50
90.00000300000015
 51
180.0000100000009
  0
ARC
  5
3F23
330
1F
100
AcDbEntity
  8
AM_0
100
AcDbCircle
 10
685.0301045776342
 20
269.5482628595449
 30
0.0
 40
60.00000299999999
100
AcDbArc
 50
334.1580699999976
 51
0.0
  0
ARC
  5
3F24
330
1F
100
AcDbEntity
  8
AM_0
100
AcDbCircle
 10
685.0301045776342
 20
269.5482628595449
 30
0.0
 40
60.00000299999999
100
AcDbArc
 50
180.0000100000009
 51
205.8419300000025
  0
ARC
  5
3F25
330
1F
100
AcDbEntity
  8
AM_0
100
AcDbCircle
 10
463.9086198485651
 20
342.9815698595449
 30
0.0
 40
10.0000002
100
AcDbArc
 50
90.00000300000015
 51
180.0000100000009
  0
ARC
  5
3F26
330
1F
100
AcDbEntity
  8
AM_0
100
AcDbCircle
 10
742.0301045776342
 20
228.7482748595449
 30
0.0
 40
2.00000007
100
AcDbArc
 50
90.00000300000015
 51
180.0000100000009
  0
ARC
  5
3F27
330
1F
100
AcDbEntity
  8
AM_0
100
AcDbCircle
 10
738.0301055776342
 20
215.7482758595449
 30
0.0
 40
2.00000007
100
AcDbArc
 50
0.0
 51
90.00000300000015
  0
ARC
  5
3F28
330
1F
100
AcDbEntity
  8
AM_0
100
AcDbCircle
 10
722.0301065776342
 20
223.7482738595448
 30
0.0
 40
5.000000099999999
100
AcDbArc
 50
0.0
 51
90.00000300000015
  0
CIRCLE
  5
3F29
330
1F
100
AcDbEntity
  8
AM_0
100
AcDbCircle
 10
685.0301045776342
 20
321.7482628595448
 30
0.0
 40
29.000001
  0
ARC
  5
3F2A
330
1F
100
AcDbEntity
  8
AM_0
100
AcDbCircle
 10
648.0301025776342
 20
223.7482738595448
 30
0.0
 40
5.000000099999999
100
AcDbArc
 50
90.00000300000015
 51
180.0000100000009
  0
ARC
  5
3F2B
330
1F
100
AcDbEntity
  8
AM_0
100
AcDbCircle
 10
485.9086698485652
 20
232.6212448595448
 30
0.0
 40
2.00000007
100
AcDbArc
 50
179.999989999999
 51
255.52249
  0
ARC
  5
3F2C
330
1F
100
AcDbEntity
  8
AM_0
100
AcDbCircle
 10
685.0301045776342
 20
298.5482638595449
 30
0.0
 40
81.00000300000003
100
AcDbArc
 50
265.9727500000001
 51
274.0272499999999
  0
ARC
  5
3F2D
330
1F
100
AcDbEntity
  8
AM_0
100
AcDbCircle
 10
626.0301335776342
 20
235.7482738595448
 30
0.0
 40
5.000000099999999
100
AcDbArc
 50
270.0
 51
0.0
  0
ARC
  5
3F2E
330
1F
100
AcDbEntity
  8
AM_0
100
AcDbCircle
 10
744.0301055776342
 20
235.7482738595448
 30
0.0
 40
5.000000099999999
100
AcDbArc
 50
179.999989999999
 51
270.0
  0
ARC
  5
3F2F
330
1F
100
AcDbEntity
  8
AM_0
100
AcDbCircle
 10
485.9086698485652
 20
293.7224278595449
 30
0.0
 40
1.000000019999998
100
AcDbArc
 50
271.4999999999998
 51
0.0
  0
ARC
  5
3F30
330
1F
100
AcDbEntity
  8
AM_0
100
AcDbCircle
 10
484.9086198485651
 20
351.8009788595449
 30
0.0
 40
1.000000019999998
100
AcDbArc
 50
179.999989999999
 51
268.5000100000001
  0
ARC
  5
3F31
330
1F
100
AcDbEntity
  8
AM_0
100
AcDbCircle
 10
485.9086698485652
 20
349.7741188595449
 30
0.0
 40
1.000000019999998
100
AcDbArc
 50
0.0
 51
88.49999699999981
  0
ARC
  5
3F32
330
1F
100
AcDbEntity
  8
AM_0
100
AcDbCircle
 10
484.9086198485651
 20
291.6955438595449
 30
0.0
 40
1.000000019999998
100
AcDbArc
 50
91.50000099999992
 51
180.0000100000009
  0
ARC
  5
3F33
330
1F
100
AcDbEntity
  8
AM_0
100
AcDbCircle
 10
408.9086298485652
 20
268.2170878595449
 30
0.0
 40
5.000000099999999
100
AcDbArc
 50
349.2868799999994
 51
0.0
  0
ARC
  5
3F34
330
1F
100
AcDbEntity
  8
AM_0
100
AcDbCircle
 10
458.9086698485651
 20
215.7482608595449
 30
0.0
 40
1.000000019999998
100
AcDbArc
 50
0.0
 51
90.00000300000015
  0
ARC
  5
3F35
330
1F
100
AcDbEntity
  8
AM_0
100
AcDbCircle
 10
389.3212698485653
 20
367.8165388595449
 30
0.0
 40
5.000000099999999
100
AcDbArc
 50
272.0000000000001
 51
279.9999999999998
  0
ARC
  5
3F36
330
1F
100
AcDbEntity
  8
AM_0
100
AcDbCircle
 10
389.5307898485651
 20
231.2739418595449
 30
0.0
 40
3.0
100
AcDbArc
 50
79.99999800000029
 51
87.99999999999995
  0
ARC
  5
3F37
330
1F
100
AcDbEntity
  8
AM_0
100
AcDbCircle
 10
390.9086598485652
 20
231.0309748595449
 30
0.0
 40
3.0
100
AcDbArc
 50
0.0
 51
79.99999800000029
  0
ARC
  5
3F38
330
1F
100
AcDbEntity
  8
AM_0
100
AcDbCircle
 10
399.2048598485652
 20
379.3870588595449
 30
0.0
 40
5.000000099999999
100
AcDbArc
 50
272.0000000000001
 51
343.2736600000023
  0
ARC
  5
3F39
330
1F
100
AcDbEntity
  8
AM_0
100
AcDbCircle
 10
405.9086298485651
 20
377.372468859545
 30
0.0
 40
2.00000007
100
AcDbArc
 50
91.99999800000012
 51
163.2736499999998
  0
ARC
  5
3F3A
330
1F
100
AcDbEntity
  8
AM_0
100
AcDbCircle
 10
390.9086598485652
 20
366.0655888595448
 30
0.0
 40
3.0
100
AcDbArc
 50
279.9999999999998
 51
0.0
  0
ARC
  5
3F3B
330
1F
100
AcDbEntity
  8
AM_0
100
AcDbCircle
 10
398.9086698485652
 20
369.3705988595449
 30
0.0
 40
5.000000099999999
100
AcDbArc
 50
91.99999800000012
 51
180.0000100000009
  0
ARC
  5
3F3C
330
1F
100
AcDbEntity
  8
AM_0
100
AcDbCircle
 10
401.9086698485652
 20
239.0042878595449
 30
0.0
 40
2.00000007
100
AcDbArc
 50
270.0
 51
0.0
  0
ARC
  5
3F3D
330
1F
100
AcDbEntity
  8
AM_0
100
AcDbCircle
 10
395.9086698485652
 20
235.0043038595448
 30
0.0
 40
2.00000007
100
AcDbArc
 50
90.00000300000015
 51
180.0000100000009
  0
ARC
  5
3F3E
330
1F
100
AcDbEntity
  8
AM_0
100
AcDbCircle
 10
395.9086698485652
 20
333.6974818595448
 30
0.0
 40
2.00000007
100
AcDbArc
 50
179.999989999999
 51
270.0
  0
ARC
  5
3F3F
330
1F
100
AcDbEntity
  8
AM_0
100
AcDbCircle
 10
395.9086698485652
 20
350.8823488595449
 30
0.0
 40
2.00000007
100
AcDbArc
 50
90.00000300000015
 51
180.0000100000009
  0
ARC
  5
3F40
330
1F
100
AcDbEntity
  8
AM_0
100
AcDbCircle
 10
401.9086698485652
 20
354.882368859545
 30
0.0
 40
2.00000007
100
AcDbArc
 50
270.0
 51
0.0
  0
ARC
  5
3F41
330
1F
100
AcDbEntity
  8
AM_0
100
AcDbCircle
 10
401.9086698485652
 20
329.697482859545
 30
0.0
 40
2.00000007
100
AcDbArc
 50
0.0
 51
90.00000300000015
  0
ARC
  5
3F42
330
1F
100
AcDbEntity
  8
AM_0
100
AcDbCircle
 10
401.9086698485652
 20
323.2203688595449
 30
0.0
 40
2.00000007
100
AcDbArc
 50
0.0
 51
90.00000300000015
  0
ARC
  5
3F43
330
1F
100
AcDbEntity
  8
AM_0
100
AcDbCircle
 10
618.7791575776342
 20
336.7982818595449
 30
0.0
 40
16.0000005
100
AcDbArc
 50
118.1761399999995
 51
175.8435100000012
  0
ARC
  5
3F44
330
1F
100
AcDbEntity
  8
AM_0
100
AcDbCircle
 10
751.2810515776342
 20
336.7982818595449
 30
0.0
 40
16.0000005
100
AcDbArc
 50
4.156491599997511
 51
61.82386000000049
  0
POLYLINE
  5
3FE4
330
1F
100
AcDbEntity
  8
AM_0
100
AcDb2dPolyline
 66
     1
 10
0.0
 20
0.0
 30
0.0
  0
VERTEX
  5
3FE5
330
3FE4
100
AcDbEntity
  8
AM_0
100
AcDbVertex
100
AcDb2dVertex
 10
413.9086098485651
 20
230.7482608595449
 30
0.0
 42
0.12791153
  0
VERTEX
  5
3FE6
330
3FE4
100
AcDbEntity
  8
AM_0
100
AcDbVertex
100
AcDb2dVertex
 10
420.0027198485652
 20
232.4136778595449
 30
0.0
 42
0.075873116
  0
VERTEX
  5
3FE7
330
3FE4
100
AcDbEntity
  8
AM_0
100
AcDbVertex
100
AcDb2dVertex
 10
424.9840998485651
 20
236.3725768595449
 30
0.0
 42
0.04391337
  0
VERTEX
  5
3FE8
330
3FE4
100
AcDbEntity
  8
AM_0
100
AcDbVertex
100
AcDb2dVertex
 10
428.9248698485651
 20
241.3896928595449
 30
0.0
 42
0.028464649
  0
VERTEX
  5
3FE9
330
3FE4
100
AcDbEntity
  8
AM_0
100
AcDbVertex
100
AcDb2dVertex
 10
432.1170198485652
 20
246.916316859545
 30
0.0
 42
0.020370658
  0
VERTEX
  5
3FEA
330
3FE4
100
AcDbEntity
  8
AM_0
100
AcDbVertex
100
AcDb2dVertex
 10
434.7637398485651
 20
252.7286638595449
 30
0.0
 42
0.01565625
  0
VERTEX
  5
3FEB
330
3FE4
100
AcDbEntity
  8
AM_0
100
AcDbVertex
100
AcDb2dVertex
 10
436.9887498485651
 20
258.7152838595449
 30
0.0
 42
0.012688908
  0
VERTEX
  5
3FEC
330
3FE4
100
AcDbEntity
  8
AM_0
100
AcDbVertex
100
AcDb2dVertex
 10
438.8731398485651
 20
264.8183848595448
 30
0.0
 42
0.010707695
  0
VERTEX
  5
3FED
330
3FE4
100
AcDbEntity
  8
AM_0
100
AcDbVertex
100
AcDb2dVertex
 10
440.4714498485652
 20
271.003808859545
 30
0.0
 42
0.009324549
  0
VERTEX
  5
3FEE
330
3FE4
100
AcDbEntity
  8
AM_0
100
AcDbVertex
100
AcDb2dVertex
 10
441.8213898485651
 20
277.2477268595448
 30
0.0
 42
0.0083349477
  0
VERTEX
  5
3FEF
330
3FE4
100
AcDbEntity
  8
AM_0
100
AcDbVertex
100
AcDb2dVertex
 10
442.9507698485651
 20
283.5367288595449
 30
0.0
 42
0.0076122067
  0
VERTEX
  5
3FF0
330
3FE4
100
AcDbEntity
  8
AM_0
100
AcDbVertex
100
AcDb2dVertex
 10
443.8794498485651
 20
289.858901859545
 30
0.0
 42
0.0070829649
  0
VERTEX
  5
3FF1
330
3FE4
100
AcDbEntity
  8
AM_0
100
AcDbVertex
100
AcDb2dVertex
 10
444.6221898485649
 20
296.205662859545
 30
0.0
 42
0.0067007814
  0
VERTEX
  5
3FF2
330
3FE4
100
AcDbEntity
  8
AM_0
100
AcDbVertex
100
AcDb2dVertex
 10
445.1899698485651
 20
302.570711859545
 30
0.0
 42
0.0064353086
  0
VERTEX
  5
3FF3
330
3FE4
100
AcDbEntity
  8
AM_0
100
AcDbVertex
100
AcDb2dVertex
 10
445.590499848565
 20
308.9486998595449
 30
0.0
 42
0.0062673647
  0
VERTEX
  5
3FF4
330
3FE4
100
AcDbEntity
  8
AM_0
100
AcDbVertex
100
AcDb2dVertex
 10
445.8290598485651
 20
315.3348508595449
 30
0.0
 42
0.0061857305
  0
VERTEX
  5
3FF5
330
3FE4
100
AcDbEntity
  8
AM_0
100
AcDbVertex
100
AcDb2dVertex
 10
445.9086198485652
 20
321.724844859545
 30
0.0
  0
SEQEND
  5
3FF6
330
3FE4
100
AcDbEntity
  8
AM_0
 62
     7
  0
POLYLINE
  5
3FF7
330
1F
100
AcDbEntity
  8
AM_0
100
AcDb2dPolyline
 66
     1
 10
0.0
 20
0.0
 30
0.0
  0
VERTEX
  5
3FF8
330
3FF7
100
AcDbEntity
  8
AM_0
100
AcDbVertex
100
AcDb2dVertex
 10
445.9086198485652
 20
339.0482788595449
 30
0.0
 42
0.029628731
  0
VERTEX
  5
3FF9
330
3FF7
100
AcDbEntity
  8
AM_0
100
AcDbVertex
100
AcDb2dVertex
 10
445.7169798485652
 20
342.277571859545
 30
0.0
 42
0.029327543
  0
VERTEX
  5
3FFA
330
3FF7
100
AcDbEntity
  8
AM_0
100
AcDbVertex
100
AcDb2dVertex
 10
445.1472798485651
 20
345.4585108595448
 30
0.0
 42
0.028837186
  0
VERTEX
  5
3FFB
330
3FF7
100
AcDbEntity
  8
AM_0
100
AcDbVertex
100
AcDb2dVertex
 10
444.2114298485651
 20
348.5542288595449
 30
0.0
 42
0.028139479
  0
VERTEX
  5
3FFC
330
3FF7
100
AcDbEntity
  8
AM_0
100
AcDbVertex
100
AcDb2dVertex
 10
442.929049848565
 20
351.5247688595449
 30
0.0
 42
0.027280614
  0
VERTEX
  5
3FFD
330
3FF7
100
AcDbEntity
  8
AM_0
100
AcDbVertex
100
AcDb2dVertex
 10
441.3265698485651
 20
354.334178859545
 30
0.0
 42
0.026363464
  0
VERTEX
  5
3FFE
330
3FF7
100
AcDbEntity
  8
AM_0
100
AcDbVertex
100
AcDb2dVertex
 10
439.4319498485652
 20
356.9565988595449
 30
0.0
 42
0.025439158
  0
VERTEX
  5
3FFF
330
3FF7
100
AcDbEntity
  8
AM_0
100
AcDbVertex
100
AcDb2dVertex
 10
437.2743798485651
 20
359.3712088595449
 30
0.0
 42
0.024503424
  0
VERTEX
  5
4000
330
3FF7
100
AcDbEntity
  8
AM_0
100
AcDbVertex
100
AcDb2dVertex
 10
434.8879698485651
 20
361.5577288595449
 30
0.0
 42
0.023638789
  0
VERTEX
  5
4001
330
3FF7
100
AcDbEntity
  8
AM_0
100
AcDbVertex
100
AcDb2dVertex
 10
432.3024198485651
 20
363.504848859545
 30
0.0
 42
0.022857682
  0
VERTEX
  5
4002
330
3FF7
100
AcDbEntity
  8
AM_0
100
AcDbVertex
100
AcDb2dVertex
 10
429.5471598485651
 20
365.2036588595448
 30
0.0
 42
0.022175457
  0
VERTEX
  5
4003
330
3FF7
100
AcDbEntity
  8
AM_0
100
AcDbVertex
100
AcDb2dVertex
 10
426.650089848565
 20
366.6479788595449
 30
0.0
 42
0.021601125
  0
VERTEX
  5
4004
330
3FF7
100
AcDbEntity
  8
AM_0
100
AcDbVertex
100
AcDb2dVertex
 10
423.6376698485651
 20
367.8336688595449
 30
0.0
 42
0.021139333
  0
VERTEX
  5
4005
330
3FF7
100
AcDbEntity
  8
AM_0
100
AcDbVertex
100
AcDb2dVertex
 10
420.5348298485652
 20
368.7580288595449
 30
0.0
 42
0.020791974
  0
VERTEX
  5
4006
330
3FF7
100
AcDbEntity
  8
AM_0
100
AcDbVertex
100
AcDb2dVertex
 10
417.3654198485651
 20
369.419378859545
 30
0.0
 42
0.020559394
  0
VERTEX
  5
4007
330
3FF7
100
AcDbEntity
  8
AM_0
100
AcDbVertex
100
AcDb2dVertex
 10
414.1522998485651
 20
369.8167888595449
 30
0.0
 42
0.020441745
  0
VERTEX
  5
4008
330
3FF7
100
AcDbEntity
  8
AM_0
100
AcDbVertex
100
AcDb2dVertex
 10
410.9176398485651
 20
369.9497788595448
 30
0.0
  0
SEQEND
  5
4009
330
3FF7
100
AcDbEntity
  8
AM_0
 62
     7
  0
POLYLINE
  5
400A
330
1F
100
AcDbEntity
  8
AM_0
100
AcDb2dPolyline
 66
     1
 10
0.0
 20
0.0
 30
0.0
  0
VERTEX
  5
400B
330
400A
100
AcDbEntity
  8
AM_0
100
AcDbVertex
100
AcDb2dVertex
 10
443.9876598485652
 20
340.9270138595449
 30
0.0
 42
0.032705737
  0
VERTEX
  5
400C
330
400A
100
AcDbEntity
  8
AM_0
100
AcDbVertex
100
AcDb2dVertex
 10
442.0415298485651
 20
341.6755288595449
 30
0.0
 42
0.016814103
  0
VERTEX
  5
400D
330
400A
100
AcDbEntity
  8
AM_0
100
AcDbVertex
100
AcDb2dVertex
 10
440.0306898485651
 20
342.2377258595449
 30
0.0
 42
0.010836057
  0
VERTEX
  5
400E
330
400A
100
AcDbEntity
  8
AM_0
100
AcDbVertex
100
AcDb2dVertex
 10
437.9912898485651
 20
342.6905638595449
 30
0.0
 42
0.007863161
  0
VERTEX
  5
400F
330
400A
100
AcDbEntity
  8
AM_0
100
AcDbVertex
100
AcDb2dVertex
 10
435.9369198485651
 20
343.0676878595449
 30
0.0
 42
0.0061455438
  0
VERTEX
  5
4010
330
400A
100
AcDbEntity
  8
AM_0
100
AcDbVertex
100
AcDb2dVertex
 10
433.8726498485651
 20
343.387574859545
 30
0.0
 42
0.0050541015
  0
VERTEX
  5
4011
330
400A
100
AcDbEntity
  8
AM_0
100
AcDbVertex
100
AcDb2dVertex
 10
431.8009998485649
 20
343.6614808595449
 30
0.0
 42
0.0043145835
  0
VERTEX
  5
4012
330
400A
100
AcDbEntity
  8
AM_0
100
AcDbVertex
100
AcDb2dVertex
 10
429.7232598485651
 20
343.896815859545
 30
0.0
 42
0.0037842963
  0
VERTEX
  5
4013
330
400A
100
AcDbEntity
  8
AM_0
100
AcDbVertex
100
AcDb2dVertex
 10
427.644109848565
 20
344.0983528595449
 30
0.0
 42
0.003403486
  0
VERTEX
  5
4014
330
400A
100
AcDbEntity
  8
AM_0
100
AcDbVertex
100
AcDb2dVertex
 10
425.5600698485651
 20
344.2702198595449
 30
0.0
 42
0.0031173927
  0
VERTEX
  5
4015
330
400A
100
AcDbEntity
  8
AM_0
100
AcDbVertex
100
AcDb2dVertex
 10
423.4735698485651
 20
344.414966859545
 30
0.0
 42
0.0029018743
  0
VERTEX
  5
4016
330
400A
100
AcDbEntity
  8
AM_0
100
AcDbVertex
100
AcDb2dVertex
 10
421.3854798485652
 20
344.5346158595449
 30
0.0
 42
0.0027404553
  0
VERTEX
  5
4017
330
400A
100
AcDbEntity
  8
AM_0
100
AcDbVertex
100
AcDb2dVertex
 10
419.2961598485649
 20
344.6307238595449
 30
0.0
 42
0.0026217012
  0
VERTEX
  5
4018
330
400A
100
AcDbEntity
  8
AM_0
100
AcDbVertex
100
AcDb2dVertex
 10
417.2058498485649
 20
344.7044398595449
 30
0.0
 42
0.0025380412
  0
VERTEX
  5
4019
330
400A
100
AcDbEntity
  8
AM_0
100
AcDbVertex
100
AcDb2dVertex
 10
415.1148498485651
 20
344.7565978595449
 30
0.0
 42
0.0024845601
  0
VERTEX
  5
401A
330
400A
100
AcDbEntity
  8
AM_0
100
AcDbVertex
100
AcDb2dVertex
 10
413.023459848565
 20
344.787767859545
 30
0.0
 42
0.002458447
  0
VERTEX
  5
401B
330
400A
100
AcDbEntity
  8
AM_0
100
AcDbVertex
100
AcDb2dVertex
 10
410.9317698485652
 20
344.7982708595449
 30
0.0
  0
SEQEND
  5
401C
330
400A
100
AcDbEntity
  8
AM_0
 62
     7
  0
LINE
  5
428E
330
1F
100
AcDbEntity
  8
AM_0
100
AcDbLine
 10
367.4086698485652
 20
362.0698403595449
 30
0.0
 11
367.4086698485652
 21
235.0697933595449
 31
0.0
  0
LINE
  5
428F
330
1F
100
AcDbEntity
  8
0
  6
Continuous
 62
     7
100
AcDbLine
 10
367.4086698485652
 20
362.5698168595449
 30
0.0
 11
367.4086698485652
 21
234.5698168595449
 31
0.0
  0
LINE
  5
4290
330
1F
100
AcDbEntity
  8
0
  6
Continuous
 62
     7
100
AcDbLine
 10
291.908690928239
 20
328.5482788595449
 30
0.0
 11
291.908690928239
 21
268.5482788595449
 31
0.0
  0
LINE
  5
4291
330
1F
100
AcDbEntity
  8
0
100
AcDbLine
 10
334.6998090365314
 20
330.0641156312989
 30
0.0
 11
291.908690928239
 21
328.5698168595449
 31
0.0
  0
LINE
  5
4292
330
1F
100
AcDbEntity
  8
0
100
AcDbLine
 10
359.33887085516
 20
362.2880132690515
 30
0.0
 11
367.4086698485652
 21
362.5698168595449
 31
0.0
  0
LINE
  5
4293
330
1F
100
AcDbEntity
  8
0
100
AcDbLine
 10
357.4086698485652
 20
360.2892316150132
 30
0.0
 11
357.4086698485684
 21
236.8504021040766
 31
0.0
  0
ARC
  5
4294
330
1F
100
AcDbEntity
  8
0
100
AcDbCircle
 10
359.4086698485652
 20
360.2892316150132
 30
0.0
 40
2.0
100
AcDbArc
 50
92.00000000000049
 51
180.0
1001
GENIUS_GENOBJ-N-FIL_13
1002
{
1000
OWNER
1000
GEN
1002
}
1001
GENIUS_GENODEF_13
1002
{
1000
HIER
1070
     0
1002
}
1002
{
1000
MANEDIT
1070
     0
1002
}
1002
{
1000
NOSEL
1070
     0
1002
}
1002
{
1000
BEHIND
1070
     0
1002
}
1002
{
1000
OTHER
1070
     0
1002
}
1002
{
1000
REACTOR
1002
}
  0
ARC
  5
4295
330
1F
100
AcDbEntity
  8
0
100
AcDbCircle
 10
352.4086698485652
 20
358.1408846714104
 30
0.0
 40
5.0
100
AcDbArc
 50
315.0
 51
0.0
1001
GENIUS_GENOBJ-N-FIL_13
1002
{
1000
OWNER
1000
GEN
1002
}
1001
GENIUS_GENODEF_13
1002
{
1000
HIER
1070
     0
1002
}
1002
{
1000
MANEDIT
1070
     0
1002
}
1002
{
1000
NOSEL
1070
     0
1002
}
1002
{
1000
BEHIND
1070
     0
1002
}
1002
{
1000
OTHER
1070
     0
1002
}
1002
{
1000
REACTOR
1002
}
  0
LINE
  5
4296
330
1F
100
AcDbEntity
  8
0
100
AcDbLine
 10
332.6763584187191
 20
331.3375054296987
 30
0.0
 11
355.9442037544981
 21
354.6053507654775
 31
0.0
  0
ARC
  5
4297
330
1F
100
AcDbEntity
  8
0
100
AcDbCircle
 10
329.1408245127865
 20
334.8730393356313
 30
0.0
 40
5.0
100
AcDbArc
 50
272.0000000000005
 51
315.0
1001
GENIUS_GENOBJ-N-FIL_13
1002
{
1000
OWNER
1000
GEN
1002
}
1001
GENIUS_GENODEF_13
1002
{
1000
HIER
1070
     0
1002
}
1002
{
1000
MANEDIT
1070
     0
1002
}
1002
{
1000
NOSEL
1070
     0
1002
}
1002
{
1000
BEHIND
1070
     0
1002
}
1002
{
1000
OTHER
1070
     0
1002
}
1002
{
1000
REACTOR
1002
}
  0
LINE
  5
4298
330
1F
100
AcDbEntity
  8
0
100
AcDbLine
 10
334.6998090365314
 20
267.0755180877908
 30
0.0
 11
291.908690928239
 21
268.5698168595449
 31
0.0
  0
LINE
  5
4299
330
1F
100
AcDbEntity
  8
0
100
AcDbLine
 10
359.33887085516
 20
234.8516204500382
 30
0.0
 11
367.4086698485652
 21
234.5698168595449
 31
0.0
  0
ARC
  5
429A
330
1F
100
AcDbEntity
  8
0
100
AcDbCircle
 10
359.4086698485652
 20
236.8504021040766
 30
0.0
 40
2.0
100
AcDbArc
 50
180.0
 51
267.9999999999995
1001
GENIUS_GENOBJ-N-FIL_13
1002
{
1000
OWNER
1000
GEN
1002
}
1001
GENIUS_GENODEF_13
1002
{
1000
HIER
1070
     0
1002
}
1002
{
1000
MANEDIT
1070
     0
1002
}
1002
{
1000
NOSEL
1070
     0
1002
}
1002
{
1000
BEHIND
1070
     0
1002
}
1002
{
1000
OTHER
1070
     0
1002
}
1002
{
1000
REACTOR
1002
}
  0
ARC
  5
429B
330
1F
100
AcDbEntity
  8
0
100
AcDbCircle
 10
352.4086698485652
 20
238.9987490476793
 30
0.0
 40
5.0
100
AcDbArc
 50
0.0
 51
45.0
1001
GENIUS_GENOBJ-N-FIL_13
1002
{
1000
OWNER
1000
GEN
1002
}
1001
GENIUS_GENODEF_13
1002
{
1000
HIER
1070
     0
1002
}
1002
{
1000
MANEDIT
1070
     0
1002
}
1002
{
1000
NOSEL
1070
     0
1002
}
1002
{
1000
BEHIND
1070
     0
1002
}
1002
{
1000
OTHER
1070
     0
1002
}
1002
{
1000
REACTOR
1002
}
  0
LINE
  5
429C
330
1F
100
AcDbEntity
  8
0
100
AcDbLine
 10
332.6763584187191
 20
265.8021282893912
 30
0.0
 11
355.9442037544981
 21
242.5342829536122
 31
0.0
  0
ARC
  5
429D
330
1F
100
AcDbEntity
  8
0
100
AcDbCircle
 10
329.1408245127865
 20
262.2665943834586
 30
0.0
 40
5.0
100
AcDbArc
 50
45.0
 51
87.99999999999952
1001
GENIUS_GENOBJ-N-FIL_13
1002
{
1000
OWNER
1000
GEN
1002
}
1001
GENIUS_GENODEF_13
1002
{
1000
HIER
1070
     0
1002
}
1002
{
1000
MANEDIT
1070
     0
1002
}
1002
{
1000
NOSEL
1070
     0
1002
}
1002
{
1000
BEHIND
1070
     0
1002
}
1002
{
1000
OTHER
1070
     0
1002
}
1002
{
1000
REACTOR
1002
}
  0
ARC
  5
429E
330
1F
100
AcDbEntity
  8
図面枠-ｷｲﾛ
100
AcDbCircle
 10
417.3103422118463
 20
298.5698168595448
 30
0.0
 40
81.58989117312719
100
AcDbArc
 50
162.1810811943898
 51
197.8189188056101
  0
ARC
  5
429F
330
1F
100
AcDbEntity
  8
図面枠-ｷｲﾛ
100
AcDbCircle
 10
334.874306520044
 20
272.0724722228862
 30
0.0
 40
5.0
100
AcDbArc
 50
267.9999999999995
 51
17.81891880561013
1001
GENIUS_GENOBJ-N-FIL_13
1002
{
1000
OWNER
1000
GEN
1002
}
1001
GENIUS_GENODEF_13
1002
{
1000
HIER
1070
     0
1002
}
1002
{
1000
MANEDIT
1070
     0
1002
}
1002
{
1000
NOSEL
1070
     0
1002
}
1002
{
1000
BEHIND
1070
     0
1002
}
1002
{
1000
OTHER
1070
     0
1002
}
1002
{
1000
REACTOR
1002
}
  0
ARC
  5
42A0
330
1F
100
AcDbEntity
  8
図面枠-ｷｲﾛ
100
AcDbCircle
 10
334.8743065200439
 20
325.0671614962036
 30
0.0
 40
5.0
100
AcDbArc
 50
342.1810811943899
 51
92.00000000000049
1001
GENIUS_GENODEF_13
1002
{
1000
HIER
1070
     0
1002
}
1002
{
1000
MANEDIT
1070
     0
1002
}
1002
{
1000
NOSEL
1070
     0
1002
}
1002
{
1000
BEHIND
1070
     0
1002
}
1002
{
1000
OTHER
1070
     0
1002
}
1002
{
1000
REACTOR
1002
}
1001
GENIUS_GENOBJ-N-FIL_13
1002
{
1000
OWNER
1000
GEN
1002
}
  0
LINE
  5
42A1
330
1F
100
AcDbEntity
  8
AM_0
100
AcDbLine
 10
367.4086698485652
 20
362.0698118595449
 30
0.0
 11
367.4086698485652
 21
235.0697528595449
 31
0.0
  0
LINE
  5
4526
330
1F
100
AcDbEntity
  8
AM_0
100
AcDbLine
 10
367.4086698485652
 20
350.0698463595449
 30
0.0
 11
357.4086698485654
 21
350.0698463595446
 31
0.0
  0
LINE
  5
4527
330
1F
100
AcDbEntity
  8
AM_0
100
AcDbLine
 10
367.4086698485652
 20
336.5661593595448
 30
0.0
 11
357.4086698485658
 21
336.5661593595447
 31
0.0
  0
LINE
  5
4528
330
1F
100
AcDbEntity
  8
AM_0
100
AcDbLine
 10
367.4086698485652
 20
260.5735433595448
 30
0.0
 11
357.4086698485678
 21
260.5735433595446
 31
0.0
  0
LINE
  5
4529
330
1F
100
AcDbEntity
  8
AM_0
100
AcDbLine
 10
367.4086698485652
 20
247.0698653595449
 30
0.0
 11
357.4086698485682
 21
247.0698653595446
 31
0.0
  0
LINE
  5
45AE
330
1F
100
AcDbEntity
  8
AM_0
100
AcDbLine
 10
367.4086698485653
 20
473.4227957842376
 30
0.0
 11
367.4086698485653
 21
600.4227957842378
 31
0.0
  0
LINE
  5
45AF
330
1F
100
AcDbEntity
  8
0
  6
Continuous
 62
     7
100
AcDbLine
 10
291.9086871136685
 20
566.9227912842376
 30
0.0
 11
291.9086871136685
 21
506.9227912842375
 31
0.0
  0
LINE
  5
45B0
330
1F
100
AcDbEntity
  8
0
100
AcDbLine
 10
342.6574288140356
 20
568.6949808951526
 30
0.0
 11
291.9086871136685
 21
566.9227957842375
 31
0.0
  0
LINE
  5
45B1
330
1F
100
AcDbEntity
  8
0
100
AcDbLine
 10
342.6574198356176
 20
505.1506109868554
 30
0.0
 11
291.9086871136684
 21
506.9227957842374
 31
0.0
  0
LINE
  5
45B2
330
1F
100
AcDbEntity
  8
0
100
AcDbLine
 10
359.3388670405896
 20
600.6409921937439
 30
0.0
 11
367.4086660339948
 21
600.9227957842373
 31
0.0
  0
LINE
  5
45B3
330
1F
100
AcDbEntity
  8
0
100
AcDbLine
 10
357.4086660339947
 20
598.6422105397057
 30
0.0
 11
357.4086660339979
 21
475.2033799538103
 31
0.0
  0
ARC
  5
45B4
330
1F
100
AcDbEntity
  8
0
100
AcDbCircle
 10
359.4086660339947
 20
598.6422105397057
 30
0.0
 40
2.0
100
AcDbArc
 50
92.00000000000034
 51
180.0
1001
GENIUS_GENOBJ-N-FIL_13
1002
{
1000
OWNER
1000
GEN
1002
}
1001
GENIUS_GENODEF_13
1002
{
1000
HIER
1070
     0
1002
}
1002
{
1000
MANEDIT
1070
     0
1002
}
1002
{
1000
NOSEL
1070
     0
1002
}
1002
{
1000
BEHIND
1070
     0
1002
}
1002
{
1000
OTHER
1070
     0
1002
}
1002
{
1000
REACTOR
1002
}
  0
ARC
  5
45B5
330
1F
100
AcDbEntity
  8
0
100
AcDbCircle
 10
352.4086660339947
 20
596.4938635961028
 30
0.0
 40
5.0
100
AcDbArc
 50
315.0
 51
0.0
1001
GENIUS_GENOBJ-N-FIL_13
1002
{
1000
OWNER
1000
GEN
1002
}
1001
GENIUS_GENODEF_13
1002
{
1000
HIER
1070
     0
1002
}
1002
{
1000
MANEDIT
1070
     0
1002
}
1002
{
1000
NOSEL
1070
     0
1002
}
1002
{
1000
BEHIND
1070
     0
1002
}
1002
{
1000
OTHER
1070
     0
1002
}
1002
{
1000
REACTOR
1002
}
  0
LINE
  5
45B6
330
1F
100
AcDbEntity
  8
0
100
AcDbLine
 10
332.6763546041487
 20
569.6904843543912
 30
0.0
 11
355.9441999399275
 21
592.9583296901703
 31
0.0
  0
ARC
  5
45B7
330
1F
100
AcDbEntity
  8
0
100
AcDbCircle
 10
329.1408206982159
 20
573.2260182603237
 30
0.0
 40
5.0
100
AcDbArc
 50
272.0000000000004
 51
315.0
1001
GENIUS_GENOBJ-N-FIL_13
1002
{
1000
OWNER
1000
GEN
1002
}
1001
GENIUS_GENODEF_13
1002
{
1000
HIER
1070
     0
1002
}
1002
{
1000
MANEDIT
1070
     0
1002
}
1002
{
1000
NOSEL
1070
     0
1002
}
1002
{
1000
BEHIND
1070
     0
1002
}
1002
{
1000
OTHER
1070
     0
1002
}
1002
{
1000
REACTOR
1002
}
  0
LINE
  5
45B8
330
1F
100
AcDbEntity
  8
0
100
AcDbLine
 10
332.6763546041487
 20
504.1551072140838
 30
0.0
 11
355.9441999399275
 21
480.8872618783047
 31
0.0
  0
ARC
  5
45B9
330
1F
100
AcDbEntity
  8
0
100
AcDbCircle
 10
329.140820698216
 20
500.6195733081511
 30
0.0
 40
5.0
100
AcDbArc
 50
45.0
 51
87.99999999999966
1001
GENIUS_GENOBJ-N-FIL_13
1002
{
1000
OWNER
1000
GEN
1002
}
1001
GENIUS_GENODEF_13
1002
{
1000
HIER
1070
     0
1002
}
1002
{
1000
MANEDIT
1070
     0
1002
}
1002
{
1000
NOSEL
1070
     0
1002
}
1002
{
1000
BEHIND
1070
     0
1002
}
1002
{
1000
OTHER
1070
     0
1002
}
1002
{
1000
REACTOR
1002
}
  0
LINE
  5
45BA
330
1F
100
AcDbEntity
  8
AM_5
 62
     2
100
AcDbLine
 10
357.4086660339953
 20
575.022795188211
 30
0.0
 11
367.4086675777037
 21
575.0227957842374
 31
0.0
1001
GENIUS_GENODEF_13
1002
{
1000
HIER
1070
     0
1002
}
1002
{
1000
MANEDIT
1070
     0
1002
}
1002
{
1000
NOSEL
1070
     0
1002
}
1002
{
1000
BEHIND
1070
     0
1002
}
1002
{
1000
OTHER
1070
     0
1002
}
1002
{
1000
REACTOR
1002
}
1001
GENIUS_GENOBJ-N-CEN_13
1002
{
1000
OWNER
1000
GEN
1002
}
1001
GENIUS_GENCEN_19
1002
{
1040
2.793999999999999
1002
}
  0
LINE
  5
45BB
330
1F
100
AcDbEntity
  8
AM_5
 62
     2
100
AcDbLine
 10
357.4086660339974
 20
498.8227951882109
 30
0.0
 11
367.4086721194268
 21
498.8227957842378
 31
0.0
1001
GENIUS_GENODEF_13
1002
{
1000
HIER
1070
     0
1002
}
1002
{
1000
MANEDIT
1070
     0
1002
}
1002
{
1000
NOSEL
1070
     0
1002
}
1002
{
1000
BEHIND
1070
     0
1002
}
1002
{
1000
OTHER
1070
     0
1002
}
1002
{
1000
REACTOR
1002
}
1001
GENIUS_GENOBJ-N-CEN_13
1002
{
1000
OWNER
1000
GEN
1002
}
1001
GENIUS_GENCEN_19
1002
{
1040
2.793999999999999
1002
}
  0
LINE
  5
45BC
330
1F
100
AcDbEntity
  8
0
100
AcDbLine
 10
357.4086660339976
 20
485.4227951882108
 30
0.0
 11
367.4086729181025
 21
485.4227957842378
 31
0.0
1001
GENIUS_GENODEF_13
1002
{
1000
HIER
1070
     0
1002
}
1002
{
1000
MANEDIT
1070
     0
1002
}
1002
{
1000
NOSEL
1070
     0
1002
}
1002
{
1000
BEHIND
1070
     0
1002
}
1002
{
1000
OTHER
1070
     0
1002
}
1002
{
1000
REACTOR
1002
}
1001
GENIUS_GENOBJ-N-CEN_13
1002
{
1000
OWNER
1000
GEN
1002
}
1001
GENIUS_GENCEN_19
1002
{
1040
2.793999999999999
1002
}
  0
LINE
  5
45BD
330
1F
100
AcDbEntity
  8
0
100
AcDbLine
 10
357.4086660339949
 20
588.4227951882109
 30
0.0
 11
367.408666779028
 21
588.4227957842376
 31
0.0
1001
GENIUS_GENODEF_13
1002
{
1000
HIER
1070
     0
1002
}
1002
{
1000
MANEDIT
1070
     0
1002
}
1002
{
1000
NOSEL
1070
     0
1002
}
1002
{
1000
BEHIND
1070
     0
1002
}
1002
{
1000
OTHER
1070
     0
1002
}
1002
{
1000
REACTOR
1002
}
1001
GENIUS_GENOBJ-N-CEN_13
1002
{
1000
OWNER
1000
GEN
1002
}
1001
GENIUS_GENCEN_19
1002
{
1040
2.793999999999999
1002
}
  0
LINE
  5
45BE
330
1F
100
AcDbEntity
  8
0
100
AcDbLine
 10
359.3388746361383
 20
473.2045984127684
 30
0.0
 11
367.4086736631358
 21
472.9227957842381
 31
0.0
  0
ARC
  5
45BF
330
1F
100
AcDbEntity
  8
0
100
AcDbCircle
 10
359.408673391278
 20
475.203380075127
 30
0.0
 40
2.0
100
AcDbArc
 50
180.0000068299612
 51
268.0000068299624
1001
GENIUS_GENOBJ-N-FIL_13
1002
{
1000
OWNER
1000
GEN
1002
}
1001
GENIUS_GENODEF_13
1002
{
1000
HIER
1070
     0
1002
}
1002
{
1000
MANEDIT
1070
     0
1002
}
1002
{
1000
NOSEL
1070
     0
1002
}
1002
{
1000
BEHIND
1070
     0
1002
}
1002
{
1000
OTHER
1070
     0
1002
}
1002
{
1000
REACTOR
1002
}
  0
ARC
  5
45C0
330
1F
100
AcDbEntity
  8
0
100
AcDbCircle
 10
352.4086731351837
 20
477.3517261842926
 30
0.0
 40
5.0
100
AcDbArc
 50
0.0000068299611879
 51
45.00000682996163
1001
GENIUS_GENOBJ-N-FIL_13
1002
{
1000
OWNER
1000
GEN
1002
}
1001
GENIUS_GENODEF_13
1002
{
1000
HIER
1070
     0
1002
}
1002
{
1000
MANEDIT
1070
     0
1002
}
1002
{
1000
NOSEL
1070
     0
1002
}
1002
{
1000
BEHIND
1070
     0
1002
}
1002
{
1000
OTHER
1070
     0
1002
}
1002
{
1000
REACTOR
1002
}
  0
ARC
  5
45C1
330
1F
100
AcDbEntity
  8
AM_5
 62
     2
100
AcDbCircle
 10
370.6733407802135
 20
536.9227917273117
 30
0.0
 40
38.83431186232895
100
AcDbArc
 50
133.1867259405558
 51
226.813256781428
  0
ARC
  5
45C2
330
1F
100
AcDbEntity
  8
AM_5
 62
     2
100
AcDbCircle
 10
342.7272188290227
 20
507.1493926408937
 30
0.0
 40
2.0
100
AcDbArc
 50
267.9999999999997
 51
46.81325678142335
1001
GENIUS_GENODEF_13
1002
{
1000
HIER
1070
     0
1002
}
1002
{
1000
MANEDIT
1070
     0
1002
}
1002
{
1000
NOSEL
1070
     0
1002
}
1002
{
1000
BEHIND
1070
     0
1002
}
1002
{
1000
OTHER
1070
     0
1002
}
1002
{
1000
REACTOR
1002
}
1001
GENIUS_GENOBJ-N-FIL_13
1002
{
1000
OWNER
1000
GEN
1002
}
  0
ARC
  5
45C3
330
1F
100
AcDbEntity
  8
AM_5
 62
     2
100
AcDbCircle
 10
342.7272278074407
 20
566.6961992411143
 30
0.0
 40
2.0
100
AcDbArc
 50
313.186725940556
 51
92.00000000000034
1001
GENIUS_GENODEF_13
1002
{
1000
HIER
1070
     0
1002
}
1002
{
1000
MANEDIT
1070
     0
1002
}
1002
{
1000
NOSEL
1070
     0
1002
}
1002
{
1000
BEHIND
1070
     0
1002
}
1002
{
1000
OTHER
1070
     0
1002
}
1002
{
1000
REACTOR
1002
}
1001
GENIUS_GENOBJ-N-FIL_13
1002
{
1000
OWNER
1000
GEN
1002
}
  0
LINE
  5
45C4
330
1F
100
AcDbEntity
  8
0
100
AcDbLine
 10
320.4086871136686
 20
329.543520656852
 30
0.0
 11
320.4086871136686
 21
329.9482833595448
 31
0.0
1001
GENIUS_GENOBJ-N-CEN_13
1002
{
1000
OWNER
1000
GEN
1002
}
1001
GENIUS_GENODEF_13
1002
{
1000
HIER
1070
     0
1002
}
1002
{
1000
MANEDIT
1070
     0
1002
}
1002
{
1000
NOSEL
1070
     0
1002
}
1002
{
1000
BEHIND
1070
     0
1002
}
1002
{
1000
OTHER
1070
     0
1002
}
1002
{
1000
REACTOR
1002
}
1001
GENIUS_GENCEN_19
1002
{
1040
2.793999999999999
1002
}
  0
LINE
  5
45C5
330
1F
100
AcDbEntity
  8
0
100
AcDbLine
 10
303.4086871136687
 20
328.9482833595449
 30
0.0
 11
303.4086871136687
 21
329.9482833595448
 31
0.0
1001
GENIUS_GENOBJ-N-CEN_13
1002
{
1000
OWNER
1000
GEN
1002
}
1001
GENIUS_GENODEF_13
1002
{
1000
HIER
1070
     0
1002
}
1002
{
1000
MANEDIT
1070
     0
1002
}
1002
{
1000
NOSEL
1070
     0
1002
}
1002
{
1000
BEHIND
1070
     0
1002
}
1002
{
1000
OTHER
1070
     0
1002
}
1002
{
1000
REACTOR
1002
}
1001
GENIUS_GENCEN_19
1002
{
1040
2.793999999999999
1002
}
  0
LINE
  5
45C6
330
1F
100
AcDbEntity
  8
0
100
AcDbLine
 10
302.9086871136687
 20
328.9324071907465
 30
0.0
 11
302.9086871136686
 21
328.9482833595449
 31
0.0
1001
GENIUS_GENOBJ-N-CEN_13
1002
{
1000
OWNER
1000
GEN
1002
}
1001
GENIUS_GENODEF_13
1002
{
1000
HIER
1070
     0
1002
}
1002
{
1000
MANEDIT
1070
     0
1002
}
1002
{
1000
NOSEL
1070
     0
1002
}
1002
{
1000
BEHIND
1070
     0
1002
}
1002
{
1000
OTHER
1070
     0
1002
}
1002
{
1000
REACTOR
1002
}
1001
GENIUS_GENCEN_19
1002
{
1040
2.793999999999999
1002
}
  0
LINE
  5
45C7
330
1F
100
AcDbEntity
  8
0
100
AcDbLine
 10
302.9086871136686
 20
328.9482833595448
 30
0.0
 11
303.3633211045402
 21
328.9482833595448
 31
0.0
  0
LINE
  5
45C8
330
1F
100
AcDbEntity
  8
図面枠-ｷｲﾛ
100
AcDbLine
 10
303.4086871136687
 20
329.9482833595448
 30
0.0
 11
320.4086871136686
 21
329.9482833595448
 31
0.0
  0
ARC
  5
45C9
330
1F
100
AcDbEntity
  8
0
100
AcDbCircle
 10
311.9086871136687
 20
312.8857833595448
 30
0.0
 40
19.06249999999999
100
AcDbArc
 50
63.51896016962665
 51
116.4810398303733
  0
LINE
  5
45CA
330
1F
100
AcDbEntity
  8
AM_7
  6
AM_ISO08W050x2
 62
     1
370
    25
100
AcDbLine
 10
311.9086871136687
 20
334.7422833595449
 30
0.0
 11
311.9086871136687
 21
319.6844418205612
 31
0.0
1001
GENIUS_GENODEF_13
1002
{
1000
HIER
1070
     0
1002
}
1002
{
1000
MANEDIT
1070
     0
1002
}
1002
{
1000
NOSEL
1070
     0
1002
}
1002
{
1000
BEHIND
1070
     0
1002
}
1002
{
1000
OTHER
1070
     0
1002
}
1002
{
1000
REACTOR
1002
}
1001
GENIUS_GENOBJ-N-CEN_13
1002
{
1000
OWNER
1000
GEN
1002
}
1001
GENIUS_GENCEN_19
1002
{
1040
2.793999999999999
1002
}
  0
CIRCLE
  5
45CB
330
1F
100
AcDbEntity
  8
0
100
AcDbCircle
 10
311.9086871136687
 20
550.9227924762909
 30
0.0
 40
10.0
  0
LINE
  5
45CC
330
1F
100
AcDbEntity
  8
ﾁｭｳｼﾝｾﾝ1
 48
0.7
100
AcDbLine
 10
311.9086871136687
 20
563.9227924762908
 30
0.0
 11
311.9086871136687
 21
537.922792476291
 31
0.0
1001
GENIUS_GENODEF_13
1002
{
1000
HIER
1070
     0
1002
}
1002
{
1000
MANEDIT
1070
     0
1002
}
1002
{
1000
NOSEL
1070
     0
1002
}
1002
{
1000
BEHIND
1070
     0
1002
}
1002
{
1000
OTHER
1070
     0
1002
}
1002
{
1000
REACTOR
1002
}
1001
GENIUS_GENOBJ-N-CEN_13
1002
{
1000
OWNER
1000
GEN
1002
}
1001
GENIUS_GENCEN_19
1002
{
1040
3.0
1002
}
  0
LINE
  5
45CD
330
1F
100
AcDbEntity
  8
AM_0
100
AcDbLine
 10
310.9086871136686
 20
555.9227924762908
 30
0.0
 11
310.9086871136686
 21
545.922792476291
 31
0.0
1001
GENIUS_GENODEF_13
1002
{
1000
HIER
1070
     0
1002
}
1002
{
1000
MANEDIT
1070
     0
1002
}
1002
{
1000
NOSEL
1070
     0
1002
}
1002
{
1000
BEHIND
1070
     0
1002
}
1002
{
1000
OTHER
1070
     0
1002
}
1002
{
1000
REACTOR
1002
}
1001
GENIUS_GENOBJ-N-CEN_13
1002
{
1000
OWNER
1000
GEN
1002
}
1001
GENIUS_GENCEN_19
1002
{
1040
3.0
1002
}
  0
LINE
  5
45CE
330
1F
100
AcDbEntity
  8
AM_0
100
AcDbLine
 10
312.9086871136686
 20
555.9227924762908
 30
0.0
 11
312.9086871136686
 21
545.922792476291
 31
0.0
1001
GENIUS_GENODEF_13
1002
{
1000
HIER
1070
     0
1002
}
1002
{
1000
MANEDIT
1070
     0
1002
}
1002
{
1000
NOSEL
1070
     0
1002
}
1002
{
1000
BEHIND
1070
     0
1002
}
1002
{
1000
OTHER
1070
     0
1002
}
1002
{
1000
REACTOR
1002
}
1001
GENIUS_GENOBJ-N-CEN_13
1002
{
1000
OWNER
1000
GEN
1002
}
1001
GENIUS_GENCEN_19
1002
{
1040
3.0
1002
}
  0
CIRCLE
  5
45CF
330
1F
100
AcDbEntity
  8
AM_0
100
AcDbCircle
 10
311.9086871136687
 20
550.9227924762909
 30
0.0
 40
8.500000000000056
  0
CIRCLE
  5
45D0
330
1F
100
AcDbEntity
  8
AM_0
100
AcDbCircle
 10
311.9086871136687
 20
550.9227924762909
 30
0.0
 40
8.999999999999969
  0
ARC
  5
45D1
330
1F
100
AcDbEntity
  8
AM_0
100
AcDbCircle
 10
311.9086871136687
 20
555.9227924762908
 30
0.0
 40
1.0
100
AcDbArc
 50
0.0
 51
180.0
  0
ARC
  5
45D2
330
1F
100
AcDbEntity
  8
AM_0
100
AcDbCircle
 10
311.9086871136687
 20
545.922792476291
 30
0.0
 40
1.0
100
AcDbArc
 50
180.0
 51
0.0
  0
LINE
  5
45D3
330
1F
100
AcDbEntity
  8
ﾁｭｳｼﾝｾﾝ1
 48
0.7
100
AcDbLine
 10
298.9086871136686
 20
550.9227924762909
 30
0.0
 11
324.9086871136686
 21
550.9227924762909
 31
0.0
1001
GENIUS_GENOBJ-N-CEN_13
1002
{
1000
OWNER
1000
GEN
1002
}
1001
GENIUS_GENODEF_13
1002
{
1000
HIER
1070
     0
1002
}
1002
{
1000
MANEDIT
1070
     0
1002
}
1002
{
1000
NOSEL
1070
     0
1002
}
1002
{
1000
BEHIND
1070
     0
1002
}
1002
{
1000
OTHER
1070
     0
1002
}
1002
{
1000
REACTOR
1002
}
1001
GENIUS_GENCEN_19
1002
{
1040
3.0
1002
}
  0
TEXT
  5
45DC
330
1F
100
AcDbEntity
  8
AM_0
100
AcDbText
 10
599.7638163826422
 20
436.707444293605
 30
0.0
 40
7.5
  1
ＶＸ０４－０６０～１００Ｈ－Ｔ１（Ｔ３）
 41
0.8299999999999998
100
AcDbText
  0
LINE
  5
4672
330
1F
100
AcDbEntity
  8
0
  6
Continuous
 62
     7
100
AcDbLine
 10
486.9086698485653
 20
521.9227957842377
 30
0.0
 11
489.9086698485652
 21
521.9227957842377
 31
0.0
  0
LINE
  5
4673
330
1F
100
AcDbEntity
  8
0
  6
Continuous
 62
     7
100
AcDbLine
 10
531.9086398485652
 20
550.9228257842378
 30
0.0
 11
531.9086398485652
 21
522.9228257842378
 31
0.0
  0
LINE
  5
4674
330
1F
100
AcDbEntity
  8
0
  6
Continuous
 62
     7
100
AcDbLine
 10
489.9086698485652
 20
550.9228257842378
 30
0.0
 11
531.9086398485652
 21
550.9228257842378
 31
0.0
  0
LINE
  5
4675
330
1F
100
AcDbEntity
  8
0
  6
Continuous
 62
     7
100
AcDbLine
 10
489.9086698485652
 20
551.9227957842376
 30
0.0
 11
489.9086698485652
 21
521.9227957842377
 31
0.0
  0
LINE
  5
4676
330
1F
100
AcDbEntity
  8
0
  6
Continuous
 62
     7
100
AcDbLine
 10
489.9086698485652
 20
522.9228257842378
 30
0.0
 11
531.9086398485652
 21
522.9228257842378
 31
0.0
  0
LINE
  5
4677
330
1F
100
AcDbEntity
  8
0
  6
Continuous
 62
     7
100
AcDbLine
 10
499.9086398485653
 20
540.9227657842376
 30
0.0
 11
499.9086398485653
 21
532.9227957842378
 31
0.0
  0
LINE
  5
4678
330
1F
100
AcDbEntity
  8
0
  6
Continuous
 62
     7
100
AcDbLine
 10
486.9086698485653
 20
551.9227957842376
 30
0.0
 11
489.9086698485652
 21
551.9227957842376
 31
0.0
  0
LINE
  5
4679
330
1F
100
AcDbEntity
  8
0
  6
Continuous
 62
     7
100
AcDbLine
 10
484.8825198485652
 20
565.9758657842377
 30
0.0
 11
485.9348498485653
 21
565.9483057842377
 31
0.0
  0
LINE
  5
467A
330
1F
100
AcDbEntity
  8
0
  6
Continuous
 62
     7
100
AcDbLine
 10
379.1322398485653
 20
601.2411257842377
 30
0.0
 11
380.4823698485653
 21
600.8793357842376
 31
0.0
  0
LINE
  5
467B
330
1F
100
AcDbEntity
  8
0
  6
Continuous
 62
     7
100
AcDbLine
 10
376.9086698485653
 20
623.0314357842376
 30
0.0
 11
376.9086698485653
 21
604.1388857842378
 31
0.0
  0
LINE
  5
467C
330
1F
100
AcDbEntity
  8
0
  6
Continuous
 62
     7
100
AcDbLine
 10
486.9086698485653
 20
622.0887457842377
 30
0.0
 11
486.9086698485653
 21
594.9227957842378
 31
0.0
  0
LINE
  5
467E
330
1F
100
AcDbEntity
  8
0
  6
Continuous
 62
     7
100
AcDbLine
 10
413.9086698485653
 20
626.9227957842377
 30
0.0
 11
483.9871898485652
 21
625.0877157842377
 31
0.0
  0
LINE
  5
467F
330
1F
100
AcDbEntity
  8
0
  6
Continuous
 62
     7
100
AcDbLine
 10
379.8301498485653
 20
626.0303957842377
 30
0.0
 11
413.9086698485653
 21
626.9227657842377
 31
0.0
  0
LINE
  5
4681
330
1F
100
AcDbEntity
  8
ﾁｭｳｼﾝｾﾝ1
 48
0.5
100
AcDbLine
 10
471.9086698485653
 20
620.4681757842377
 30
0.0
 11
471.9086698485653
 21
603.3774157842377
 31
0.0
  0
LINE
  5
4682
330
1F
100
AcDbEntity
  8
ﾁｭｳｼﾝｾﾝ1
 48
0.5
100
AcDbLine
 10
463.6371698485652
 20
611.9227957842378
 30
0.0
 11
480.1801698485653
 21
611.9227957842378
 31
0.0
  0
LINE
  5
4683
330
1F
100
AcDbEntity
  8
0
  6
Continuous
 62
     7
100
AcDbLine
 10
413.9086698485653
 20
621.7901357842379
 30
0.0
 11
413.9086698485653
 21
619.1737457842378
 31
0.0
  0
LINE
  5
4684
330
1F
100
AcDbEntity
  8
0
  6
Continuous
 62
     7
100
AcDbLine
 10
484.8824898485652
 20
507.8697557842376
 30
0.0
 11
485.9348498485653
 21
507.8973157842376
 31
0.0
  0
LINE
  5
4685
330
1F
100
AcDbEntity
  8
0
  6
Continuous
 62
     7
100
AcDbLine
 10
376.9086698485653
 20
450.8141257842378
 30
0.0
 11
376.9086698485653
 21
469.7066957842379
 31
0.0
  0
LINE
  5
4686
330
1F
100
AcDbEntity
  8
0
  6
Continuous
 62
     7
100
AcDbLine
 10
379.1322098485654
 20
472.6044657842378
 30
0.0
 11
380.4823398485653
 21
472.9662557842376
 31
0.0
  0
LINE
  5
4687
330
1F
100
AcDbEntity
  8
0
  6
Continuous
 62
     7
100
AcDbLine
 10
486.9086698485653
 20
451.7568357842377
 30
0.0
 11
486.9086698485653
 21
478.9227957842378
 31
0.0
  0
LINE
  5
4689
330
1F
100
AcDbEntity
  8
0
  6
Continuous
 62
     7
100
AcDbLine
 10
413.9086698485653
 20
446.9227957842378
 30
0.0
 11
483.9871898485652
 21
448.7578757842378
 31
0.0
  0
LINE
  5
468A
330
1F
100
AcDbEntity
  8
0
  6
Continuous
 62
     7
100
AcDbLine
 10
379.8301498485653
 20
447.8151557842377
 30
0.0
 11
413.9086698485653
 21
446.9227957842378
 31
0.0
  0
LINE
  5
468C
330
1F
100
AcDbEntity
  8
ﾁｭｳｼﾝｾﾝ1
 48
0.5
100
AcDbLine
 10
471.9086698485653
 20
453.3084907842378
 30
0.0
 11
471.9086698485653
 21
470.5371007842376
 31
0.0
  0
LINE
  5
468D
330
1F
100
AcDbEntity
  8
0
  6
Continuous
 62
     7
100
AcDbLine
 10
410.9086698485652
 20
454.6718457842374
 30
0.0
 11
410.9086698485652
 21
619.1737457842378
 31
0.0
  0
LINE
  5
468E
330
1F
100
AcDbEntity
  8
0
  6
Continuous
 62
     7
100
AcDbLine
 10
483.9086698485653
 20
482.7957757842376
 30
0.0
 11
483.9086698485653
 21
591.0498057842377
 31
0.0
  0
LINE
  5
468F
330
1F
100
AcDbEntity
  8
0
  6
Continuous
 62
     7
100
AcDbLine
 10
486.9086698485653
 20
564.9486457842377
 30
0.0
 11
486.9086698485653
 21
508.8969457842377
 31
0.0
  0
LINE
  5
4690
330
1F
100
AcDbEntity
  8
0
  6
Continuous
 62
     7
100
AcDbLine
 10
409.9086698485653
 20
625.7901357842377
 30
0.0
 11
409.9086698485653
 21
622.4469957842377
 31
0.0
  0
LINE
  5
4691
330
1F
100
AcDbEntity
  8
0
  6
Continuous
 62
     7
100
AcDbLine
 10
499.9086398485653
 20
532.9227957842378
 30
0.0
 11
531.9086398485652
 21
532.9227957842378
 31
0.0
  0
LINE
  5
4692
330
1F
100
AcDbEntity
  8
0
  6
Continuous
 62
     7
100
AcDbLine
 10
499.9086398485653
 20
540.9227657842376
 30
0.0
 11
531.9086398485652
 21
540.9227657842376
 31
0.0
  0
LINE
  5
4693
330
1F
100
AcDbEntity
  8
0
  6
Continuous
 62
     7
100
AcDbLine
 10
471.9086698485653
 20
481.7512557842378
 30
0.0
 11
471.9086698485653
 21
592.0943357842377
 31
0.0
  0
LINE
  5
4694
330
1F
100
AcDbEntity
  8
0
  6
Continuous
 62
     7
100
AcDbLine
 10
481.1701398485655
 20
591.1623857842377
 30
0.0
 11
475.3746998485651
 21
591.6694357842377
 31
0.0
  0
LINE
  5
4695
330
1F
100
AcDbEntity
  8
0
  6
Continuous
 62
     7
100
AcDbLine
 10
481.1701098485652
 20
482.6832057842376
 30
0.0
 11
475.3746998485651
 21
482.1761857842377
 31
0.0
  0
LINE
  5
4696
330
1F
100
AcDbEntity
  8
0
  6
Continuous
 62
     7
100
AcDbLine
 10
467.0831398485653
 20
597.0913157842377
 30
0.0
 11
461.6294598485652
 21
597.2817457842377
 31
0.0
  0
LINE
  5
4697
330
1F
100
AcDbEntity
  8
0
  6
Continuous
 62
     7
100
AcDbLine
 10
467.0831698485653
 20
476.7542757842378
 30
0.0
 11
461.6294598485652
 21
476.5638457842378
 31
0.0
  0
LINE
  5
4698
330
1F
100
AcDbEntity
  8
0
  6
Continuous
 62
     7
100
AcDbLine
 10
453.9086698485653
 20
453.1028757842379
 30
0.0
 11
453.9086698485653
 21
468.5686957842376
 31
0.0
  0
LINE
  5
4699
330
1F
100
AcDbEntity
  8
0
  6
Continuous
 62
     7
100
AcDbLine
 10
453.9086698485653
 20
605.2768857842377
 30
0.0
 11
453.9086698485653
 21
620.7427057842377
 31
0.0
  0
LINE
  5
469A
330
1F
100
AcDbEntity
  8
0
  6
Continuous
 62
     7
100
AcDbLine
 10
410.9086698485652
 20
454.6718457842374
 30
0.0
 11
413.9086698485653
 21
454.6718457842374
 31
0.0
  0
LINE
  5
469B
330
1F
100
AcDbEntity
  8
0
  6
Continuous
 62
     7
100
AcDbLine
 10
410.9086698485652
 20
619.1737457842378
 30
0.0
 11
413.9086698485653
 21
619.1737457842378
 31
0.0
  0
LINE
  5
469C
330
1F
100
AcDbEntity
  8
ﾁｭｳｼﾝｾﾝ1
 48
0.5
100
AcDbLine
 10
463.6256798485653
 20
461.9227957842378
 30
0.0
 11
480.1916598485653
 21
461.9227957842378
 31
0.0
  0
LINE
  5
469D
330
1F
100
AcDbEntity
  8
0
  6
Continuous
 62
     7
100
AcDbLine
 10
413.9086698485653
 20
452.0554557842378
 30
0.0
 11
413.9086698485653
 21
454.6718457842374
 31
0.0
  0
LINE
  5
469E
330
1F
100
AcDbEntity
  8
0
  6
Continuous
 62
     7
100
AcDbLine
 10
409.9086698485653
 20
448.0554557842378
 30
0.0
 11
409.9086698485653
 21
451.3985957842378
 31
0.0
  0
LINE
  5
469F
330
1F
100
AcDbEntity
  8
0
  6
Continuous
 62
     7
100
AcDbLine
 10
410.9086698485652
 20
454.6718457842374
 30
0.0
 11
398.7341698485653
 21
455.0969857842377
 31
0.0
  0
LINE
  5
46A0
330
1F
100
AcDbEntity
  8
0
  6
Continuous
 62
     7
100
AcDbLine
 10
410.9086398485652
 20
619.1737457842378
 30
0.0
 11
398.7341398485653
 21
618.7485957842377
 31
0.0
  0
LINE
  5
46A1
330
1F
100
AcDbEntity
  8
0
  6
Continuous
 62
     7
100
AcDbLine
 10
393.9086698485653
 20
460.0939357842379
 30
0.0
 11
393.9086698485653
 21
613.7516557842379
 31
0.0
  0
LINE
  5
46A2
330
1F
100
AcDbEntity
  8
0
  6
Continuous
 62
     7
100
AcDbLine
 10
403.9086398485653
 20
465.8326157842378
 30
0.0
 11
410.9086698485652
 21
465.8326157842378
 31
0.0
  0
LINE
  5
46A3
330
1F
100
AcDbEntity
  8
0
  6
Continuous
 62
     7
100
AcDbLine
 10
403.9086398485653
 20
608.0129757842377
 30
0.0
 11
410.9086698485652
 21
608.0129757842377
 31
0.0
  0
LINE
  5
46A4
330
1F
100
AcDbEntity
  8
0
  6
Continuous
 62
     7
100
AcDbLine
 10
393.9086698485653
 20
596.2312957842377
 30
0.0
 11
403.9086398485653
 21
596.2312957842377
 31
0.0
  0
LINE
  5
46A5
330
1F
100
AcDbEntity
  8
0
  6
Continuous
 62
     7
100
AcDbLine
 10
393.9086698485653
 20
477.6142957842377
 30
0.0
 11
403.9086398485653
 21
477.6142957842377
 31
0.0
  0
LINE
  5
46A6
330
1F
100
AcDbEntity
  8
0
  6
Continuous
 62
     7
100
AcDbLine
 10
403.9086398485653
 20
465.8326157842378
 30
0.0
 11
403.9086398485653
 21
608.0129757842377
 31
0.0
  0
LINE
  5
46A7
330
1F
100
AcDbEntity
  8
0
  6
Continuous
 62
     7
100
AcDbLine
 10
367.4086698485653
 20
473.4227957842376
 30
0.0
 11
367.4086698485653
 21
600.4227957842378
 31
0.0
  0
LINE
  5
46A8
330
1F
100
AcDbEntity
  8
0
  6
Continuous
 62
     7
100
AcDbLine
 10
367.4086698485653
 20
588.9628057842377
 30
0.0
 11
393.9086398485654
 21
588.9628057842377
 31
0.0
  0
LINE
  5
46A9
330
1F
100
AcDbEntity
  8
0
  6
Continuous
 62
     7
100
AcDbLine
 10
367.4086698485653
 20
574.0707157842377
 30
0.0
 11
393.9086398485654
 21
574.0707157842377
 31
0.0
  0
LINE
  5
46AA
330
1F
100
AcDbEntity
  8
0
  6
Continuous
 62
     7
100
AcDbLine
 10
367.4086698485653
 20
600.4227957842378
 30
0.0
 11
391.0133798485654
 21
601.2471057842376
 31
0.0
  0
LINE
  5
46AB
330
1F
100
AcDbEntity
  8
0
  6
Continuous
 62
     7
100
AcDbLine
 10
367.4086998485653
 20
473.4227657842378
 30
0.0
 11
391.0133498485653
 21
472.5984857842377
 31
0.0
  0
LINE
  5
46AC
330
1F
100
AcDbEntity
  8
0
  6
Continuous
 62
     7
100
AcDbLine
 10
367.4086698485653
 20
499.7748757842378
 30
0.0
 11
393.9086398485654
 21
499.7748757842378
 31
0.0
  0
LINE
  5
46AD
330
1F
100
AcDbEntity
  8
0
  6
Continuous
 62
     7
100
AcDbLine
 10
367.4086698485653
 20
484.8827857842378
 30
0.0
 11
393.9086398485654
 21
484.8827857842378
 31
0.0
  0
LINE
  5
46AE
330
1F
100
AcDbEntity
  8
0
  6
Continuous
 62
     7
100
AcDbLine
 10
410.9086698485652
 20
456.8154357842378
 30
0.0
 11
395.3119898485653
 21
456.6206357842378
 31
0.0
  0
LINE
  5
46AF
330
1F
100
AcDbEntity
  8
0
  6
Continuous
 62
     7
100
AcDbLine
 10
410.9086698485652
 20
498.6477057842377
 30
0.0
 11
403.9086398485653
 21
498.6477057842377
 31
0.0
  0
LINE
  5
46B0
330
1F
100
AcDbEntity
  8
0
  6
Continuous
 62
     7
100
AcDbLine
 10
410.9086698485652
 20
617.0301557842377
 30
0.0
 11
395.3119598485654
 21
617.2249457842378
 31
0.0
  0
LINE
  5
46B1
330
1F
100
AcDbEntity
  8
0
  6
Continuous
 62
     7
100
AcDbLine
 10
410.9086698485652
 20
575.1978757842378
 30
0.0
 11
403.9086398485653
 21
575.1978757842378
 31
0.0
  0
ARC
  5
46B2
330
1F
100
AcDbEntity
  8
0
  6
Continuous
 62
     7
100
AcDbCircle
 10
484.9086698485653
 20
566.9754957842378
 30
0.0
 40
1.0
100
AcDbArc
 50
180.000010000001
 51
268.5000000000006
  0
ARC
  5
46B3
330
1F
100
AcDbEntity
  8
0
  6
Continuous
 62
     7
100
AcDbCircle
 10
485.9086698485652
 20
564.9486457842377
 30
0.0
 40
1.0
100
AcDbArc
 50
0.0
 51
88.49999700000065
  0
CIRCLE
  5
46B4
330
1F
100
AcDbEntity
  8
0
  6
Continuous
 62
     7
100
AcDbCircle
 10
471.9086698485653
 20
611.9227957842378
 30
0.0
 40
6.0
  0
ARC
  5
46B5
330
1F
100
AcDbEntity
  8
0
  6
Continuous
 62
     7
100
AcDbCircle
 10
379.9086698485653
 20
623.0314357842376
 30
0.0
 40
3.0
100
AcDbArc
 50
91.50000100000154
 51
180.000010000001
  0
ARC
  5
46B6
330
1F
100
AcDbEntity
  8
0
  6
Continuous
 62
     7
100
AcDbCircle
 10
483.9086698485653
 20
622.0887457842377
 30
0.0
 40
3.0
100
AcDbArc
 50
0.0
 51
88.49999700000065
  0
ARC
  5
46B7
330
1F
100
AcDbEntity
  8
0
  6
Continuous
 62
     7
100
AcDbCircle
 10
391.9086698485653
 20
611.9227957842378
 30
0.0
 40
6.0
100
AcDbArc
 50
57.78807200000049
 51
289.4712300000007
  0
ARC
  5
46B8
330
1F
100
AcDbEntity
  8
0
  6
Continuous
 62
     7
100
AcDbCircle
 10
483.9086698485653
 20
594.9227957842378
 30
0.0
 40
3.0
100
AcDbArc
 50
284.4775099999998
 51
0.0
  0
ARC
  5
46B9
330
1F
100
AcDbEntity
  8
0
  6
Continuous
 62
     7
100
AcDbCircle
 10
379.9086698485653
 20
604.1388857842378
 30
0.0
 40
3.0
100
AcDbArc
 50
180.000010000001
 51
254.9999900000019
  0
ARC
  5
46BA
330
1F
100
AcDbEntity
  8
0
  6
Continuous
 62
     7
100
AcDbCircle
 10
484.9086698485653
 20
506.8700957842376
 30
0.0
 40
1.0
100
AcDbArc
 50
91.50000100000154
 51
180.000010000001
  0
ARC
  5
46BB
330
1F
100
AcDbEntity
  8
0
  6
Continuous
 62
     7
100
AcDbCircle
 10
485.9086698485652
 20
508.8969457842377
 30
0.0
 40
1.0
100
AcDbArc
 50
271.4999999999994
 51
0.0
  0
CIRCLE
  5
46BC
330
1F
100
AcDbEntity
  8
0
  6
Continuous
 62
     7
100
AcDbCircle
 10
471.9086698485653
 20
461.9227957842378
 30
0.0
 40
6.0
  0
ARC
  5
46BD
330
1F
100
AcDbEntity
  8
0
  6
Continuous
 62
     7
100
AcDbCircle
 10
379.9086698485653
 20
450.8141257842378
 30
0.0
 40
3.0
100
AcDbArc
 50
180.000010000001
 51
268.5000000000006
  0
ARC
  5
46BE
330
1F
100
AcDbEntity
  8
0
  6
Continuous
 62
     7
100
AcDbCircle
 10
483.9086698485653
 20
451.7568357842377
 30
0.0
 40
3.0
100
AcDbArc
 50
271.4999999999994
 51
0.0
  0
ARC
  5
46BF
330
1F
100
AcDbEntity
  8
0
  6
Continuous
 62
     7
100
AcDbCircle
 10
391.9086698485653
 20
461.9227957842378
 30
0.0
 40
6.0
100
AcDbArc
 50
70.5287789999982
 51
302.2118800000011
  0
ARC
  5
46C0
330
1F
100
AcDbEntity
  8
0
  6
Continuous
 62
     7
100
AcDbCircle
 10
483.9086698485653
 20
478.9227957842378
 30
0.0
 40
3.0
100
AcDbArc
 50
0.0
 51
75.52248799999907
  0
ARC
  5
46C1
330
1F
100
AcDbEntity
  8
0
  6
Continuous
 62
     7
100
AcDbCircle
 10
379.9086698485653
 20
469.7066957842379
 30
0.0
 40
3.0
100
AcDbArc
 50
105.0000000000007
 51
180.000010000001
  0
ARC
  5
46C2
330
1F
100
AcDbEntity
  8
0
  6
Continuous
 62
     7
100
AcDbCircle
 10
408.9086698485653
 20
621.7901357842379
 30
0.0
 40
5.0
100
AcDbArc
 50
0.0
 51
91.50000100000154
  0
ARC
  5
46C3
330
1F
100
AcDbEntity
  8
0
  6
Continuous
 62
     7
100
AcDbCircle
 10
408.9086698485653
 20
616.7901357842376
 30
0.0
 40
5.0
100
AcDbArc
 50
28.47123899999959
 51
70.5287789999982
  0
ARC
  5
46C4
330
1F
100
AcDbEntity
  8
0
  6
Continuous
 62
     7
100
AcDbCircle
 10
410.9086698485652
 20
622.4469957842377
 30
0.0
 40
1.0
100
AcDbArc
 50
180.000010000001
 51
250.5287699999994
  0
ARC
  5
46C5
330
1F
100
AcDbEntity
  8
0
  6
Continuous
 62
     7
100
AcDbCircle
 10
408.9086698485653
 20
625.7901357842377
 30
0.0
 40
1.0
100
AcDbArc
 50
0.0
 51
90.00000300000095
  0
ARC
  5
46C6
330
1F
100
AcDbEntity
  8
0
  6
Continuous
 62
     7
100
AcDbCircle
 10
499.9086398485653
 20
536.9227657842379
 30
0.0
 40
3.9999962
100
AcDbArc
 50
90.00000300000095
 51
270.0
  0
ARC
  5
46C7
330
1F
100
AcDbEntity
  8
0
  6
Continuous
 62
     7
100
AcDbCircle
 10
484.9086698485653
 20
482.7957757842376
 30
0.0
 40
1.0
100
AcDbArc
 50
180.000010000001
 51
255.5224900000002
  0
ARC
  5
46C8
330
1F
100
AcDbEntity
  8
0
  6
Continuous
 62
     7
100
AcDbCircle
 10
484.9086698485653
 20
591.0498057842377
 30
0.0
 40
1.0
100
AcDbArc
 50
104.4775099999998
 51
180.000010000001
  0
ARC
  5
46C9
330
1F
100
AcDbEntity
  8
0
  6
Continuous
 62
     7
100
AcDbCircle
 10
480.9086698485653
 20
485.6717857842378
 30
0.0
 40
3.0
100
AcDbArc
 50
275.0
 51
0.0
  0
ARC
  5
46CA
330
1F
100
AcDbEntity
  8
0
  6
Continuous
 62
     7
100
AcDbCircle
 10
480.9086698485653
 20
588.1738057842377
 30
0.0
 40
3.0
100
AcDbArc
 50
0.0
 51
85.00000400000089
  0
ARC
  5
46CB
330
1F
100
AcDbEntity
  8
0
  6
Continuous
 62
     7
100
AcDbCircle
 10
466.9086698485653
 20
592.0943357842377
 30
0.0
 40
5.0
100
AcDbArc
 50
0.0
 51
87.99999999999952
  0
ARC
  5
46CC
330
1F
100
AcDbEntity
  8
0
  6
Continuous
 62
     7
100
AcDbCircle
 10
466.9086698485653
 20
481.7512557842378
 30
0.0
 40
5.0
100
AcDbArc
 50
272.0000000000005
 51
0.0
  0
ARC
  5
46CD
330
1F
100
AcDbEntity
  8
0
  6
Continuous
 62
     7
100
AcDbCircle
 10
475.8104898485653
 20
596.6503957842377
 30
0.0
 40
5.0
100
AcDbArc
 50
207.103809999998
 51
265.0000100000004
  0
ARC
  5
46CE
330
1F
100
AcDbEntity
  8
0
  6
Continuous
 62
     7
100
AcDbCircle
 10
475.8104898485653
 20
477.1951957842378
 30
0.0
 40
5.0
100
AcDbArc
 50
95.00000199999858
 51
152.8961900000019
  0
ARC
  5
46CF
330
1F
100
AcDbEntity
  8
0
  6
Continuous
 62
     7
100
AcDbCircle
 10
458.9086698485653
 20
453.1028757842379
 30
0.0
 40
5.0
100
AcDbArc
 50
180.000010000001
 51
271.4999999999994
  0
ARC
  5
46D0
330
1F
100
AcDbEntity
  8
0
  6
Continuous
 62
     7
100
AcDbCircle
 10
458.9086698485653
 20
620.7427057842377
 30
0.0
 40
5.0
100
AcDbArc
 50
88.49999700000065
 51
180.000010000001
  0
ARC
  5
46D1
330
1F
100
AcDbEntity
  8
0
  6
Continuous
 62
     7
100
AcDbCircle
 10
461.9086698485652
 20
605.2768857842377
 30
0.0
 40
8.0
100
AcDbArc
 50
180.000010000001
 51
267.9999999999995
  0
ARC
  5
46D2
330
1F
100
AcDbEntity
  8
0
  6
Continuous
 62
     7
100
AcDbCircle
 10
461.9086698485652
 20
468.5686957842376
 30
0.0
 40
8.0
100
AcDbArc
 50
91.99999800000057
 51
180.000010000001
  0
ARC
  5
46D3
330
1F
100
AcDbEntity
  8
0
  6
Continuous
 62
     7
100
AcDbCircle
 10
408.9086698485653
 20
452.0554557842378
 30
0.0
 40
5.0
100
AcDbArc
 50
268.5000000000006
 51
0.0000006832495047
  0
ARC
  5
46D4
330
1F
100
AcDbEntity
  8
0
  6
Continuous
 62
     7
100
AcDbCircle
 10
408.9086698485653
 20
457.0554557842378
 30
0.0
 40
5.0
100
AcDbArc
 50
289.4712300000007
 51
331.5287600000031
  0
ARC
  5
46D5
330
1F
100
AcDbEntity
  8
0
  6
Continuous
 62
     7
100
AcDbCircle
 10
410.9086698485652
 20
451.3985957842378
 30
0.0
 40
1.0
100
AcDbArc
 50
109.4712199999996
 51
180.000010000001
  0
ARC
  5
46D6
330
1F
100
AcDbEntity
  8
0
  6
Continuous
 62
     7
100
AcDbCircle
 10
408.9086698485653
 20
448.0554557842378
 30
0.0
 40
1.0
100
AcDbArc
 50
270.0
 51
0.0
  0
ARC
  5
46D7
330
1F
100
AcDbEntity
  8
0
  6
Continuous
 62
     7
100
AcDbCircle
 10
398.9086698485654
 20
460.0939357842379
 30
0.0
 40
5.0
100
AcDbArc
 50
180.000010000001
 51
267.9999999999995
  0
ARC
  5
46D8
330
1F
100
AcDbEntity
  8
0
  6
Continuous
 62
     7
100
AcDbCircle
 10
398.9086698485654
 20
613.7516557842379
 30
0.0
 40
5.0
100
AcDbArc
 50
91.99999800000057
 51
180.000010000001
  0
ARC
  5
46D9
330
1F
100
AcDbEntity
  8
0
  6
Continuous
 62
     7
100
AcDbCircle
 10
390.9086698485653
 20
469.6003157842378
 30
0.0
 40
3.0
100
AcDbArc
 50
0.0
 51
87.99999999999952
  0
ARC
  5
46DA
330
1F
100
AcDbEntity
  8
0
  6
Continuous
 62
     7
100
AcDbCircle
 10
390.9086698485653
 20
604.2452757842377
 30
0.0
 40
3.0
100
AcDbArc
 50
272.0000000000005
 51
0.0
  0
ARC
  5
46DB
330
1F
100
AcDbEntity
  8
ｶｸﾚｾﾝ2
100
AcDbCircle
 10
391.9086698485653
 20
461.9227957842378
 30
0.0
 40
6.0
100
AcDbArc
 50
302.2118800000011
 51
70.5287789999982
  0
ARC
  5
46DC
330
1F
100
AcDbEntity
  8
ｶｸﾚｾﾝ2
100
AcDbCircle
 10
391.9086698485653
 20
611.9227957842378
 30
0.0
 40
6.0
100
AcDbArc
 50
289.4712300000007
 51
57.78807200000049
  0
POLYLINE
  5
46DD
330
1F
100
AcDbEntity
  8
0
  6
Continuous
 62
     7
100
AcDb2dPolyline
 66
     1
 10
0.0
 20
0.0
 30
0.0
  0
VERTEX
  5
46DE
330
46DD
100
AcDbEntity
  8
0
  6
Continuous
 62
     7
100
AcDbVertex
100
AcDb2dVertex
 10
410.9086698485652
 20
498.6477057842377
 30
0.0
 42
-0.059991193
  0
VERTEX
  5
46DF
330
46DD
100
AcDbEntity
  8
0
  6
Continuous
 62
     7
100
AcDbVertex
100
AcDb2dVertex
 10
436.4974798485653
 20
482.7154957842376
 30
0.0
 42
-0.30883796
  0
VERTEX
  5
46E0
330
46DD
100
AcDbEntity
  8
0
  6
Continuous
 62
     7
100
AcDbVertex
100
AcDb2dVertex
 10
445.9086398485653
 20
466.7747557842377
 30
0.0
 42
-0.25905842
  0
VERTEX
  5
46E1
330
46DD
100
AcDbEntity
  8
0
  6
Continuous
 62
     7
100
AcDbVertex
100
AcDb2dVertex
 10
411.4589698485652
 20
446.9866957842376
 30
0.0
  0
SEQEND
  5
46E2
330
46DD
100
AcDbEntity
  8
0
 62
     7
  0
POLYLINE
  5
46E3
330
1F
100
AcDbEntity
  8
0
  6
Continuous
 62
     7
100
AcDb2dPolyline
 66
     1
 10
0.0
 20
0.0
 30
0.0
  0
VERTEX
  5
46E4
330
46E3
100
AcDbEntity
  8
0
  6
Continuous
 62
     7
100
AcDbVertex
100
AcDb2dVertex
 10
412.1722098485655
 20
456.9938157842378
 30
0.0
 42
0.021277534
  0
VERTEX
  5
46E5
330
46E3
100
AcDbEntity
  8
0
  6
Continuous
 62
     7
100
AcDbVertex
100
AcDb2dVertex
 10
423.0023498485652
 20
459.0503357842377
 30
0.0
 42
0.020622971
  0
VERTEX
  5
46E6
330
46E3
100
AcDbEntity
  8
0
  6
Continuous
 62
     7
100
AcDbVertex
100
AcDb2dVertex
 10
433.1271098485652
 20
461.8673757842379
 30
0.0
 42
0.022709
  0
VERTEX
  5
46E7
330
46E3
100
AcDbEntity
  8
0
  6
Continuous
 62
     7
100
AcDbVertex
100
AcDb2dVertex
 10
443.9340298485655
 20
465.9129357842377
 30
0.0
  0
SEQEND
  5
46E8
330
46E3
100
AcDbEntity
  8
0
 62
     7
  0
POLYLINE
  5
46E9
330
1F
100
AcDbEntity
  8
0
  6
Continuous
 62
     7
100
AcDb2dPolyline
 66
     1
 10
0.0
 20
0.0
 30
0.0
  0
VERTEX
  5
46EA
330
46E9
100
AcDbEntity
  8
0
  6
Continuous
 62
     7
100
AcDbVertex
100
AcDb2dVertex
 10
410.9086698485652
 20
575.1978757842378
 30
0.0
 42
0.059991175
  0
VERTEX
  5
46EB
330
46E9
100
AcDbEntity
  8
0
  6
Continuous
 62
     7
100
AcDbVertex
100
AcDb2dVertex
 10
436.4974798485653
 20
591.1300857842377
 30
0.0
 42
0.30883786
  0
VERTEX
  5
46EC
330
46E9
100
AcDbEntity
  8
0
  6
Continuous
 62
     7
100
AcDbVertex
100
AcDb2dVertex
 10
445.9086398485653
 20
607.0708357842377
 30
0.0
 42
0.25905849
  0
VERTEX
  5
46ED
330
46E9
100
AcDbEntity
  8
0
  6
Continuous
 62
     7
100
AcDbVertex
100
AcDb2dVertex
 10
411.4589898485652
 20
626.8588857842376
 30
0.0
  0
SEQEND
  5
46EE
330
46E9
100
AcDbEntity
  8
0
 62
     7
  0
POLYLINE
  5
46EF
330
1F
100
AcDbEntity
  8
0
  6
Continuous
 62
     7
100
AcDb2dPolyline
 66
     1
 10
0.0
 20
0.0
 30
0.0
  0
VERTEX
  5
46F0
330
46EF
100
AcDbEntity
  8
0
  6
Continuous
 62
     7
100
AcDbVertex
100
AcDb2dVertex
 10
412.1722098485655
 20
616.8517757842376
 30
0.0
 42
-0.021277534
  0
VERTEX
  5
46F1
330
46EF
100
AcDbEntity
  8
0
  6
Continuous
 62
     7
100
AcDbVertex
100
AcDb2dVertex
 10
423.0023498485652
 20
614.7952557842377
 30
0.0
 42
-0.020622971
  0
VERTEX
  5
46F2
330
46EF
100
AcDbEntity
  8
0
  6
Continuous
 62
     7
100
AcDbVertex
100
AcDb2dVertex
 10
433.1271098485652
 20
611.9782157842377
 30
0.0
 42
-0.022709
  0
VERTEX
  5
46F3
330
46EF
100
AcDbEntity
  8
0
  6
Continuous
 62
     7
100
AcDbVertex
100
AcDb2dVertex
 10
443.9340298485655
 20
607.9326557842378
 30
0.0
  0
SEQEND
  5
46F4
330
46EF
100
AcDbEntity
  8
0
 62
     7
  0
LINE
  5
46F5
330
1F
100
AcDbEntity
  8
ﾁｭｳｼﾝｾﾝ1
 48
0.5
100
AcDbLine
 10
391.9086698485653
 20
453.3084907842378
 30
0.0
 11
391.9086698485653
 21
470.5371007842376
 31
0.0
  0
LINE
  5
46F6
330
1F
100
AcDbEntity
  8
ﾁｭｳｼﾝｾﾝ1
 48
0.5
100
AcDbLine
 10
383.6256798485653
 20
461.9227957842378
 30
0.0
 11
400.1916598485652
 21
461.9227957842378
 31
0.0
  0
LINE
  5
46F7
330
1F
100
AcDbEntity
  8
ﾁｭｳｼﾝｾﾝ1
 48
0.5
100
AcDbLine
 10
391.9086698485653
 20
603.3084907842377
 30
0.0
 11
391.9086698485653
 21
620.5371007842377
 31
0.0
  0
LINE
  5
46F8
330
1F
100
AcDbEntity
  8
ﾁｭｳｼﾝｾﾝ1
 48
0.5
100
AcDbLine
 10
383.6256798485653
 20
611.9227957842378
 30
0.0
 11
400.1916598485652
 21
611.9227957842378
 31
0.0
  0
LINE
  5
4705
330
1F
100
AcDbEntity
  8
AM_7
100
AcDbLine
 10
282.9086871136685
 20
536.9227912842376
 30
0.0
 11
540.9086398485652
 21
536.9227912842376
 31
0.0
1001
GENIUS_GENOBJ-N-CEN_13
1002
{
1000
OWNER
1000
GEN
1002
}
1001
GENIUS_GENODEF_13
1002
{
1000
HIER
1070
     0
1002
}
1002
{
1000
MANEDIT
1070
     0
1002
}
1002
{
1000
NOSEL
1070
     0
1002
}
1002
{
1000
BEHIND
1070
     0
1002
}
1002
{
1000
OTHER
1070
     0
1002
}
1002
{
1000
REACTOR
1002
}
1001
GENIUS_GENCEN_19
1002
{
1040
9.0
1002
}
  0
ENDSEC
  0
SECTION
  2
OBJECTS
  0
DICTIONARY
  5
C
330
0
100
AcDbDictionary
281
     1
  3
ACAD_COLOR
350
2196
  3
ACAD_GROUP
350
D
  3
ACAD_LAYOUT
350
1A
  3
ACAD_MATERIAL
350
2195
  3
ACAD_MLINESTYLE
350
17
  3
ACAD_PLOTSETTINGS
350
19
  3
ACAD_PLOTSTYLENAME
350
E
  3
ACAD_TABLESTYLE
350
2197
  3
AcadDim
350
14B1
  3
ACDBHEADERROUNDTRIPXREC
350
47E8
  3
AcDbVariableDictionary
350
34
  3
AcmDictionary
350
47
  3
AMG
350
2B
  3
AMGSNAPSETTINGS
350
81
  3
ASE_INDEX_DICTIONARY
350
2D7B
  3
DWGPROPS
350
47E7
  0
DICTIONARY
  5
2D9C
330
2
100
AcDbDictionary
280
     1
281
     1
  3
ACAD_LAYERSTATES
360
2D9D
  0
DICTIONARY
  5
CC
330
1F
100
AcDbDictionary
280
     1
281
     1
  3
ACAD_SORTENTS
360
2D4D
  0
DICTIONARY
  5
2196
102
{ACAD_REACTORS
330
C
102
}
330
C
100
AcDbDictionary
281
     1
  0
DICTIONARY
  5
D
102
{ACAD_REACTORS
330
C
102
}
330
C
100
AcDbDictionary
281
     1
  0
DICTIONARY
  5
1A
102
{ACAD_REACTORS
330
C
102
}
330
C
100
AcDbDictionary
281
     1
  3
Model
350
22
  3
ﾚｲｱｳﾄ1
350
1E
  3
ﾚｲｱｳﾄ2
350
26
  0
DICTIONARY
  5
2195
102
{ACAD_REACTORS
330
C
102
}
330
C
100
AcDbDictionary
281
     1
  0
DICTIONARY
  5
17
102
{ACAD_REACTORS
330
C
102
}
330
C
100
AcDbDictionary
281
     1
  3
Standard
350
18
  0
DICTIONARY
  5
19
102
{ACAD_REACTORS
330
C
102
}
330
C
100
AcDbDictionary
281
     1
  3
A1
350
7A0
  3
A2
350
7A1
  3
A3外形図
350
7A2
  3
A3部品図
350
7A3
  3
A4外形図
350
7A4
  3
A4製造仕様書
350
7A5
  3
A4部品図
350
7A6
  0
ACDBDICTIONARYWDFLT
  5
E
102
{ACAD_REACTORS
330
C
102
}
330
C
100
AcDbDictionary
281
     1
  3
Normal
350
F
100
AcDbDictionaryWithDefault
340
F
  0
DICTIONARY
  5
2197
102
{ACAD_REACTORS
330
C
102
}
330
C
100
AcDbDictionary
281
     1
  3
Standard
350
2198
  0
XRECORD
  5
14B1
102
{ACAD_REACTORS
330
C
102
}
330
C
100
AcDbXrecord
280
     1
 90
   990106
  3

 60
     0
 61
     0
 62
     4
 63
     4
 64
     1
 65
     0
 66
     0
 67
     3
 68
     1
 69
     0
 70
     0
 71
     0
 72
     0
 40
0.0
170
     0
  0
DICTIONARY
  5
47E8
102
{ACAD_REACTORS
330
C
102
}
330
C
100
AcDbDictionary
281
     1
  0
DICTIONARY
  5
34
102
{ACAD_REACTORS
330
C
102
}
330
C
100
AcDbDictionary
281
     1
  3
CTABLESTYLE
350
22C6
  3
DIMASSOC
350
470B
  3
INDEXCTL
350
35
  3
PROJECTNAME
350
470C
  0
DICTIONARY
  5
47
102
{ACAD_REACTORS
330
C
102
}
330
C
100
AcDbDictionary
281
     1
  3
AcmStdDictionary
350
4C
  3
AMDTSECTSYM_ARROWCOLOR
350
21A4
  0
DICTIONARY
  5
2B
102
{ACAD_REACTORS
330
C
102
}
330
C
100
AcDbDictionary
281
     1
  0
DICTIONARY
  5
81
102
{ACAD_REACTORS
330
C
102
}
330
C
100
AcDbDictionary
281
     1
  0
DICTIONARY
  5
2D7B
102
{ACAD_REACTORS
330
C
102
}
330
C
100
AcDbDictionary
281
     1
  3
ASEBlockHierarchyIndexRecord
350
2D7C
1001
DCO15
1040
1618997545.122
  0
XRECORD
  5
47E7
102
{ACAD_REACTORS
330
C
102
}
330
C
100
AcDbXrecord
280
     1
  1
DWGPROPS COOKIE
  2

  3

  4

  6

  7

  8
ISHIGURE
  9

300
AmdtFileType=84
301
=
302
=
303
=
304
=
305
=
306
=
307
=
308
=
309
=
 40
0.4840077662037038
 41
2452065.605619213
 42
2454770.834075104
  1

 90
        1
  0
DICTIONARY
  5
2D9D
102
{ACAD_REACTORS
330
2D9C
102
}
330
2D9C
100
AcDbDictionary
281
     1
  0
SORTENTSTABLE
  5
2D4D
102
{ACAD_REACTORS
330
CC
102
}
330
CC
100
AcDbSortentsTable
330
1F
  0
LAYOUT
  5
22
102
{ACAD_XDICTIONARY
360
47EB
102
}
102
{ACAD_REACTORS
330
1A
102
}
330
1A
100
AcDbPlotSettings
  1

  2
\\XSERIES235\Canon LASER SHOT LBP-910
  4
A4
  6
AM_VIEW1
 40
5.873749732971191
 41
5.873747825622557
 42
5.873748779296875
 43
5.873748779296875
 44
209.9733276367186
 45
296.9259948730469
 46
0.0
 47
0.34
 48
0.0
 49
0.0
140
0.0
141
0.0
142
1.0
143
3.0
 70
 11936
 72
     1
 73
     1
 74
     2
  7
acad1.ctb
 75
     0
147
0.3341282932256912
148
0.0
149
0.0
100
AcDbLayout
  1
Model
 70
     1
 71
     0
 10
0.0
 20
0.0
 11
12.0
 21
9.0
 12
0.0
 22
0.0
 32
0.0
 14
0.0
 24
0.0
 34
0.0
 15
0.0
 25
0.0
 35
0.0
146
0.0
 13
0.0
 23
0.0
 33
0.0
 16
1.0
 26
0.0
 36
0.0
 17
0.0
 27
1.0
 37
0.0
 76
     0
330
1F
1001
ACAD_PSEXT
1000
\\XSERIES235\Canon LASER SHOT LBP-910
1000
Canon LASER SHOT LBP-910
1000
\\XSERIES235
1000

1070
     0
  0
LAYOUT
  5
1E
102
{ACAD_XDICTIONARY
360
47E9
102
}
102
{ACAD_REACTORS
330
1A
102
}
330
1A
100
AcDbPlotSettings
  1

  2
\\FHKSV01\RICOH imagio MF2700(FAX)
  4

  6

 40
0.0
 41
0.0
 42
0.0
 43
0.0
 44
0.0
 45
0.0
 46
0.0
 47
0.0
 48
0.0
 49
0.0
140
0.0
141
0.0
142
1.0
143
1.0
 70
   688
 72
     0
 73
     0
 74
     5
  7
acad1.ctb
 75
    16
147
1.0
148
0.0
149
0.0
100
AcDbLayout
  1
ﾚｲｱｳﾄ1
 70
     1
 71
     1
 10
0.0
 20
0.0
 11
420.0
 21
297.0
 12
0.0
 22
0.0
 32
0.0
 14
1.000000000000000E+20
 24
1.000000000000000E+20
 34
1.000000000000000E+20
 15
-1.000000000000000E+20
 25
-1.000000000000000E+20
 35
-1.000000000000000E+20
146
0.0
 13
0.0
 23
0.0
 33
0.0
 16
1.0
 26
0.0
 36
0.0
 17
0.0
 27
1.0
 37
0.0
 76
     0
330
1B
  0
LAYOUT
  5
26
102
{ACAD_XDICTIONARY
360
47ED
102
}
102
{ACAD_REACTORS
330
1A
102
}
330
1A
100
AcDbPlotSettings
  1

  2
\\FHKSV01\RICOH imagio MF2700(FAX)
  4

  6

 40
0.0
 41
0.0
 42
0.0
 43
0.0
 44
0.0
 45
0.0
 46
0.0
 47
0.0
 48
0.0
 49
0.0
140
0.0
141
0.0
142
1.0
143
1.0
 70
   688
 72
     0
 73
     0
 74
     5
  7
acad1.ctb
 75
    16
147
1.0
148
0.0
149
0.0
100
AcDbLayout
  1
ﾚｲｱｳﾄ2
 70
     1
 71
     2
 10
0.0
 20
0.0
 11
12.0
 21
9.0
 12
0.0
 22
0.0
 32
0.0
 14
0.0
 24
0.0
 34
0.0
 15
0.0
 25
0.0
 35
0.0
146
0.0
 13
0.0
 23
0.0
 33
0.0
 16
1.0
 26
0.0
 36
0.0
 17
0.0
 27
1.0
 37
0.0
 76
     0
330
23
  0
MLINESTYLE
  5
18
102
{ACAD_REACTORS
330
17
102
}
330
17
100
AcDbMlineStyle
  2
STANDARD
 70
     0
  3

 62
   256
 51
90.0
 52
90.0
 71
     2
 49
0.5
 62
   256
  6
BYLAYER
 49
-0.5
 62
   256
  6
BYLAYER
  0
PLOTSETTINGS
  5
7A0
102
{ACAD_XDICTIONARY
360
47EF
102
}
102
{ACAD_REACTORS
330
19
102
}
330
19
100
AcDbPlotSettings
  1
A1
  2
\\NETFINITY_5500\HP DesignJet 750C+ (D/A1) by HP)
  4
User267
  6

 40
17.76941680908203
 41
5.789102554321289
 42
17.7694091796875
 43
5.7890625
 44
840.9093017578125
 45
593.97900390625
 46
2.0
 47
13.0
 48
0.0
 49
0.0
140
0.0
141
0.0
142
1.0
143
1.0
 70
  1712
 72
     1
 73
     0
 74
     1
  7
acad.ctb
 75
    16
147
1.0
148
0.0100416569983963
149
0.0078848243487073
  0
PLOTSETTINGS
  5
7A1
102
{ACAD_XDICTIONARY
360
47F1
102
}
102
{ACAD_REACTORS
330
19
102
}
330
19
100
AcDbPlotSettings
  1
A2
  2
\\NETFINITY_5500\HP DesignJet 750C+ (D/A1) by HP)
  4
User266
  6

 40
5.78908348083496
 41
17.76940155029297
 42
5.78912353515625
 43
17.7694091796875
 44
593.97900390625
 45
419.9466552734373
 46
12.0
 47
0.0
 48
0.0
 49
0.0
140
0.0
141
0.0
142
1.0
143
1.0
 70
  1712
 72
     1
 73
     0
 74
     1
  7
acad.ctb
 75
    16
147
1.0
148
0.0100416569983963
149
0.0078848243487073
  0
PLOTSETTINGS
  5
7A2
102
{ACAD_XDICTIONARY
360
47F3
102
}
102
{ACAD_REACTORS
330
19
102
}
330
19
100
AcDbPlotSettings
  1
A3外形図
  2
\\NETFINITY_5500\Canon LASER SHOT LBP-910
  4
A3
  6

 40
5.873749732971191
 41
5.873747825622557
 42
5.873748779296875
 43
5.873748779296875
 44
296.9259948730469
 45
419.9466552734373
 46
0.0
 47
15.0
 48
0.0
 49
0.0
140
0.0
141
0.0
142
1.0
143
1.0
 70
  1712
 72
     1
 73
     1
 74
     1
  7
acad1.ctb
 75
    16
147
1.0
148
0.0024839861629289
149
0.0093761313144114
  0
PLOTSETTINGS
  5
7A3
102
{ACAD_XDICTIONARY
360
47F5
102
}
102
{ACAD_REACTORS
330
19
102
}
330
19
100
AcDbPlotSettings
  1
A3部品図
  2
\\NETFINITY_5500\Canon LASER SHOT LBP-910
  4
A3
  6

 40
5.873749732971191
 41
5.873747825622557
 42
5.873748779296875
 43
5.873748779296875
 44
296.9259948730469
 45
419.9466552734373
 46
0.0
 47
0.0
 48
0.0
 49
0.0
140
0.0
141
0.0
142
1.0
143
1.0
 70
  1712
 72
     1
 73
     1
 74
     1
  7
acad1.ctb
 75
    16
147
1.0
148
0.0024839861629289
149
0.0093761313144114
  0
PLOTSETTINGS
  5
7A4
102
{ACAD_XDICTIONARY
360
47F7
102
}
102
{ACAD_REACTORS
330
19
102
}
330
19
100
AcDbPlotSettings
  1
A4外形図
  2
\\NETFINITY_5500\Canon LASER SHOT LBP-910
  4
A4
  6

 40
5.873749732971191
 41
5.873747825622557
 42
5.873748779296875
 43
5.873748779296875
 44
209.9733276367186
 45
296.9259948730469
 46
0.0
 47
0.0
 48
0.0
 49
0.0
140
0.0
141
0.0
142
1.0
143
1.0
 70
  1712
 72
     1
 73
     1
 74
     1
  7
acad1.ctb
 75
    16
147
1.0
148
0.0115486965655691
149
0.0124955963574962
  0
PLOTSETTINGS
  5
7A5
102
{ACAD_XDICTIONARY
360
47F9
102
}
102
{ACAD_REACTORS
330
19
102
}
330
19
100
AcDbPlotSettings
  1
A4製造仕様書
  2
\\NETFINITY_5500\Canon LASER SHOT LBP-910
  4
A4
  6

 40
5.873749732971191
 41
5.873747825622557
 42
5.873748779296875
 43
5.873748779296875
 44
209.9733276367186
 45
296.9259948730469
 46
15.0
 47
0.0
 48
0.0
 49
0.0
140
0.0
141
0.0
142
1.0
143
1.0
 70
  1712
 72
     1
 73
     0
 74
     1
  7
acad1.ctb
 75
    16
147
1.0
148
0.0115486965655691
149
7.86079562315183
  0
PLOTSETTINGS
  5
7A6
102
{ACAD_XDICTIONARY
360
47FB
102
}
102
{ACAD_REACTORS
330
19
102
}
330
19
100
AcDbPlotSettings
  1
A4部品図
  2
\\NETFINITY_5500\Canon LASER SHOT LBP-910
  4
A4
  6

 40
5.873749732971191
 41
5.873747825622557
 42
5.873748779296875
 43
5.873748779296875
 44
209.9733276367186
 45
296.9259948730469
 46
0.0
 47
0.0
 48
0.0
 49
0.0
140
0.0
141
0.0
142
1.0
143
1.0
 70
  1712
 72
     1
 73
     0
 74
     1
  7
acad1.ctb
 75
    16
147
1.0
148
0.0115486965655691
149
0.0124955963574962
  0
ACDBPLACEHOLDER
  5
F
102
{ACAD_REACTORS
330
E
102
}
330
E
  0
TABLESTYLE
  5
2198
102
{ACAD_REACTORS
330
2197
102
}
330
2197
100
AcDbTableStyle
  3
Standard
 70
     0
 71
     0
 40
1.5
 41
1.5
280
     0
281
     0
  7
STANDARD
140
4.5
170
     2
 62
     0
 63
     7
283
     0
274
    -2
284
     1
 64
     0
275
    -2
285
     1
 65
     0
276
    -2
286
     1
 66
     0
277
    -2
287
     1
 67
     0
278
    -2
288
     1
 68
     0
279
    -2
289
     1
 69
     0
  7
STANDARD
140
6.0
170
     5
 62
     0
 63
     7
283
     0
274
    -2
284
     1
 64
     0
275
    -2
285
     1
 65
     0
276
    -2
286
     1
 66
     0
277
    -2
287
     1
 67
     0
278
    -2
288
     1
 68
     0
279
    -2
289
     1
 69
     0
  7
STANDARD
140
4.5
170
     5
 62
     0
 63
     7
283
     0
274
    -2
284
     1
 64
     0
275
    -2
285
     1
 65
     0
276
    -2
286
     1
 66
     0
277
    -2
287
     1
 67
     0
278
    -2
288
     1
 68
     0
279
    -2
289
     1
 69
     0
  0
DICTIONARYVAR
  5
22C6
102
{ACAD_REACTORS
330
34
102
}
330
34
100
DictionaryVariables
280
     0
  1
STANDARD
  0
DICTIONARYVAR
  5
470B
102
{ACAD_REACTORS
330
34
102
}
330
34
100
DictionaryVariables
280
     0
  1
1
  0
DICTIONARYVAR
  5
35
102
{ACAD_REACTORS
330
34
102
}
330
34
100
DictionaryVariables
280
     0
  1
0
  0
DICTIONARYVAR
  5
470C
102
{ACAD_REACTORS
330
34
102
}
330
34
100
DictionaryVariables
280
     0
  1

  0
DICTIONARY
  5
4C
102
{ACAD_REACTORS
330
47
102
}
330
47
100
AcDbDictionary
281
     1
  0
XRECORD
  5
21A4
102
{ACAD_REACTORS
330
47
102
}
330
47
100
AcDbXrecord
280
     1
 90
-1023410169
  0
XRECORD
  5
2D7C
102
{ACAD_REACTORS
330
2D7B
102
}
330
2D7B
100
AcDbXrecord
280
     1
330
0
330
1A9A
330
1A9B
330
1A9C
330
1A9D
330
1A9E
330
1A9F
330
1AA0
330
1AA1
330
1AA2
330
1AA3
330
1AA4
330
1AA5
330
1AA6
330
1AA7
330
1AA8
330
1AA9
330
1AAA
330
1AAB
330
1AAC
330
1AAD
330
1AAE
330
1AAF
330
1FA0
330
1FA1
330
7A7
330
7B1
330
7B2
330
7B3
330
7B4
330
7B5
330
7B6
330
7B7
330
7B8
330
7B9
330
7BA
330
7BB
330
7BC
330
7BD
330
7BE
330
7BF
330
7C0
330
7C1
330
7C2
330
7C3
330
7C4
330
7C5
330
178C
330
178D
330
178E
330
17C5
330
17C6
330
17C7
330
17E3
330
17E4
330
17E5
330
1881
330
1882
330
1883
330
1851
  0
DICTIONARY
  5
47EB
330
22
100
AcDbDictionary
280
     1
281
     1
  3
ACAD_XREC_ROUNDTRIP
360
47EC
  0
DICTIONARY
  5
47E9
330
1E
100
AcDbDictionary
280
     1
281
     1
  3
ACAD_XREC_ROUNDTRIP
360
47EA
  0
DICTIONARY
  5
47ED
330
26
100
AcDbDictionary
280
     1
281
     1
  3
ACAD_XREC_ROUNDTRIP
360
47EE
  0
DICTIONARY
  5
47EF
330
7A0
100
AcDbDictionary
280
     1
281
     1
  3
ACAD_XREC_ROUNDTRIP
360
47F0
  0
DICTIONARY
  5
47F1
330
7A1
100
AcDbDictionary
280
     1
281
     1
  3
ACAD_XREC_ROUNDTRIP
360
47F2
  0
DICTIONARY
  5
47F3
330
7A2
100
AcDbDictionary
280
     1
281
     1
  3
ACAD_XREC_ROUNDTRIP
360
47F4
  0
DICTIONARY
  5
47F5
330
7A3
100
AcDbDictionary
280
     1
281
     1
  3
ACAD_XREC_ROUNDTRIP
360
47F6
  0
DICTIONARY
  5
47F7
330
7A4
100
AcDbDictionary
280
     1
281
     1
  3
ACAD_XREC_ROUNDTRIP
360
47F8
  0
DICTIONARY
  5
47F9
330
7A5
100
AcDbDictionary
280
     1
281
     1
  3
ACAD_XREC_ROUNDTRIP
360
47FA
  0
DICTIONARY
  5
47FB
330
7A6
100
AcDbDictionary
280
     1
281
     1
  3
ACAD_XREC_ROUNDTRIP
360
47FC
  0
XRECORD
  5
47EC
102
{ACAD_REACTORS
330
47EB
102
}
330
47EB
100
AcDbXrecord
280
     1
102
SHADEPLOT
 70
     0
102
SHADEPLOTRESLEVEL
 70
     2
102
SHADEPLOTCUSTOMDPI
 70
   300
  0
XRECORD
  5
47EA
102
{ACAD_REACTORS
330
47E9
102
}
330
47E9
100
AcDbXrecord
280
     1
102
SHADEPLOT
 70
     0
102
SHADEPLOTRESLEVEL
 70
     2
102
SHADEPLOTCUSTOMDPI
 70
   300
  0
XRECORD
  5
47EE
102
{ACAD_REACTORS
330
47ED
102
}
330
47ED
100
AcDbXrecord
280
     1
102
SHADEPLOT
 70
     0
102
SHADEPLOTRESLEVEL
 70
     2
102
SHADEPLOTCUSTOMDPI
 70
   300
  0
XRECORD
  5
47F0
102
{ACAD_REACTORS
330
47EF
102
}
330
47EF
100
AcDbXrecord
280
     1
102
SHADEPLOT
 70
     0
102
SHADEPLOTRESLEVEL
 70
     2
102
SHADEPLOTCUSTOMDPI
 70
   300
  0
XRECORD
  5
47F2
102
{ACAD_REACTORS
330
47F1
102
}
330
47F1
100
AcDbXrecord
280
     1
102
SHADEPLOT
 70
     0
102
SHADEPLOTRESLEVEL
 70
     2
102
SHADEPLOTCUSTOMDPI
 70
   300
  0
XRECORD
  5
47F4
102
{ACAD_REACTORS
330
47F3
102
}
330
47F3
100
AcDbXrecord
280
     1
102
SHADEPLOT
 70
     0
102
SHADEPLOTRESLEVEL
 70
     2
102
SHADEPLOTCUSTOMDPI
 70
   300
  0
XRECORD
  5
47F6
102
{ACAD_REACTORS
330
47F5
102
}
330
47F5
100
AcDbXrecord
280
     1
102
SHADEPLOT
 70
     0
102
SHADEPLOTRESLEVEL
 70
     2
102
SHADEPLOTCUSTOMDPI
 70
   300
  0
XRECORD
  5
47F8
102
{ACAD_REACTORS
330
47F7
102
}
330
47F7
100
AcDbXrecord
280
     1
102
SHADEPLOT
 70
     0
102
SHADEPLOTRESLEVEL
 70
     2
102
SHADEPLOTCUSTOMDPI
 70
   300
  0
XRECORD
  5
47FA
102
{ACAD_REACTORS
330
47F9
102
}
330
47F9
100
AcDbXrecord
280
     1
102
SHADEPLOT
 70
     0
102
SHADEPLOTRESLEVEL
 70
     2
102
SHADEPLOTCUSTOMDPI
 70
   300
  0
XRECORD
  5
47FC
102
{ACAD_REACTORS
330
47FB
102
}
330
47FB
100
AcDbXrecord
280
     1
102
SHADEPLOT
 70
     0
102
SHADEPLOTRESLEVEL
 70
     2
102
SHADEPLOTCUSTOMDPI
 70
   300
  0
ENDSEC
  0
EOF
