  0
SECTION
  2
HEADER
  9
$ACADVER
  1
AC1015
  9
$ACADMAINTVER
 70
    20
  9
$DWGCODEPAGE
  3
ANSI_932
  9
$INSBASE
 10
0.0
 20
0.0
 30
0.0
  9
$EXTMIN
 10
265.5206016615505
 20
212.1774717276385
 30
-0.0015258207003583
  9
$EXTMAX
 10
770.892724974538
 20
640.5789137888909
 30
0.0000000349246037
  9
$LIMMIN
 10
0.0
 20
0.0
  9
$LIMMAX
 10
853.5
 20
555.0000000000001
  9
$ORTHOMODE
 70
     0
  9
$REGENMODE
 70
     1
  9
$FILLMODE
 70
     1
  9
$QTEXTMODE
 70
     0
  9
$MIRRTEXT
 70
     1
  9
$LTSCALE
 40
3.0
  9
$ATTMODE
 70
     1
  9
$TEXTSIZE
 40
2.5
  9
$TRACEWID
 40
1.0
  9
$TEXTSTYLE
  7
STANDARD
  9
$CLAYER
  8
AM_0
  9
$CELTYPE
  6
ByLayer
  9
$CECOLOR
 62
   256
  9
$CELTSCALE
 40
1.0
  9
$DISPSILH
 70
     0
  9
$DIMSCALE
 40
1.0
  9
$DIMASZ
 40
2.5
  9
$DIMEXO
 40
1.0
  9
$DIMDLI
 40
8.0
  9
$DIMRND
 40
0.0
  9
$DIMDLE
 40
0.0
  9
$DIMEXE
 40
0.6
  9
$DIMTP
 40
0.1
  9
$DIMTM
 40
0.1
  9
$DIMTXT
 40
2.5
  9
$DIMCEN
 40
0.0
  9
$DIMTSZ
 40
0.0
  9
$DIMTOL
 70
     0
  9
$DIMLIM
 70
     0
  9
$DIMTIH
 70
     0
  9
$DIMTOH
 70
     0
  9
$DIMSE1
 70
     0
  9
$DIMSE2
 70
     0
  9
$DIMTAD
 70
     1
  9
$DIMZIN
 70
     8
  9
$DIMBLK
  1

  9
$DIMASO
 70
     1
  9
$DIMSHO
 70
     1
  9
$DIMPOST
  1

  9
$DIMAPOST
  1
"
  9
$DIMALT
 70
     0
  9
$DIMALTD
 70
     2
  9
$DIMALTF
 40
0.0393701
  9
$DIMLFAC
 40
1.0
  9
$DIMTOFL
 70
     1
  9
$DIMTVP
 40
0.0
  9
$DIMTIX
 70
     0
  9
$DIMSOXD
 70
     0
  9
$DIMSAH
 70
     0
  9
$DIMBLK1
  1

  9
$DIMBLK2
  1

  9
$DIMSTYLE
  2
AM_ISO
  9
$DIMCLRD
 70
   256
  9
$DIMCLRE
 70
   256
  9
$DIMCLRT
 70
     4
  9
$DIMTFAC
 40
0.71
  9
$DIMGAP
 40
0.8
  9
$DIMJUST
 70
     0
  9
$DIMSD1
 70
     0
  9
$DIMSD2
 70
     0
  9
$DIMTOLJ
 70
     0
  9
$DIMTZIN
 70
     8
  9
$DIMALTZ
 70
     0
  9
$DIMALTTZ
 70
     0
  9
$DIMUPT
 70
     0
  9
$DIMDEC
 70
     2
  9
$DIMTDEC
 70
     2
  9
$DIMALTU
 70
     2
  9
$DIMALTTD
 70
     2
  9
$DIMTXSTY
  7
STANDARD
  9
$DIMAUNIT
 70
     0
  9
$DIMADEC
 70
     0
  9
$DIMALTRND
 40
0.0
  9
$DIMAZIN
 70
     2
  9
$DIMDSEP
 70
    46
  9
$DIMATFIT
 70
     3
  9
$DIMFRAC
 70
     0
  9
$DIMLDRBLK
  1

  9
$DIMLUNIT
 70
     2
  9
$DIMLWD
 70
    -1
  9
$DIMLWE
 70
    -1
  9
$DIMTMOVE
 70
     0
  9
$LUNITS
 70
     2
  9
$LUPREC
 70
     2
  9
$SKETCHINC
 40
1.0
  9
$FILLETRAD
 40
3.0
  9
$AUNITS
 70
     0
  9
$AUPREC
 70
     0
  9
$MENU
  1
.
  9
$ELEVATION
 40
0.0
  9
$PELEVATION
 40
0.0
  9
$THICKNESS
 40
0.0
  9
$LIMCHECK
 70
     0
  9
$CHAMFERA
 40
6.0
  9
$CHAMFERB
 40
3.0
  9
$CHAMFERC
 40
20.0
  9
$CHAMFERD
 40
0.0
  9
$SKPOLY
 70
     0
  9
$TDCREATE
 40
2452065.605619213
  9
$TDUCREATE
 40
2452065.230619213
  9
$TDUPDATE
 40
2454770.872323264
  9
$TDUUPDATE
 40
2454770.497323264
  9
$TDINDWG
 40
0.4816013542
  9
$TDUSRTIMER
 40
0.4816011690
  9
$USRTIMER
 70
     1
  9
$ANGBASE
 50
0.0
  9
$ANGDIR
 70
     0
  9
$PDMODE
 70
     0
  9
$PDSIZE
 40
0.0
  9
$PLINEWID
 40
0.0
  9
$SPLFRAME
 70
     0
  9
$SPLINETYPE
 70
     6
  9
$SPLINESEGS
 70
     8
  9
$HANDSEED
  5
4EEA
  9
$SURFTAB1
 70
     6
  9
$SURFTAB2
 70
     6
  9
$SURFTYPE
 70
     6
  9
$SURFU
 70
     6
  9
$SURFV
 70
     6
  9
$UCSBASE
  2

  9
$UCSNAME
  2

  9
$UCSORG
 10
0.0
 20
0.0
 30
0.0
  9
$UCSXDIR
 10
1.0
 20
0.0
 30
0.0
  9
$UCSYDIR
 10
0.0
 20
1.0
 30
0.0
  9
$UCSORTHOREF
  2

  9
$UCSORTHOVIEW
 70
     0
  9
$UCSORGTOP
 10
0.0
 20
0.0
 30
0.0
  9
$UCSORGBOTTOM
 10
0.0
 20
0.0
 30
0.0
  9
$UCSORGLEFT
 10
0.0
 20
0.0
 30
0.0
  9
$UCSORGRIGHT
 10
0.0
 20
0.0
 30
0.0
  9
$UCSORGFRONT
 10
0.0
 20
0.0
 30
0.0
  9
$UCSORGBACK
 10
0.0
 20
0.0
 30
0.0
  9
$PUCSBASE
  2

  9
$PUCSNAME
  2

  9
$PUCSORG
 10
0.0
 20
0.0
 30
0.0
  9
$PUCSXDIR
 10
1.0
 20
0.0
 30
0.0
  9
$PUCSYDIR
 10
0.0
 20
1.0
 30
0.0
  9
$PUCSORTHOREF
  2

  9
$PUCSORTHOVIEW
 70
     0
  9
$PUCSORGTOP
 10
0.0
 20
0.0
 30
0.0
  9
$PUCSORGBOTTOM
 10
0.0
 20
0.0
 30
0.0
  9
$PUCSORGLEFT
 10
0.0
 20
0.0
 30
0.0
  9
$PUCSORGRIGHT
 10
0.0
 20
0.0
 30
0.0
  9
$PUCSORGFRONT
 10
0.0
 20
0.0
 30
0.0
  9
$PUCSORGBACK
 10
0.0
 20
0.0
 30
0.0
  9
$USERI1
 70
     0
  9
$USERI2
 70
     0
  9
$USERI3
 70
     0
  9
$USERI4
 70
     0
  9
$USERI5
 70
     0
  9
$USERR1
 40
0.0
  9
$USERR2
 40
0.0
  9
$USERR3
 40
0.0
  9
$USERR4
 40
0.0
  9
$USERR5
 40
0.0
  9
$WORLDVIEW
 70
     1
  9
$SHADEDGE
 70
     3
  9
$SHADEDIF
 70
    70
  9
$TILEMODE
 70
     1
  9
$MAXACTVP
 70
    64
  9
$PINSBASE
 10
0.0
 20
0.0
 30
0.0
  9
$PLIMCHECK
 70
     0
  9
$PEXTMIN
 10
1.000000000000000E+20
 20
1.000000000000000E+20
 30
1.000000000000000E+20
  9
$PEXTMAX
 10
-1.000000000000000E+20
 20
-1.000000000000000E+20
 30
-1.000000000000000E+20
  9
$PLIMMIN
 10
0.0
 20
0.0
  9
$PLIMMAX
 10
420.0
 20
297.0
  9
$UNITMODE
 70
     0
  9
$VISRETAIN
 70
     1
  9
$PLINEGEN
 70
     0
  9
$PSLTSCALE
 70
     1
  9
$TREEDEPTH
 70
  3020
  9
$CMLSTYLE
  2
Standard
  9
$CMLJUST
 70
     0
  9
$CMLSCALE
 40
20.0
  9
$PROXYGRAPHICS
 70
     1
  9
$MEASUREMENT
 70
     1
  9
$CELWEIGHT
370
    -1
  9
$ENDCAPS
280
     0
  9
$JOINSTYLE
280
     0
  9
$LWDISPLAY
290
     0
  9
$INSUNITS
 70
     4
  9
$HYPERLINKBASE
  1

  9
$STYLESHEET
  1
acad1.ctb
  9
$XEDIT
290
     1
  9
$CEPSNTYPE
380
     0
  9
$PSTYLEMODE
290
     1
  9
$FINGERPRINTGUID
  2
{91B11402-3528-11D5-BE34-000255C217F4}
  9
$VERSIONGUID
  2
{38203368-7D94-48F4-8049-C63F828B1849}
  9
$EXTNAMES
290
     1
  9
$PSVPSCALE
 40
0.0
  9
$OLESTARTUP
290
     0
  0
ENDSEC
  0
SECTION
  2
CLASSES
  0
CLASS
  1
ACDBDICTIONARYWDFLT
  2
AcDbDictionaryWithDefault
  3
ObjectDBX Classes
 90
        0
280
     0
281
     0
  0
CLASS
  1
ACDBPLACEHOLDER
  2
AcDbPlaceHolder
  3
ObjectDBX Classes
 90
        0
280
     0
281
     0
  0
CLASS
  1
LAYOUT
  2
AcDbLayout
  3
ObjectDBX Classes
 90
        0
280
     0
281
     0
  0
CLASS
  1
AMGSETTINGSOBJ
  2
AmgSettingsObj
  3
"AcadM|Product Description: AutoCAD Mechanical 2000|Company: Autodesk"
 90
        0
280
     0
281
     0
  0
CLASS
  1
ACME_DOCUMENT
  2
AcMeDbDoc
  3
AcMeServices
 90
        0
280
     0
281
     0
  0
CLASS
  1
ACMESCOPE
  2
AcMeScope
  3
AcMeServices
 90
        0
280
     0
281
     0
  0
CLASS
  1
ACMECOMMANDHISTORY
  2
AcMeCommandHistory
  3
AcMeServices
 90
        0
280
     0
281
     0
  0
CLASS
  1
DICTIONARYVAR
  2
AcDbDictionaryVar
  3
ObjectDBX Classes
 90
        0
280
     0
281
     0
  0
CLASS
  1
ACIMSYSVARMAN
  2
AcImSysVarManager
  3
AcMeServices
 90
        0
280
     0
281
     0
  0
CLASS
  1
ACIMREALSYSVAR
  2
AcImRealSysVar
  3
AcMeServices
 90
        0
280
     0
281
     0
  0
CLASS
  1
ACIMINTSYSVAR
  2
AcImIntSysVar
  3
AcMeServices
 90
        0
280
     0
281
     0
  0
CLASS
  1
ACMEDRAWINGMAN
  2
AcMeDrawingMan
  3
AcMeServices
 90
        0
280
     0
281
     0
  0
CLASS
  1
ACMEVIEW
  2
AcMeView
  3
AcMeServices
 90
        0
280
     0
281
     0
  0
CLASS
  1
ACDBENTITYCACHE
  2
AcMeEntityCache
  3
AcMeServices
 90
        0
280
     0
281
     0
  0
CLASS
  1
GSMANAGER
  2
AcMeGSManager
  3
AcMeServices
 90
        0
280
     0
281
     0
  0
CLASS
  1
AMDTINTERNALREACTOR
  2
AmdtInternalReactor
  3
AcMeServices
 90
        0
280
     0
281
     0
  0
CLASS
  1
ACMESTATEMGR
  2
AcMeStateMgr
  3
AcMeServices
 90
        0
280
     0
281
     0
  0
CLASS
  1
ACGREFMASTER
  2
AcGrefMaster
  3
AcAttribServices
 90
        0
280
     0
281
     0
  0
CLASS
  1
ACME_DATABASE
  2
AcMeDbDatabase
  3
AcMeServices
 90
        0
280
     0
281
     0
  0
CLASS
  1
ACRFINSADJUSTERMGR
  2
AcRfInsAdjusterMgr
  3
AcMeServices
 90
        0
280
     0
281
     0
  0
CLASS
  1
ACGREFACADMASTER
  2
AcGrefacadMaster
  3
AcGrefServices
 90
        0
280
     0
281
     0
  0
CLASS
  1
AMIMASTER
  2
AmiMaster
  3
AmiServices
 90
        0
280
     0
281
     0
  0
CLASS
  1
ACMDATADICTIONARY
  2
AcmDataDictionary
  3
"AcmSymBB|Product Description: AutoCAD Mechanical 2004 DX|Company: Autodesk"
 90
        0
280
     0
281
     0
  0
CLASS
  1
ACMDATAENTRYBLOCK
  2
AcmDataEntryBlock
  3
"AcmSymBB|Product Description: AutoCAD Mechanical 2004 DX|Company: Autodesk"
 90
        0
280
     0
281
     0
  0
CLASS
  1
ACIMSTRSYSVAR
  2
AcImStrSysVar
  3
AcMeServices
 90
        0
280
     0
281
     0
  0
CLASS
  1
ACMSTANDARDISO
  2
AcmStandardISO
  3
"Amdt_StdImp|Product Description: AutoCAD Mechanical 2004 DX|Company: Autodesk"
 90
        0
280
     0
281
     0
  0
CLASS
  1
AMGOBJPROPCFG
  2
AmgObjPropCfg
  3
"AmgLay|Product Description: AutoCAD Mechanical 2000|Company: Autodesk"
 90
        1
280
     0
281
     0
  0
CLASS
  1
AMDTEDGESTANDARDISO
  2
AmdtEdgeStdISO
  3
"Amdt_StdImp|Product Description: AutoCAD Mechanical 2004 DX|Company: Autodesk"
 90
        0
280
     0
281
     0
  0
CLASS
  1
ACMSURFSTANDARDISO
  2
AcmSurfTextStdISO
  3
"Amdt_StdImp|Product Description: AutoCAD Mechanical 2004 DX|Company: Autodesk"
 90
        0
280
     0
281
     0
  0
CLASS
  1
ACMFCFSTANDARDISO
  2
AcmFCFStdISO
  3
"Amdt_StdImp|Product Description: AutoCAD Mechanical 2004 DX|Company: Autodesk"
 90
        0
280
     0
281
     0
  0
CLASS
  1
ACMWELDSTANDARDISO
  2
AcmWeldingStdISO
  3
"Amdt_StdImp|Product Description: AutoCAD Mechanical 2004 DX|Company: Autodesk"
 90
        0
280
     0
281
     0
  0
CLASS
  1
ACMIDSTANDARDISO
  2
AcmIdStdISO
  3
"Amdt_StdImp|Product Description: AutoCAD Mechanical 2004 DX|Company: Autodesk"
 90
        0
280
     0
281
     0
  0
CLASS
  1
ACMDATUMSTANDARDISO
  2
AcmDatumStdISO
  3
"Amdt_StdImp|Product Description: AutoCAD Mechanical 2004 DX|Company: Autodesk"
 90
        0
280
     0
281
     0
  0
CLASS
  1
ACMBOMSTANDARDISO
  2
AcmBOMStdISO
  3
"Amdt_StdImp|Product Description: AutoCAD Mechanical 2004 DX|Company: Autodesk"
 90
        0
280
     0
281
     0
  0
CLASS
  1
ACMDETAILSTANDARDISO
  2
AmdtDetailSymStdISO
  3
"Amdt_StdImp|Product Description: AutoCAD Mechanical 2004 DX|Company: Autodesk"
 90
        0
280
     0
281
     0
  0
CLASS
  1
ACMSECTIONSTANDARDISO
  2
AmdtSectionSymStdISO
  3
"Amdt_StdImp|Product Description: AutoCAD Mechanical 2004 DX|Company: Autodesk"
 90
        0
280
     0
281
     0
  0
CLASS
  1
ACMCENTERLINESTANDARDISO
  2
AmdtCenterLineStdISO
  3
"Amdt_StdImp|Product Description: AutoCAD Mechanical 2004 DX|Company: Autodesk"
 90
        0
280
     0
281
     0
  0
CLASS
  1
ACAMGLAYSTD
  2
AcAmgLayStd
  3
"AcAmgLayStd|Product Description: AutoCAD Mechanical 2000|Company: Autodesk"
 90
        0
280
     0
281
     0
  0
CLASS
  1
ACAMGDIMSTD
  2
AcAmgDimStd
  3
"AcAmgDimStd|Product Description: AutoCAD Mechanical 2000|Company: Autodesk"
 90
        0
280
     0
281
     0
  0
CLASS
  1
ACAMGTITLESTD
  2
AcAmgTitleStd
  3
"TITLEAPP"
 90
        0
280
     0
281
     0
  0
CLASS
  1
ACAMGFILTERDAT
  2
AcAmgFilterDat
  3
"AcadM|Product Description: AutoCAD Mechanical 2000|Company: Autodesk"
 90
        0
280
     0
281
     0
  0
CLASS
  1
AMDTFORMULAUPDATEDISPATCHER
  2
AmdtFormulaUpdateDispatcher
  3
AcMeServices
 90
        0
280
     0
281
     0
  0
CLASS
  1
LAYER_INDEX
  2
AcDbLayerIndex
  3
ObjectDBX Classes
 90
    32768
280
     0
281
     0
  0
CLASS
  1
IDBUFFER
  2
AcDbIdBuffer
  3
ObjectDBX Classes
 90
    32768
280
     0
281
     0
  0
CLASS
  1
PLOTSETTINGS
  2
AcDbPlotSettings
  3
ObjectDBX Classes
 90
        0
280
     0
281
     0
  0
CLASS
  1
ACMSTANDARDANSI
  2
AcmStandardANSI
  3
"Amdt_StdImp|Product Description: AutoCAD Mechanical 2004 DX|Company: Autodesk"
 90
        0
280
     0
281
     0
  0
CLASS
  1
ACMSURFSTANDARDANSI
  2
AcmSurfTextStdANSI
  3
"Amdt_StdImp|Product Description: AutoCAD Mechanical 2004 DX|Company: Autodesk"
 90
        0
280
     0
281
     0
  0
CLASS
  1
ACMFCFSTANDARDANSI
  2
AcmFCFStdANSI
  3
"Amdt_StdImp|Product Description: AutoCAD Mechanical 2004 DX|Company: Autodesk"
 90
        0
280
     0
281
     0
  0
CLASS
  1
ACMWELDSTANDARDANSI
  2
AcmWeldingStdANSI
  3
"Amdt_StdImp|Product Description: AutoCAD Mechanical 2004 DX|Company: Autodesk"
 90
        0
280
     0
281
     0
  0
CLASS
  1
ACMIDSTANDARDANSI
  2
AcmIdStdANSI
  3
"Amdt_StdImp|Product Description: AutoCAD Mechanical 2004 DX|Company: Autodesk"
 90
        0
280
     0
281
     0
  0
CLASS
  1
ACMDATUMSTANDARDANSI
  2
AcmDatumStdANSI
  3
"Amdt_StdImp|Product Description: AutoCAD Mechanical 2004 DX|Company: Autodesk"
 90
        0
280
     0
281
     0
  0
CLASS
  1
ACMBOMSTANDARDANSI
  2
AcmBOMStdANSI
  3
"Amdt_StdImp|Product Description: AutoCAD Mechanical 2004 DX|Company: Autodesk"
 90
        0
280
     0
281
     0
  0
CLASS
  1
ACMDETAILSTANDARDANSI
  2
AmdtDetailSymStdANSI
  3
"Amdt_StdImp|Product Description: AutoCAD Mechanical 2004 DX|Company: Autodesk"
 90
        0
280
     0
281
     0
  0
CLASS
  1
ACMSECTIONSTANDARDANSI
  2
AmdtSectionSymStdANSI
  3
"Amdt_StdImp|Product Description: AutoCAD Mechanical 2004 DX|Company: Autodesk"
 90
        0
280
     0
281
     0
  0
CLASS
  1
ACMCENTERLINESTANDARDANSI
  2
AmdtCenterLineStdANSI
  3
"Amdt_StdImp|Product Description: AutoCAD Mechanical 2004 DX|Company: Autodesk"
 90
        0
280
     0
281
     0
  0
CLASS
  1
ACMSTANDARDJIS
  2
AcmStandardJIS
  3
"Amdt_StdImp|Product Description: AutoCAD Mechanical 2004 DX|Company: Autodesk"
 90
        0
280
     0
281
     0
  0
CLASS
  1
ACMSURFSTANDARDJIS
  2
AcmSurfTextStdJIS
  3
"Amdt_StdImp|Product Description: AutoCAD Mechanical 2004 DX|Company: Autodesk"
 90
        0
280
     0
281
     0
  0
CLASS
  1
ACMFCFSTANDARDJIS
  2
AcmFCFStdJIS
  3
"Amdt_StdImp|Product Description: AutoCAD Mechanical 2004 DX|Company: Autodesk"
 90
        0
280
     0
281
     0
  0
CLASS
  1
ACMWELDSTANDARDJIS
  2
AcmWeldingStdJIS
  3
"Amdt_StdImp|Product Description: AutoCAD Mechanical 2004 DX|Company: Autodesk"
 90
        0
280
     0
281
     0
  0
CLASS
  1
ACMIDSTANDARDJIS
  2
AcmIdStdJIS
  3
"Amdt_StdImp|Product Description: AutoCAD Mechanical 2004 DX|Company: Autodesk"
 90
        0
280
     0
281
     0
  0
CLASS
  1
ACMDATUMSTANDARDJIS
  2
AcmDatumStdJIS
  3
"Amdt_StdImp|Product Description: AutoCAD Mechanical 2004 DX|Company: Autodesk"
 90
        0
280
     0
281
     0
  0
CLASS
  1
ACMBOMSTANDARDJIS
  2
AcmBOMStdJIS
  3
"Amdt_StdImp|Product Description: AutoCAD Mechanical 2004 DX|Company: Autodesk"
 90
        0
280
     0
281
     0
  0
CLASS
  1
ACMDETAILSTANDARDJIS
  2
AmdtDetailSymStdJIS
  3
"Amdt_StdImp|Product Description: AutoCAD Mechanical 2004 DX|Company: Autodesk"
 90
        0
280
     0
281
     0
  0
CLASS
  1
ACMSECTIONSTANDARDJIS
  2
AmdtSectionSymStdJIS
  3
"Amdt_StdImp|Product Description: AutoCAD Mechanical 2004 DX|Company: Autodesk"
 90
        0
280
     0
281
     0
  0
CLASS
  1
ACMCENTERLINESTANDARDJIS
  2
AmdtCenterLineStdJIS
  3
"Amdt_StdImp|Product Description: AutoCAD Mechanical 2004 DX|Company: Autodesk"
 90
        0
280
     0
281
     0
  0
CLASS
  1
TABLESTYLE
  2
AcDbTableStyle
  3
ObjectDBX Classes
 90
     2047
280
     0
281
     0
  0
CLASS
  1
AM_DRAWING_MGR
  2
AcDmDwgMgr
  3
AcMechDwgViewMgmt
 90
        0
280
     0
281
     0
  0
CLASS
  1
AM_DWG_DOCUMENT
  2
AcDmDwgDocument
  3
AcMechDwgViewMgmt
 90
        0
280
     0
281
     0
  0
CLASS
  1
AM_DWG_SHEET
  2
AcDmSheet
  3
AcMechDwgViewMgmt
 90
        0
280
     0
281
     0
  0
CLASS
  1
AM_VIEWDIMPARMAP
  2
AcDmViewDimParMap
  3
AcMechDwgViewMgmt
 90
        0
280
     0
281
     0
  0
CLASS
  1
AM_DWGMGR_NAME
  2
AcDmDwgMgrName
  3
AcMechDwgViewMgmt
 90
        0
280
     0
281
     0
  0
CLASS
  1
AMDTMENUSTATEMGR
  2
AmdtMenuStateMgr
  3
McadcomServices
 90
        0
280
     0
281
     0
  0
CLASS
  1
AMDTMCOMMENUSTATE
  2
AmdtMcomMenuState
  3
McadcomServices
 90
        0
280
     0
281
     0
  0
CLASS
  1
MAPIAMMOUDLE
  2
MApiAmModule
  3
MApiAmServices
 90
        0
280
     0
281
     0
  0
CLASS
  1
AMDTADMENUSTATE
  2
AmdtAdMenuState
  3
DesignerServices
 90
        0
280
     0
281
     0
  0
CLASS
  1
ADAPPL
  2
AcAdAppl
  3
DesignerServices
 90
        0
280
     0
281
     0
  0
CLASS
  1
DEPMGR
  2
AcAdDepMgr
  3
DesignerServices
 90
        0
280
     0
281
     0
  0
CLASS
  1
PARAMMGR
  2
AcAdParamMgr
  3
DesignerServices
 90
        0
280
     0
281
     0
  0
CLASS
  1
PARAMSCOPE
  2
AcAdParamScope
  3
DesignerServices
 90
        0
280
     0
281
     0
  0
CLASS
  1
NAMEDAPPL
  2
AcAdNamedAppl
  3
DesignerServices
 90
        0
280
     0
281
     0
  0
CLASS
  1
AMDTDMMENUSTATE
  2
AmdtDmMenuState
  3
AcMechDwgViewMgmt
 90
        0
280
     0
281
     0
  0
CLASS
  1
AMDTAMMENUSTATE
  2
AmdtAmMenuState
  3
DesignerAssemblies
 90
        0
280
     0
281
     0
  0
CLASS
  1
ACAMPROJECT
  2
AcAmProject
  3
DesignerAssemblies
 90
        0
280
     0
281
     0
  0
CLASS
  1
ACAMGRCOMPDEF
  2
AcAmGrCompDef
  3
DesignerAssemblies
 90
        0
280
     0
281
     0
  0
CLASS
  1
ACCMCONTEXT
  2
AcCmContext
  3
DesignerAssemblies
 90
        0
280
     0
281
     0
  0
CLASS
  1
ACAMCOMPDEF
  2
AcAmCompDef
  3
DesignerAssemblies
 90
        0
280
     0
281
     0
  0
CLASS
  1
ACAMCOMPDEFMGR
  2
AcAmCompDefMgr
  3
DesignerAssemblies
 90
        0
280
     0
281
     0
  0
CLASS
  1
AMCONTEXTMGR
  2
AcAmContextMgr
  3
DesignerAssemblies
 90
        0
280
     0
281
     0
  0
CLASS
  1
ACAMCONTEXTMODELER
  2
AcAmContextModeler
  3
DesignerAssemblies
 90
        0
280
     0
281
     0
  0
CLASS
  1
ACMTHREADLINESTANDARDISO
  2
AmdtThreadLineStdISO
  3
"Amdt_StdImp|Product Description: AutoCAD Mechanical 2004 DX|Company: Autodesk"
 90
        0
280
     0
281
     0
  0
CLASS
  1
ACMNOTESTANDARDISO
  2
AmdtNoteStdISO
  3
"Amdt_StdImp|Product Description: AutoCAD Mechanical 2004 DX|Company: Autodesk"
 90
        0
280
     0
281
     0
  0
CLASS
  1
AMDTNOTETEMPLATEDB
  2
AmdtNoteTemplateDB
  3
AMDT_STDIMP_MODULE_NAME
 90
        0
280
     0
281
     0
  0
CLASS
  1
ACMTHREADLINESTANDARDANSI
  2
AmdtThreadLineStdANSI
  3
"Amdt_StdImp|Product Description: AutoCAD Mechanical 2004 DX|Company: Autodesk"
 90
        0
280
     0
281
     0
  0
CLASS
  1
ACMNOTESTANDARDANSI
  2
AmdtNoteStdANSI
  3
"Amdt_StdImp|Product Description: AutoCAD Mechanical 2004 DX|Company: Autodesk"
 90
        0
280
     0
281
     0
  0
CLASS
  1
ACMTHREADLINESTANDARDJIS
  2
AmdtThreadLineStdJIS
  3
"Amdt_StdImp|Product Description: AutoCAD Mechanical 2004 DX|Company: Autodesk"
 90
        0
280
     0
281
     0
  0
CLASS
  1
ACMNOTESTANDARDJIS
  2
AmdtNoteStdJIS
  3
"Amdt_StdImp|Product Description: AutoCAD Mechanical 2004 DX|Company: Autodesk"
 90
        0
280
     0
281
     0
  0
CLASS
  1
CATALOGSTATE
  2
AcAmCatalogState
  3
DesignerAssemblies
 90
        0
280
     0
281
     0
  0
CLASS
  1
ACAMGRCOMPDEFSET
  2
AcAmGrCompDefSet
  3
DesignerAssemblies
 90
        0
280
     0
281
     0
  0
CLASS
  1
AMDTBROWSERDBTAB
  2
AmdtBrowserDbTab
  3
McadcomServices
 90
        0
280
     0
281
     0
  0
CLASS
  1
CBROWSERAPPOBJECT
  2
CBrowserAppObject
  3
McadcomServices
 90
        0
280
     0
281
     0
  0
CLASS
  1
DM_PLACEHOLDER
  2
AcDmSelsetPlaceholder
  3
AcMechDwgViewMgmt
 90
        0
280
     0
281
     0
  0
CLASS
  1
DIMASSOC
  2
AcDbDimAssoc
  3
"AcDbDimAssoc|Product Desc:     AcDim ARX App For Dimension|Company:          Autodesk, Inc.|WEB Address:      www.autodesk.com"
 90
    32768
280
     0
281
     0
  0
CLASS
  1
SORTENTSTABLE
  2
AcDbSortentsTable
  3
ObjectDBX Classes
 90
        0
280
     0
281
     0
  0
CLASS
  1
STDPART2D
  2
AmgStdPart
  3
"AmgStdPart|Product Description: AutoCAD Mechanical 2000|Company: Autodesk"
 90
    33791
280
     0
281
     1
  0
CLASS
  1
AMDTNOTE
  2
AmdtNote
  3
"AcmSymBB|Product Description: AutoCAD Mechanical 2004 DX|Company: Autodesk"
 90
    33791
280
     0
281
     1
  0
CLASS
  1
ACMDATUMID
  2
AcmDatumId
  3
"AcmSymBB|Product Description: AutoCAD Mechanical 2004 DX|Company: Autodesk"
 90
    33791
280
     0
281
     1
  0
CLASS
  1
ACRFATTGENMGR
  2
AcRfAttGeneralMgr
  3
AcAttribServices
 90
        0
280
     0
281
     0
  0
ENDSEC
  0
SECTION
  2
TABLES
  0
TABLE
  2
VPORT
  5
8
330
0
100
AcDbSymbolTable
 70
    15
  0
VPORT
  5
4ED3
330
8
100
AcDbSymbolTableRecord
100
AcDbViewportTableRecord
  2
*Active
 70
     0
 10
0.0
 20
0.0
 11
1.0
 21
1.0
 12
518.2066633180442
 22
426.3781927582646
 13
0.0
 23
0.0
 14
7.5
 24
7.5
 15
30.0
 25
30.0
 16
0.0
 26
0.0
 36
1.0
 17
0.0
 27
0.0
 37
0.0
 40
431.5399141642654
 41
1.475550122249388
 42
50.0
 43
0.0
 44
0.0
 50
0.0
 51
0.0
 71
     0
 72
   100
 73
     1
 74
     3
 75
     0
 76
     0
 77
     0
 78
     0
281
     0
 65
     1
110
0.0
120
0.0
130
0.0
111
1.0
121
0.0
131
0.0
112
0.0
122
1.0
132
0.0
 79
     0
146
0.0
  0
ENDTAB
  0
TABLE
  2
LTYPE
  5
5
330
0
100
AcDbSymbolTable
 70
    21
  0
LTYPE
  5
14
330
5
100
AcDbSymbolTableRecord
100
AcDbLinetypeTableRecord
  2
ByBlock
 70
     0
  3

 72
    65
 73
     0
 40
0.0
  0
LTYPE
  5
15
330
5
100
AcDbSymbolTableRecord
100
AcDbLinetypeTableRecord
  2
ByLayer
 70
     0
  3

 72
    65
 73
     0
 40
0.0
  0
LTYPE
  5
16
330
5
100
AcDbSymbolTableRecord
100
AcDbLinetypeTableRecord
  2
Continuous
 70
     0
  3
Solid line
 72
    65
 73
     0
 40
0.0
  0
LTYPE
  5
50
330
5
100
AcDbSymbolTableRecord
100
AcDbLinetypeTableRecord
  2
AM_ISO08W050
 70
     0
  3
____ . ____ . ____ . ____ . ____ . ____ . ____
 72
    65
 73
     4
 40
18.0
 49
12.0
 74
     0
 49
-1.5
 74
     0
 49
3.0
 74
     0
 49
-1.5
 74
     0
  0
LTYPE
  5
53
330
5
100
AcDbSymbolTableRecord
100
AcDbLinetypeTableRecord
  2
AM_ISO08W050x2
 70
     0
  3
__ . __ . __ . __ . __ . __
 72
    65
 73
     4
 40
9.0
 49
6.0
 74
     0
 49
-0.75
 74
     0
 49
1.5
 74
     0
 49
-0.75
 74
     0
  0
LTYPE
  5
6CA
330
5
100
AcDbSymbolTableRecord
100
AcDbLinetypeTableRecord
  2
GEN7
 70
     0
  3
____ . ____ . ____ . ____ . ____ . ____ . ____
 72
    65
 73
     4
 40
14.25
 49
9.75
 74
     0
 49
-1.5
 74
     0
 49
1.5
 74
     0
 49
-1.5
 74
     0
  0
LTYPE
  5
6D6
330
5
100
AcDbSymbolTableRecord
100
AcDbLinetypeTableRecord
  2
GEN3B
 70
     0
  3
 - - - - -
 72
    65
 73
     2
 40
1.0
 49
0.5
 74
     0
 49
-0.5
 74
     0
  0
LTYPE
  5
6D8
330
5
100
AcDbSymbolTableRecord
100
AcDbLinetypeTableRecord
  2
GEN7A
 70
     0
  3
__ . __ . __
 72
    65
 73
     4
 40
7.375
 49
4.75
 74
     0
 49
-0.875
 74
     0
 49
0.875
 74
     0
 49
-0.875
 74
     0
  0
ENDTAB
  0
TABLE
  2
LAYER
  5
2
102
{ACAD_XDICTIONARY
360
2D9C
102
}
330
0
100
AcDbSymbolTable
 70
     9
  0
LAYER
  5
10
330
2
100
AcDbSymbolTableRecord
100
AcDbLayerTableRecord
  2
0
 70
     0
 62
     7
  6
Continuous
370
    -3
390
F
  0
LAYER
  5
106
330
2
100
AcDbSymbolTableRecord
100
AcDbLayerTableRecord
  2
AM_5
 70
     0
 62
     2
  6
Continuous
370
    35
390
F
  0
LAYER
  5
124
330
2
100
AcDbSymbolTableRecord
100
AcDbLayerTableRecord
  2
Defpoints
 70
     0
 62
     7
  6
Continuous
290
     0
370
    -3
390
F
  0
LAYER
  5
6FC
330
2
100
AcDbSymbolTableRecord
100
AcDbLayerTableRecord
  2
ｶｸﾚｾﾝ2
 70
     0
 62
     3
  6
GEN3B
370
    -3
390
F
  0
LAYER
  5
6FE
330
2
100
AcDbSymbolTableRecord
100
AcDbLayerTableRecord
  2
ﾁｭｳｼﾝｾﾝ
 70
     0
 62
     1
  6
GEN7
370
    -3
390
F
  0
LAYER
  5
6FF
330
2
100
AcDbSymbolTableRecord
100
AcDbLayerTableRecord
  2
ﾁｭｳｼﾝｾﾝ1
 70
     0
 62
     1
  6
GEN7A
370
    -3
390
F
  0
LAYER
  5
71A
330
2
100
AcDbSymbolTableRecord
100
AcDbLayerTableRecord
  2
AM_7
 70
     0
 62
     1
  6
AM_ISO08W050
370
    25
390
F
  0
LAYER
  5
71D
330
2
100
AcDbSymbolTableRecord
100
AcDbLayerTableRecord
  2
AM_0
 70
     0
 62
     7
  6
Continuous
370
    50
390
F
  0
LAYER
  5
1A93
330
2
100
AcDbSymbolTableRecord
100
AcDbLayerTableRecord
  2
図面枠-ｷｲﾛ
 70
     0
 62
     2
  6
Continuous
370
    -3
390
F
  0
ENDTAB
  0
TABLE
  2
STYLE
  5
3
330
0
100
AcDbSymbolTable
 70
     8
  0
STYLE
  5
11
330
3
100
AcDbSymbolTableRecord
100
AcDbTextStyleTableRecord
  2
STANDARD
 70
     0
 40
0.0
 41
0.8299999999999998
 50
0.0
 71
     0
 42
2.5
  3
t.shx
  4
bigfont.shx
  0
ENDTAB
  0
TABLE
  2
VIEW
  5
6
330
0
100
AcDbSymbolTable
 70
     6
  0
VIEW
  5
C2
330
6
100
AcDbSymbolTableRecord
100
AcDbViewTableRecord
  2
AM_VIEW1
 70
     0
 40
277.5000000000001
 10
249.6477900552487
 20
416.2500000000001
 41
499.2955801104973
 11
0.0
 21
0.0
 31
1.0
 12
0.0
 22
0.0
 32
0.0
 42
50.0
 43
0.0
 44
0.0
 50
0.0
 71
     0
281
     0
 72
     0
  0
VIEW
  5
C3
330
6
100
AcDbSymbolTableRecord
100
AcDbViewTableRecord
  2
AM_VIEW2
 70
     0
 40
277.5000000000001
 10
603.8522099447513
 20
416.2500000000001
 41
499.2955801104973
 11
0.0
 21
0.0
 31
1.0
 12
0.0
 22
0.0
 32
0.0
 42
50.0
 43
0.0
 44
0.0
 50
0.0
 71
     0
281
     0
 72
     0
  0
VIEW
  5
C4
330
6
100
AcDbSymbolTableRecord
100
AcDbViewTableRecord
  2
AM_VIEW3
 70
     0
 40
277.5000000000001
 10
249.6477900552487
 20
138.75
 41
499.2955801104973
 11
0.0
 21
0.0
 31
1.0
 12
0.0
 22
0.0
 32
0.0
 42
50.0
 43
0.0
 44
0.0
 50
0.0
 71
     0
281
     0
 72
     0
  0
VIEW
  5
C5
330
6
100
AcDbSymbolTableRecord
100
AcDbViewTableRecord
  2
AM_VIEW4
 70
     0
 40
277.5000000000001
 10
603.8522099447513
 20
138.75
 41
499.2955801104973
 11
0.0
 21
0.0
 31
1.0
 12
0.0
 22
0.0
 32
0.0
 42
50.0
 43
0.0
 44
0.0
 50
0.0
 71
     0
281
     0
 72
     0
  0
VIEW
  5
C6
330
6
100
AcDbSymbolTableRecord
100
AcDbViewTableRecord
  2
AM_VIEW5
 70
     0
 40
277.5000000000001
 10
426.75
 20
277.5000000000001
 41
499.2955801104972
 11
0.0
 21
0.0
 31
1.0
 12
0.0
 22
0.0
 32
0.0
 42
50.0
 43
0.0
 44
0.0
 50
0.0
 71
     0
281
     0
 72
     0
  0
VIEW
  5
C7
330
6
100
AcDbSymbolTableRecord
100
AcDbViewTableRecord
  2
AM_VIEW6
 70
     0
 40
554.9944500000001
 10
426.75
 20
277.5
 41
998.5811743093925
 11
0.0
 21
0.0
 31
1.0
 12
0.0
 22
0.0
 32
0.0
 42
50.0
 43
0.0
 44
0.0
 50
0.0
 71
     0
281
     0
 72
     0
  0
ENDTAB
  0
TABLE
  2
UCS
  5
7
330
0
100
AcDbSymbolTable
 70
     0
  0
ENDTAB
  0
TABLE
  2
APPID
  5
9
330
0
100
AcDbSymbolTable
 70
    95
  0
APPID
  5
12
330
9
100
AcDbSymbolTableRecord
100
AcDbRegAppTableRecord
  2
ACAD
 70
     0
  0
APPID
  5
30
330
9
100
AcDbSymbolTableRecord
100
AcDbRegAppTableRecord
  2
MCAD_NO_VIS
 70
     0
  0
APPID
  5
31
330
9
100
AcDbSymbolTableRecord
100
AcDbRegAppTableRecord
  2
ACAD_TEMP_GRAPHIC
 70
     0
  0
APPID
  5
44
330
9
100
AcDbSymbolTableRecord
100
AcDbRegAppTableRecord
  2
ACATTRIBSERVICES
 70
     0
  0
APPID
  5
8D
330
9
100
AcDbSymbolTableRecord
100
AcDbRegAppTableRecord
  2
GENIUS_GENREC_14
 70
     0
  0
APPID
  5
8E
330
9
100
AcDbSymbolTableRecord
100
AcDbRegAppTableRecord
  2
GENIUS_GENOBJ-N-REC_13
 70
     0
  0
APPID
  5
8F
330
9
100
AcDbSymbolTableRecord
100
AcDbRegAppTableRecord
  2
GENIUS_GENODEF_13
 70
     0
  0
APPID
  5
BD
330
9
100
AcDbSymbolTableRecord
100
AcDbRegAppTableRecord
  2
GENIUS_GENOLIS_13
 70
     0
  0
APPID
  5
BE
330
9
100
AcDbSymbolTableRecord
100
AcDbRegAppTableRecord
  2
GENIUS_GENOBJ-N-TIT_13
 70
     0
  0
APPID
  5
BF
330
9
100
AcDbSymbolTableRecord
100
AcDbRegAppTableRecord
  2
GENIUS_GENOENT_13
 70
     0
  0
APPID
  5
C0
330
9
100
AcDbSymbolTableRecord
100
AcDbRegAppTableRecord
  2
GENIUS_GENTITLE_13
 70
     0
  0
APPID
  5
C1
330
9
100
AcDbSymbolTableRecord
100
AcDbRegAppTableRecord
  2
GENIUS_GENOREF_13
 70
     0
  0
APPID
  5
C8
330
9
100
AcDbSymbolTableRecord
100
AcDbRegAppTableRecord
  2
GENIUS_GENSCREG_15
 70
     0
  0
APPID
  5
C9
330
9
100
AcDbSymbolTableRecord
100
AcDbRegAppTableRecord
  2
GENIUS_GENOBJ-N-SDF_13
 70
     0
  0
APPID
  5
103
330
9
100
AcDbSymbolTableRecord
100
AcDbRegAppTableRecord
  2
GENIUS_GENFIL_13
 70
     0
  0
APPID
  5
104
330
9
100
AcDbSymbolTableRecord
100
AcDbRegAppTableRecord
  2
GENIUS_GENOBJ-N-CHA_13
 70
     0
  0
APPID
  5
13E
330
9
100
AcDbSymbolTableRecord
100
AcDbRegAppTableRecord
  2
GENIUS_GENDTOL_13
 70
     0
  0
APPID
  5
187
330
9
100
AcDbSymbolTableRecord
100
AcDbRegAppTableRecord
  2
GENIUS_GENOBJ-N-FIL_13
 70
     0
  0
APPID
  5
75A
330
9
100
AcDbSymbolTableRecord
100
AcDbRegAppTableRecord
  2
AD_DRAW
 70
     0
  0
APPID
  5
75B
330
9
100
AcDbSymbolTableRecord
100
AcDbRegAppTableRecord
  2
DESIGNERASSEMBLIES
 70
     0
  0
APPID
  5
75C
330
9
100
AcDbSymbolTableRecord
100
AcDbRegAppTableRecord
  2
ASURF_PCURVE_APPNAME
 70
     0
  0
APPID
  5
75D
330
9
100
AcDbSymbolTableRecord
100
AcDbRegAppTableRecord
  2
GENIUS_GE3SECT_13
 70
     0
  0
APPID
  5
75E
330
9
100
AcDbSymbolTableRecord
100
AcDbRegAppTableRecord
  2
GENIUS_GENCFG_13
 70
     0
  0
APPID
  5
75F
330
9
100
AcDbSymbolTableRecord
100
AcDbRegAppTableRecord
  2
GENIUS_GE3CFG0_13
 70
     0
  0
APPID
  5
760
330
9
100
AcDbSymbolTableRecord
100
AcDbRegAppTableRecord
  2
GENIUS_GENCFG0_13
 70
     0
  0
APPID
  5
761
330
9
100
AcDbSymbolTableRecord
100
AcDbRegAppTableRecord
  2
GENIUS_GENCFG1_13
 70
     0
  0
APPID
  5
762
330
9
100
AcDbSymbolTableRecord
100
AcDbRegAppTableRecord
  2
GENIUS_GENCFG2_13
 70
     0
  0
APPID
  5
763
330
9
100
AcDbSymbolTableRecord
100
AcDbRegAppTableRecord
  2
GENIUS_GENCFG3_13
 70
     0
  0
APPID
  5
764
330
9
100
AcDbSymbolTableRecord
100
AcDbRegAppTableRecord
  2
GENIUS_GENCFG4_13
 70
     0
  0
APPID
  5
765
330
9
100
AcDbSymbolTableRecord
100
AcDbRegAppTableRecord
  2
GENIUS_GEVCFG0_13
 70
     0
  0
APPID
  5
766
330
9
100
AcDbSymbolTableRecord
100
AcDbRegAppTableRecord
  2
GENIUS_GENHINW_13
 70
     0
  0
APPID
  5
767
330
9
100
AcDbSymbolTableRecord
100
AcDbRegAppTableRecord
  2
GENIUS_FIRSTVISTXT_14
 70
     0
  0
APPID
  5
768
330
9
100
AcDbSymbolTableRecord
100
AcDbRegAppTableRecord
  2
GENIUS_GENOBJ-N-LEADER_13
 70
     0
  0
APPID
  5
769
330
9
100
AcDbSymbolTableRecord
100
AcDbRegAppTableRecord
  2
GEV_VCCNULL_SWITCH_OFF
 70
     0
  0
APPID
  5
76A
330
9
100
AcDbSymbolTableRecord
100
AcDbRegAppTableRecord
  2
GENIUS_GEFCFG0_13
 70
     0
  0
APPID
  5
76B
330
9
100
AcDbSymbolTableRecord
100
AcDbRegAppTableRecord
  2
GENIUS_GENZVEED_13
 70
     0
  0
APPID
  5
76C
330
9
100
AcDbSymbolTableRecord
100
AcDbRegAppTableRecord
  2
GENIUS_GENSCREG_13
 70
     0
  0
APPID
  5
76D
330
9
100
AcDbSymbolTableRecord
100
AcDbRegAppTableRecord
  2
GENIUS_DUMCFG0_13
 70
     0
  0
APPID
  5
76E
330
9
100
AcDbSymbolTableRecord
100
AcDbRegAppTableRecord
  2
GEVID936201362
 70
     0
  0
APPID
  5
76F
330
9
100
AcDbSymbolTableRecord
100
AcDbRegAppTableRecord
  2
GEVDC
 70
     0
  0
APPID
  5
770
330
9
100
AcDbSymbolTableRecord
100
AcDbRegAppTableRecord
  2
GEVCON
 70
     0
  0
APPID
  5
771
330
9
100
AcDbSymbolTableRecord
100
AcDbRegAppTableRecord
  2
VCC
 70
     0
  0
APPID
  5
772
330
9
100
AcDbSymbolTableRecord
100
AcDbRegAppTableRecord
  2
GEVPT
 70
     0
  0
APPID
  5
773
330
9
100
AcDbSymbolTableRecord
100
AcDbRegAppTableRecord
  2
GEVIT
 70
     0
  0
APPID
  5
774
330
9
100
AcDbSymbolTableRecord
100
AcDbRegAppTableRecord
  2
GENBH
 70
     0
  0
APPID
  5
775
330
9
100
AcDbSymbolTableRecord
100
AcDbRegAppTableRecord
  2
GEVMK
 70
     0
  0
APPID
  5
776
330
9
100
AcDbSymbolTableRecord
100
AcDbRegAppTableRecord
  2
GENIUS_GENBH_13
 70
     0
  0
APPID
  5
777
330
9
100
AcDbSymbolTableRecord
100
AcDbRegAppTableRecord
  2
GENIUS_GENOBJ-NBEHI-BHF_13
 70
     0
  0
APPID
  5
778
330
9
100
AcDbSymbolTableRecord
100
AcDbRegAppTableRecord
  2
GENIUS_GENOBJ-NBEHI-BHB_13
 70
     0
  0
APPID
  5
779
330
9
100
AcDbSymbolTableRecord
100
AcDbRegAppTableRecord
  2
GENIUS_GENOBJ-F-DESC_13
 70
     0
  0
APPID
  5
77A
330
9
100
AcDbSymbolTableRecord
100
AcDbRegAppTableRecord
  2
GENIUS_GEFDESC_14
 70
     0
  0
APPID
  5
77B
330
9
100
AcDbSymbolTableRecord
100
AcDbRegAppTableRecord
  2
GENIUS_GENOBJ-F-PART_13
 70
     0
  0
APPID
  5
77C
330
9
100
AcDbSymbolTableRecord
100
AcDbRegAppTableRecord
  2
GENIUS_GEFSTDP_13
 70
     0
  0
APPID
  5
77D
330
9
100
AcDbSymbolTableRecord
100
AcDbRegAppTableRecord
  2
GENIUS_GEFPARTINS_13
 70
     0
  0
APPID
  5
77E
330
9
100
AcDbSymbolTableRecord
100
AcDbRegAppTableRecord
  2
GENIUS_GENTRA_14
 70
     0
  0
APPID
  5
77F
330
9
100
AcDbSymbolTableRecord
100
AcDbRegAppTableRecord
  2
GENIUS_GENINF13_13
 70
     0
  0
APPID
  5
780
330
9
100
AcDbSymbolTableRecord
100
AcDbRegAppTableRecord
  2
GENIUS_GENOBJ-N-INFOPT_13
 70
     0
  0
APPID
  5
781
330
9
100
AcDbSymbolTableRecord
100
AcDbRegAppTableRecord
  2
GENIUS_GENOBJ-N-RSSYM_13
 70
     0
  0
APPID
  5
782
330
9
100
AcDbSymbolTableRecord
100
AcDbRegAppTableRecord
  2
GENIUS_GENSYMENT_13
 70
     0
  0
APPID
  5
783
330
9
100
AcDbSymbolTableRecord
100
AcDbRegAppTableRecord
  2
GENIUS_GENSCSYM_13
 70
     0
  0
APPID
  5
784
330
9
100
AcDbSymbolTableRecord
100
AcDbRegAppTableRecord
  2
GENIUS_GEFINFNAM_13
 70
     0
  0
APPID
  5
785
330
9
100
AcDbSymbolTableRecord
100
AcDbRegAppTableRecord
  2
GENIUS_GENOBJ-N-CEN_13
 70
     0
  0
APPID
  5
786
330
9
100
AcDbSymbolTableRecord
100
AcDbRegAppTableRecord
  2
GENIUS_GENOBJ-N-CRS_13
 70
     0
  0
APPID
  5
787
330
9
100
AcDbSymbolTableRecord
100
AcDbRegAppTableRecord
  2
GENIUS_GENOBJ-N-CRC_13
 70
     0
  0
APPID
  5
788
330
9
100
AcDbSymbolTableRecord
100
AcDbRegAppTableRecord
  2
GENIUS_GENCRC_14
 70
     0
  0
APPID
  5
789
330
9
100
AcDbSymbolTableRecord
100
AcDbRegAppTableRecord
  2
GEVID942827039
 70
     0
  0
APPID
  5
78A
330
9
100
AcDbSymbolTableRecord
100
AcDbRegAppTableRecord
  2
GEVID942827040
 70
     0
  0
APPID
  5
78B
330
9
100
AcDbSymbolTableRecord
100
AcDbRegAppTableRecord
  2
GEVID942827041
 70
     0
  0
APPID
  5
78C
330
9
100
AcDbSymbolTableRecord
100
AcDbRegAppTableRecord
  2
GENIUS_GENOBJ-F-SCPASSM_13
 70
     0
  0
APPID
  5
78D
330
9
100
AcDbSymbolTableRecord
100
AcDbRegAppTableRecord
  2
GENIUS_GENDIMSH_14
 70
     0
  0
APPID
  5
78E
330
9
100
AcDbSymbolTableRecord
100
AcDbRegAppTableRecord
  2
GEVID942827042
 70
     0
  0
APPID
  5
78F
330
9
100
AcDbSymbolTableRecord
100
AcDbRegAppTableRecord
  2
GEVID946020473
 70
     0
  0
APPID
  5
790
330
9
100
AcDbSymbolTableRecord
100
AcDbRegAppTableRecord
  2
GEVID946020474
 70
     0
  0
APPID
  5
791
330
9
100
AcDbSymbolTableRecord
100
AcDbRegAppTableRecord
  2
GEVID946020475
 70
     0
  0
APPID
  5
792
330
9
100
AcDbSymbolTableRecord
100
AcDbRegAppTableRecord
  2
GENIUS_GENOBJ-N-HTC_13
 70
     0
  0
APPID
  5
793
330
9
100
AcDbSymbolTableRecord
100
AcDbRegAppTableRecord
  2
GENIUS_GENHATCH_13
 70
     0
  0
APPID
  5
794
330
9
100
AcDbSymbolTableRecord
100
AcDbRegAppTableRecord
  2
GEVID948854295
 70
     0
  0
APPID
  5
795
330
9
100
AcDbSymbolTableRecord
100
AcDbRegAppTableRecord
  2
GEVID939402019
 70
     0
  0
APPID
  5
796
330
9
100
AcDbSymbolTableRecord
100
AcDbRegAppTableRecord
  2
GEVID952919491
 70
     0
  0
APPID
  5
797
330
9
100
AcDbSymbolTableRecord
100
AcDbRegAppTableRecord
  2
GEVID952919492
 70
     0
  0
APPID
  5
798
330
9
100
AcDbSymbolTableRecord
100
AcDbRegAppTableRecord
  2
GENIUS_GEFWELD_13
 70
     0
  0
APPID
  5
799
330
9
100
AcDbSymbolTableRecord
100
AcDbRegAppTableRecord
  2
GENIUS_GENOBJ-F-WELS_13
 70
     0
  0
APPID
  5
79A
330
9
100
AcDbSymbolTableRecord
100
AcDbRegAppTableRecord
  2
GEVID952919493
 70
     0
  0
APPID
  5
79B
330
9
100
AcDbSymbolTableRecord
100
AcDbRegAppTableRecord
  2
GENIUS_GENOBJ-N-RSBK_13
 70
     0
  0
APPID
  5
79C
330
9
100
AcDbSymbolTableRecord
100
AcDbRegAppTableRecord
  2
GENIUS_GENOBJ-N-LIB_13
 70
     0
  0
APPID
  5
79D
330
9
100
AcDbSymbolTableRecord
100
AcDbRegAppTableRecord
  2
GENIUS_GENSCALE_13
 70
     0
  0
APPID
  5
79E
330
9
100
AcDbSymbolTableRecord
100
AcDbRegAppTableRecord
  2
GEVID986376691
 70
     0
  0
APPID
  5
79F
330
9
100
AcDbSymbolTableRecord
100
AcDbRegAppTableRecord
  2
DCO15
 70
     0
  0
APPID
  5
1A97
330
9
100
AcDbSymbolTableRecord
100
AcDbRegAppTableRecord
  2
GEVID988070561
 70
     0
  0
APPID
  5
1A98
330
9
100
AcDbSymbolTableRecord
100
AcDbRegAppTableRecord
  2
GEVID988070562
 70
     0
  0
APPID
  5
1A99
330
9
100
AcDbSymbolTableRecord
100
AcDbRegAppTableRecord
  2
GEVID988070563
 70
     0
  0
APPID
  5
2201
330
9
100
AcDbSymbolTableRecord
100
AcDbRegAppTableRecord
  2
ACADM_DIM_EDIT
 70
     0
  0
APPID
  5
2202
330
9
100
AcDbSymbolTableRecord
100
AcDbRegAppTableRecord
  2
AMDT_DM_ADJ
 70
     0
  0
APPID
  5
222C
330
9
100
AcDbSymbolTableRecord
100
AcDbRegAppTableRecord
  2
ACAD_PSEXT
 70
     0
  0
APPID
  5
222D
330
9
100
AcDbSymbolTableRecord
100
AcDbRegAppTableRecord
  2
GENIUS_GENCEN_19
 70
     0
  0
ENDTAB
  0
TABLE
  2
DIMSTYLE
  5
A
330
0
100
AcDbSymbolTable
 70
    17
100
AcDbDimStyleTable
 71
     1
340
6C
  0
DIMSTYLE
105
6C
330
A
100
AcDbSymbolTableRecord
100
AcDbDimStyleTableRecord
  2
AM_ISO
 70
     0
  4
"
 41
2.5
 42
1.0
 43
8.0
 44
0.6
 47
0.1
 48
0.1
 73
     0
 74
     0
 77
     1
 78
     8
 79
     2
140
2.5
141
0.0
143
0.0393701
146
0.71
147
0.8
172
     1
176
   256
177
   256
178
     4
271
     2
272
     2
283
     0
284
     8
340
11
371
    -1
372
    -1
  0
DIMSTYLE
105
740
330
A
100
AcDbSymbolTableRecord
100
AcDbDimStyleTableRecord
  2
STANDARD
 70
     0
340
11
  0
ENDTAB
  0
TABLE
  2
BLOCK_RECORD
  5
1
330
0
100
AcDbSymbolTable
 70
     7
  0
BLOCK_RECORD
  5
1F
102
{ACAD_XDICTIONARY
360
CC
102
}
330
1
100
AcDbSymbolTableRecord
100
AcDbBlockTableRecord
  2
*Model_Space
340
22
  0
BLOCK_RECORD
  5
1B
330
1
100
AcDbSymbolTableRecord
100
AcDbBlockTableRecord
  2
*Paper_Space
340
1E
  0
BLOCK_RECORD
  5
23
330
1
100
AcDbSymbolTableRecord
100
AcDbBlockTableRecord
  2
*Paper_Space0
340
26
  0
ENDTAB
  0
ENDSEC
  0
SECTION
  2
BLOCKS
  0
BLOCK
  5
20
330
1F
100
AcDbEntity
  8
0
100
AcDbBlockBegin
  2
*Model_Space
 70
     0
 10
0.0
 20
0.0
 30
0.0
  3
*Model_Space
  1

  0
ENDBLK
  5
21
330
1F
100
AcDbEntity
  8
0
100
AcDbBlockEnd
  0
BLOCK
  5
1C
330
1B
100
AcDbEntity
 67
     1
  8
0
100
AcDbBlockBegin
  2
*Paper_Space
 70
     0
 10
0.0
 20
0.0
 30
0.0
  3
*Paper_Space
  1

  0
ENDBLK
  5
1D
330
1B
100
AcDbEntity
 67
     1
  8
0
100
AcDbBlockEnd
  0
BLOCK
  5
24
330
23
100
AcDbEntity
  8
0
100
AcDbBlockBegin
  2
*Paper_Space0
 70
     0
 10
0.0
 20
0.0
 30
0.0
  3
*Paper_Space0
  1

  0
ENDBLK
  5
25
330
23
100
AcDbEntity
  8
0
100
AcDbBlockEnd
  0
ENDSEC
  0
SECTION
  2
ENTITIES
  0
LINE
  5
3DCE
330
1F
100
AcDbEntity
  8
AM_0
100
AcDbLine
 10
487.0370711739872
 20
306.7482628595449
 30
0.0
 11
490.0370711739872
 21
306.7482628595449
 31
0.0
  0
LINE
  5
3DCF
330
1F
100
AcDbEntity
  8
AM_0
100
AcDbLine
 10
532.0371011739871
 20
338.7482938595449
 30
0.0
 11
532.0371011739871
 21
307.7482618595449
 31
0.0
  0
LINE
  5
3DD0
330
1F
100
AcDbEntity
  8
AM_0
100
AcDbLine
 10
490.0370711739872
 20
335.7482938595449
 30
0.0
 11
532.0371011739871
 21
335.7482938595449
 31
0.0
  0
LINE
  5
3DD1
330
1F
100
AcDbEntity
  8
AM_0
100
AcDbLine
 10
490.0370711739872
 20
336.7482628595449
 30
0.0
 11
490.0370711739872
 21
306.7482628595449
 31
0.0
  0
LINE
  5
3DD2
330
1F
100
AcDbEntity
  8
AM_0
100
AcDbLine
 10
490.0370711739872
 20
307.7482618595449
 30
0.0
 11
532.0371011739871
 21
307.7482618595449
 31
0.0
  0
LINE
  5
3DD3
330
1F
100
AcDbEntity
  8
ﾁｭｳｼﾝｾﾝ
100
AcDbLine
 10
385.3960511739872
 20
321.7482628595448
 30
0.0
 11
536.9848811739871
 21
321.7482628595448
 31
0.0
  0
LINE
  5
3DD4
330
1F
100
AcDbEntity
  8
AM_0
100
AcDbLine
 10
500.0370611739872
 20
338.7482938595449
 30
0.0
 11
532.0371011739871
 21
338.7482938595449
 31
0.0
  0
LINE
  5
3DD5
330
1F
100
AcDbEntity
  8
AM_0
100
AcDbLine
 10
500.0370611739872
 20
338.7482938595449
 30
0.0
 11
500.0370611739872
 21
335.7482938595449
 31
0.0
  0
LINE
  5
3DD6
330
1F
100
AcDbEntity
  8
AM_0
100
AcDbLine
 10
487.0370711739872
 20
336.7482628595449
 30
0.0
 11
490.0370711739872
 21
336.7482628595449
 31
0.0
  0
LINE
  5
3DD7
330
1F
100
AcDbEntity
  8
AM_0
100
AcDbLine
 10
675.0942258742782
 20
338.7482938595449
 30
0.0
 11
683.0942118742783
 21
338.7482938595449
 31
0.0
  0
LINE
  5
3DD8
330
1F
100
AcDbEntity
  8
AM_0
100
AcDbLine
 10
683.0942118742783
 20
331.7482618595449
 30
0.0
 11
683.0942118742783
 21
338.7482938595449
 31
0.0
  0
LINE
  5
3DD9
330
1F
100
AcDbEntity
  8
AM_0
100
AcDbLine
 10
675.0942258742782
 20
331.7482618595449
 30
0.0
 11
675.0942258742782
 21
338.7482938595449
 31
0.0
  0
LINE
  5
3DDA
330
1F
100
AcDbEntity
  8
AM_0
100
AcDbLine
 10
675.0942258742782
 20
331.7482618595449
 30
0.0
 11
683.0942118742783
 21
331.7482618595449
 31
0.0
  0
LINE
  5
3DDB
330
1F
100
AcDbEntity
  8
AM_0
100
AcDbLine
 10
484.0370711739872
 20
232.6212448595448
 30
0.0
 11
484.0370711739872
 21
357.9992788595449
 31
0.0
  0
LINE
  5
3DDC
330
1F
100
AcDbEntity
  8
AM_0
100
AcDbLine
 10
736.0942278742783
 20
230.7482608595449
 30
0.0
 11
767.0942298742783
 21
230.7482608595449
 31
0.0
  0
LINE
  5
3DDD
330
1F
100
AcDbEntity
  8
AM_0
100
AcDbLine
 10
589.0942248742783
 20
215.7482758595449
 30
0.0
 11
589.0942248742783
 21
230.7482608595449
 31
0.0
  0
LINE
  5
3DDE
330
1F
100
AcDbEntity
  8
AM_0
100
AcDbLine
 10
732.0942288742784
 20
217.748258859545
 30
0.0
 11
626.0942568742783
 21
217.748258859545
 31
0.0
  0
LINE
  5
3DDF
330
1F
100
AcDbEntity
  8
ｶｸﾚｾﾝ2
100
AcDbLine
 10
610.0942248742783
 20
230.7482608595449
 30
0.0
 11
610.0942248742783
 21
215.7482758595449
 31
0.0
  0
LINE
  5
3DE0
330
1F
100
AcDbEntity
  8
ｶｸﾚｾﾝ2
100
AcDbLine
 10
598.0942248742783
 20
230.7482608595449
 30
0.0
 11
598.0942248742783
 21
215.7482758595449
 31
0.0
  0
LINE
  5
3DE1
330
1F
100
AcDbEntity
  8
AM_0
100
AcDbLine
 10
460.0370711739872
 20
215.7482608595449
 30
0.0
 11
460.0370711739872
 21
215.7482608595449
 31
0.0
  0
LINE
  5
3DE2
330
1F
100
AcDbEntity
  8
AM_0
100
AcDbLine
 10
405.0371111739872
 20
216.7482598595449
 30
0.0
 11
459.0371111739872
 21
216.7482598595449
 31
0.0
  0
LINE
  5
3DE3
330
1F
100
AcDbEntity
  8
AM_0
100
AcDbLine
 10
379.0371011739872
 20
230.7482608595449
 30
0.0
 11
404.5514111739872
 21
230.7482608595449
 31
0.0
  0
LINE
  5
3DE4
330
1F
100
AcDbEntity
  8
AM_0
100
AcDbLine
 10
487.0370711739872
 20
228.7482748595449
 30
0.0
 11
487.0370711739872
 21
215.7482608595449
 31
0.0
  0
LINE
  5
3DE5
330
1F
100
AcDbEntity
  8
AM_0
100
AcDbLine
 10
377.0370911739872
 20
215.7482608595449
 30
0.0
 11
404.0370611739872
 21
215.7482608595449
 31
0.0
  0
LINE
  5
3DE6
330
1F
100
AcDbEntity
  8
AM_0
100
AcDbLine
 10
459.0371111739872
 20
230.7482608595449
 30
0.0
 11
485.0370611739872
 21
230.7482608595449
 31
0.0
  0
LINE
  5
3DE7
330
1F
100
AcDbEntity
  8
ﾁｭｳｼﾝｾﾝ1
 48
0.5
100
AcDbLine
 10
754.0942158742783
 20
212.8759516954017
 30
0.0
 11
754.0942158742783
 21
233.3416637634972
 31
0.0
  0
LINE
  5
3DE8
330
1F
100
AcDbEntity
  8
ﾁｭｳｼﾝｾﾝ1
 48
0.5
100
AcDbLine
 10
604.0942248742783
 20
212.8759516954017
 30
0.0
 11
604.0942248742783
 21
233.3416637634972
 31
0.0
  0
LINE
  5
3DE9
330
1F
100
AcDbEntity
  8
ｶｸﾚｾﾝ2
100
AcDbLine
 10
748.0942308742783
 20
230.7482608595449
 30
0.0
 11
748.0942308742783
 21
215.7482758595449
 31
0.0
  0
LINE
  5
3DEA
330
1F
100
AcDbEntity
  8
ｶｸﾚｾﾝ2
100
AcDbLine
 10
760.0942308742784
 20
230.7482608595449
 30
0.0
 11
760.0942308742784
 21
215.7482758595449
 31
0.0
  0
LINE
  5
3DEB
330
1F
100
AcDbEntity
  8
AM_0
100
AcDbLine
 10
769.0942218742783
 20
230.7482608595449
 30
0.0
 11
759.4820628742783
 21
308.4878848595448
 31
0.0
  0
LINE
  5
3DEC
330
1F
100
AcDbEntity
  8
AM_0
100
AcDbLine
 10
589.0941948742782
 20
230.7482608595449
 30
0.0
 11
598.7063778742784
 21
308.4878848595448
 31
0.0
  0
LINE
  5
3DED
330
1F
100
AcDbEntity
  8
AM_0
100
AcDbLine
 10
464.0370611739872
 20
352.9815388595449
 30
0.0
 11
472.0370711739872
 21
352.9815388595449
 31
0.0
  0
LINE
  5
3DEE
330
1F
100
AcDbEntity
  8
AM_0
100
AcDbLine
 10
454.0370711739872
 20
243.3615568595449
 30
0.0
 11
467.0370611739872
 21
243.3615568595449
 31
0.0
  0
LINE
  5
3DEF
330
1F
100
AcDbEntity
  8
AM_0
100
AcDbLine
 10
721.0942278742783
 20
222.7482748595449
 30
0.0
 11
721.0942278742783
 21
223.7482738595448
 31
0.0
  0
LINE
  5
3DF0
330
1F
100
AcDbEntity
  8
AM_0
100
AcDbLine
 10
733.0942278742782
 20
235.7482738595448
 30
0.0
 11
733.0942278742782
 21
306.7482628595449
 31
0.0
  0
LINE
  5
3DF1
330
1F
100
AcDbEntity
  8
AM_0
100
AcDbLine
 10
637.0942248742783
 20
222.7482748595449
 30
0.0
 11
637.0942248742783
 21
223.7482738595448
 31
0.0
  0
LINE
  5
3DF2
330
1F
100
AcDbEntity
  8
AM_0
100
AcDbLine
 10
454.0370711739872
 20
235.748258859545
 30
0.0
 11
454.0370711739872
 21
342.9815698595449
 31
0.0
  0
LINE
  5
3DF3
330
1F
100
AcDbEntity
  8
AM_0
100
AcDbLine
 10
460.0370711739872
 20
215.7482608595449
 30
0.0
 11
487.0370711739872
 21
215.7482608595449
 31
0.0
  0
LINE
  5
3DF4
330
1F
100
AcDbEntity
  8
ｶｸﾚｾﾝ2
100
AcDbLine
 10
478.0370711739871
 20
230.7482608595449
 30
0.0
 11
478.0370711739871
 21
215.7482608595449
 31
0.0
  0
LINE
  5
3DF5
330
1F
100
AcDbEntity
  8
ｶｸﾚｾﾝ2
100
AcDbLine
 10
386.0370911739872
 20
230.7482608595449
 30
0.0
 11
386.0370911739872
 21
215.7482608595449
 31
0.0
  0
LINE
  5
3DF6
330
1F
100
AcDbEntity
  8
ｶｸﾚｾﾝ2
100
AcDbLine
 10
398.0370911739872
 20
230.7482608595449
 30
0.0
 11
398.0370911739872
 21
215.7482608595449
 31
0.0
  0
LINE
  5
3DF7
330
1F
100
AcDbEntity
  8
ｶｸﾚｾﾝ2
100
AcDbLine
 10
466.0370711739871
 20
230.7482608595449
 30
0.0
 11
466.0370711739871
 21
215.7482608595449
 31
0.0
  0
LINE
  5
3DF8
330
1F
100
AcDbEntity
  8
AM_0
100
AcDbLine
 10
414.0371111739872
 20
268.2170878595449
 30
0.0
 11
414.0371111739872
 21
303.5369278595449
 31
0.0
  0
LINE
  5
3DF9
330
1F
100
AcDbEntity
  8
AM_0
100
AcDbLine
 10
476.6013011739871
 20
361.3988188595448
 30
0.0
 11
481.2985811739871
 21
360.9878488595449
 31
0.0
  0
LINE
  5
3DFA
330
1F
100
AcDbEntity
  8
AM_0
100
AcDbLine
 10
619.0942248742783
 20
269.5482628595449
 30
0.0
 11
619.0942248742783
 21
350.9982388595448
 31
0.0
  0
LINE
  5
3DFB
330
1F
100
AcDbEntity
  8
AM_0
100
AcDbLine
 10
739.0942278742783
 20
269.5482628595449
 30
0.0
 11
739.0942278742783
 21
350.9982388595448
 31
0.0
  0
LINE
  5
3DFC
330
1F
100
AcDbEntity
  8
AM_0
100
AcDbLine
 10
625.0942248742783
 20
235.7482738595448
 30
0.0
 11
625.0942248742783
 21
306.7482628595449
 31
0.0
  0
LINE
  5
3DFD
330
1F
100
AcDbEntity
  8
AM_0
100
AcDbLine
 10
642.0942258742783
 20
228.7482748595449
 30
0.0
 11
716.0942298742784
 21
228.7482748595449
 31
0.0
  0
LINE
  5
3DFE
330
1F
100
AcDbEntity
  8
AM_0
100
AcDbLine
 10
624.0942258742783
 20
215.7482758595449
 30
0.0
 11
624.0942258742783
 21
228.7482748595449
 31
0.0
  0
LINE
  5
3DFF
330
1F
100
AcDbEntity
  8
AM_0
100
AcDbLine
 10
624.0942258742783
 20
215.7482758595449
 30
0.0
 11
589.0942248742783
 21
215.7482758595449
 31
0.0
  0
LINE
  5
3E00
330
1F
100
AcDbEntity
  8
AM_0
100
AcDbLine
 10
734.0942148742783
 20
215.7482758595449
 30
0.0
 11
769.0942218742783
 21
215.7482758595449
 31
0.0
  0
LINE
  5
3E01
330
1F
100
AcDbEntity
  8
AM_0
100
AcDbLine
 10
734.0942148742783
 20
215.7482758595449
 30
0.0
 11
734.0942148742783
 21
228.7482748595449
 31
0.0
  0
LINE
  5
3E02
330
1F
100
AcDbEntity
  8
AM_0
100
AcDbLine
 10
769.0942218742783
 20
215.7482758595449
 30
0.0
 11
769.0942218742783
 21
230.7482608595449
 31
0.0
  0
LINE
  5
3E03
330
1F
100
AcDbEntity
  8
AM_0
100
AcDbLine
 10
472.0370711739872
 20
248.3615728595449
 30
0.0
 11
472.0370711739872
 21
373.080128859545
 31
0.0
  0
LINE
  5
3E04
330
1F
100
AcDbEntity
  8
AM_0
100
AcDbLine
 10
377.0370911739872
 20
228.7482748595449
 30
0.0
 11
377.0370911739872
 21
215.7482608595449
 31
0.0
  0
LINE
  5
3E05
330
1F
100
AcDbEntity
  8
ﾁｭｳｼﾝｾﾝ
100
AcDbLine
 10
643.0161318742783
 20
321.7482628595448
 30
0.0
 11
715.3524978742783
 21
321.7482628595448
 31
0.0
  0
LINE
  5
3E06
330
1F
100
AcDbEntity
  8
ﾁｭｳｼﾝｾﾝ
100
AcDbLine
 10
679.0942278742782
 20
212.2135318595449
 30
0.0
 11
679.0942278742782
 21
385.0387897405257
 31
0.0
  0
LINE
  5
3E07
330
1F
100
AcDbEntity
  8
ﾁｭｳｼﾝｾﾝ
100
AcDbLine
 10
592.7375148742783
 20
298.5482788595449
 30
0.0
 11
766.6042698742784
 21
298.5482788595449
 31
0.0
  0
LINE
  5
3E08
330
1F
100
AcDbEntity
  8
ﾁｭｳｼﾝｾﾝ1
 48
0.5
100
AcDbLine
 10
472.0370411739871
 20
233.3416637634972
 30
0.0
 11
472.0370411739871
 21
212.8759516954017
 31
0.0
  0
LINE
  5
3E09
330
1F
100
AcDbEntity
  8
ﾁｭｳｼﾝｾﾝ1
 48
0.5
100
AcDbLine
 10
392.0370911739872
 20
233.3416637634972
 30
0.0
 11
392.0370911739872
 21
212.8759516954017
 31
0.0
  0
LINE
  5
3E0A
330
1F
100
AcDbEntity
  8
AM_0
100
AcDbLine
 10
622.0942248742783
 20
230.7482608595449
 30
0.0
 11
591.0942348742784
 21
230.7482608595449
 31
0.0
  0
LINE
  5
3E0B
330
1F
100
AcDbEntity
  8
AM_0
100
AcDbLine
 10
411.0371111739872
 20
379.5482788595449
 30
0.0
 11
467.1679811739871
 21
378.0784588595448
 31
0.0
  0
LINE
  5
3E0C
330
1F
100
AcDbEntity
  8
AM_0
100
AcDbLine
 10
487.0370711739872
 20
293.7224278595449
 30
0.0
 11
487.0370711739872
 21
349.7741188595449
 31
0.0
  0
LINE
  5
3E0D
330
1F
100
AcDbEntity
  8
AM_0
100
AcDbLine
 10
485.0109011739871
 20
292.6951918595449
 30
0.0
 11
486.0632411739872
 21
292.7227498595449
 31
0.0
  0
LINE
  5
3E0E
330
1F
100
AcDbEntity
  8
AM_0
100
AcDbLine
 10
485.0109011739871
 20
350.8012888595449
 30
0.0
 11
486.0632411739872
 21
350.7737488595449
 31
0.0
  0
LINE
  5
3E0F
330
1F
100
AcDbEntity
  8
AM_0
100
AcDbLine
 10
413.9499611739871
 20
267.2876128595449
 30
0.0
 11
407.4991511739871
 21
233.1905818595449
 31
0.0
  0
LINE
  5
3E10
330
1F
100
AcDbEntity
  8
AM_0
100
AcDbLine
 10
404.0370611739872
 20
215.7482608595449
 30
0.0
 11
404.0370611739872
 21
215.7482608595449
 31
0.0
  0
LINE
  5
3E11
330
1F
100
AcDbEntity
  8
AM_0
100
AcDbLine
 10
411.0371111739872
 20
379.5482788595449
 30
0.0
 11
411.0371111739872
 21
251.8911298595449
 31
0.0
  0
LINE
  5
3E14
330
1F
100
AcDbEntity
  8
ﾁｭｳｼﾝｾﾝ
100
AcDbLine
 10
266.6436386220805
 20
298.5482788595449
 30
0.0
 11
389.9002824943525
 21
298.5482788595449
 31
0.0
  0
LINE
  5
3E25
330
1F
100
AcDbEntity
  8
AM_0
100
AcDbLine
 10
446.0370611739872
 20
339.0482818595449
 30
0.0
 11
446.0370611739872
 21
321.7482628595448
 31
0.0
  0
LINE
  5
3E26
330
1F
100
AcDbEntity
  8
AM_0
100
AcDbLine
 10
589.0942248742783
 20
230.7482608595449
 30
0.0
 11
596.8853628742784
 21
337.9579498595449
 31
0.0
  0
LINE
  5
3E27
330
1F
100
AcDbEntity
  8
AM_0
100
AcDbLine
 10
752.9001228742783
 20
350.902268859545
 30
0.0
 11
717.3411018742783
 21
369.9497788595448
 31
0.0
  0
LINE
  5
3E28
330
1F
100
AcDbEntity
  8
AM_0
100
AcDbLine
 10
769.0942218742783
 20
230.7482608595449
 30
0.0
 11
761.3030778742784
 21
337.9579498595449
 31
0.0
  0
LINE
  5
3E29
330
1F
100
AcDbEntity
  8
AM_0
100
AcDbLine
 10
605.2883478742784
 20
350.9022988595449
 30
0.0
 11
640.8473388742783
 21
369.949808859545
 31
0.0
  0
ARC
  5
3F0D
330
1F
100
AcDbEntity
  8
AM_0
100
AcDbCircle
 10
679.0942278742782
 20
321.7482628595448
 30
0.0
 40
14.0000013
100
AcDbArc
 50
106.6015399999994
 51
73.39845199999976
  0
CIRCLE
  5
3F0E
330
1F
100
AcDbEntity
  8
AM_5
100
AcDbCircle
 10
679.0942278742782
 20
321.7482628595448
 30
0.0
 40
4.000000199999999
  0
CIRCLE
  5
3F0F
330
1F
100
AcDbEntity
  8
AM_0
100
AcDbCircle
 10
679.0942278742782
 20
321.7482628595448
 30
0.0
 40
3.0
  0
ARC
  5
3F10
330
1F
100
AcDbEntity
  8
AM_0
100
AcDbCircle
 10
467.0370611739872
 20
373.080128859545
 30
0.0
 40
5.0000001
100
AcDbArc
 50
0.0
 51
88.49999699999983
  0
ARC
  5
3F11
330
1F
100
AcDbEntity
  8
AM_0
100
AcDbCircle
 10
734.0942148742783
 20
350.9982388595448
 30
0.0
 40
5.0000001
100
AcDbArc
 50
0.0
 51
43.64049999999745
  0
ARC
  5
3F12
330
1F
100
AcDbEntity
  8
AM_0
100
AcDbCircle
 10
679.0942278742782
 20
298.5482788595449
 30
0.0
 40
81.00000300000001
100
AcDbArc
 50
7.04859859999756
 51
172.9514000000008
  0
ARC
  5
3F13
330
1F
100
AcDbEntity
  8
AM_0
100
AcDbCircle
 10
767.0942298742783
 20
228.7482748595449
 30
0.0
 40
2.00000007
100
AcDbArc
 50
0.0
 51
90.00000300000015
  0
ARC
  5
3F14
330
1F
100
AcDbEntity
  8
AM_0
100
AcDbCircle
 10
477.0371111739872
 20
366.3798088595449
 30
0.0
 40
5.0000001
100
AcDbArc
 50
179.999989999999
 51
264.9999999999996
  0
ARC
  5
3F15
330
1F
100
AcDbEntity
  8
AM_0
100
AcDbCircle
 10
632.0942568742784
 20
222.7482748595449
 30
0.0
 40
5.0000001
100
AcDbArc
 50
270.0
 51
0.0
  0
ARC
  5
3F16
330
1F
100
AcDbEntity
  8
AM_0
100
AcDbCircle
 10
626.0942568742783
 20
215.7482758595449
 30
0.0
 40
2.00000007
100
AcDbArc
 50
90.00000300000015
 51
180.0000100000009
  0
ARC
  5
3F17
330
1F
100
AcDbEntity
  8
AM_0
100
AcDbCircle
 10
622.0942248742783
 20
228.7482748595449
 30
0.0
 40
2.00000007
100
AcDbArc
 50
0.0
 51
90.00000300000015
  0
ARC
  5
3F18
330
1F
100
AcDbEntity
  8
AM_0
100
AcDbCircle
 10
726.0942288742784
 20
222.7482748595449
 30
0.0
 40
5.0000001
100
AcDbArc
 50
179.999989999999
 51
270.0
  0
ARC
  5
3F19
330
1F
100
AcDbEntity
  8
AM_0
100
AcDbCircle
 10
591.0942348742784
 20
228.7482748595449
 30
0.0
 40
2.00000007
100
AcDbArc
 50
90.00000300000015
 51
180.0000100000009
  0
ARC
  5
3F1A
330
1F
100
AcDbEntity
  8
AM_0
100
AcDbCircle
 10
467.0370611739872
 20
248.3615728595449
 30
0.0
 40
5.0000001
100
AcDbArc
 50
270.0
 51
0.0
  0
ARC
  5
3F1B
330
1F
100
AcDbEntity
  8
AM_0
100
AcDbCircle
 10
459.0371111739872
 20
235.748258859545
 30
0.0
 40
5.0000001
100
AcDbArc
 50
179.999989999999
 51
270.0
  0
ARC
  5
3F1C
330
1F
100
AcDbEntity
  8
AM_0
100
AcDbCircle
 10
624.0942258742783
 20
350.9982388595448
 30
0.0
 40
5.0000001
100
AcDbArc
 50
136.3594900000007
 51
180.0000100000009
  0
ARC
  5
3F1D
330
1F
100
AcDbEntity
  8
AM_0
100
AcDbCircle
 10
679.0942278742782
 20
306.7482628595449
 30
0.0
 40
54.00000300000001
100
AcDbArc
 50
0.0
 51
180.0000100000009
  0
ARC
  5
3F1E
330
1F
100
AcDbEntity
  8
AM_0
100
AcDbCircle
 10
481.0370711739872
 20
357.9992788595449
 30
0.0
 40
3.0
100
AcDbArc
 50
0.0
 51
84.9999970000001
  0
ARC
  5
3F1F
330
1F
100
AcDbEntity
  8
AM_0
100
AcDbCircle
 10
405.0371111739872
 20
215.7482608595449
 30
0.0
 40
1.000000019999999
100
AcDbArc
 50
90.00000300000015
 51
180.0000100000009
  0
ARC
  5
3F20
330
1F
100
AcDbEntity
  8
AM_0
100
AcDbCircle
 10
404.5514111739872
 20
233.7482608595449
 30
0.0
 40
3.0
100
AcDbArc
 50
270.0
 51
349.2868799999994
  0
ARC
  5
3F21
330
1F
100
AcDbEntity
  8
AM_0
100
AcDbCircle
 10
485.0370611739872
 20
228.7482748595449
 30
0.0
 40
2.00000007
100
AcDbArc
 50
0.0
 51
90.00000300000015
  0
ARC
  5
3F22
330
1F
100
AcDbEntity
  8
AM_0
100
AcDbCircle
 10
379.0371011739872
 20
228.7482748595449
 30
0.0
 40
2.00000007
100
AcDbArc
 50
90.00000300000015
 51
180.0000100000009
  0
ARC
  5
3F23
330
1F
100
AcDbEntity
  8
AM_0
100
AcDbCircle
 10
679.0942278742782
 20
269.5482628595449
 30
0.0
 40
60.000003
100
AcDbArc
 50
334.1580699999976
 51
0.0
  0
ARC
  5
3F24
330
1F
100
AcDbEntity
  8
AM_0
100
AcDbCircle
 10
679.0942278742782
 20
269.5482628595449
 30
0.0
 40
60.000003
100
AcDbArc
 50
180.0000100000009
 51
205.8419300000025
  0
ARC
  5
3F25
330
1F
100
AcDbEntity
  8
AM_0
100
AcDbCircle
 10
464.0370611739872
 20
342.9815698595449
 30
0.0
 40
10.0000002
100
AcDbArc
 50
90.00000300000015
 51
180.0000100000009
  0
ARC
  5
3F26
330
1F
100
AcDbEntity
  8
AM_0
100
AcDbCircle
 10
736.0942278742783
 20
228.7482748595449
 30
0.0
 40
2.00000007
100
AcDbArc
 50
90.00000300000015
 51
180.0000100000009
  0
ARC
  5
3F27
330
1F
100
AcDbEntity
  8
AM_0
100
AcDbCircle
 10
732.0942288742784
 20
215.7482758595449
 30
0.0
 40
2.00000007
100
AcDbArc
 50
0.0
 51
90.00000300000015
  0
ARC
  5
3F28
330
1F
100
AcDbEntity
  8
AM_0
100
AcDbCircle
 10
716.0942298742784
 20
223.7482738595448
 30
0.0
 40
5.0000001
100
AcDbArc
 50
0.0
 51
90.00000300000015
  0
CIRCLE
  5
3F29
330
1F
100
AcDbEntity
  8
AM_0
100
AcDbCircle
 10
679.0942278742782
 20
321.7482628595448
 30
0.0
 40
29.000001
  0
ARC
  5
3F2A
330
1F
100
AcDbEntity
  8
AM_0
100
AcDbCircle
 10
642.0942258742783
 20
223.7482738595448
 30
0.0
 40
5.0000001
100
AcDbArc
 50
90.00000300000015
 51
180.0000100000009
  0
ARC
  5
3F2B
330
1F
100
AcDbEntity
  8
AM_0
100
AcDbCircle
 10
486.0371111739872
 20
232.6212448595448
 30
0.0
 40
2.00000007
100
AcDbArc
 50
179.999989999999
 51
255.52249
  0
ARC
  5
3F2C
330
1F
100
AcDbEntity
  8
AM_0
100
AcDbCircle
 10
679.0942278742782
 20
298.5482638595449
 30
0.0
 40
81.00000300000001
100
AcDbArc
 50
265.9727500000001
 51
274.0272499999999
  0
ARC
  5
3F2D
330
1F
100
AcDbEntity
  8
AM_0
100
AcDbCircle
 10
620.0942568742783
 20
235.7482738595448
 30
0.0
 40
5.0000001
100
AcDbArc
 50
270.0
 51
0.0
  0
ARC
  5
3F2E
330
1F
100
AcDbEntity
  8
AM_0
100
AcDbCircle
 10
738.0942288742784
 20
235.7482738595448
 30
0.0
 40
5.0000001
100
AcDbArc
 50
179.999989999999
 51
270.0
  0
ARC
  5
3F2F
330
1F
100
AcDbEntity
  8
AM_0
100
AcDbCircle
 10
486.0371111739872
 20
293.7224278595449
 30
0.0
 40
1.000000019999999
100
AcDbArc
 50
271.4999999999998
 51
0.0
  0
ARC
  5
3F30
330
1F
100
AcDbEntity
  8
AM_0
100
AcDbCircle
 10
485.0370611739872
 20
351.8009788595449
 30
0.0
 40
1.000000019999999
100
AcDbArc
 50
179.999989999999
 51
268.5000100000001
  0
ARC
  5
3F31
330
1F
100
AcDbEntity
  8
AM_0
100
AcDbCircle
 10
486.0371111739872
 20
349.7741188595449
 30
0.0
 40
1.000000019999999
100
AcDbArc
 50
0.0
 51
88.49999699999983
  0
ARC
  5
3F32
330
1F
100
AcDbEntity
  8
AM_0
100
AcDbCircle
 10
485.0370611739872
 20
291.6955438595449
 30
0.0
 40
1.000000019999999
100
AcDbArc
 50
91.50000099999992
 51
180.0000100000009
  0
ARC
  5
3F33
330
1F
100
AcDbEntity
  8
AM_0
100
AcDbCircle
 10
409.0370711739872
 20
268.2170878595449
 30
0.0
 40
5.0000001
100
AcDbArc
 50
349.2868799999994
 51
0.0
  0
ARC
  5
3F34
330
1F
100
AcDbEntity
  8
AM_0
100
AcDbCircle
 10
459.0371111739872
 20
215.7482608595449
 30
0.0
 40
1.000000019999999
100
AcDbArc
 50
0.0
 51
90.00000300000015
  0
ARC
  5
3F43
330
1F
100
AcDbEntity
  8
AM_0
100
AcDbCircle
 10
612.8432808742783
 20
336.7982818595449
 30
0.0
 40
16.0000005
100
AcDbArc
 50
118.1761399999995
 51
175.8435100000012
  0
ARC
  5
3F44
330
1F
100
AcDbEntity
  8
AM_0
100
AcDbCircle
 10
745.3451748742783
 20
336.7982818595449
 30
0.0
 40
16.0000005
100
AcDbArc
 50
4.156491599997512
 51
61.8238600000005
  0
POLYLINE
  5
3FE4
330
1F
100
AcDbEntity
  8
AM_0
100
AcDb2dPolyline
 66
     1
 10
0.0
 20
0.0
 30
0.0
  0
VERTEX
  5
3FE5
330
3FE4
100
AcDbEntity
  8
AM_0
100
AcDbVertex
100
AcDb2dVertex
 10
414.0370511739871
 20
230.7482608595449
 30
0.0
 42
0.12791153
  0
VERTEX
  5
3FE6
330
3FE4
100
AcDbEntity
  8
AM_0
100
AcDbVertex
100
AcDb2dVertex
 10
420.1311611739872
 20
232.4136778595449
 30
0.0
 42
0.075873116
  0
VERTEX
  5
3FE7
330
3FE4
100
AcDbEntity
  8
AM_0
100
AcDbVertex
100
AcDb2dVertex
 10
425.1125411739871
 20
236.3725768595449
 30
0.0
 42
0.04391337
  0
VERTEX
  5
3FE8
330
3FE4
100
AcDbEntity
  8
AM_0
100
AcDbVertex
100
AcDb2dVertex
 10
429.0533111739871
 20
241.3896928595449
 30
0.0
 42
0.028464649
  0
VERTEX
  5
3FE9
330
3FE4
100
AcDbEntity
  8
AM_0
100
AcDbVertex
100
AcDb2dVertex
 10
432.2454611739872
 20
246.916316859545
 30
0.0
 42
0.020370658
  0
VERTEX
  5
3FEA
330
3FE4
100
AcDbEntity
  8
AM_0
100
AcDbVertex
100
AcDb2dVertex
 10
434.8921811739871
 20
252.7286638595449
 30
0.0
 42
0.01565625
  0
VERTEX
  5
3FEB
330
3FE4
100
AcDbEntity
  8
AM_0
100
AcDbVertex
100
AcDb2dVertex
 10
437.1171911739871
 20
258.7152838595449
 30
0.0
 42
0.012688908
  0
VERTEX
  5
3FEC
330
3FE4
100
AcDbEntity
  8
AM_0
100
AcDbVertex
100
AcDb2dVertex
 10
439.0015811739871
 20
264.8183848595448
 30
0.0
 42
0.010707695
  0
VERTEX
  5
3FED
330
3FE4
100
AcDbEntity
  8
AM_0
100
AcDbVertex
100
AcDb2dVertex
 10
440.5998911739872
 20
271.003808859545
 30
0.0
 42
0.009324549
  0
VERTEX
  5
3FEE
330
3FE4
100
AcDbEntity
  8
AM_0
100
AcDbVertex
100
AcDb2dVertex
 10
441.9498311739872
 20
277.2477268595448
 30
0.0
 42
0.0083349477
  0
VERTEX
  5
3FEF
330
3FE4
100
AcDbEntity
  8
AM_0
100
AcDbVertex
100
AcDb2dVertex
 10
443.0792111739872
 20
283.5367288595449
 30
0.0
 42
0.0076122067
  0
VERTEX
  5
3FF0
330
3FE4
100
AcDbEntity
  8
AM_0
100
AcDbVertex
100
AcDb2dVertex
 10
444.0078911739871
 20
289.858901859545
 30
0.0
 42
0.0070829649
  0
VERTEX
  5
3FF1
330
3FE4
100
AcDbEntity
  8
AM_0
100
AcDbVertex
100
AcDb2dVertex
 10
444.750631173987
 20
296.205662859545
 30
0.0
 42
0.0067007814
  0
VERTEX
  5
3FF2
330
3FE4
100
AcDbEntity
  8
AM_0
100
AcDbVertex
100
AcDb2dVertex
 10
445.3184111739871
 20
302.570711859545
 30
0.0
 42
0.0064353086
  0
VERTEX
  5
3FF3
330
3FE4
100
AcDbEntity
  8
AM_0
100
AcDbVertex
100
AcDb2dVertex
 10
445.7189411739871
 20
308.9486998595449
 30
0.0
 42
0.0062673647
  0
VERTEX
  5
3FF4
330
3FE4
100
AcDbEntity
  8
AM_0
100
AcDbVertex
100
AcDb2dVertex
 10
445.9575011739871
 20
315.3348508595449
 30
0.0
 42
0.0061857305
  0
VERTEX
  5
3FF5
330
3FE4
100
AcDbEntity
  8
AM_0
100
AcDbVertex
100
AcDb2dVertex
 10
446.0370611739872
 20
321.724844859545
 30
0.0
  0
SEQEND
  5
3FF6
330
3FE4
100
AcDbEntity
  8
AM_0
 62
     7
  0
POLYLINE
  5
3FF7
330
1F
100
AcDbEntity
  8
AM_0
100
AcDb2dPolyline
 66
     1
 10
0.0
 20
0.0
 30
0.0
  0
VERTEX
  5
3FF8
330
3FF7
100
AcDbEntity
  8
AM_0
100
AcDbVertex
100
AcDb2dVertex
 10
446.0370611739872
 20
339.0482788595449
 30
0.0
 42
0.029628731
  0
VERTEX
  5
3FF9
330
3FF7
100
AcDbEntity
  8
AM_0
100
AcDbVertex
100
AcDb2dVertex
 10
445.8454211739872
 20
342.277571859545
 30
0.0
 42
0.029327543
  0
VERTEX
  5
3FFA
330
3FF7
100
AcDbEntity
  8
AM_0
100
AcDbVertex
100
AcDb2dVertex
 10
445.2757211739871
 20
345.4585108595448
 30
0.0
 42
0.028837186
  0
VERTEX
  5
3FFB
330
3FF7
100
AcDbEntity
  8
AM_0
100
AcDbVertex
100
AcDb2dVertex
 10
444.3398711739871
 20
348.5542288595449
 30
0.0
 42
0.028139479
  0
VERTEX
  5
3FFC
330
3FF7
100
AcDbEntity
  8
AM_0
100
AcDbVertex
100
AcDb2dVertex
 10
443.0574911739872
 20
351.5247688595449
 30
0.0
 42
0.027280614
  0
VERTEX
  5
3FFD
330
3FF7
100
AcDbEntity
  8
AM_0
100
AcDbVertex
100
AcDb2dVertex
 10
441.4550111739871
 20
354.334178859545
 30
0.0
 42
0.026363464
  0
VERTEX
  5
3FFE
330
3FF7
100
AcDbEntity
  8
AM_0
100
AcDbVertex
100
AcDb2dVertex
 10
439.5603911739872
 20
356.9565988595449
 30
0.0
 42
0.025439158
  0
VERTEX
  5
3FFF
330
3FF7
100
AcDbEntity
  8
AM_0
100
AcDbVertex
100
AcDb2dVertex
 10
437.4028211739871
 20
359.3712088595449
 30
0.0
 42
0.024503424
  0
VERTEX
  5
4000
330
3FF7
100
AcDbEntity
  8
AM_0
100
AcDbVertex
100
AcDb2dVertex
 10
435.0164111739871
 20
361.5577288595449
 30
0.0
 42
0.023638789
  0
VERTEX
  5
4001
330
3FF7
100
AcDbEntity
  8
AM_0
100
AcDbVertex
100
AcDb2dVertex
 10
432.4308611739872
 20
363.504848859545
 30
0.0
 42
0.022857682
  0
VERTEX
  5
4002
330
3FF7
100
AcDbEntity
  8
AM_0
100
AcDbVertex
100
AcDb2dVertex
 10
429.6756011739871
 20
365.2036588595448
 30
0.0
 42
0.022175457
  0
VERTEX
  5
4003
330
3FF7
100
AcDbEntity
  8
AM_0
100
AcDbVertex
100
AcDb2dVertex
 10
426.7785311739872
 20
366.6479788595449
 30
0.0
 42
0.021601125
  0
VERTEX
  5
4004
330
3FF7
100
AcDbEntity
  8
AM_0
100
AcDbVertex
100
AcDb2dVertex
 10
423.7661111739872
 20
367.8336688595449
 30
0.0
 42
0.021139333
  0
VERTEX
  5
4005
330
3FF7
100
AcDbEntity
  8
AM_0
100
AcDbVertex
100
AcDb2dVertex
 10
420.6632711739872
 20
368.7580288595449
 30
0.0
 42
0.020791974
  0
VERTEX
  5
4006
330
3FF7
100
AcDbEntity
  8
AM_0
100
AcDbVertex
100
AcDb2dVertex
 10
417.4938611739872
 20
369.419378859545
 30
0.0
 42
0.020559394
  0
VERTEX
  5
4007
330
3FF7
100
AcDbEntity
  8
AM_0
100
AcDbVertex
100
AcDb2dVertex
 10
414.2807411739871
 20
369.8167888595449
 30
0.0
 42
0.020441745
  0
VERTEX
  5
4008
330
3FF7
100
AcDbEntity
  8
AM_0
100
AcDbVertex
100
AcDb2dVertex
 10
411.0460811739872
 20
369.9497788595448
 30
0.0
  0
SEQEND
  5
4009
330
3FF7
100
AcDbEntity
  8
AM_0
 62
     7
  0
POLYLINE
  5
400A
330
1F
100
AcDbEntity
  8
AM_0
100
AcDb2dPolyline
 66
     1
 10
0.0
 20
0.0
 30
0.0
  0
VERTEX
  5
400B
330
400A
100
AcDbEntity
  8
AM_0
100
AcDbVertex
100
AcDb2dVertex
 10
444.1161011739871
 20
340.9270138595449
 30
0.0
 42
0.032705737
  0
VERTEX
  5
400C
330
400A
100
AcDbEntity
  8
AM_0
100
AcDbVertex
100
AcDb2dVertex
 10
442.1699711739871
 20
341.6755288595449
 30
0.0
 42
0.016814103
  0
VERTEX
  5
400D
330
400A
100
AcDbEntity
  8
AM_0
100
AcDbVertex
100
AcDb2dVertex
 10
440.1591311739871
 20
342.2377258595449
 30
0.0
 42
0.010836057
  0
VERTEX
  5
400E
330
400A
100
AcDbEntity
  8
AM_0
100
AcDbVertex
100
AcDb2dVertex
 10
438.1197311739872
 20
342.6905638595449
 30
0.0
 42
0.007863161
  0
VERTEX
  5
400F
330
400A
100
AcDbEntity
  8
AM_0
100
AcDbVertex
100
AcDb2dVertex
 10
436.0653611739872
 20
343.0676878595449
 30
0.0
 42
0.0061455438
  0
VERTEX
  5
4010
330
400A
100
AcDbEntity
  8
AM_0
100
AcDbVertex
100
AcDb2dVertex
 10
434.0010911739871
 20
343.387574859545
 30
0.0
 42
0.0050541015
  0
VERTEX
  5
4011
330
400A
100
AcDbEntity
  8
AM_0
100
AcDbVertex
100
AcDb2dVertex
 10
431.9294411739871
 20
343.6614808595449
 30
0.0
 42
0.0043145835
  0
VERTEX
  5
4012
330
400A
100
AcDbEntity
  8
AM_0
100
AcDbVertex
100
AcDb2dVertex
 10
429.8517011739871
 20
343.896815859545
 30
0.0
 42
0.0037842963
  0
VERTEX
  5
4013
330
400A
100
AcDbEntity
  8
AM_0
100
AcDbVertex
100
AcDb2dVertex
 10
427.7725511739872
 20
344.0983528595449
 30
0.0
 42
0.003403486
  0
VERTEX
  5
4014
330
400A
100
AcDbEntity
  8
AM_0
100
AcDbVertex
100
AcDb2dVertex
 10
425.6885111739872
 20
344.2702198595449
 30
0.0
 42
0.0031173927
  0
VERTEX
  5
4015
330
400A
100
AcDbEntity
  8
AM_0
100
AcDbVertex
100
AcDb2dVertex
 10
423.6020111739872
 20
344.414966859545
 30
0.0
 42
0.0029018743
  0
VERTEX
  5
4016
330
400A
100
AcDbEntity
  8
AM_0
100
AcDbVertex
100
AcDb2dVertex
 10
421.5139211739872
 20
344.5346158595449
 30
0.0
 42
0.0027404553
  0
VERTEX
  5
4017
330
400A
100
AcDbEntity
  8
AM_0
100
AcDbVertex
100
AcDb2dVertex
 10
419.424601173987
 20
344.6307238595449
 30
0.0
 42
0.0026217012
  0
VERTEX
  5
4018
330
400A
100
AcDbEntity
  8
AM_0
100
AcDbVertex
100
AcDb2dVertex
 10
417.3342911739871
 20
344.7044398595449
 30
0.0
 42
0.0025380412
  0
VERTEX
  5
4019
330
400A
100
AcDbEntity
  8
AM_0
100
AcDbVertex
100
AcDb2dVertex
 10
415.2432911739871
 20
344.7565978595449
 30
0.0
 42
0.0024845601
  0
VERTEX
  5
401A
330
400A
100
AcDbEntity
  8
AM_0
100
AcDbVertex
100
AcDb2dVertex
 10
413.1519011739871
 20
344.787767859545
 30
0.0
 42
0.002458447
  0
VERTEX
  5
401B
330
400A
100
AcDbEntity
  8
AM_0
100
AcDbVertex
100
AcDb2dVertex
 10
411.0602111739872
 20
344.7982708595449
 30
0.0
  0
SEQEND
  5
401C
330
400A
100
AcDbEntity
  8
AM_0
 62
     7
  0
LINE
  5
445C
330
1F
100
AcDbEntity
  8
AM_0
100
AcDbLine
 10
374.5370111739873
 20
225.0482458595449
 30
0.0
 11
374.5370111739873
 21
372.048248859545
 31
0.0
  0
LINE
  5
445D
330
1F
100
AcDbEntity
  8
AM_0
100
AcDbLine
 10
374.5370711739874
 20
236.9695858595449
 30
0.0
 11
404.0370611739872
 21
236.9695858595449
 31
0.0
  0
LINE
  5
445E
330
1F
100
AcDbEntity
  8
AM_0
100
AcDbLine
 10
374.5370711739874
 20
360.1268788595448
 30
0.0
 11
404.0370611739872
 21
360.1268788595448
 31
0.0
  0
LINE
  5
445F
330
1F
100
AcDbEntity
  8
AM_0
100
AcDbLine
 10
374.5370711739874
 20
225.0482158595449
 30
0.0
 11
377.0370611739872
 21
224.9827558595449
 31
0.0
  0
LINE
  5
4460
330
1F
100
AcDbEntity
  8
AM_0
100
AcDbLine
 10
374.5370711739874
 20
372.0482788595449
 30
0.0
 11
401.1156011739873
 21
372.7442488595449
 31
0.0
  0
LINE
  5
4461
330
1F
100
AcDbEntity
  8
AM_0
100
AcDbLine
 10
404.0370611739872
 20
377.4165988595449
 30
0.0
 11
404.0370611739872
 21
230.7482278595448
 31
0.0
  0
LINE
  5
4462
330
1F
100
AcDbEntity
  8
AM_0
100
AcDbLine
 10
405.9847211739873
 20
379.415948859545
 30
0.0
 11
411.0370511739873
 21
379.548248859545
 31
0.0
  0
LINE
  5
4463
330
1F
100
AcDbEntity
  8
AM_0
100
AcDbLine
 10
404.7311411739873
 20
233.0396248595449
 30
0.0
 11
407.4705611739871
 21
233.0396248595449
 31
0.0
  0
LINE
  5
4464
330
1F
100
AcDbEntity
  8
AM_0
100
AcDbLine
 10
374.5370711739874
 20
338.022905859545
 30
0.0
 11
404.0370611739872
 21
338.022905859545
 31
0.0
  0
LINE
  5
4465
330
1F
100
AcDbEntity
  8
AM_0
100
AcDbLine
 10
374.5370711739874
 20
259.0735618595449
 30
0.0
 11
404.0370611739872
 21
259.0735618595449
 31
0.0
  0
ARC
  5
4466
330
1F
100
AcDbEntity
  8
AM_0
100
AcDbCircle
 10
401.0370611739872
 20
375.7431688595449
 30
0.0
 40
3.0
100
AcDbArc
 50
271.4999999999994
 51
0.0
  0
ARC
  5
4467
330
1F
100
AcDbEntity
  8
AM_0
100
AcDbCircle
 10
406.0370411739873
 20
377.4165988595449
 30
0.0
 40
2.00000007
100
AcDbArc
 50
91.50000100000154
 51
180.0000100000009
  0
LINE
  5
4468
330
1F
100
AcDbEntity
  8
AM_0
100
AcDbLine
 10
374.5370111739873
 20
372.0482443595449
 30
0.0
 11
374.5370111739873
 21
225.0482503595449
 31
0.0
  0
LINE
  5
446A
330
1F
100
AcDbEntity
  8
0
100
AcDbLine
 10
374.5370111739873
 20
372.5469858732728
 30
0.0
 11
364.4672121805822
 21
372.1953407437957
 31
0.0
  0
LINE
  5
446B
330
1F
100
AcDbEntity
  8
0
100
AcDbLine
 10
362.5370111739872
 20
370.1965590897576
 30
0.0
 11
362.5370111739889
 21
226.8999356293326
 31
0.0
  0
ARC
  5
446C
330
1F
100
AcDbEntity
  8
0
100
AcDbCircle
 10
364.5370111739872
 20
370.1965590897576
 30
0.0
 40
2.0
100
AcDbArc
 50
92.00000000000047
 51
180.0
1001
GENIUS_GENODEF_13
1002
{
1000
HIER
1070
     0
1002
}
1002
{
1000
MANEDIT
1070
     0
1002
}
1002
{
1000
NOSEL
1070
     0
1002
}
1002
{
1000
BEHIND
1070
     0
1002
}
1002
{
1000
OTHER
1070
     0
1002
}
1002
{
1000
REACTOR
1002
}
1001
GENIUS_GENOBJ-N-FIL_13
1002
{
1000
OWNER
1000
GEN
1002
}
  0
LINE
  5
446D
330
1F
100
AcDbEntity
  8
0
100
AcDbLine
 10
333.9115677998207
 20
340.6216525651509
 30
0.0
 11
293.6417096640948
 21
339.2153981317276
 31
0.0
  0
ARC
  5
446E
330
1F
100
AcDbEntity
  8
0
100
AcDbCircle
 10
333.3880753492831
 20
355.6125149704373
 30
0.0
 40
15.0
100
AcDbArc
 50
272.0000000000005
 51
315.0
1001
GENIUS_GENODEF_13
1002
{
1000
HIER
1070
     0
1002
}
1002
{
1000
MANEDIT
1070
     0
1002
}
1002
{
1000
NOSEL
1070
     0
1002
}
1002
{
1000
BEHIND
1070
     0
1002
}
1002
{
1000
OTHER
1070
     0
1002
}
1002
{
1000
REACTOR
1002
}
1001
GENIUS_GENOBJ-N-FIL_13
1002
{
1000
OWNER
1000
GEN
1002
}
  0
LINE
  5
446F
330
1F
100
AcDbEntity
  8
0
100
AcDbLine
 10
343.9946770670813
 20
345.0059132526391
 30
0.0
 11
361.0725450799198
 21
362.0837812654778
 31
0.0
  0
ARC
  5
4470
330
1F
100
AcDbEntity
  8
0
100
AcDbCircle
 10
357.5370111739871
 20
365.6193151714106
 30
0.0
 40
5.0
100
AcDbArc
 50
315.0
 51
0.0
1001
GENIUS_GENODEF_13
1002
{
1000
HIER
1070
     0
1002
}
1002
{
1000
MANEDIT
1070
     0
1002
}
1002
{
1000
NOSEL
1070
     0
1002
}
1002
{
1000
BEHIND
1070
     0
1002
}
1002
{
1000
OTHER
1070
     0
1002
}
1002
{
1000
REACTOR
1002
}
1001
GENIUS_GENOBJ-N-FIL_13
1002
{
1000
OWNER
1000
GEN
1002
}
  0
LINE
  5
4471
330
1F
100
AcDbEntity
  8
0
100
AcDbLine
 10
374.5370111739873
 20
372.5469858732728
 30
0.0
 11
374.5370111739873
 21
224.5495088458174
 31
0.0
  0
LINE
  5
4472
330
1F
100
AcDbEntity
  8
0
100
AcDbLine
 10
374.5370111739875
 20
224.5495088458174
 30
0.0
 11
364.4672121805825
 21
224.9011539752945
 31
0.0
  0
ARC
  5
4473
330
1F
100
AcDbEntity
  8
0
100
AcDbCircle
 10
364.5370111739874
 20
226.8999356293326
 30
0.0
 40
2.0
100
AcDbArc
 50
180.0
 51
267.9999999999995
1001
GENIUS_GENODEF_13
1002
{
1000
HIER
1070
     0
1002
}
1002
{
1000
MANEDIT
1070
     0
1002
}
1002
{
1000
NOSEL
1070
     0
1002
}
1002
{
1000
BEHIND
1070
     0
1002
}
1002
{
1000
OTHER
1070
     0
1002
}
1002
{
1000
REACTOR
1002
}
1001
GENIUS_GENOBJ-N-FIL_13
1002
{
1000
OWNER
1000
GEN
1002
}
  0
LINE
  5
4474
330
1F
100
AcDbEntity
  8
0
100
AcDbLine
 10
333.9115677998209
 20
256.4748421539391
 30
0.0
 11
293.6417096640948
 21
257.8810965873624
 31
0.0
  0
LINE
  5
4475
330
1F
100
AcDbEntity
  8
0
100
AcDbLine
 10
343.9946770670815
 20
252.090581466451
 30
0.0
 11
361.07254507992
 21
235.0127134536124
 31
0.0
  0
ARC
  5
4476
330
1F
100
AcDbEntity
  8
0
100
AcDbCircle
 10
333.3880753492833
 20
241.4839797486527
 30
0.0
 40
15.0
100
AcDbArc
 50
45.0
 51
87.99999999999952
1001
GENIUS_GENODEF_13
1002
{
1000
HIER
1070
     0
1002
}
1002
{
1000
MANEDIT
1070
     0
1002
}
1002
{
1000
NOSEL
1070
     0
1002
}
1002
{
1000
BEHIND
1070
     0
1002
}
1002
{
1000
OTHER
1070
     0
1002
}
1002
{
1000
REACTOR
1002
}
1001
GENIUS_GENOBJ-N-FIL_13
1002
{
1000
OWNER
1000
GEN
1002
}
  0
ARC
  5
4477
330
1F
100
AcDbEntity
  8
0
100
AcDbCircle
 10
357.5370111739873
 20
231.4771795476796
 30
0.0
 40
5.0
100
AcDbArc
 50
0.0
 51
45.0
1001
GENIUS_GENODEF_13
1002
{
1000
HIER
1070
     0
1002
}
1002
{
1000
MANEDIT
1070
     0
1002
}
1002
{
1000
NOSEL
1070
     0
1002
}
1002
{
1000
BEHIND
1070
     0
1002
}
1002
{
1000
OTHER
1070
     0
1002
}
1002
{
1000
REACTOR
1002
}
1001
GENIUS_GENOBJ-N-FIL_13
1002
{
1000
OWNER
1000
GEN
1002
}
  0
ARC
  5
4478
330
1F
100
AcDbEntity
  8
AM_5
 62
     2
370
    35
100
AcDbCircle
 10
377.3310111739873
 20
298.548247359545
 30
0.0
 40
48.4502085537012
100
AcDbArc
 50
135.0617711120834
 51
224.9382288879166
  0
ARC
  5
4479
330
1F
100
AcDbEntity
  8
AM_5
 62
     2
370
    35
100
AcDbCircle
 10
339.4952810767942
 20
260.7940115382957
 30
0.0
 40
5.0
100
AcDbArc
 50
267.9999999999995
 51
44.93822888791658
1001
GENIUS_GENOBJ-N-FIL_13
1002
{
1000
OWNER
1000
GEN
1002
}
1001
GENIUS_GENODEF_13
1002
{
1000
HIER
1070
     0
1002
}
1002
{
1000
MANEDIT
1070
     0
1002
}
1002
{
1000
NOSEL
1070
     0
1002
}
1002
{
1000
BEHIND
1070
     0
1002
}
1002
{
1000
OTHER
1070
     0
1002
}
1002
{
1000
REACTOR
1002
}
  0
ARC
  5
447A
330
1F
100
AcDbEntity
  8
AM_5
 62
     2
370
    35
100
AcDbCircle
 10
339.4952810767943
 20
336.3024831807946
 30
0.0
 40
5.0
100
AcDbArc
 50
315.0617711120834
 51
92.00000000000047
1001
GENIUS_GENODEF_13
1002
{
1000
HIER
1070
     0
1002
}
1002
{
1000
MANEDIT
1070
     0
1002
}
1002
{
1000
NOSEL
1070
     0
1002
}
1002
{
1000
BEHIND
1070
     0
1002
}
1002
{
1000
OTHER
1070
     0
1002
}
1002
{
1000
REACTOR
1002
}
1001
GENIUS_GENOBJ-N-FIL_13
1002
{
1000
OWNER
1000
GEN
1002
}
  0
LINE
  5
4C2C
330
1F
100
AcDbEntity
  8
AM_0
100
AcDbLine
 10
374.5370711739874
 20
360.1268788595448
 30
0.0
 11
362.5370111739873
 21
360.1268788595447
 31
0.0
  0
LINE
  5
4C2D
330
1F
100
AcDbEntity
  8
AM_0
100
AcDbLine
 10
374.5370711739874
 20
338.022905859545
 30
0.0
 11
362.5370111739876
 21
338.0229058595448
 31
0.0
  0
LINE
  5
4C2E
330
1F
100
AcDbEntity
  8
AM_0
100
AcDbLine
 10
374.5370711739874
 20
259.0735618595449
 30
0.0
 11
362.5370111739885
 21
259.0735618595447
 31
0.0
  0
LINE
  5
4C2F
330
1F
100
AcDbEntity
  8
AM_0
100
AcDbLine
 10
374.5370711739874
 20
236.9695858595449
 30
0.0
 11
362.5370111739889
 21
236.9695858595447
 31
0.0
  0
TEXT
  5
4C9D
330
1F
100
AcDbEntity
  8
AM_0
100
AcDbText
 10
596.547773613747
 20
421.7143620106241
 30
0.0
 40
7.5
  1
ＶＸ０８－００５～０３０Ｈ－Ｔ２（Ｔ４）
 41
0.8299999999999998
100
AcDbText
  0
LINE
  5
4CB7
330
1F
100
AcDbEntity
  8
0
100
AcDbLine
 10
309.0370111739873
 20
339.7530139070105
 30
0.0
 11
309.0370111739873
 21
340.1578034764954
 31
0.0
1001
GENIUS_GENOBJ-N-CEN_13
1002
{
1000
OWNER
1000
GEN
1002
}
1001
GENIUS_GENODEF_13
1002
{
1000
HIER
1070
     0
1002
}
1002
{
1000
MANEDIT
1070
     0
1002
}
1002
{
1000
NOSEL
1070
     0
1002
}
1002
{
1000
BEHIND
1070
     0
1002
}
1002
{
1000
OTHER
1070
     0
1002
}
1002
{
1000
REACTOR
1002
}
1001
GENIUS_GENCEN_19
1002
{
1040
2.794
1002
}
  0
LINE
  5
4CB8
330
1F
100
AcDbEntity
  8
0
100
AcDbLine
 10
292.0370111739874
 20
339.6154944014315
 30
0.0
 11
292.0370111739873
 21
340.1578034764954
 31
0.0
1001
GENIUS_GENOBJ-N-CEN_13
1002
{
1000
OWNER
1000
GEN
1002
}
1001
GENIUS_GENODEF_13
1002
{
1000
HIER
1070
     0
1002
}
1002
{
1000
MANEDIT
1070
     0
1002
}
1002
{
1000
NOSEL
1070
     0
1002
}
1002
{
1000
BEHIND
1070
     0
1002
}
1002
{
1000
OTHER
1070
     0
1002
}
1002
{
1000
REACTOR
1002
}
1001
GENIUS_GENCEN_19
1002
{
1040
2.794
1002
}
  0
LINE
  5
4CBC
330
1F
100
AcDbEntity
  8
図面枠-ｷｲﾛ
100
AcDbLine
 10
292.0370111739873
 20
340.1578034764953
 30
0.0
 11
309.0370111739873
 21
340.1578034764954
 31
0.0
  0
ARC
  5
4CBD
330
1F
100
AcDbEntity
  8
0
100
AcDbCircle
 10
300.5370111739874
 20
323.0953034764953
 30
0.0
 40
19.06249999999999
100
AcDbArc
 50
63.51896016962518
 51
116.4810398303748
  0
LINE
  5
4CBE
330
1F
100
AcDbEntity
  8
AM_7
  6
AM_ISO08W050x2
 62
     1
370
    25
100
AcDbLine
 10
300.5370111739873
 20
344.9518034764953
 30
0.0
 11
300.5370111739873
 21
329.8939619375118
 31
0.0
1001
GENIUS_GENODEF_13
1002
{
1000
HIER
1070
     0
1002
}
1002
{
1000
MANEDIT
1070
     0
1002
}
1002
{
1000
NOSEL
1070
     0
1002
}
1002
{
1000
BEHIND
1070
     0
1002
}
1002
{
1000
OTHER
1070
     0
1002
}
1002
{
1000
REACTOR
1002
}
1001
GENIUS_GENOBJ-N-CEN_13
1002
{
1000
OWNER
1000
GEN
1002
}
1001
GENIUS_GENCEN_19
1002
{
1040
2.794
1002
}
  0
LINE
  5
4D65
330
1F
100
AcDbEntity
  8
AM_0
100
AcDbLine
 10
487.037071173987
 20
531.1610368220017
 30
0.0
 11
490.0370711739871
 21
531.1610368220017
 31
0.0
  0
LINE
  5
4D66
330
1F
100
AcDbEntity
  8
AM_0
100
AcDbLine
 10
532.0370411739871
 20
560.1610668220017
 30
0.0
 11
532.0370411739871
 21
532.1610668220017
 31
0.0
  0
LINE
  5
4D67
330
1F
100
AcDbEntity
  8
AM_0
100
AcDbLine
 10
490.0370711739871
 20
560.1610668220017
 30
0.0
 11
532.0370411739871
 21
560.1610668220017
 31
0.0
  0
LINE
  5
4D68
330
1F
100
AcDbEntity
  8
AM_0
100
AcDbLine
 10
490.0370711739871
 20
561.1610368220017
 30
0.0
 11
490.0370711739871
 21
531.1610368220017
 31
0.0
  0
LINE
  5
4D69
330
1F
100
AcDbEntity
  8
AM_0
100
AcDbLine
 10
490.0370711739871
 20
532.1610668220017
 30
0.0
 11
532.0370411739871
 21
532.1610668220017
 31
0.0
  0
LINE
  5
4D6A
330
1F
100
AcDbEntity
  8
AM_0
100
AcDbLine
 10
500.0370411739871
 20
550.1610068220016
 30
0.0
 11
500.0370411739871
 21
542.1610368220017
 31
0.0
  0
LINE
  5
4D6B
330
1F
100
AcDbEntity
  8
AM_0
100
AcDbLine
 10
487.037071173987
 20
561.1610368220017
 30
0.0
 11
490.0370711739871
 21
561.1610368220017
 31
0.0
  0
LINE
  5
4D6C
330
1F
100
AcDbEntity
  8
AM_0
100
AcDbLine
 10
485.010891173987
 20
575.2141068220017
 30
0.0
 11
486.0632211739869
 21
575.1865468220016
 31
0.0
  0
LINE
  5
4D6D
330
1F
100
AcDbEntity
  8
AM_0
100
AcDbLine
 10
377.0370711739871
 20
632.2696768220017
 30
0.0
 11
377.0370711739871
 21
619.7265268220016
 31
0.0
  0
LINE
  5
4D6E
330
1F
100
AcDbEntity
  8
AM_0
100
AcDbLine
 10
487.037071173987
 20
631.3269868220018
 30
0.0
 11
487.037071173987
 21
604.1610368220017
 31
0.0
  0
LINE
  5
4D70
330
1F
100
AcDbEntity
  8
AM_0
100
AcDbLine
 10
414.0370711739871
 20
636.1610368220017
 30
0.0
 11
484.115561173987
 21
634.3259868220016
 31
0.0
  0
LINE
  5
4D71
330
1F
100
AcDbEntity
  8
AM_0
100
AcDbLine
 10
379.9585211739871
 20
635.2686368220015
 30
0.0
 11
414.0370711739871
 21
636.1610368220017
 31
0.0
  0
LINE
  5
4D73
330
1F
100
AcDbEntity
  8
ﾁｭｳｼﾝｾﾝ1
 48
0.5
100
AcDbLine
 10
472.037071173987
 20
629.7708268220016
 30
0.0
 11
472.037071173987
 21
612.5512468220016
 31
0.0
  0
LINE
  5
4D74
330
1F
100
AcDbEntity
  8
ﾁｭｳｼﾝｾﾝ1
 48
0.5
100
AcDbLine
 10
463.467521173987
 20
621.1610368220017
 30
0.0
 11
480.606621173987
 21
621.1610368220017
 31
0.0
  0
LINE
  5
4D75
330
1F
100
AcDbEntity
  8
AM_0
100
AcDbLine
 10
414.0370711739871
 20
631.0283768220017
 30
0.0
 11
414.0370711739871
 21
628.4119868220016
 31
0.0
  0
LINE
  5
4D76
330
1F
100
AcDbEntity
  8
AM_0
100
AcDbLine
 10
485.010861173987
 20
517.1079968220017
 30
0.0
 11
486.0632211739869
 21
517.1355568220016
 31
0.0
  0
LINE
  5
4D77
330
1F
100
AcDbEntity
  8
AM_0
100
AcDbLine
 10
377.0370711739871
 20
460.0523668220018
 30
0.0
 11
377.0370711739871
 21
472.5955468220016
 31
0.0
  0
LINE
  5
4D78
330
1F
100
AcDbEntity
  8
AM_0
100
AcDbLine
 10
487.037071173987
 20
460.9950768220017
 30
0.0
 11
487.037071173987
 21
488.1610368220016
 31
0.0
  0
LINE
  5
4D7A
330
1F
100
AcDbEntity
  8
AM_0
100
AcDbLine
 10
414.0370711739871
 20
456.1610368220016
 30
0.0
 11
484.115561173987
 21
457.9960868220014
 31
0.0
  0
LINE
  5
4D7B
330
1F
100
AcDbEntity
  8
AM_0
100
AcDbLine
 10
379.9585211739871
 20
457.0533968220017
 30
0.0
 11
414.0370711739871
 21
456.1610368220016
 31
0.0
  0
LINE
  5
4D7E
330
1F
100
AcDbEntity
  8
AM_0
100
AcDbLine
 10
411.037071173987
 20
463.9100868220017
 30
0.0
 11
411.037071173987
 21
628.4119868220016
 31
0.0
  0
LINE
  5
4D7F
330
1F
100
AcDbEntity
  8
AM_0
100
AcDbLine
 10
484.037071173987
 20
492.0340168220016
 30
0.0
 11
484.037071173987
 21
600.2880468220016
 31
0.0
  0
LINE
  5
4D80
330
1F
100
AcDbEntity
  8
AM_0
100
AcDbLine
 10
487.037071173987
 20
574.1868868220016
 30
0.0
 11
487.037071173987
 21
518.1351868220017
 31
0.0
  0
LINE
  5
4D81
330
1F
100
AcDbEntity
  8
AM_0
100
AcDbLine
 10
410.0370711739871
 20
635.0283768220017
 30
0.0
 11
410.0370711739871
 21
631.6852368220017
 31
0.0
  0
LINE
  5
4D82
330
1F
100
AcDbEntity
  8
AM_0
100
AcDbLine
 10
500.0370411739871
 20
542.1610368220017
 30
0.0
 11
532.0370411739871
 21
542.1610368220017
 31
0.0
  0
LINE
  5
4D83
330
1F
100
AcDbEntity
  8
AM_0
100
AcDbLine
 10
500.0370411739871
 20
550.1610068220016
 30
0.0
 11
532.0370411739871
 21
550.1610068220016
 31
0.0
  0
LINE
  5
4D84
330
1F
100
AcDbEntity
  8
AM_0
100
AcDbLine
 10
472.037071173987
 20
490.9894968220015
 30
0.0
 11
472.037071173987
 21
601.3325768220016
 31
0.0
  0
LINE
  5
4D85
330
1F
100
AcDbEntity
  8
AM_0
100
AcDbLine
 10
481.298511173987
 20
600.4005968220017
 30
0.0
 11
475.503101173987
 21
600.9076468220017
 31
0.0
  0
LINE
  5
4D86
330
1F
100
AcDbEntity
  8
AM_0
100
AcDbLine
 10
481.298511173987
 20
491.9214468220016
 30
0.0
 11
475.503101173987
 21
491.4144268220018
 31
0.0
  0
LINE
  5
4D87
330
1F
100
AcDbEntity
  8
AM_0
100
AcDbLine
 10
467.2115411739873
 20
606.3295568220016
 30
0.0
 11
461.7578611739871
 21
606.5199868220015
 31
0.0
  0
LINE
  5
4D88
330
1F
100
AcDbEntity
  8
AM_0
100
AcDbLine
 10
467.2115711739871
 20
485.9925468220017
 30
0.0
 11
461.7578611739871
 21
485.8020868220015
 31
0.0
  0
LINE
  5
4D89
330
1F
100
AcDbEntity
  8
AM_0
100
AcDbLine
 10
454.037071173987
 20
462.3411168220017
 30
0.0
 11
454.037071173987
 21
477.8069368220016
 31
0.0
  0
LINE
  5
4D8A
330
1F
100
AcDbEntity
  8
AM_0
100
AcDbLine
 10
454.037071173987
 20
614.5151268220017
 30
0.0
 11
454.037071173987
 21
629.9809468220017
 31
0.0
  0
LINE
  5
4D8B
330
1F
100
AcDbEntity
  8
AM_0
100
AcDbLine
 10
411.037071173987
 20
463.9100868220017
 30
0.0
 11
414.0370711739871
 21
463.9100868220017
 31
0.0
  0
LINE
  5
4D8C
330
1F
100
AcDbEntity
  8
AM_0
100
AcDbLine
 10
411.037071173987
 20
628.4119868220016
 30
0.0
 11
414.0370711739871
 21
628.4119868220016
 31
0.0
  0
LINE
  5
4D8E
330
1F
100
AcDbEntity
  8
AM_0
100
AcDbLine
 10
414.0370711739871
 20
461.2936968220016
 30
0.0
 11
414.0370711739871
 21
463.9100868220017
 31
0.0
  0
LINE
  5
4D8F
330
1F
100
AcDbEntity
  8
AM_0
100
AcDbLine
 10
410.0370711739871
 20
457.2936968220016
 30
0.0
 11
410.0370711739871
 21
460.6368368220016
 31
0.0
  0
LINE
  5
4D90
330
1F
100
AcDbEntity
  8
AM_0
100
AcDbLine
 10
411.037071173987
 20
463.9100868220017
 30
0.0
 11
405.967251173987
 21
464.0871268220016
 31
0.0
  0
LINE
  5
4D91
330
1F
100
AcDbEntity
  8
AM_0
100
AcDbLine
 10
411.037071173987
 20
628.4119868220016
 30
0.0
 11
405.967251173987
 21
628.2349468220018
 31
0.0
  0
LINE
  5
4D92
330
1F
100
AcDbEntity
  8
AM_0
100
AcDbLine
 10
404.037041173987
 20
466.0859368220016
 30
0.0
 11
404.037041173987
 21
626.2361368220015
 31
0.0
  0
LINE
  5
4D93
330
1F
100
AcDbEntity
  8
AM_0
100
AcDbLine
 10
374.537071173987
 20
585.6357068220017
 30
0.0
 11
404.037041173987
 21
585.6357068220017
 31
0.0
  0
LINE
  5
4D94
330
1F
100
AcDbEntity
  8
AM_0
100
AcDbLine
 10
374.537041173987
 20
619.6610668220017
 30
0.0
 11
394.0370411739871
 21
620.1716868220016
 31
0.0
  0
LINE
  5
4D95
330
1F
100
AcDbEntity
  8
AM_0
100
AcDbLine
 10
374.537071173987
 20
607.7396768220016
 30
0.0
 11
404.037041173987
 21
607.7396768220016
 31
0.0
  0
LINE
  5
4D96
330
1F
100
AcDbEntity
  8
AM_0
100
AcDbLine
 10
374.5370111739873
 20
472.6610668220017
 30
0.0
 11
374.5370111739873
 21
619.6610368220017
 31
0.0
  0
LINE
  5
4D97
330
1F
100
AcDbEntity
  8
AM_0
100
AcDbLine
 10
394.0370711739871
 20
468.1479168220016
 30
0.0
 11
394.0370711739871
 21
479.5479068220016
 31
0.0
  0
LINE
  5
4D98
330
1F
100
AcDbEntity
  8
AM_0
100
AcDbLine
 10
394.8370611739873
 20
467.3479268220017
 30
0.0
 11
402.0370411739872
 21
467.3479268220017
 31
0.0
  0
LINE
  5
4D99
330
1F
100
AcDbEntity
  8
AM_0
100
AcDbLine
 10
394.8370611739873
 20
480.3478968220018
 30
0.0
 11
402.0370411739872
 21
480.3478968220018
 31
0.0
  0
LINE
  5
4D9A
330
1F
100
AcDbEntity
  8
AM_0
100
AcDbLine
 10
394.0370411739871
 20
468.1479168220016
 30
0.0
 11
394.8370911739871
 21
467.3478968220017
 31
0.0
  0
LINE
  5
4D9B
330
1F
100
AcDbEntity
  8
AM_0
100
AcDbLine
 10
394.0370711739871
 20
479.5478768220015
 30
0.0
 11
394.8370911739871
 21
480.3478968220018
 31
0.0
  0
LINE
  5
4D9C
330
1F
100
AcDbEntity
  8
AM_0
100
AcDbLine
 10
394.8370611739873
 20
467.3479268220017
 30
0.0
 11
394.8370611739873
 21
480.3478968220018
 31
0.0
  0
LINE
  5
4D9D
330
1F
100
AcDbEntity
  8
AM_0
100
AcDbLine
 10
402.0370411739872
 20
465.3478968220017
 30
0.0
 11
402.0370411739872
 21
482.3478968220017
 31
0.0
  0
LINE
  5
4D9E
330
1F
100
AcDbEntity
  8
AM_0
100
AcDbLine
 10
402.0370411739872
 20
482.3478968220017
 30
0.0
 11
404.037041173987
 21
482.3478968220017
 31
0.0
  0
LINE
  5
4D9F
330
1F
100
AcDbEntity
  8
AM_0
100
AcDbLine
 10
402.0370411739872
 20
465.3478968220017
 30
0.0
 11
404.037041173987
 21
465.3478968220017
 31
0.0
  0
LINE
  5
4DA0
330
1F
100
AcDbEntity
  8
AM_0
100
AcDbLine
 10
394.0370711739871
 20
612.7741668220017
 30
0.0
 11
394.0370711739871
 21
624.1741568220017
 31
0.0
  0
LINE
  5
4DA1
330
1F
100
AcDbEntity
  8
AM_0
100
AcDbLine
 10
394.8370611739873
 20
611.9741768220016
 30
0.0
 11
402.0370411739872
 21
611.9741768220016
 31
0.0
  0
LINE
  5
4DA2
330
1F
100
AcDbEntity
  8
AM_0
100
AcDbLine
 10
402.0370411739872
 20
609.9741468220017
 30
0.0
 11
404.037041173987
 21
609.9741468220017
 31
0.0
  0
LINE
  5
4DA3
330
1F
100
AcDbEntity
  8
AM_0
100
AcDbLine
 10
394.8370611739873
 20
624.9741468220017
 30
0.0
 11
402.0370411739872
 21
624.9741468220017
 31
0.0
  0
LINE
  5
4DA4
330
1F
100
AcDbEntity
  8
AM_0
100
AcDbLine
 10
394.0370711739871
 20
624.1741568220017
 30
0.0
 11
394.8370611739873
 21
624.9741768220017
 31
0.0
  0
LINE
  5
4DA5
330
1F
100
AcDbEntity
  8
AM_0
100
AcDbLine
 10
394.8370611739873
 20
611.9741768220016
 30
0.0
 11
394.8370611739873
 21
624.9741468220017
 31
0.0
  0
LINE
  5
4DA6
330
1F
100
AcDbEntity
  8
AM_0
100
AcDbLine
 10
402.0370411739872
 20
609.9741468220017
 30
0.0
 11
402.0370411739872
 21
626.9741468220017
 31
0.0
  0
LINE
  5
4DA7
330
1F
100
AcDbEntity
  8
AM_0
100
AcDbLine
 10
402.0370411739872
 20
626.9741468220017
 30
0.0
 11
404.037041173987
 21
626.9741468220017
 31
0.0
  0
LINE
  5
4DA8
330
1F
100
AcDbEntity
  8
AM_0
100
AcDbLine
 10
394.0370711739871
 20
612.7741368220015
 30
0.0
 11
394.8370911739871
 21
611.9741168220016
 31
0.0
  0
LINE
  5
4DA9
330
1F
100
AcDbEntity
  8
AM_0
100
AcDbLine
 10
374.537071173987
 20
484.5823968220017
 30
0.0
 11
404.037041173987
 21
484.5823968220017
 31
0.0
  0
LINE
  5
4DAA
330
1F
100
AcDbEntity
  8
AM_0
100
AcDbLine
 10
374.537041173987
 20
472.6610068220016
 30
0.0
 11
394.0370411739871
 21
472.1503868220016
 31
0.0
  0
LINE
  5
4DAB
330
1F
100
AcDbEntity
  8
AM_0
100
AcDbLine
 10
374.537071173987
 20
506.6863668220017
 30
0.0
 11
404.037041173987
 21
506.6863668220017
 31
0.0
  0
LINE
  5
4DAC
330
1F
100
AcDbEntity
  8
AM_0
100
AcDbLine
 10
411.037071173987
 20
466.0536768220017
 30
0.0
 11
404.037041173987
 21
466.0536768220017
 31
0.0
  0
LINE
  5
4DAD
330
1F
100
AcDbEntity
  8
AM_0
100
AcDbLine
 10
411.037071173987
 20
507.8859468220017
 30
0.0
 11
404.037041173987
 21
507.8859468220017
 31
0.0
  0
LINE
  5
4DAE
330
1F
100
AcDbEntity
  8
AM_0
100
AcDbLine
 10
411.037071173987
 20
584.4361168220016
 30
0.0
 11
404.037041173987
 21
584.4361168220016
 31
0.0
  0
ARC
  5
4DAF
330
1F
100
AcDbEntity
  8
AM_0
100
AcDbCircle
 10
485.0370711739871
 20
576.2137368220017
 30
0.0
 40
1.0
100
AcDbArc
 50
180.000010000001
 51
268.5000000000006
  0
ARC
  5
4DB0
330
1F
100
AcDbEntity
  8
AM_0
100
AcDbCircle
 10
486.037071173987
 20
574.1868868220016
 30
0.0
 40
1.0
100
AcDbArc
 50
0.0
 51
88.49999700000065
  0
CIRCLE
  5
4DB1
330
1F
100
AcDbEntity
  8
AM_0
100
AcDbCircle
 10
472.037071173987
 20
621.1610368220017
 30
0.0
 40
6.0
  0
ARC
  5
4DB2
330
1F
100
AcDbEntity
  8
AM_0
100
AcDbCircle
 10
380.0370711739871
 20
632.2696768220017
 30
0.0
 40
3.0
100
AcDbArc
 50
91.50000100000154
 51
180.000010000001
  0
ARC
  5
4DB3
330
1F
100
AcDbEntity
  8
AM_0
100
AcDbCircle
 10
484.037071173987
 20
631.3269868220018
 30
0.0
 40
3.0
100
AcDbArc
 50
0.0
 51
88.49999700000065
  0
ARC
  5
4DB4
330
1F
100
AcDbEntity
  8
AM_0
100
AcDbCircle
 10
392.0370711739871
 20
621.1610368220017
 30
0.0
 40
6.0
100
AcDbArc
 50
39.45844300000008
 51
191.4949099999997
  0
ARC
  5
4DB5
330
1F
100
AcDbEntity
  8
AM_0
100
AcDbCircle
 10
484.037071173987
 20
604.1610368220017
 30
0.0
 40
3.0
100
AcDbArc
 50
284.4775099999998
 51
0.0
  0
ARC
  5
4DB6
330
1F
100
AcDbEntity
  8
AM_0
100
AcDbCircle
 10
485.0370711739871
 20
516.1083368220016
 30
0.0
 40
1.0
100
AcDbArc
 50
91.50000100000154
 51
180.000010000001
  0
ARC
  5
4DB7
330
1F
100
AcDbEntity
  8
AM_0
100
AcDbCircle
 10
486.037071173987
 20
518.1351868220017
 30
0.0
 40
1.0
100
AcDbArc
 50
271.4999999999994
 51
0.0
  0
CIRCLE
  5
4DB8
330
1F
100
AcDbEntity
  8
AM_0
100
AcDbCircle
 10
472.037071173987
 20
471.1610368220015
 30
0.0
 40
6.0
  0
ARC
  5
4DB9
330
1F
100
AcDbEntity
  8
AM_0
100
AcDbCircle
 10
380.0370711739871
 20
460.0523668220018
 30
0.0
 40
3.0
100
AcDbArc
 50
180.000010000001
 51
268.5000000000006
  0
ARC
  5
4DBA
330
1F
100
AcDbEntity
  8
AM_0
100
AcDbCircle
 10
484.037071173987
 20
460.9950768220017
 30
0.0
 40
3.0
100
AcDbArc
 50
271.4999999999994
 51
0.0
  0
ARC
  5
4DBB
330
1F
100
AcDbEntity
  8
ｶｸﾚｾﾝ2
100
AcDbCircle
 10
392.0370711739871
 20
471.1610368220015
 30
0.0
 40
6.0
100
AcDbArc
 50
320.5415500000021
 51
168.5051000000048
  0
ARC
  5
4DBC
330
1F
100
AcDbEntity
  8
AM_0
100
AcDbCircle
 10
484.037071173987
 20
488.1610368220016
 30
0.0
 40
3.0
100
AcDbArc
 50
0.0
 51
75.52248799999908
  0
ARC
  5
4DBD
330
1F
100
AcDbEntity
  8
AM_0
100
AcDbCircle
 10
409.037071173987
 20
631.0283768220017
 30
0.0
 40
5.0
100
AcDbArc
 50
0.0
 51
91.50000100000154
  0
ARC
  5
4DBE
330
1F
100
AcDbEntity
  8
AM_0
100
AcDbCircle
 10
409.037071173987
 20
626.0283768220017
 30
0.0
 40
5.0
100
AcDbArc
 50
28.47123899999959
 51
70.5287789999982
  0
ARC
  5
4DBF
330
1F
100
AcDbEntity
  8
AM_0
100
AcDbCircle
 10
411.037071173987
 20
631.6852368220017
 30
0.0
 40
1.0
100
AcDbArc
 50
180.000010000001
 51
250.5287699999993
  0
ARC
  5
4DC0
330
1F
100
AcDbEntity
  8
AM_0
100
AcDbCircle
 10
409.037071173987
 20
635.0283768220017
 30
0.0
 40
1.0
100
AcDbArc
 50
0.0
 51
90.00000300000095
  0
ARC
  5
4DC1
330
1F
100
AcDbEntity
  8
AM_0
100
AcDbCircle
 10
500.0370411739871
 20
546.1610068220017
 30
0.0
 40
3.9999962
100
AcDbArc
 50
90.00000300000095
 51
270.0
  0
ARC
  5
4DC2
330
1F
100
AcDbEntity
  8
AM_0
100
AcDbCircle
 10
485.0370711739871
 20
492.0340168220016
 30
0.0
 40
1.0
100
AcDbArc
 50
180.000010000001
 51
255.5224900000002
  0
ARC
  5
4DC3
330
1F
100
AcDbEntity
  8
AM_0
100
AcDbCircle
 10
485.0370711739871
 20
600.2880468220016
 30
0.0
 40
1.0
100
AcDbArc
 50
104.4775099999998
 51
180.000010000001
  0
ARC
  5
4DC4
330
1F
100
AcDbEntity
  8
AM_0
100
AcDbCircle
 10
481.0370711739871
 20
494.9100268220016
 30
0.0
 40
3.0
100
AcDbArc
 50
275.0
 51
0.0
  0
ARC
  5
4DC5
330
1F
100
AcDbEntity
  8
AM_0
100
AcDbCircle
 10
481.0370711739871
 20
597.4120468220018
 30
0.0
 40
3.0
100
AcDbArc
 50
0.0
 51
85.00000400000091
  0
ARC
  5
4DC6
330
1F
100
AcDbEntity
  8
AM_0
100
AcDbCircle
 10
467.037071173987
 20
601.3325768220016
 30
0.0
 40
5.0
100
AcDbArc
 50
0.0
 51
87.99999999999952
  0
ARC
  5
4DC7
330
1F
100
AcDbEntity
  8
AM_0
100
AcDbCircle
 10
467.037071173987
 20
490.9894968220015
 30
0.0
 40
5.0
100
AcDbArc
 50
272.0000000000005
 51
0.0
  0
ARC
  5
4DC8
330
1F
100
AcDbEntity
  8
AM_0
100
AcDbCircle
 10
475.9388911739872
 20
605.8886368220016
 30
0.0
 40
5.0
100
AcDbArc
 50
207.103809999998
 51
265.0000100000004
  0
ARC
  5
4DC9
330
1F
100
AcDbEntity
  8
AM_0
100
AcDbCircle
 10
475.9388911739872
 20
486.4334368220015
 30
0.0
 40
5.0
100
AcDbArc
 50
95.00000199999858
 51
152.8961900000019
  0
ARC
  5
4DCA
330
1F
100
AcDbEntity
  8
AM_0
100
AcDbCircle
 10
459.0370711739871
 20
462.3411168220017
 30
0.0
 40
5.0
100
AcDbArc
 50
180.000010000001
 51
271.4999999999994
  0
ARC
  5
4DCB
330
1F
100
AcDbEntity
  8
AM_0
100
AcDbCircle
 10
459.0370711739871
 20
629.9809468220017
 30
0.0
 40
5.0
100
AcDbArc
 50
88.49999700000065
 51
180.000010000001
  0
ARC
  5
4DCC
330
1F
100
AcDbEntity
  8
AM_0
100
AcDbCircle
 10
462.037071173987
 20
614.5151268220017
 30
0.0
 40
8.0
100
AcDbArc
 50
180.000010000001
 51
267.9999999999995
  0
ARC
  5
4DCD
330
1F
100
AcDbEntity
  8
AM_0
100
AcDbCircle
 10
462.037071173987
 20
477.8069368220016
 30
0.0
 40
8.0
100
AcDbArc
 50
91.99999800000055
 51
180.000010000001
  0
ARC
  5
4DCE
330
1F
100
AcDbEntity
  8
AM_0
100
AcDbCircle
 10
409.037071173987
 20
461.2936968220016
 30
0.0
 40
5.0
100
AcDbArc
 50
268.5000000000006
 51
0.0000006832495047
  0
ARC
  5
4DCF
330
1F
100
AcDbEntity
  8
AM_0
100
AcDbCircle
 10
409.037071173987
 20
466.2936968220016
 30
0.0
 40
5.0
100
AcDbArc
 50
289.4712300000007
 51
331.5287600000031
  0
ARC
  5
4DD0
330
1F
100
AcDbEntity
  8
AM_0
100
AcDbCircle
 10
411.037071173987
 20
460.6368368220016
 30
0.0
 40
1.0
100
AcDbArc
 50
109.4712199999996
 51
180.000010000001
  0
ARC
  5
4DD1
330
1F
100
AcDbEntity
  8
AM_0
100
AcDbCircle
 10
409.037071173987
 20
457.2936968220016
 30
0.0
 40
1.0
100
AcDbArc
 50
270.0
 51
0.0
  0
ARC
  5
4DD2
330
1F
100
AcDbEntity
  8
AM_0
100
AcDbCircle
 10
406.0370411739872
 20
466.0859368220016
 30
0.0
 40
2.0
100
AcDbArc
 50
180.000010000001
 51
267.9999999999995
  0
ARC
  5
4DD3
330
1F
100
AcDbEntity
  8
AM_0
100
AcDbCircle
 10
406.0370411739872
 20
626.2361368220015
 30
0.0
 40
2.0
100
AcDbArc
 50
91.99999800000055
 51
180.000010000001
  0
ARC
  5
4DD4
330
1F
100
AcDbEntity
  8
AM_0
100
AcDbCircle
 10
392.0370711739871
 20
471.1610368220015
 30
0.0
 40
6.0
100
AcDbArc
 50
168.5051000000048
 51
320.5415700000008
  0
ARC
  5
4DD5
330
1F
100
AcDbEntity
  8
ｶｸﾚｾﾝ2
100
AcDbCircle
 10
392.0370711739871
 20
621.1610368220017
 30
0.0
 40
6.0
100
AcDbArc
 50
191.4949199999985
 51
39.4584399999996
  0
POLYLINE
  5
4DD6
330
1F
100
AcDbEntity
  8
AM_0
100
AcDb2dPolyline
 66
     1
 10
0.0
 20
0.0
 30
0.0
  0
VERTEX
  5
4DD7
330
4DD6
100
AcDbEntity
  8
AM_0
100
AcDbVertex
100
AcDb2dVertex
 10
411.037071173987
 20
507.8859468220017
 30
0.0
 42
-0.059991193
  0
VERTEX
  5
4DD8
330
4DD6
100
AcDbEntity
  8
AM_0
100
AcDbVertex
100
AcDb2dVertex
 10
436.6258811739871
 20
491.9537368220015
 30
0.0
 42
-0.30883796
  0
VERTEX
  5
4DD9
330
4DD6
100
AcDbEntity
  8
AM_0
100
AcDbVertex
100
AcDb2dVertex
 10
446.0370411739871
 20
476.0129968220017
 30
0.0
 42
-0.25905842
  0
VERTEX
  5
4DDA
330
4DD6
100
AcDbEntity
  8
AM_0
100
AcDbVertex
100
AcDb2dVertex
 10
411.5873711739871
 20
456.2249368220016
 30
0.0
  0
SEQEND
  5
4DDB
330
4DD6
100
AcDbEntity
  8
AM_0
  0
POLYLINE
  5
4DDC
330
1F
100
AcDbEntity
  8
AM_0
100
AcDb2dPolyline
 66
     1
 10
0.0
 20
0.0
 30
0.0
  0
VERTEX
  5
4DDD
330
4DDC
100
AcDbEntity
  8
AM_0
100
AcDbVertex
100
AcDb2dVertex
 10
412.3006111739872
 20
466.2320568220017
 30
0.0
 42
0.021277534
  0
VERTEX
  5
4DDE
330
4DDC
100
AcDbEntity
  8
AM_0
100
AcDbVertex
100
AcDb2dVertex
 10
423.130751173987
 20
468.2885768220016
 30
0.0
 42
0.020622971
  0
VERTEX
  5
4DDF
330
4DDC
100
AcDbEntity
  8
AM_0
100
AcDbVertex
100
AcDb2dVertex
 10
433.255511173987
 20
471.1056168220017
 30
0.0
 42
0.022709
  0
VERTEX
  5
4DE0
330
4DDC
100
AcDbEntity
  8
AM_0
100
AcDbVertex
100
AcDb2dVertex
 10
444.062431173987
 20
475.1511768220017
 30
0.0
  0
SEQEND
  5
4DE1
330
4DDC
100
AcDbEntity
  8
AM_0
  0
POLYLINE
  5
4DE2
330
1F
100
AcDbEntity
  8
AM_0
100
AcDb2dPolyline
 66
     1
 10
0.0
 20
0.0
 30
0.0
  0
VERTEX
  5
4DE3
330
4DE2
100
AcDbEntity
  8
AM_0
100
AcDbVertex
100
AcDb2dVertex
 10
411.037071173987
 20
584.4361168220016
 30
0.0
 42
0.059991175
  0
VERTEX
  5
4DE4
330
4DE2
100
AcDbEntity
  8
AM_0
100
AcDbVertex
100
AcDb2dVertex
 10
436.6258811739871
 20
600.3683268220016
 30
0.0
 42
0.30883786
  0
VERTEX
  5
4DE5
330
4DE2
100
AcDbEntity
  8
AM_0
100
AcDbVertex
100
AcDb2dVertex
 10
446.0370411739871
 20
616.3090768220017
 30
0.0
 42
0.25905849
  0
VERTEX
  5
4DE6
330
4DE2
100
AcDbEntity
  8
AM_0
100
AcDbVertex
100
AcDb2dVertex
 10
411.587391173987
 20
636.0971268220017
 30
0.0
  0
SEQEND
  5
4DE7
330
4DE2
100
AcDbEntity
  8
AM_0
  0
POLYLINE
  5
4DE8
330
1F
100
AcDbEntity
  8
AM_0
100
AcDb2dPolyline
 66
     1
 10
0.0
 20
0.0
 30
0.0
  0
VERTEX
  5
4DE9
330
4DE8
100
AcDbEntity
  8
AM_0
100
AcDbVertex
100
AcDb2dVertex
 10
412.3006111739872
 20
626.0900168220015
 30
0.0
 42
-0.021277534
  0
VERTEX
  5
4DEA
330
4DE8
100
AcDbEntity
  8
AM_0
100
AcDbVertex
100
AcDb2dVertex
 10
423.130751173987
 20
624.0334968220017
 30
0.0
 42
-0.020622971
  0
VERTEX
  5
4DEB
330
4DE8
100
AcDbEntity
  8
AM_0
100
AcDbVertex
100
AcDb2dVertex
 10
433.255511173987
 20
621.2164568220018
 30
0.0
 42
-0.022709
  0
VERTEX
  5
4DEC
330
4DE8
100
AcDbEntity
  8
AM_0
100
AcDbVertex
100
AcDb2dVertex
 10
444.062431173987
 20
617.1708968220017
 30
0.0
  0
SEQEND
  5
4DED
330
4DE8
100
AcDbEntity
  8
AM_0
  0
LINE
  5
4DF0
330
1F
100
AcDbEntity
  8
ﾁｭｳｼﾝｾﾝ1
 48
0.5
100
AcDbLine
 10
392.0370711739871
 20
629.7708268220016
 30
0.0
 11
392.0370711739871
 21
612.5512468220016
 31
0.0
  0
LINE
  5
4DF1
330
1F
100
AcDbEntity
  8
ﾁｭｳｼﾝｾﾝ1
 48
0.5
100
AcDbLine
 10
383.4675211739871
 20
621.1610368220017
 30
0.0
 11
400.606621173987
 21
621.1610368220017
 31
0.0
  0
LINE
  5
4DF2
330
1F
100
AcDbEntity
  8
ﾁｭｳｼﾝｾﾝ1
 48
0.5
100
AcDbLine
 10
472.037071173987
 20
479.7708268220015
 30
0.0
 11
472.037071173987
 21
462.5512468220015
 31
0.0
  0
LINE
  5
4DF3
330
1F
100
AcDbEntity
  8
ﾁｭｳｼﾝｾﾝ1
 48
0.5
100
AcDbLine
 10
463.467521173987
 20
471.1610368220015
 30
0.0
 11
480.606621173987
 21
471.1610368220015
 31
0.0
  0
LINE
  5
4DF4
330
1F
100
AcDbEntity
  8
ﾁｭｳｼﾝｾﾝ1
 48
0.5
100
AcDbLine
 10
392.0370711739871
 20
479.7708268220015
 30
0.0
 11
392.0370711739871
 21
462.5512468220015
 31
0.0
  0
LINE
  5
4DF5
330
1F
100
AcDbEntity
  8
ﾁｭｳｼﾝｾﾝ1
 48
0.5
100
AcDbLine
 10
383.4675211739871
 20
471.1610368220015
 30
0.0
 11
400.606621173987
 21
471.1610368220015
 31
0.0
  0
LINE
  5
4DF7
330
1F
100
AcDbEntity
  8
0
100
AcDbLine
 10
374.5370111739873
 20
620.1597903357296
 30
0.0
 11
364.4672121805822
 21
619.8081452062525
 31
0.0
  0
LINE
  5
4DF8
330
1F
100
AcDbEntity
  8
0
100
AcDbLine
 10
362.5370111739872
 20
617.8093635522144
 30
0.0
 11
362.5370111739889
 21
474.5127400917895
 31
0.0
  0
ARC
  5
4DF9
330
1F
100
AcDbEntity
  8
0
100
AcDbCircle
 10
364.5370111739872
 20
617.8093635522144
 30
0.0
 40
2.0
100
AcDbArc
 50
92.00000000000047
 51
180.0
1001
GENIUS_GENODEF_13
1002
{
1000
HIER
1070
     0
1002
}
1002
{
1000
MANEDIT
1070
     0
1002
}
1002
{
1000
NOSEL
1070
     0
1002
}
1002
{
1000
BEHIND
1070
     0
1002
}
1002
{
1000
OTHER
1070
     0
1002
}
1002
{
1000
REACTOR
1002
}
1001
GENIUS_GENOBJ-N-FIL_13
1002
{
1000
OWNER
1000
GEN
1002
}
  0
LINE
  5
4DFA
330
1F
100
AcDbEntity
  8
0
100
AcDbLine
 10
333.9115677998207
 20
588.2344570276077
 30
0.0
 11
293.6416952400517
 21
586.8282020904858
 31
0.0
  0
ARC
  5
4DFB
330
1F
100
AcDbEntity
  8
0
100
AcDbCircle
 10
333.3880753492831
 20
603.2253194328941
 30
0.0
 40
15.0
100
AcDbArc
 50
272.0000000000005
 51
315.0
1001
GENIUS_GENODEF_13
1002
{
1000
HIER
1070
     0
1002
}
1002
{
1000
MANEDIT
1070
     0
1002
}
1002
{
1000
NOSEL
1070
     0
1002
}
1002
{
1000
BEHIND
1070
     0
1002
}
1002
{
1000
OTHER
1070
     0
1002
}
1002
{
1000
REACTOR
1002
}
1001
GENIUS_GENOBJ-N-FIL_13
1002
{
1000
OWNER
1000
GEN
1002
}
  0
LINE
  5
4DFC
330
1F
100
AcDbEntity
  8
0
100
AcDbLine
 10
343.9946770670813
 20
592.6187177150959
 30
0.0
 11
361.0725450799198
 21
609.6965857279347
 31
0.0
  0
ARC
  5
4DFD
330
1F
100
AcDbEntity
  8
0
100
AcDbCircle
 10
357.5370111739871
 20
613.2321196338674
 30
0.0
 40
5.0
100
AcDbArc
 50
315.0
 51
0.0
1001
GENIUS_GENODEF_13
1002
{
1000
HIER
1070
     0
1002
}
1002
{
1000
MANEDIT
1070
     0
1002
}
1002
{
1000
NOSEL
1070
     0
1002
}
1002
{
1000
BEHIND
1070
     0
1002
}
1002
{
1000
OTHER
1070
     0
1002
}
1002
{
1000
REACTOR
1002
}
1001
GENIUS_GENOBJ-N-FIL_13
1002
{
1000
OWNER
1000
GEN
1002
}
  0
LINE
  5
4DFE
330
1F
100
AcDbEntity
  8
0
100
AcDbLine
 10
374.5370111739875
 20
472.1623133082743
 30
0.0
 11
364.4672121805825
 21
472.5139584377513
 31
0.0
  0
ARC
  5
4DFF
330
1F
100
AcDbEntity
  8
0
100
AcDbCircle
 10
364.5370111739874
 20
474.5127400917895
 30
0.0
 40
2.0
100
AcDbArc
 50
180.0
 51
267.9999999999995
1001
GENIUS_GENODEF_13
1002
{
1000
HIER
1070
     0
1002
}
1002
{
1000
MANEDIT
1070
     0
1002
}
1002
{
1000
NOSEL
1070
     0
1002
}
1002
{
1000
BEHIND
1070
     0
1002
}
1002
{
1000
OTHER
1070
     0
1002
}
1002
{
1000
REACTOR
1002
}
1001
GENIUS_GENOBJ-N-FIL_13
1002
{
1000
OWNER
1000
GEN
1002
}
  0
LINE
  5
4E00
330
1F
100
AcDbEntity
  8
0
100
AcDbLine
 10
333.9115677998209
 20
504.0876466163959
 30
0.0
 11
293.6416952400518
 21
505.4939015535179
 31
0.0
  0
LINE
  5
4E01
330
1F
100
AcDbEntity
  8
0
100
AcDbLine
 10
343.9946770670815
 20
499.7033859289079
 30
0.0
 11
361.07254507992
 21
482.6255179160693
 31
0.0
  0
ARC
  5
4E02
330
1F
100
AcDbEntity
  8
0
100
AcDbCircle
 10
333.3880753492833
 20
489.0967842111096
 30
0.0
 40
15.0
100
AcDbArc
 50
45.0
 51
87.99999999999952
1001
GENIUS_GENODEF_13
1002
{
1000
HIER
1070
     0
1002
}
1002
{
1000
MANEDIT
1070
     0
1002
}
1002
{
1000
NOSEL
1070
     0
1002
}
1002
{
1000
BEHIND
1070
     0
1002
}
1002
{
1000
OTHER
1070
     0
1002
}
1002
{
1000
REACTOR
1002
}
1001
GENIUS_GENOBJ-N-FIL_13
1002
{
1000
OWNER
1000
GEN
1002
}
  0
ARC
  5
4E03
330
1F
100
AcDbEntity
  8
0
100
AcDbCircle
 10
357.5370111739873
 20
479.0899840101364
 30
0.0
 40
5.0
100
AcDbArc
 50
0.0
 51
45.0
1001
GENIUS_GENODEF_13
1002
{
1000
HIER
1070
     0
1002
}
1002
{
1000
MANEDIT
1070
     0
1002
}
1002
{
1000
NOSEL
1070
     0
1002
}
1002
{
1000
BEHIND
1070
     0
1002
}
1002
{
1000
OTHER
1070
     0
1002
}
1002
{
1000
REACTOR
1002
}
1001
GENIUS_GENOBJ-N-FIL_13
1002
{
1000
OWNER
1000
GEN
1002
}
  0
ARC
  5
4E04
330
1F
100
AcDbEntity
  8
AM_5
 62
     2
370
    35
100
AcDbCircle
 10
377.3310111739873
 20
546.1610518220019
 30
0.0
 40
48.4502085537012
100
AcDbArc
 50
135.0617711120834
 51
224.9382288879166
  0
ARC
  5
4E05
330
1F
100
AcDbEntity
  8
AM_5
 62
     2
370
    35
100
AcDbCircle
 10
339.4952810767942
 20
508.4068160007525
 30
0.0
 40
5.0
100
AcDbArc
 50
267.9999999999995
 51
44.93822888791658
1001
GENIUS_GENOBJ-N-FIL_13
1002
{
1000
OWNER
1000
GEN
1002
}
1001
GENIUS_GENODEF_13
1002
{
1000
HIER
1070
     0
1002
}
1002
{
1000
MANEDIT
1070
     0
1002
}
1002
{
1000
NOSEL
1070
     0
1002
}
1002
{
1000
BEHIND
1070
     0
1002
}
1002
{
1000
OTHER
1070
     0
1002
}
1002
{
1000
REACTOR
1002
}
  0
ARC
  5
4E06
330
1F
100
AcDbEntity
  8
AM_5
 62
     2
370
    35
100
AcDbCircle
 10
339.4952810767943
 20
583.9152876432515
 30
0.0
 40
5.0
100
AcDbArc
 50
315.0617711120834
 51
92.00000000000047
1001
GENIUS_GENODEF_13
1002
{
1000
HIER
1070
     0
1002
}
1002
{
1000
MANEDIT
1070
     0
1002
}
1002
{
1000
NOSEL
1070
     0
1002
}
1002
{
1000
BEHIND
1070
     0
1002
}
1002
{
1000
OTHER
1070
     0
1002
}
1002
{
1000
REACTOR
1002
}
1001
GENIUS_GENOBJ-N-FIL_13
1002
{
1000
OWNER
1000
GEN
1002
}
  0
LINE
  5
4E07
330
1F
100
AcDbEntity
  8
AM_0
100
AcDbLine
 10
374.5370711739874
 20
607.7396833220017
 30
0.0
 11
362.5370111739873
 21
607.7396833220015
 31
0.0
  0
LINE
  5
4E08
330
1F
100
AcDbEntity
  8
AM_0
100
AcDbLine
 10
374.5370711739874
 20
585.6357103220018
 30
0.0
 11
362.5370111739876
 21
585.6357103220017
 31
0.0
  0
LINE
  5
4E09
330
1F
100
AcDbEntity
  8
AM_0
100
AcDbLine
 10
374.5370711739874
 20
506.6863663220017
 30
0.0
 11
362.5370111739885
 21
506.6863663220016
 31
0.0
  0
LINE
  5
4E0A
330
1F
100
AcDbEntity
  8
AM_0
100
AcDbLine
 10
374.5370711739874
 20
484.5823903220017
 30
0.0
 11
362.5370111739889
 21
484.5823903220016
 31
0.0
  0
LINE
  5
4E1E
330
1F
100
AcDbEntity
  8
AM_7
100
AcDbLine
 10
265.5370111739872
 20
546.16105129773
 30
0.0
 11
541.037041173987
 21
546.1610673462733
 31
0.0
1001
GENIUS_GENOBJ-N-CEN_13
1002
{
1000
OWNER
1000
GEN
1002
}
1001
GENIUS_GENODEF_13
1002
{
1000
HIER
1070
     0
1002
}
1002
{
1000
MANEDIT
1070
     0
1002
}
1002
{
1000
NOSEL
1070
     0
1002
}
1002
{
1000
BEHIND
1070
     0
1002
}
1002
{
1000
OTHER
1070
     0
1002
}
1002
{
1000
REACTOR
1002
}
1001
GENIUS_GENCEN_19
1002
{
1040
9.0
1002
}
  0
CIRCLE
  5
4E3A
330
1F
100
AcDbEntity
  8
0
100
AcDbCircle
 10
300.5370111739873
 20
568.6610518220017
 30
0.0
 40
10.0
  0
LINE
  5
4E3B
330
1F
100
AcDbEntity
  8
ﾁｭｳｼﾝｾﾝ1
 48
0.7
100
AcDbLine
 10
300.5370111739873
 20
581.6610518220017
 30
0.0
 11
300.5370111739872
 21
555.6610518220018
 31
0.0
1001
GENIUS_GENODEF_13
1002
{
1000
HIER
1070
     0
1002
}
1002
{
1000
MANEDIT
1070
     0
1002
}
1002
{
1000
NOSEL
1070
     0
1002
}
1002
{
1000
BEHIND
1070
     0
1002
}
1002
{
1000
OTHER
1070
     0
1002
}
1002
{
1000
REACTOR
1002
}
1001
GENIUS_GENOBJ-N-CEN_13
1002
{
1000
OWNER
1000
GEN
1002
}
1001
GENIUS_GENCEN_19
1002
{
1040
3.0
1002
}
  0
LINE
  5
4E3C
330
1F
100
AcDbEntity
  8
AM_0
100
AcDbLine
 10
299.5370111739873
 20
573.6610518220017
 30
0.0
 11
299.5370111739873
 21
563.6610518220018
 31
0.0
1001
GENIUS_GENODEF_13
1002
{
1000
HIER
1070
     0
1002
}
1002
{
1000
MANEDIT
1070
     0
1002
}
1002
{
1000
NOSEL
1070
     0
1002
}
1002
{
1000
BEHIND
1070
     0
1002
}
1002
{
1000
OTHER
1070
     0
1002
}
1002
{
1000
REACTOR
1002
}
1001
GENIUS_GENOBJ-N-CEN_13
1002
{
1000
OWNER
1000
GEN
1002
}
1001
GENIUS_GENCEN_19
1002
{
1040
3.0
1002
}
  0
LINE
  5
4E3D
330
1F
100
AcDbEntity
  8
AM_0
100
AcDbLine
 10
301.5370111739873
 20
573.6610518220017
 30
0.0
 11
301.5370111739873
 21
563.6610518220018
 31
0.0
1001
GENIUS_GENODEF_13
1002
{
1000
HIER
1070
     0
1002
}
1002
{
1000
MANEDIT
1070
     0
1002
}
1002
{
1000
NOSEL
1070
     0
1002
}
1002
{
1000
BEHIND
1070
     0
1002
}
1002
{
1000
OTHER
1070
     0
1002
}
1002
{
1000
REACTOR
1002
}
1001
GENIUS_GENOBJ-N-CEN_13
1002
{
1000
OWNER
1000
GEN
1002
}
1001
GENIUS_GENCEN_19
1002
{
1040
3.0
1002
}
  0
CIRCLE
  5
4E3E
330
1F
100
AcDbEntity
  8
AM_0
100
AcDbCircle
 10
300.5370111739873
 20
568.6610518220017
 30
0.0
 40
8.500000000000056
  0
CIRCLE
  5
4E3F
330
1F
100
AcDbEntity
  8
AM_0
100
AcDbCircle
 10
300.5370111739873
 20
568.6610518220017
 30
0.0
 40
8.999999999999971
  0
ARC
  5
4E40
330
1F
100
AcDbEntity
  8
AM_0
100
AcDbCircle
 10
300.5370111739873
 20
573.6610518220017
 30
0.0
 40
1.0
100
AcDbArc
 50
0.0
 51
180.0
  0
ARC
  5
4E41
330
1F
100
AcDbEntity
  8
AM_0
100
AcDbCircle
 10
300.5370111739873
 20
563.6610518220018
 30
0.0
 40
1.0
100
AcDbArc
 50
180.0
 51
0.0
  0
LINE
  5
4E42
330
1F
100
AcDbEntity
  8
ﾁｭｳｼﾝｾﾝ1
 48
0.7
100
AcDbLine
 10
287.5370111739873
 20
568.6610518220017
 30
0.0
 11
313.5370111739872
 21
568.6610518220017
 31
0.0
1001
GENIUS_GENOBJ-N-CEN_13
1002
{
1000
OWNER
1000
GEN
1002
}
1001
GENIUS_GENODEF_13
1002
{
1000
HIER
1070
     0
1002
}
1002
{
1000
MANEDIT
1070
     0
1002
}
1002
{
1000
NOSEL
1070
     0
1002
}
1002
{
1000
BEHIND
1070
     0
1002
}
1002
{
1000
OTHER
1070
     0
1002
}
1002
{
1000
REACTOR
1002
}
1001
GENIUS_GENCEN_19
1002
{
1040
3.0
1002
}
  0
LINE
  5
4E95
330
1F
100
AcDbEntity
  8
0
100
AcDbLine
 10
274.5370111739873
 20
238.5482788595449
 30
0.0
 11
274.5370111739873
 21
358.5482788595448
 31
0.0
  0
LINE
  5
4E96
330
1F
100
AcDbEntity
  8
0
100
AcDbLine
 10
290.5370111739873
 20
241.5482788595449
 30
0.0
 11
290.5370111739872
 21
355.5482788595448
 31
0.0
  0
LINE
  5
4E97
330
1F
100
AcDbEntity
  8
0
100
AcDbLine
 10
287.5370111739873
 20
358.5482788595448
 30
0.0
 11
274.5370111739873
 21
358.5482788595448
 31
0.0
  0
LINE
  5
4E98
330
1F
100
AcDbEntity
  8
0
100
AcDbLine
 10
287.5370111739873
 20
238.5482788595449
 30
0.0
 11
274.5370111739873
 21
238.5482788595449
 31
0.0
  0
ARC
  5
4E99
330
1F
100
AcDbEntity
  8
AM_0
100
AcDbCircle
 10
287.5370111739874
 20
355.548278859545
 30
0.0
 40
3.0
100
AcDbArc
 50
359.9999999999968
 51
90.00000000000325
1001
GENIUS_GENOBJ-N-FIL_13
1002
{
1000
OWNER
1000
GEN
1002
}
1001
GENIUS_GENODEF_13
1002
{
1000
HIER
1070
     0
1002
}
1002
{
1000
MANEDIT
1070
     0
1002
}
1002
{
1000
NOSEL
1070
     0
1002
}
1002
{
1000
BEHIND
1070
     0
1002
}
1002
{
1000
OTHER
1070
     0
1002
}
1002
{
1000
REACTOR
1002
}
  0
ARC
  5
4E9A
330
1F
100
AcDbEntity
  8
AM_0
100
AcDbCircle
 10
287.5370111739874
 20
241.548278859545
 30
0.0
 40
3.0
100
AcDbArc
 50
270.0
 51
0.0
1001
GENIUS_GENODEF_13
1002
{
1000
HIER
1070
     0
1002
}
1002
{
1000
MANEDIT
1070
     0
1002
}
1002
{
1000
NOSEL
1070
     0
1002
}
1002
{
1000
BEHIND
1070
     0
1002
}
1002
{
1000
OTHER
1070
     0
1002
}
1002
{
1000
REACTOR
1002
}
1001
GENIUS_GENOBJ-N-FIL_13
1002
{
1000
OWNER
1000
GEN
1002
}
  0
ARC
  5
4EA6
330
1F
100
AcDbEntity
  8
0
100
AcDbCircle
 10
293.5370111739873
 20
342.2135706127849
 30
0.0
 40
3.0
100
AcDbArc
 50
180.0
 51
272.0000000000003
1001
GENIUS_GENOBJ-N-FIL_13
1002
{
1000
OWNER
1000
GEN
1002
}
1001
GENIUS_GENODEF_13
1002
{
1000
HIER
1070
     0
1002
}
1002
{
1000
MANEDIT
1070
     0
1002
}
1002
{
1000
NOSEL
1070
     0
1002
}
1002
{
1000
BEHIND
1070
     0
1002
}
1002
{
1000
OTHER
1070
     0
1002
}
1002
{
1000
REACTOR
1002
}
  0
ARC
  5
4EA8
330
1F
100
AcDbEntity
  8
0
100
AcDbCircle
 10
293.5370111739873
 20
254.8829241063051
 30
0.0
 40
3.0
100
AcDbArc
 50
87.99999999999977
 51
180.0
1001
GENIUS_GENODEF_13
1002
{
1000
HIER
1070
     0
1002
}
1002
{
1000
MANEDIT
1070
     0
1002
}
1002
{
1000
NOSEL
1070
     0
1002
}
1002
{
1000
BEHIND
1070
     0
1002
}
1002
{
1000
OTHER
1070
     0
1002
}
1002
{
1000
REACTOR
1002
}
1001
GENIUS_GENOBJ-N-FIL_13
1002
{
1000
OWNER
1000
GEN
1002
}
  0
LINE
  5
4EA9
330
1F
100
AcDbEntity
  8
0
100
AcDbLine
 10
274.5369967499442
 20
486.161051822001
 30
0.0
 11
274.5369967499442
 21
606.1610518220009
 31
0.0
  0
LINE
  5
4EAA
330
1F
100
AcDbEntity
  8
0
100
AcDbLine
 10
290.5369967499442
 20
489.161051822001
 30
0.0
 11
290.5369967499441
 21
603.1610518220008
 31
0.0
  0
LINE
  5
4EAB
330
1F
100
AcDbEntity
  8
0
100
AcDbLine
 10
287.5369967499441
 20
606.1610518220009
 30
0.0
 11
274.5369967499442
 21
606.1610518220009
 31
0.0
  0
LINE
  5
4EAC
330
1F
100
AcDbEntity
  8
0
100
AcDbLine
 10
287.5369967499442
 20
486.161051822001
 30
0.0
 11
274.5369967499442
 21
486.161051822001
 31
0.0
  0
ARC
  5
4EAD
330
1F
100
AcDbEntity
  8
AM_0
100
AcDbCircle
 10
287.5369967499442
 20
603.1610518220011
 30
0.0
 40
3.0
100
AcDbArc
 50
359.9999999999968
 51
90.00000000000325
1001
GENIUS_GENOBJ-N-FIL_13
1002
{
1000
OWNER
1000
GEN
1002
}
1001
GENIUS_GENODEF_13
1002
{
1000
HIER
1070
     0
1002
}
1002
{
1000
MANEDIT
1070
     0
1002
}
1002
{
1000
NOSEL
1070
     0
1002
}
1002
{
1000
BEHIND
1070
     0
1002
}
1002
{
1000
OTHER
1070
     0
1002
}
1002
{
1000
REACTOR
1002
}
  0
ARC
  5
4EAE
330
1F
100
AcDbEntity
  8
AM_0
100
AcDbCircle
 10
287.5369967499442
 20
489.1610518220011
 30
0.0
 40
3.0
100
AcDbArc
 50
270.0
 51
0.0
1001
GENIUS_GENODEF_13
1002
{
1000
HIER
1070
     0
1002
}
1002
{
1000
MANEDIT
1070
     0
1002
}
1002
{
1000
NOSEL
1070
     0
1002
}
1002
{
1000
BEHIND
1070
     0
1002
}
1002
{
1000
OTHER
1070
     0
1002
}
1002
{
1000
REACTOR
1002
}
1001
GENIUS_GENOBJ-N-FIL_13
1002
{
1000
OWNER
1000
GEN
1002
}
  0
ARC
  5
4EB1
330
1F
100
AcDbEntity
  8
0
100
AcDbCircle
 10
293.5369967499442
 20
589.826374571543
 30
0.0
 40
3.0
100
AcDbArc
 50
180.0
 51
272.0000000000003
1001
GENIUS_GENODEF_13
1002
{
1000
HIER
1070
     0
1002
}
1002
{
1000
MANEDIT
1070
     0
1002
}
1002
{
1000
NOSEL
1070
     0
1002
}
1002
{
1000
BEHIND
1070
     0
1002
}
1002
{
1000
OTHER
1070
     0
1002
}
1002
{
1000
REACTOR
1002
}
1001
GENIUS_GENOBJ-N-FIL_13
1002
{
1000
OWNER
1000
GEN
1002
}
  0
ARC
  5
4EB3
330
1F
100
AcDbEntity
  8
0
100
AcDbCircle
 10
293.5369967499442
 20
502.4957290724606
 30
0.0
 40
3.0
100
AcDbArc
 50
87.99999999999977
 51
180.0
1001
GENIUS_GENODEF_13
1002
{
1000
HIER
1070
     0
1002
}
1002
{
1000
MANEDIT
1070
     0
1002
}
1002
{
1000
NOSEL
1070
     0
1002
}
1002
{
1000
BEHIND
1070
     0
1002
}
1002
{
1000
OTHER
1070
     0
1002
}
1002
{
1000
REACTOR
1002
}
1001
GENIUS_GENOBJ-N-FIL_13
1002
{
1000
OWNER
1000
GEN
1002
}
  0
ENDSEC
  0
SECTION
  2
OBJECTS
  0
DICTIONARY
  5
C
330
0
100
AcDbDictionary
281
     1
  3
ACAD_COLOR
350
2196
  3
ACAD_GROUP
350
D
  3
ACAD_LAYOUT
350
1A
  3
ACAD_MATERIAL
350
2195
  3
ACAD_MLINESTYLE
350
17
  3
ACAD_PLOTSETTINGS
350
19
  3
ACAD_PLOTSTYLENAME
350
E
  3
ACAD_TABLESTYLE
350
2197
  3
AcadDim
350
14B1
  3
ACDBHEADERROUNDTRIPXREC
350
4ED5
  3
AcDbVariableDictionary
350
34
  3
AcmDictionary
350
47
  3
AMG
350
2B
  3
AMGSNAPSETTINGS
350
81
  3
ASE_INDEX_DICTIONARY
350
2D7B
  3
DWGPROPS
350
4ED4
  0
DICTIONARY
  5
2D9C
330
2
100
AcDbDictionary
280
     1
281
     1
  3
ACAD_LAYERSTATES
360
2D9D
  0
DICTIONARY
  5
CC
330
1F
100
AcDbDictionary
280
     1
281
     1
  3
ACAD_SORTENTS
360
2D4D
  0
DICTIONARY
  5
2196
102
{ACAD_REACTORS
330
C
102
}
330
C
100
AcDbDictionary
281
     1
  0
DICTIONARY
  5
D
102
{ACAD_REACTORS
330
C
102
}
330
C
100
AcDbDictionary
281
     1
  0
DICTIONARY
  5
1A
102
{ACAD_REACTORS
330
C
102
}
330
C
100
AcDbDictionary
281
     1
  3
Model
350
22
  3
ﾚｲｱｳﾄ1
350
1E
  3
ﾚｲｱｳﾄ2
350
26
  0
DICTIONARY
  5
2195
102
{ACAD_REACTORS
330
C
102
}
330
C
100
AcDbDictionary
281
     1
  0
DICTIONARY
  5
17
102
{ACAD_REACTORS
330
C
102
}
330
C
100
AcDbDictionary
281
     1
  3
Standard
350
18
  0
DICTIONARY
  5
19
102
{ACAD_REACTORS
330
C
102
}
330
C
100
AcDbDictionary
281
     1
  3
A1
350
7A0
  3
A2
350
7A1
  3
A3外形図
350
7A2
  3
A3部品図
350
7A3
  3
A4外形図
350
7A4
  3
A4製造仕様書
350
7A5
  3
A4部品図
350
7A6
  0
ACDBDICTIONARYWDFLT
  5
E
102
{ACAD_REACTORS
330
C
102
}
330
C
100
AcDbDictionary
281
     1
  3
Normal
350
F
100
AcDbDictionaryWithDefault
340
F
  0
DICTIONARY
  5
2197
102
{ACAD_REACTORS
330
C
102
}
330
C
100
AcDbDictionary
281
     1
  3
Standard
350
2198
  0
XRECORD
  5
14B1
102
{ACAD_REACTORS
330
C
102
}
330
C
100
AcDbXrecord
280
     1
 90
   990106
  3

 60
     0
 61
     0
 62
     4
 63
     4
 64
     1
 65
     0
 66
     0
 67
     3
 68
     1
 69
     0
 70
     0
 71
     0
 72
     0
 40
0.0
170
     0
  0
DICTIONARY
  5
4ED5
102
{ACAD_REACTORS
330
C
102
}
330
C
100
AcDbDictionary
281
     1
  0
DICTIONARY
  5
34
102
{ACAD_REACTORS
330
C
102
}
330
C
100
AcDbDictionary
281
     1
  3
CTABLESTYLE
350
22C6
  3
DIMASSOC
350
4EBA
  3
INDEXCTL
350
35
  3
PROJECTNAME
350
4EBB
  0
DICTIONARY
  5
47
102
{ACAD_REACTORS
330
C
102
}
330
C
100
AcDbDictionary
281
     1
  3
AcmStdDictionary
350
4C
  3
AMDTSECTSYM_ARROWCOLOR
350
21A4
  0
DICTIONARY
  5
2B
102
{ACAD_REACTORS
330
C
102
}
330
C
100
AcDbDictionary
281
     1
  0
DICTIONARY
  5
81
102
{ACAD_REACTORS
330
C
102
}
330
C
100
AcDbDictionary
281
     1
  0
DICTIONARY
  5
2D7B
102
{ACAD_REACTORS
330
C
102
}
330
C
100
AcDbDictionary
281
     1
  3
ASEBlockHierarchyIndexRecord
350
2D7C
1001
DCO15
1040
1618998178.717
  0
XRECORD
  5
4ED4
102
{ACAD_REACTORS
330
C
102
}
330
C
100
AcDbXrecord
280
     1
  1
DWGPROPS COOKIE
  2

  3

  4

  6

  7

  8

  9

300
AmdtFileType=84
301
=
302
=
303
=
304
=
305
=
306
=
307
=
308
=
309
=
 40
0.4816011805555556
 41
2452065.605619213
 42
2454770.872323264
  1

 90
        1
  0
DICTIONARY
  5
2D9D
102
{ACAD_REACTORS
330
2D9C
102
}
330
2D9C
100
AcDbDictionary
281
     1
  0
SORTENTSTABLE
  5
2D4D
102
{ACAD_REACTORS
330
CC
102
}
330
CC
100
AcDbSortentsTable
330
1F
331
4D98
  5
4D9A
331
4DBA
  5
4DBC
331
4DFE
  5
4E01
331
4DDC
  5
4DE8
331
3F33
  5
3F33
331
3F11
  5
3F11
331
4E3D
  5
4E41
331
4D6D
  5
4D70
331
4DA9
  5
4DAB
331
4D8F
  5
4D91
331
4DCB
  5
4DCD
331
447A
  5
4C2D
331
3FE4
  5
3FE4
331
3F22
  5
3F22
331
3E06
  5
3E06
331
3DE4
  5
3DE4
331
4CBC
  5
4CBE
331
4D7E
  5
4D80
331
3DF5
  5
3DF5
331
3DD3
  5
3DD3
331
4DB8
  5
4DBA
331
4DFC
  5
4DFF
331
4467
  5
4467
331
3F31
  5
3F31
331
4E3B
  5
4E3F
331
4D6B
  5
4D6D
331
4DA7
  5
4DA9
331
4DC9
  5
4DCB
331
4478
  5
447A
331
445E
  5
445E
331
3F20
  5
3F20
331
3E04
  5
3E04
331
3DE2
  5
3DE2
331
3DF3
  5
3DF3
331
3DD1
  5
3DD1
331
4DFA
  5
4DFC
331
4C2F
  5
4CB7
331
4465
  5
4465
331
4D69
  5
4D6B
331
4DA5
  5
4DA7
331
4D8B
  5
4D8E
331
4DC7
  5
4DC9
331
4476
  5
4478
331
445C
  5
445C
331
3F1E
  5
3F1E
331
3E02
  5
3E02
331
3DE0
  5
3DE0
331
4CB8
  5
4CBB
331
4EAE
  5
4EB3
331
4DB6
  5
4DB8
331
4D7A
  5
4D7E
331
3F2F
  5
3F2F
331
3DF1
  5
3DF1
331
3DCF
  5
3DCF
331
4DF8
  5
4DFA
331
4C2D
  5
4C2F
331
4463
  5
4463
331
4D67
  5
4D69
331
4DA3
  5
4DA5
331
4D89
  5
4D8B
331
4E09
  5
4E3B
331
4DC5
  5
4DC7
331
4474
  5
4475
331
3F1C
  5
3F1C
331
3E00
  5
3E00
331
4D78
  5
4D7B
331
4EAC
  5
4EAE
331
4DB4
  5
4DB6
331
4DD6
  5
4DE2
331
3F2D
  5
3F2D
331
3E11
  5
3E11
331
3DEF
  5
3DEF
331
3DDE
  5
3DDE
331
4461
  5
4461
331
4D65
  5
4D67
331
4D87
  5
4D89
331
4E99
  5
4EA9
331
4DA1
  5
4DA3
331
4DC3
  5
4DC5
331
4E07
  5
4E1E
331
4472
  5
4473
331
3F44
  5
3F44
331
3F1A
  5
3F1A
331
3E28
  5
3E28
331
3DFE
  5
3DFE
331
4D76
  5
4D78
331
4EAA
  5
4EAC
331
4DB2
  5
4DB4
331
4DD4
  5
4DD6
331
3F2B
  5
3F2B
331
3E0F
  5
3E0F
331
3DED
  5
3DED
331
3DDC
  5
3DDC
331
4D85
  5
4D87
331
4E97
  5
4EA6
331
4D9F
  5
4DA1
331
4E05
  5
4E09
331
4DC1
  5
4DC3
331
4470
  5
4471
331
3F18
  5
3F18
331
3E26
  5
3E26
331
3DFC
  5
3DFC
331
4D74
  5
4D76
331
4D96
  5
4D98
331
4DB0
  5
4DB2
331
4EA8
  5
4476
331
4DF4
  5
4DF6
331
4DD2
  5
4DD4
331
3F29
  5
3F29
331
3F0F
  5
3F0F
331
3E0D
  5
3E0D
331
3DEB
  5
3DEB
331
3DDA
  5
3DDA
331
4E95
  5
4E99
331
4D83
  5
4D85
331
4D9D
  5
4D9F
331
4E03
  5
4E07
331
4DBF
  5
4DC1
331
446E
  5
446F
331
3F16
  5
3F16
331
3DFA
  5
3DFA
331
4E42
  5
4E98
331
4D94
  5
4D96
331
4DAE
  5
4DB0
331
4EA6
  5
446E
331
4DF2
  5
4DF4
331
4DD0
  5
4DD2
331
3F27
  5
3F27
331
3F0D
  5
3F0D
331
3E0B
  5
3E0B
331
3DE9
  5
3DE9
331
3DD8
  5
3DD8
331
4D9B
  5
4D9D
331
4D81
  5
4D83
331
4E01
  5
4E05
331
4DBD
  5
4DBF
331
446C
  5
446C
331
3F14
  5
3F14
331
3DF8
  5
3DF8
331
4E40
  5
4E96
331
4D70
  5
4D73
331
4DAC
  5
4DAE
331
4D92
  5
4D94
331
4DF0
  5
4DF2
331
4DCE
  5
4DD0
331
3F25
  5
3F25
331
3E09
  5
3E09
331
3DE7
  5
3DE7
331
3DD6
  5
3DD6
331
4D99
  5
4D9B
331
4EB3
  5
4E04
331
4DBB
  5
4DBD
331
4DFF
  5
4E02
331
446A
  5
446A
331
3F34
  5
3F34
331
3F12
  5
3F12
331
4E3E
  5
4E42
331
4D6E
  5
4D71
331
4DAA
  5
4DAC
331
4D90
  5
4D92
331
4DCC
  5
4DCE
331
3F23
  5
3F23
331
3E07
  5
3E07
331
3DE5
  5
3DE5
331
4CBD
  5
4D65
331
4D7F
  5
4D81
331
3DF6
  5
3DF6
331
3DD4
  5
3DD4
331
4EB1
  5
4DFD
331
4DB9
  5
4DBB
331
4DFD
  5
4E00
331
4468
  5
4468
331
3F32
  5
3F32
331
3F10
  5
3F10
331
4E3C
  5
4E40
331
4D6C
  5
4D6E
331
4DA8
  5
4DAA
331
4D8E
  5
4D90
331
4DCA
  5
4DCC
331
4479
  5
4C2C
331
445F
  5
445F
331
3F21
  5
3F21
331
3E05
  5
3E05
331
3DE3
  5
3DE3
331
3DF4
  5
3DF4
331
3DD2
  5
3DD2
331
4DFB
  5
4DFE
331
4466
  5
4466
331
3F30
  5
3F30
331
4E3A
  5
4E3E
331
4D6A
  5
4D6C
331
4DA6
  5
4DA8
331
4D8C
  5
4D8F
331
4DC8
  5
4DCA
331
4477
  5
4479
331
445D
  5
445D
331
3F1F
  5
3F1F
331
3E03
  5
3E03
331
3DE1
  5
3DE1
331
4D7B
  5
4D7F
331
4DB7
  5
4DB9
331
3E14
  5
3E14
331
3DF2
  5
3DF2
331
3DD0
  5
3DD0
331
4DF9
  5
4DFB
331
4C2E
  5
4C9D
331
4464
  5
4464
331
4D68
  5
4D6A
331
4DA4
  5
4DA6
331
4D8A
  5
4D8C
331
4E0A
  5
4E3C
331
4DE8
  5
4DF1
331
4DC6
  5
4DC8
331
4475
  5
4477
331
3F1D
  5
3F1D
331
3E01
  5
3E01
331
3DDF
  5
3DDF
331
4CB7
  5
4CBA
331
4EAD
  5
4EB1
331
4DB5
  5
4DB7
331
3F2E
  5
3F2E
331
3DF0
  5
3DF0
331
3DCE
  5
3DCE
331
4C2C
  5
4C2E
331
4462
  5
4462
331
4E1E
  5
4E3D
331
4D66
  5
4D68
331
4D88
  5
4D8A
331
4E9A
  5
4EAA
331
4DA2
  5
4DA4
331
4E08
  5
4E3A
331
4DC4
  5
4DC6
331
4473
  5
4474
331
3F1B
  5
3F1B
331
3E29
  5
3E29
331
3DFF
  5
3DFF
331
4D77
  5
4D7A
331
4EAB
  5
4EAD
331
4DB3
  5
4DB5
331
4DF7
  5
4DF9
331
4DD5
  5
4DDC
331
3F2C
  5
3F2C
331
3E10
  5
3E10
331
3DEE
  5
3DEE
331
3DDD
  5
3DDD
331
4460
  5
4460
331
4D86
  5
4D88
331
4E98
  5
4EA8
331
4DA0
  5
4DA2
331
4DC2
  5
4DC4
331
4E06
  5
4E0A
331
4471
  5
4472
331
3F43
  5
3F43
331
3F19
  5
3F19
331
3E27
  5
3E27
331
3DFD
  5
3DFD
331
4D75
  5
4D77
331
4EA9
  5
4EAB
331
4DB1
  5
4DB3
331
4D97
  5
4D99
331
4DF5
  5
4DF7
331
4DD3
  5
4DD5
331
3F2A
  5
3F2A
331
3E0E
  5
3E0E
331
3DEC
  5
3DEC
331
3DDB
  5
3DDB
331
4D84
  5
4D86
331
4E96
  5
4E9A
331
4D9E
  5
4DA0
331
4E04
  5
4E08
331
4DE2
  5
4DF0
331
4DC0
  5
4DC2
331
446F
  5
4470
331
3F17
  5
3F17
331
3E25
  5
3E25
331
3DFB
  5
3DFB
331
4D73
  5
4D75
331
4D95
  5
4D97
331
4DAF
  5
4DB1
331
4DF3
  5
4DF5
331
4DD1
  5
4DD3
331
3F28
  5
3F28
331
3F0E
  5
3F0E
331
3E0C
  5
3E0C
331
3DEA
  5
3DEA
331
3DD9
  5
3DD9
331
4D9C
  5
4D9E
331
4D82
  5
4D84
331
4E02
  5
4E06
331
4DBE
  5
4DC0
331
446D
  5
446D
331
3F15
  5
3F15
331
3DF9
  5
3DF9
331
4E41
  5
4E97
331
4D71
  5
4D74
331
4DAD
  5
4DAF
331
4D93
  5
4D95
331
4DF1
  5
4DF3
331
4DCF
  5
4DD1
331
400A
  5
400A
331
3F26
  5
3F26
331
3E0A
  5
3E0A
331
3DE8
  5
3DE8
331
3DD7
  5
3DD7
331
4D9A
  5
4D9C
331
4D80
  5
4D82
331
4DBC
  5
4DBE
331
4E00
  5
4E03
331
4C9D
  5
4CB8
331
446B
  5
446B
331
3FF7
  5
3FF7
331
3F13
  5
3F13
331
4E3F
  5
4E95
331
4DAB
  5
4DAD
331
4D91
  5
4D93
331
4DCD
  5
4DCF
331
3F24
  5
3F24
331
3E08
  5
3E08
331
3DE6
  5
3DE6
331
4CBE
  5
4D66
331
3DF7
  5
3DF7
331
3DD5
  5
3DD5
  0
LAYOUT
  5
22
102
{ACAD_XDICTIONARY
360
4ED8
102
}
102
{ACAD_REACTORS
330
1A
102
}
330
1A
100
AcDbPlotSettings
  1

  2
\\XSERIES235\Canon LASER SHOT LBP-910
  4
A4
  6
AM_VIEW1
 40
5.873749732971191
 41
5.873747825622558
 42
5.873748779296875
 43
5.873748779296875
 44
209.9733276367187
 45
296.9259948730469
 46
0.0
 47
0.34
 48
0.0
 49
0.0
140
0.0
141
0.0
142
1.0
143
3.0
 70
 11936
 72
     1
 73
     1
 74
     2
  7
acad1.ctb
 75
     0
147
0.3341282932256912
148
0.0
149
0.0
100
AcDbLayout
  1
Model
 70
     1
 71
     0
 10
0.0
 20
0.0
 11
12.0
 21
9.0
 12
0.0
 22
0.0
 32
0.0
 14
0.0
 24
0.0
 34
0.0
 15
0.0
 25
0.0
 35
0.0
146
0.0
 13
0.0
 23
0.0
 33
0.0
 16
1.0
 26
0.0
 36
0.0
 17
0.0
 27
1.0
 37
0.0
 76
     0
330
1F
1001
ACAD_PSEXT
1000
\\XSERIES235\Canon LASER SHOT LBP-910
1000
Canon LASER SHOT LBP-910
1000
\\XSERIES235
1000

1070
     0
  0
LAYOUT
  5
1E
102
{ACAD_XDICTIONARY
360
4ED6
102
}
102
{ACAD_REACTORS
330
1A
102
}
330
1A
100
AcDbPlotSettings
  1

  2
\\FHKSV01\RICOH imagio MF2700(FAX)
  4

  6

 40
0.0
 41
0.0
 42
0.0
 43
0.0
 44
0.0
 45
0.0
 46
0.0
 47
0.0
 48
0.0
 49
0.0
140
0.0
141
0.0
142
1.0
143
1.0
 70
   688
 72
     0
 73
     0
 74
     5
  7
acad1.ctb
 75
    16
147
1.0
148
0.0
149
0.0
100
AcDbLayout
  1
ﾚｲｱｳﾄ1
 70
     1
 71
     1
 10
0.0
 20
0.0
 11
420.0
 21
297.0
 12
0.0
 22
0.0
 32
0.0
 14
1.000000000000000E+20
 24
1.000000000000000E+20
 34
1.000000000000000E+20
 15
-1.000000000000000E+20
 25
-1.000000000000000E+20
 35
-1.000000000000000E+20
146
0.0
 13
0.0
 23
0.0
 33
0.0
 16
1.0
 26
0.0
 36
0.0
 17
0.0
 27
1.0
 37
0.0
 76
     0
330
1B
  0
LAYOUT
  5
26
102
{ACAD_XDICTIONARY
360
4EDA
102
}
102
{ACAD_REACTORS
330
1A
102
}
330
1A
100
AcDbPlotSettings
  1

  2
\\FHKSV01\RICOH imagio MF2700(FAX)
  4

  6

 40
0.0
 41
0.0
 42
0.0
 43
0.0
 44
0.0
 45
0.0
 46
0.0
 47
0.0
 48
0.0
 49
0.0
140
0.0
141
0.0
142
1.0
143
1.0
 70
   688
 72
     0
 73
     0
 74
     5
  7
acad1.ctb
 75
    16
147
1.0
148
0.0
149
0.0
100
AcDbLayout
  1
ﾚｲｱｳﾄ2
 70
     1
 71
     2
 10
0.0
 20
0.0
 11
12.0
 21
9.0
 12
0.0
 22
0.0
 32
0.0
 14
0.0
 24
0.0
 34
0.0
 15
0.0
 25
0.0
 35
0.0
146
0.0
 13
0.0
 23
0.0
 33
0.0
 16
1.0
 26
0.0
 36
0.0
 17
0.0
 27
1.0
 37
0.0
 76
     0
330
23
  0
MLINESTYLE
  5
18
102
{ACAD_REACTORS
330
17
102
}
330
17
100
AcDbMlineStyle
  2
STANDARD
 70
     0
  3

 62
   256
 51
90.0
 52
90.0
 71
     2
 49
0.5
 62
   256
  6
BYLAYER
 49
-0.5
 62
   256
  6
BYLAYER
  0
PLOTSETTINGS
  5
7A0
102
{ACAD_XDICTIONARY
360
4EDC
102
}
102
{ACAD_REACTORS
330
19
102
}
330
19
100
AcDbPlotSettings
  1
A1
  2
\\NETFINITY_5500\HP DesignJet 750C+ (D/A1) by HP)
  4
User267
  6

 40
17.76941680908203
 41
5.789102554321289
 42
17.7694091796875
 43
5.7890625
 44
840.9093017578125
 45
593.97900390625
 46
2.0
 47
13.0
 48
0.0
 49
0.0
140
0.0
141
0.0
142
1.0
143
1.0
 70
  1712
 72
     1
 73
     0
 74
     1
  7
acad.ctb
 75
    16
147
1.0
148
0.0100416569983963
149
0.0078848243487073
  0
PLOTSETTINGS
  5
7A1
102
{ACAD_XDICTIONARY
360
4EDE
102
}
102
{ACAD_REACTORS
330
19
102
}
330
19
100
AcDbPlotSettings
  1
A2
  2
\\NETFINITY_5500\HP DesignJet 750C+ (D/A1) by HP)
  4
User266
  6

 40
5.78908348083496
 41
17.76940155029297
 42
5.78912353515625
 43
17.7694091796875
 44
593.97900390625
 45
419.9466552734374
 46
12.0
 47
0.0
 48
0.0
 49
0.0
140
0.0
141
0.0
142
1.0
143
1.0
 70
  1712
 72
     1
 73
     0
 74
     1
  7
acad.ctb
 75
    16
147
1.0
148
0.0100416569983963
149
0.0078848243487073
  0
PLOTSETTINGS
  5
7A2
102
{ACAD_XDICTIONARY
360
4EE0
102
}
102
{ACAD_REACTORS
330
19
102
}
330
19
100
AcDbPlotSettings
  1
A3外形図
  2
\\NETFINITY_5500\Canon LASER SHOT LBP-910
  4
A3
  6

 40
5.873749732971191
 41
5.873747825622558
 42
5.873748779296875
 43
5.873748779296875
 44
296.9259948730469
 45
419.9466552734374
 46
0.0
 47
15.0
 48
0.0
 49
0.0
140
0.0
141
0.0
142
1.0
143
1.0
 70
  1712
 72
     1
 73
     1
 74
     1
  7
acad1.ctb
 75
    16
147
1.0
148
0.0024839861629289
149
0.0093761313144114
  0
PLOTSETTINGS
  5
7A3
102
{ACAD_XDICTIONARY
360
4EE2
102
}
102
{ACAD_REACTORS
330
19
102
}
330
19
100
AcDbPlotSettings
  1
A3部品図
  2
\\NETFINITY_5500\Canon LASER SHOT LBP-910
  4
A3
  6

 40
5.873749732971191
 41
5.873747825622558
 42
5.873748779296875
 43
5.873748779296875
 44
296.9259948730469
 45
419.9466552734374
 46
0.0
 47
0.0
 48
0.0
 49
0.0
140
0.0
141
0.0
142
1.0
143
1.0
 70
  1712
 72
     1
 73
     1
 74
     1
  7
acad1.ctb
 75
    16
147
1.0
148
0.0024839861629289
149
0.0093761313144114
  0
PLOTSETTINGS
  5
7A4
102
{ACAD_XDICTIONARY
360
4EE4
102
}
102
{ACAD_REACTORS
330
19
102
}
330
19
100
AcDbPlotSettings
  1
A4外形図
  2
\\NETFINITY_5500\Canon LASER SHOT LBP-910
  4
A4
  6

 40
5.873749732971191
 41
5.873747825622558
 42
5.873748779296875
 43
5.873748779296875
 44
209.9733276367187
 45
296.9259948730469
 46
0.0
 47
0.0
 48
0.0
 49
0.0
140
0.0
141
0.0
142
1.0
143
1.0
 70
  1712
 72
     1
 73
     1
 74
     1
  7
acad1.ctb
 75
    16
147
1.0
148
0.0115486965655691
149
0.0124955963574962
  0
PLOTSETTINGS
  5
7A5
102
{ACAD_XDICTIONARY
360
4EE6
102
}
102
{ACAD_REACTORS
330
19
102
}
330
19
100
AcDbPlotSettings
  1
A4製造仕様書
  2
\\NETFINITY_5500\Canon LASER SHOT LBP-910
  4
A4
  6

 40
5.873749732971191
 41
5.873747825622558
 42
5.873748779296875
 43
5.873748779296875
 44
209.9733276367187
 45
296.9259948730469
 46
15.0
 47
0.0
 48
0.0
 49
0.0
140
0.0
141
0.0
142
1.0
143
1.0
 70
  1712
 72
     1
 73
     0
 74
     1
  7
acad1.ctb
 75
    16
147
1.0
148
0.0115486965655691
149
7.86079562315183
  0
PLOTSETTINGS
  5
7A6
102
{ACAD_XDICTIONARY
360
4EE8
102
}
102
{ACAD_REACTORS
330
19
102
}
330
19
100
AcDbPlotSettings
  1
A4部品図
  2
\\NETFINITY_5500\Canon LASER SHOT LBP-910
  4
A4
  6

 40
5.873749732971191
 41
5.873747825622558
 42
5.873748779296875
 43
5.873748779296875
 44
209.9733276367187
 45
296.9259948730469
 46
0.0
 47
0.0
 48
0.0
 49
0.0
140
0.0
141
0.0
142
1.0
143
1.0
 70
  1712
 72
     1
 73
     0
 74
     1
  7
acad1.ctb
 75
    16
147
1.0
148
0.0115486965655691
149
0.0124955963574962
  0
ACDBPLACEHOLDER
  5
F
102
{ACAD_REACTORS
330
E
102
}
330
E
  0
TABLESTYLE
  5
2198
102
{ACAD_REACTORS
330
2197
102
}
330
2197
100
AcDbTableStyle
  3
Standard
 70
     0
 71
     0
 40
1.5
 41
1.5
280
     0
281
     0
  7
STANDARD
140
4.5
170
     2
 62
     0
 63
     7
283
     0
274
    -2
284
     1
 64
     0
275
    -2
285
     1
 65
     0
276
    -2
286
     1
 66
     0
277
    -2
287
     1
 67
     0
278
    -2
288
     1
 68
     0
279
    -2
289
     1
 69
     0
  7
STANDARD
140
6.0
170
     5
 62
     0
 63
     7
283
     0
274
    -2
284
     1
 64
     0
275
    -2
285
     1
 65
     0
276
    -2
286
     1
 66
     0
277
    -2
287
     1
 67
     0
278
    -2
288
     1
 68
     0
279
    -2
289
     1
 69
     0
  7
STANDARD
140
4.5
170
     5
 62
     0
 63
     7
283
     0
274
    -2
284
     1
 64
     0
275
    -2
285
     1
 65
     0
276
    -2
286
     1
 66
     0
277
    -2
287
     1
 67
     0
278
    -2
288
     1
 68
     0
279
    -2
289
     1
 69
     0
  0
DICTIONARYVAR
  5
22C6
102
{ACAD_REACTORS
330
34
102
}
330
34
100
DictionaryVariables
280
     0
  1
STANDARD
  0
DICTIONARYVAR
  5
4EBA
102
{ACAD_REACTORS
330
34
102
}
330
34
100
DictionaryVariables
280
     0
  1
1
  0
DICTIONARYVAR
  5
35
102
{ACAD_REACTORS
330
34
102
}
330
34
100
DictionaryVariables
280
     0
  1
0
  0
DICTIONARYVAR
  5
4EBB
102
{ACAD_REACTORS
330
34
102
}
330
34
100
DictionaryVariables
280
     0
  1

  0
DICTIONARY
  5
4C
102
{ACAD_REACTORS
330
47
102
}
330
47
100
AcDbDictionary
281
     1
  0
XRECORD
  5
21A4
102
{ACAD_REACTORS
330
47
102
}
330
47
100
AcDbXrecord
280
     1
 90
-1023410169
  0
XRECORD
  5
2D7C
102
{ACAD_REACTORS
330
2D7B
102
}
330
2D7B
100
AcDbXrecord
280
     1
330
0
330
0
330
0
330
0
330
0
330
0
330
0
330
0
330
0
330
0
330
0
330
0
330
0
330
0
330
0
330
0
330
0
330
0
330
0
330
0
330
0
330
0
330
0
330
0
330
0
330
0
330
0
330
0
330
0
330
0
330
0
330
0
330
0
330
0
330
0
330
0
330
0
330
0
330
0
330
0
330
0
330
0
330
0
330
0
330
0
330
0
330
0
330
0
330
0
330
0
330
0
330
0
330
0
330
0
330
0
330
0
330
0
330
0
330
0
330
0
  0
DICTIONARY
  5
4ED8
330
22
100
AcDbDictionary
280
     1
281
     1
  3
ACAD_XREC_ROUNDTRIP
360
4ED9
  0
DICTIONARY
  5
4ED6
330
1E
100
AcDbDictionary
280
     1
281
     1
  3
ACAD_XREC_ROUNDTRIP
360
4ED7
  0
DICTIONARY
  5
4EDA
330
26
100
AcDbDictionary
280
     1
281
     1
  3
ACAD_XREC_ROUNDTRIP
360
4EDB
  0
DICTIONARY
  5
4EDC
330
7A0
100
AcDbDictionary
280
     1
281
     1
  3
ACAD_XREC_ROUNDTRIP
360
4EDD
  0
DICTIONARY
  5
4EDE
330
7A1
100
AcDbDictionary
280
     1
281
     1
  3
ACAD_XREC_ROUNDTRIP
360
4EDF
  0
DICTIONARY
  5
4EE0
330
7A2
100
AcDbDictionary
280
     1
281
     1
  3
ACAD_XREC_ROUNDTRIP
360
4EE1
  0
DICTIONARY
  5
4EE2
330
7A3
100
AcDbDictionary
280
     1
281
     1
  3
ACAD_XREC_ROUNDTRIP
360
4EE3
  0
DICTIONARY
  5
4EE4
330
7A4
100
AcDbDictionary
280
     1
281
     1
  3
ACAD_XREC_ROUNDTRIP
360
4EE5
  0
DICTIONARY
  5
4EE6
330
7A5
100
AcDbDictionary
280
     1
281
     1
  3
ACAD_XREC_ROUNDTRIP
360
4EE7
  0
DICTIONARY
  5
4EE8
330
7A6
100
AcDbDictionary
280
     1
281
     1
  3
ACAD_XREC_ROUNDTRIP
360
4EE9
  0
XRECORD
  5
4ED9
102
{ACAD_REACTORS
330
4ED8
102
}
330
4ED8
100
AcDbXrecord
280
     1
102
SHADEPLOT
 70
     0
102
SHADEPLOTRESLEVEL
 70
     2
102
SHADEPLOTCUSTOMDPI
 70
   300
  0
XRECORD
  5
4ED7
102
{ACAD_REACTORS
330
4ED6
102
}
330
4ED6
100
AcDbXrecord
280
     1
102
SHADEPLOT
 70
     0
102
SHADEPLOTRESLEVEL
 70
     2
102
SHADEPLOTCUSTOMDPI
 70
   300
  0
XRECORD
  5
4EDB
102
{ACAD_REACTORS
330
4EDA
102
}
330
4EDA
100
AcDbXrecord
280
     1
102
SHADEPLOT
 70
     0
102
SHADEPLOTRESLEVEL
 70
     2
102
SHADEPLOTCUSTOMDPI
 70
   300
  0
XRECORD
  5
4EDD
102
{ACAD_REACTORS
330
4EDC
102
}
330
4EDC
100
AcDbXrecord
280
     1
102
SHADEPLOT
 70
     0
102
SHADEPLOTRESLEVEL
 70
     2
102
SHADEPLOTCUSTOMDPI
 70
   300
  0
XRECORD
  5
4EDF
102
{ACAD_REACTORS
330
4EDE
102
}
330
4EDE
100
AcDbXrecord
280
     1
102
SHADEPLOT
 70
     0
102
SHADEPLOTRESLEVEL
 70
     2
102
SHADEPLOTCUSTOMDPI
 70
   300
  0
XRECORD
  5
4EE1
102
{ACAD_REACTORS
330
4EE0
102
}
330
4EE0
100
AcDbXrecord
280
     1
102
SHADEPLOT
 70
     0
102
SHADEPLOTRESLEVEL
 70
     2
102
SHADEPLOTCUSTOMDPI
 70
   300
  0
XRECORD
  5
4EE3
102
{ACAD_REACTORS
330
4EE2
102
}
330
4EE2
100
AcDbXrecord
280
     1
102
SHADEPLOT
 70
     0
102
SHADEPLOTRESLEVEL
 70
     2
102
SHADEPLOTCUSTOMDPI
 70
   300
  0
XRECORD
  5
4EE5
102
{ACAD_REACTORS
330
4EE4
102
}
330
4EE4
100
AcDbXrecord
280
     1
102
SHADEPLOT
 70
     0
102
SHADEPLOTRESLEVEL
 70
     2
102
SHADEPLOTCUSTOMDPI
 70
   300
  0
XRECORD
  5
4EE7
102
{ACAD_REACTORS
330
4EE6
102
}
330
4EE6
100
AcDbXrecord
280
     1
102
SHADEPLOT
 70
     0
102
SHADEPLOTRESLEVEL
 70
     2
102
SHADEPLOTCUSTOMDPI
 70
   300
  0
XRECORD
  5
4EE9
102
{ACAD_REACTORS
330
4EE8
102
}
330
4EE8
100
AcDbXrecord
280
     1
102
SHADEPLOT
 70
     0
102
SHADEPLOTRESLEVEL
 70
     2
102
SHADEPLOTCUSTOMDPI
 70
   300
  0
ENDSEC
  0
EOF
