  0
SECTION
  2
HEADER
  9
$ACADVER
  1
AC1015
  9
$ACADMAINTVER
 70
    20
  9
$DWGCODEPAGE
  3
ANSI_932
  9
$INSBASE
 10
0.0
 20
0.0
 30
0.0
  9
$EXTMIN
 10
343.9097494024732
 20
248.3057869668788
 30
0.0
  9
$EXTMAX
 10
997.7332502876762
 20
800.6915094871649
 30
0.0
  9
$LIMMIN
 10
0.0
 20
0.0
  9
$LIMMAX
 10
1138.0
 20
740.0000000000001
  9
$ORTHOMODE
 70
     0
  9
$REGENMODE
 70
     1
  9
$FILLMODE
 70
     1
  9
$QTEXTMODE
 70
     0
  9
$MIRRTEXT
 70
     0
  9
$LTSCALE
 40
4.0
  9
$ATTMODE
 70
     1
  9
$TEXTSIZE
 40
2.5
  9
$TRACEWID
 40
1.0
  9
$TEXTSTYLE
  7
STANDARD
  9
$CLAYER
  8
0
  9
$CELTYPE
  6
ByLayer
  9
$CECOLOR
 62
   256
  9
$CELTSCALE
 40
1.0
  9
$DISPSILH
 70
     0
  9
$DIMSCALE
 40
1.0
  9
$DIMASZ
 40
2.0
  9
$DIMEXO
 40
1.0
  9
$DIMDLI
 40
8.0
  9
$DIMRND
 40
0.0
  9
$DIMDLE
 40
0.0
  9
$DIMEXE
 40
1.0
  9
$DIMTP
 40
0.1
  9
$DIMTM
 40
0.1
  9
$DIMTXT
 40
2.5
  9
$DIMCEN
 40
0.0
  9
$DIMTSZ
 40
0.0
  9
$DIMTOL
 70
     0
  9
$DIMLIM
 70
     0
  9
$DIMTIH
 70
     0
  9
$DIMTOH
 70
     0
  9
$DIMSE1
 70
     0
  9
$DIMSE2
 70
     0
  9
$DIMTAD
 70
     3
  9
$DIMZIN
 70
     8
  9
$DIMBLK
  1

  9
$DIMASO
 70
     1
  9
$DIMSHO
 70
     1
  9
$DIMPOST
  1

  9
$DIMAPOST
  1
"
  9
$DIMALT
 70
     0
  9
$DIMALTD
 70
     2
  9
$DIMALTF
 40
0.0393701
  9
$DIMLFAC
 40
1.0
  9
$DIMTOFL
 70
     1
  9
$DIMTVP
 40
0.0
  9
$DIMTIX
 70
     0
  9
$DIMSOXD
 70
     0
  9
$DIMSAH
 70
     0
  9
$DIMBLK1
  1

  9
$DIMBLK2
  1

  9
$DIMSTYLE
  2
AM_JIS
  9
$DIMCLRD
 70
     2
  9
$DIMCLRE
 70
     2
  9
$DIMCLRT
 70
     4
  9
$DIMTFAC
 40
0.71
  9
$DIMGAP
 40
1.5
  9
$DIMJUST
 70
     0
  9
$DIMSD1
 70
     0
  9
$DIMSD2
 70
     0
  9
$DIMTOLJ
 70
     0
  9
$DIMTZIN
 70
     8
  9
$DIMALTZ
 70
     0
  9
$DIMALTTZ
 70
     0
  9
$DIMUPT
 70
     0
  9
$DIMDEC
 70
     2
  9
$DIMTDEC
 70
     2
  9
$DIMALTU
 70
     2
  9
$DIMALTTD
 70
     2
  9
$DIMTXSTY
  7
STANDARD
  9
$DIMAUNIT
 70
     0
  9
$DIMADEC
 70
     0
  9
$DIMALTRND
 40
0.0
  9
$DIMAZIN
 70
     2
  9
$DIMDSEP
 70
    46
  9
$DIMATFIT
 70
     3
  9
$DIMFRAC
 70
     0
  9
$DIMLDRBLK
  1

  9
$DIMLUNIT
 70
     2
  9
$DIMLWD
 70
    35
  9
$DIMLWE
 70
    35
  9
$DIMTMOVE
 70
     0
  9
$LUNITS
 70
     2
  9
$LUPREC
 70
     2
  9
$SKETCHINC
 40
1.0
  9
$FILLETRAD
 40
10.0
  9
$AUNITS
 70
     0
  9
$AUPREC
 70
     0
  9
$MENU
  1
.
  9
$ELEVATION
 40
0.0
  9
$PELEVATION
 40
0.0
  9
$THICKNESS
 40
0.0
  9
$LIMCHECK
 70
     0
  9
$CHAMFERA
 40
10.0
  9
$CHAMFERB
 40
10.0
  9
$CHAMFERC
 40
0.0
  9
$CHAMFERD
 40
0.0
  9
$SKPOLY
 70
     0
  9
$TDCREATE
 40
2454573.602460845
  9
$TDUCREATE
 40
2454573.227460845
  9
$TDUPDATE
 40
2454770.868719861
  9
$TDUUPDATE
 40
2454770.493719861
  9
$TDINDWG
 40
0.0213096875
  9
$TDUSRTIMER
 40
0.0213095023
  9
$USRTIMER
 70
     1
  9
$ANGBASE
 50
0.0
  9
$ANGDIR
 70
     0
  9
$PDMODE
 70
     0
  9
$PDSIZE
 40
0.0
  9
$PLINEWID
 40
0.0
  9
$SPLFRAME
 70
     0
  9
$SPLINETYPE
 70
     6
  9
$SPLINESEGS
 70
     8
  9
$HANDSEED
  5
10B1
  9
$SURFTAB1
 70
     6
  9
$SURFTAB2
 70
     6
  9
$SURFTYPE
 70
     6
  9
$SURFU
 70
     6
  9
$SURFV
 70
     6
  9
$UCSBASE
  2

  9
$UCSNAME
  2

  9
$UCSORG
 10
0.0
 20
0.0
 30
0.0
  9
$UCSXDIR
 10
1.0
 20
0.0
 30
0.0
  9
$UCSYDIR
 10
0.0
 20
1.0
 30
0.0
  9
$UCSORTHOREF
  2

  9
$UCSORTHOVIEW
 70
     0
  9
$UCSORGTOP
 10
0.0
 20
0.0
 30
0.0
  9
$UCSORGBOTTOM
 10
0.0
 20
0.0
 30
0.0
  9
$UCSORGLEFT
 10
0.0
 20
0.0
 30
0.0
  9
$UCSORGRIGHT
 10
0.0
 20
0.0
 30
0.0
  9
$UCSORGFRONT
 10
0.0
 20
0.0
 30
0.0
  9
$UCSORGBACK
 10
0.0
 20
0.0
 30
0.0
  9
$PUCSBASE
  2

  9
$PUCSNAME
  2

  9
$PUCSORG
 10
0.0
 20
0.0
 30
0.0
  9
$PUCSXDIR
 10
1.0
 20
0.0
 30
0.0
  9
$PUCSYDIR
 10
0.0
 20
1.0
 30
0.0
  9
$PUCSORTHOREF
  2

  9
$PUCSORTHOVIEW
 70
     0
  9
$PUCSORGTOP
 10
0.0
 20
0.0
 30
0.0
  9
$PUCSORGBOTTOM
 10
0.0
 20
0.0
 30
0.0
  9
$PUCSORGLEFT
 10
0.0
 20
0.0
 30
0.0
  9
$PUCSORGRIGHT
 10
0.0
 20
0.0
 30
0.0
  9
$PUCSORGFRONT
 10
0.0
 20
0.0
 30
0.0
  9
$PUCSORGBACK
 10
0.0
 20
0.0
 30
0.0
  9
$USERI1
 70
     0
  9
$USERI2
 70
     0
  9
$USERI3
 70
     0
  9
$USERI4
 70
     0
  9
$USERI5
 70
     0
  9
$USERR1
 40
0.0
  9
$USERR2
 40
0.0
  9
$USERR3
 40
0.0
  9
$USERR4
 40
0.0
  9
$USERR5
 40
0.0
  9
$WORLDVIEW
 70
     1
  9
$SHADEDGE
 70
     3
  9
$SHADEDIF
 70
    70
  9
$TILEMODE
 70
     1
  9
$MAXACTVP
 70
    64
  9
$PINSBASE
 10
0.0
 20
0.0
 30
0.0
  9
$PLIMCHECK
 70
     0
  9
$PEXTMIN
 10
1.000000000000000E+20
 20
1.000000000000000E+20
 30
1.000000000000000E+20
  9
$PEXTMAX
 10
-1.000000000000000E+20
 20
-1.000000000000000E+20
 30
-1.000000000000000E+20
  9
$PLIMMIN
 10
0.0
 20
0.0
  9
$PLIMMAX
 10
420.0
 20
297.0
  9
$UNITMODE
 70
     0
  9
$VISRETAIN
 70
     1
  9
$PLINEGEN
 70
     0
  9
$PSLTSCALE
 70
     1
  9
$TREEDEPTH
 70
  3020
  9
$CMLSTYLE
  2
Standard
  9
$CMLJUST
 70
     0
  9
$CMLSCALE
 40
20.0
  9
$PROXYGRAPHICS
 70
     1
  9
$MEASUREMENT
 70
     1
  9
$CELWEIGHT
370
    -1
  9
$ENDCAPS
280
     0
  9
$JOINSTYLE
280
     0
  9
$LWDISPLAY
290
     0
  9
$INSUNITS
 70
     4
  9
$HYPERLINKBASE
  1

  9
$STYLESHEET
  1
ACAD1.CTB
  9
$XEDIT
290
     1
  9
$CEPSNTYPE
380
     0
  9
$PSTYLEMODE
290
     1
  9
$FINGERPRINTGUID
  2
{41B1BBC6-017B-4742-8A4E-44F35A147FA2}
  9
$VERSIONGUID
  2
{1F8C811B-CCB5-40AF-8E28-FDAB5F5EF932}
  9
$EXTNAMES
290
     1
  9
$PSVPSCALE
 40
0.0
  9
$OLESTARTUP
290
     0
  0
ENDSEC
  0
SECTION
  2
CLASSES
  0
CLASS
  1
ACDBDICTIONARYWDFLT
  2
AcDbDictionaryWithDefault
  3
ObjectDBX Classes
 90
        0
280
     0
281
     0
  0
CLASS
  1
AMGSETTINGSOBJ
  2
AmgSettingsObj
  3
"AcadM|Product Description: AutoCAD Mechanical 2000|Company: Autodesk"
 90
        0
280
     0
281
     0
  0
CLASS
  1
AMGOBJPROPCFG
  2
AmgObjPropCfg
  3
"AmgLay|Product Description: AutoCAD Mechanical 2000|Company: Autodesk"
 90
        1
280
     0
281
     0
  0
CLASS
  1
ACME_DOCUMENT
  2
AcMeDbDoc
  3
AcMeServices
 90
        0
280
     0
281
     0
  0
CLASS
  1
ACMESCOPE
  2
AcMeScope
  3
AcMeServices
 90
        0
280
     0
281
     0
  0
CLASS
  1
ACMECOMMANDHISTORY
  2
AcMeCommandHistory
  3
AcMeServices
 90
        0
280
     0
281
     0
  0
CLASS
  1
ACIMSYSVARMAN
  2
AcImSysVarManager
  3
AcMeServices
 90
        0
280
     0
281
     0
  0
CLASS
  1
ACIMINTSYSVAR
  2
AcImIntSysVar
  3
AcMeServices
 90
        0
280
     0
281
     0
  0
CLASS
  1
ACMEDRAWINGMAN
  2
AcMeDrawingMan
  3
AcMeServices
 90
        0
280
     0
281
     0
  0
CLASS
  1
ACMEVIEW
  2
AcMeView
  3
AcMeServices
 90
        0
280
     0
281
     0
  0
CLASS
  1
ACDBENTITYCACHE
  2
AcMeEntityCache
  3
AcMeServices
 90
        0
280
     0
281
     0
  0
CLASS
  1
GSMANAGER
  2
AcMeGSManager
  3
AcMeServices
 90
        0
280
     0
281
     0
  0
CLASS
  1
AMDTINTERNALREACTOR
  2
AmdtInternalReactor
  3
AcMeServices
 90
        0
280
     0
281
     0
  0
CLASS
  1
ACMESTATEMGR
  2
AcMeStateMgr
  3
AcMeServices
 90
        0
280
     0
281
     0
  0
CLASS
  1
ACGREFMASTER
  2
AcGrefMaster
  3
AcAttribServices
 90
        0
280
     0
281
     0
  0
CLASS
  1
AM_DRAWING_MGR
  2
AcDmDwgMgr
  3
AcMechDwgViewMgmt
 90
        0
280
     0
281
     0
  0
CLASS
  1
AM_DWG_DOCUMENT
  2
AcDmDwgDocument
  3
AcMechDwgViewMgmt
 90
        0
280
     0
281
     0
  0
CLASS
  1
AM_DWG_SHEET
  2
AcDmSheet
  3
AcMechDwgViewMgmt
 90
        0
280
     0
281
     0
  0
CLASS
  1
AM_VIEWDIMPARMAP
  2
AcDmViewDimParMap
  3
AcMechDwgViewMgmt
 90
        0
280
     0
281
     0
  0
CLASS
  1
ACIMREALSYSVAR
  2
AcImRealSysVar
  3
AcMeServices
 90
        0
280
     0
281
     0
  0
CLASS
  1
AM_DWGMGR_NAME
  2
AcDmDwgMgrName
  3
AcMechDwgViewMgmt
 90
        0
280
     0
281
     0
  0
CLASS
  1
ACME_DATABASE
  2
AcMeDbDatabase
  3
AcMeServices
 90
        0
280
     0
281
     0
  0
CLASS
  1
ACRFINSADJUSTERMGR
  2
AcRfInsAdjusterMgr
  3
AcMeServices
 90
        0
280
     0
281
     0
  0
CLASS
  1
ACGREFACADMASTER
  2
AcGrefacadMaster
  3
AcGrefServices
 90
        0
280
     0
281
     0
  0
CLASS
  1
AMDTMENUSTATEMGR
  2
AmdtMenuStateMgr
  3
McadcomServices
 90
        0
280
     0
281
     0
  0
CLASS
  1
AMDTMCOMMENUSTATE
  2
AmdtMcomMenuState
  3
McadcomServices
 90
        0
280
     0
281
     0
  0
CLASS
  1
AMIMASTER
  2
AmiMaster
  3
AmiServices
 90
        0
280
     0
281
     0
  0
CLASS
  1
MAPIAMMOUDLE
  2
MApiAmModule
  3
MApiAmServices
 90
        0
280
     0
281
     0
  0
CLASS
  1
AMDTADMENUSTATE
  2
AmdtAdMenuState
  3
DesignerServices
 90
        0
280
     0
281
     0
  0
CLASS
  1
ADAPPL
  2
AcAdAppl
  3
DesignerServices
 90
        0
280
     0
281
     0
  0
CLASS
  1
DEPMGR
  2
AcAdDepMgr
  3
DesignerServices
 90
        0
280
     0
281
     0
  0
CLASS
  1
PARAMMGR
  2
AcAdParamMgr
  3
DesignerServices
 90
        0
280
     0
281
     0
  0
CLASS
  1
PARAMSCOPE
  2
AcAdParamScope
  3
DesignerServices
 90
        0
280
     0
281
     0
  0
CLASS
  1
NAMEDAPPL
  2
AcAdNamedAppl
  3
DesignerServices
 90
        0
280
     0
281
     0
  0
CLASS
  1
AMDTDMMENUSTATE
  2
AmdtDmMenuState
  3
AcMechDwgViewMgmt
 90
        0
280
     0
281
     0
  0
CLASS
  1
AMDTAMMENUSTATE
  2
AmdtAmMenuState
  3
DesignerAssemblies
 90
        0
280
     0
281
     0
  0
CLASS
  1
ACIMSTRSYSVAR
  2
AcImStrSysVar
  3
AcMeServices
 90
        0
280
     0
281
     0
  0
CLASS
  1
ACAMPROJECT
  2
AcAmProject
  3
DesignerAssemblies
 90
        0
280
     0
281
     0
  0
CLASS
  1
ACAMGRCOMPDEF
  2
AcAmGrCompDef
  3
DesignerAssemblies
 90
        0
280
     0
281
     0
  0
CLASS
  1
ACCMCONTEXT
  2
AcCmContext
  3
DesignerAssemblies
 90
        0
280
     0
281
     0
  0
CLASS
  1
ACAMCOMPDEF
  2
AcAmCompDef
  3
DesignerAssemblies
 90
        0
280
     0
281
     0
  0
CLASS
  1
ACAMCOMPDEFMGR
  2
AcAmCompDefMgr
  3
DesignerAssemblies
 90
        0
280
     0
281
     0
  0
CLASS
  1
AMCONTEXTMGR
  2
AcAmContextMgr
  3
DesignerAssemblies
 90
        0
280
     0
281
     0
  0
CLASS
  1
ACAMCONTEXTMODELER
  2
AcAmContextModeler
  3
DesignerAssemblies
 90
        0
280
     0
281
     0
  0
CLASS
  1
ACMDATADICTIONARY
  2
AcmDataDictionary
  3
"AcmSymBB|Product Description: AutoCAD Mechanical 2004 DX|Company: Autodesk"
 90
        0
280
     0
281
     0
  0
CLASS
  1
ACMSTANDARDISO
  2
AcmStandardISO
  3
"Amdt_StdImp|Product Description: AutoCAD Mechanical 2004 DX|Company: Autodesk"
 90
        0
280
     0
281
     0
  0
CLASS
  1
AMDTEDGESTANDARDISO
  2
AmdtEdgeStdISO
  3
"Amdt_StdImp|Product Description: AutoCAD Mechanical 2004 DX|Company: Autodesk"
 90
    32768
280
     0
281
     0
  0
CLASS
  1
ACMSURFSTANDARDISO
  2
AcmSurfTextStdISO
  3
"Amdt_StdImp|Product Description: AutoCAD Mechanical 2004 DX|Company: Autodesk"
 90
        0
280
     0
281
     0
  0
CLASS
  1
ACMFCFSTANDARDISO
  2
AcmFCFStdISO
  3
"Amdt_StdImp|Product Description: AutoCAD Mechanical 2004 DX|Company: Autodesk"
 90
        0
280
     0
281
     0
  0
CLASS
  1
ACMWELDSTANDARDISO
  2
AcmWeldingStdISO
  3
"Amdt_StdImp|Product Description: AutoCAD Mechanical 2004 DX|Company: Autodesk"
 90
        0
280
     0
281
     0
  0
CLASS
  1
ACMIDSTANDARDISO
  2
AcmIdStdISO
  3
"Amdt_StdImp|Product Description: AutoCAD Mechanical 2004 DX|Company: Autodesk"
 90
        0
280
     0
281
     0
  0
CLASS
  1
ACMDATUMSTANDARDISO
  2
AcmDatumStdISO
  3
"Amdt_StdImp|Product Description: AutoCAD Mechanical 2004 DX|Company: Autodesk"
 90
        0
280
     0
281
     0
  0
CLASS
  1
ACMBOMSTANDARDISO
  2
AcmBOMStdISO
  3
"Amdt_StdImp|Product Description: AutoCAD Mechanical 2004 DX|Company: Autodesk"
 90
        0
280
     0
281
     0
  0
CLASS
  1
ACMDETAILSTANDARDISO
  2
AmdtDetailSymStdISO
  3
"Amdt_StdImp|Product Description: AutoCAD Mechanical 2004 DX|Company: Autodesk"
 90
        0
280
     0
281
     0
  0
CLASS
  1
ACMSECTIONSTANDARDISO
  2
AmdtSectionSymStdISO
  3
"Amdt_StdImp|Product Description: AutoCAD Mechanical 2004 DX|Company: Autodesk"
 90
        0
280
     0
281
     0
  0
CLASS
  1
ACMCENTERLINESTANDARDISO
  2
AmdtCenterLineStdISO
  3
"Amdt_StdImp|Product Description: AutoCAD Mechanical 2004 DX|Company: Autodesk"
 90
        0
280
     0
281
     0
  0
CLASS
  1
ACMTHREADLINESTANDARDISO
  2
AmdtThreadLineStdISO
  3
"Amdt_StdImp|Product Description: AutoCAD Mechanical 2004 DX|Company: Autodesk"
 90
        0
280
     0
281
     0
  0
CLASS
  1
ACMNOTESTANDARDISO
  2
AmdtNoteStdISO
  3
"Amdt_StdImp|Product Description: AutoCAD Mechanical 2004 DX|Company: Autodesk"
 90
        0
280
     0
281
     0
  0
CLASS
  1
AMDTNOTETEMPLATEDB
  2
AmdtNoteTemplateDB
  3
AMDT_STDIMP_MODULE_NAME
 90
        0
280
     0
281
     0
  0
CLASS
  1
ACAMGLAYSTD
  2
AcAmgLayStd
  3
"AcAmgLayStd|Product Description: AutoCAD Mechanical 2000|Company: Autodesk"
 90
        0
280
     0
281
     0
  0
CLASS
  1
ACAMGDIMSTD
  2
AcAmgDimStd
  3
"AcAmgDimStd|Product Description: AutoCAD Mechanical 2000|Company: Autodesk"
 90
        0
280
     0
281
     0
  0
CLASS
  1
ACAMGHOLECHARTSTDISO
  2
AcAmgHoleChartStdISO
  3
ACMSYMBB_MODULE_NAME
 90
        0
280
     0
281
     0
  0
CLASS
  1
ACAMGTITLESTD
  2
AcAmgTitleStd
  3
"TITLEAPP"
 90
        0
280
     0
281
     0
  0
CLASS
  1
ACMSTANDARDJIS
  2
AcmStandardJIS
  3
"Amdt_StdImp|Product Description: AutoCAD Mechanical 2004 DX|Company: Autodesk"
 90
    32768
280
     0
281
     0
  0
CLASS
  1
ACMSURFSTANDARDJIS
  2
AcmSurfTextStdJIS
  3
"Amdt_StdImp|Product Description: AutoCAD Mechanical 2004 DX|Company: Autodesk"
 90
    32768
280
     0
281
     0
  0
CLASS
  1
ACMFCFSTANDARDJIS98
  2
AcmFCFStdJIS98
  3
"Amdt_StdImp|Product Description: AutoCAD Mechanical 2004 DX|Company: Autodesk"
 90
    32768
280
     0
281
     0
  0
CLASS
  1
ACMWELDSTANDARDJIS
  2
AcmWeldingStdJIS
  3
"Amdt_StdImp|Product Description: AutoCAD Mechanical 2004 DX|Company: Autodesk"
 90
    32768
280
     0
281
     0
  0
CLASS
  1
ACMIDSTANDARDJIS
  2
AcmIdStdJIS
  3
"Amdt_StdImp|Product Description: AutoCAD Mechanical 2004 DX|Company: Autodesk"
 90
    32768
280
     0
281
     0
  0
CLASS
  1
ACMDATUMSTANDARDJIS
  2
AcmDatumStdJIS
  3
"Amdt_StdImp|Product Description: AutoCAD Mechanical 2004 DX|Company: Autodesk"
 90
    32768
280
     0
281
     0
  0
CLASS
  1
ACMBOMSTANDARDJIS
  2
AcmBOMStdJIS
  3
"Amdt_StdImp|Product Description: AutoCAD Mechanical 2004 DX|Company: Autodesk"
 90
    32768
280
     0
281
     0
  0
CLASS
  1
ACMDETAILSTANDARDJIS
  2
AmdtDetailSymStdJIS
  3
"Amdt_StdImp|Product Description: AutoCAD Mechanical 2004 DX|Company: Autodesk"
 90
    32768
280
     0
281
     0
  0
CLASS
  1
ACMSECTIONSTANDARDJIS
  2
AmdtSectionSymStdJIS
  3
"Amdt_StdImp|Product Description: AutoCAD Mechanical 2004 DX|Company: Autodesk"
 90
    32768
280
     0
281
     0
  0
CLASS
  1
ACMCENTERLINESTANDARDJIS
  2
AmdtCenterLineStdJIS
  3
"Amdt_StdImp|Product Description: AutoCAD Mechanical 2004 DX|Company: Autodesk"
 90
    32768
280
     0
281
     0
  0
CLASS
  1
ACMTHREADLINESTANDARDJIS
  2
AmdtThreadLineStdJIS
  3
"Amdt_StdImp|Product Description: AutoCAD Mechanical 2004 DX|Company: Autodesk"
 90
    32768
280
     0
281
     0
  0
CLASS
  1
ACMNOTESTANDARDJIS
  2
AmdtNoteStdJIS
  3
"Amdt_StdImp|Product Description: AutoCAD Mechanical 2004 DX|Company: Autodesk"
 90
    32768
280
     0
281
     0
  0
CLASS
  1
ACAMGHOLECHARTSTDJIS
  2
AcAmgHoleChartStdJIS
  3
ACMSYMBB_MODULE_NAME
 90
    32768
280
     0
281
     0
  0
CLASS
  1
CATALOGSTATE
  2
AcAmCatalogState
  3
DesignerAssemblies
 90
        0
280
     0
281
     0
  0
CLASS
  1
ACAMGRCOMPDEFSET
  2
AcAmGrCompDefSet
  3
DesignerAssemblies
 90
        0
280
     0
281
     0
  0
CLASS
  1
AMDTBROWSERDBTAB
  2
AmdtBrowserDbTab
  3
McadcomServices
 90
        0
280
     0
281
     0
  0
CLASS
  1
CBROWSERAPPOBJECT
  2
CBrowserAppObject
  3
McadcomServices
 90
        0
280
     0
281
     0
  0
CLASS
  1
DM_PLACEHOLDER
  2
AcDmSelsetPlaceholder
  3
AcMechDwgViewMgmt
 90
        0
280
     0
281
     0
  0
CLASS
  1
LAYER_INDEX
  2
AcDbLayerIndex
  3
ObjectDBX Classes
 90
    32768
280
     0
281
     0
  0
CLASS
  1
IDBUFFER
  2
AcDbIdBuffer
  3
ObjectDBX Classes
 90
    32768
280
     0
281
     0
  0
CLASS
  1
ACAMGFILTERDAT
  2
AcAmgFilterDat
  3
"AcadM|Product Description: AutoCAD Mechanical 2000|Company: Autodesk"
 90
    32768
280
     0
281
     0
  0
CLASS
  1
ACMSTANDARDANSI
  2
AcmStandardANSI
  3
"Amdt_StdImp|Product Description: AutoCAD Mechanical 2004 DX|Company: Autodesk"
 90
    32768
280
     0
281
     0
  0
CLASS
  1
ACMSURFSTANDARDANSI
  2
AcmSurfTextStdANSI
  3
"Amdt_StdImp|Product Description: AutoCAD Mechanical 2004 DX|Company: Autodesk"
 90
    32768
280
     0
281
     0
  0
CLASS
  1
ACMFCFSTANDARDANSI
  2
AcmFCFStdANSI
  3
"Amdt_StdImp|Product Description: AutoCAD Mechanical 2004 DX|Company: Autodesk"
 90
    32768
280
     0
281
     0
  0
CLASS
  1
ACMWELDSTANDARDANSI
  2
AcmWeldingStdANSI
  3
"Amdt_StdImp|Product Description: AutoCAD Mechanical 2004 DX|Company: Autodesk"
 90
    32768
280
     0
281
     0
  0
CLASS
  1
ACMIDSTANDARDANSI
  2
AcmIdStdANSI
  3
"Amdt_StdImp|Product Description: AutoCAD Mechanical 2004 DX|Company: Autodesk"
 90
    32768
280
     0
281
     0
  0
CLASS
  1
ACMDATUMSTANDARDANSI
  2
AcmDatumStdANSI
  3
"Amdt_StdImp|Product Description: AutoCAD Mechanical 2004 DX|Company: Autodesk"
 90
    32768
280
     0
281
     0
  0
CLASS
  1
ACMBOMSTANDARDANSI
  2
AcmBOMStdANSI
  3
"Amdt_StdImp|Product Description: AutoCAD Mechanical 2004 DX|Company: Autodesk"
 90
    32768
280
     0
281
     0
  0
CLASS
  1
ACMDETAILSTANDARDANSI
  2
AmdtDetailSymStdANSI
  3
"Amdt_StdImp|Product Description: AutoCAD Mechanical 2004 DX|Company: Autodesk"
 90
    32768
280
     0
281
     0
  0
CLASS
  1
ACMSECTIONSTANDARDANSI
  2
AmdtSectionSymStdANSI
  3
"Amdt_StdImp|Product Description: AutoCAD Mechanical 2004 DX|Company: Autodesk"
 90
    32768
280
     0
281
     0
  0
CLASS
  1
ACMCENTERLINESTANDARDANSI
  2
AmdtCenterLineStdANSI
  3
"Amdt_StdImp|Product Description: AutoCAD Mechanical 2004 DX|Company: Autodesk"
 90
    32768
280
     0
281
     0
  0
CLASS
  1
ACMTHREADLINESTANDARDANSI
  2
AmdtThreadLineStdANSI
  3
"Amdt_StdImp|Product Description: AutoCAD Mechanical 2004 DX|Company: Autodesk"
 90
    32768
280
     0
281
     0
  0
CLASS
  1
ACMNOTESTANDARDANSI
  2
AmdtNoteStdANSI
  3
"Amdt_StdImp|Product Description: AutoCAD Mechanical 2004 DX|Company: Autodesk"
 90
    32768
280
     0
281
     0
  0
CLASS
  1
ACAMGHOLECHARTSTDANSI
  2
AcAmgHoleChartStdANSI
  3
ACMSYMBB_MODULE_NAME
 90
    32768
280
     0
281
     0
  0
CLASS
  1
ACMDATAENTRYBLOCK
  2
AcmDataEntryBlock
  3
"AcmSymBB|Product Description: AutoCAD Mechanical 2004 DX|Company: Autodesk"
 90
    32768
280
     0
281
     0
  0
CLASS
  1
SORTENTSTABLE
  2
AcDbSortentsTable
  3
ObjectDBX Classes
 90
    32768
280
     0
281
     0
  0
CLASS
  1
AMDTFORMULAUPDATEDISPATCHER
  2
AmdtFormulaUpdateDispatcher
  3
AcMeServices
 90
    32768
280
     0
281
     0
  0
CLASS
  1
TABLESTYLE
  2
AcDbTableStyle
  3
ObjectDBX Classes
 90
     2047
280
     0
281
     0
  0
CLASS
  1
ACMDATUMID
  2
AcmDatumId
  3
"AcmSymBB|Product Description: AutoCAD Mechanical 2004 DX|Company: Autodesk"
 90
    33791
280
     0
281
     1
  0
CLASS
  1
ACDBDIMENSIONRES
  2
AcDbDimensionRes
  3
"AcDbDimensionRes|Product Description: AutoCAD Mechanical 2000|Company: Autodesk"
 90
    32768
280
     0
281
     0
  0
CLASS
  1
DIMASSOC
  2
AcDbDimAssoc
  3
"AcDbDimAssoc|Product Desc:     AcDim ARX App For Dimension|Company:          Autodesk, Inc.|WEB Address:      www.autodesk.com"
 90
    32768
280
     0
281
     0
  0
CLASS
  1
DICTIONARYVAR
  2
AcDbDictionaryVar
  3
ObjectDBX Classes
 90
        0
280
     0
281
     0
  0
CLASS
  1
ACRFATTGENMGR
  2
AcRfAttGeneralMgr
  3
AcAttribServices
 90
        0
280
     0
281
     0
  0
CLASS
  1
ACDBPLACEHOLDER
  2
AcDbPlaceHolder
  3
ObjectDBX Classes
 90
        0
280
     0
281
     0
  0
CLASS
  1
LAYOUT
  2
AcDbLayout
  3
ObjectDBX Classes
 90
        0
280
     0
281
     0
  0
CLASS
  1
AMDTEDGESTANDARDISO13715
  2
AmdtEdgeStdISO13715
  3
"Amdt_StdImp|Product Description: AutoCAD Mechanical 2004 DX|Company: Autodesk"
 90
        0
280
     0
281
     0
  0
ENDSEC
  0
SECTION
  2
TABLES
  0
TABLE
  2
VPORT
  5
8
330
0
100
AcDbSymbolTable
 70
     4
  0
VPORT
  5
10A9
330
8
100
AcDbSymbolTableRecord
100
AcDbViewportTableRecord
  2
*Active
 70
     0
 10
0.0
 20
0.0
 11
1.0
 21
1.0
 12
670.8118278309695
 22
524.4866352913362
 13
0.0
 23
0.0
 14
10.0
 24
10.0
 15
40.0
 25
40.0
 16
0.0
 26
0.0
 36
1.0
 17
0.0
 27
0.0
 37
0.0
 40
556.4950388236698
 41
1.475550122249388
 42
50.0
 43
0.0
 44
0.0
 50
0.0
 51
0.0
 71
     0
 72
  1000
 73
     1
 74
     3
 75
     0
 76
     0
 77
     0
 78
     0
281
     0
 65
     0
110
0.0
120
0.0
130
0.0
111
1.0
121
0.0
131
0.0
112
0.0
122
1.0
132
0.0
 79
     0
146
0.0
  0
ENDTAB
  0
TABLE
  2
LTYPE
  5
5
330
0
100
AcDbSymbolTable
 70
    21
  0
LTYPE
  5
14
330
5
100
AcDbSymbolTableRecord
100
AcDbLinetypeTableRecord
  2
ByBlock
 70
     0
  3

 72
    65
 73
     0
 40
0.0
  0
LTYPE
  5
15
330
5
100
AcDbSymbolTableRecord
100
AcDbLinetypeTableRecord
  2
ByLayer
 70
     0
  3

 72
    65
 73
     0
 40
0.0
  0
LTYPE
  5
16
330
5
100
AcDbSymbolTableRecord
100
AcDbLinetypeTableRecord
  2
Continuous
 70
     0
  3
Solid line
 72
    65
 73
     0
 40
0.0
  0
LTYPE
  5
47
330
5
100
AcDbSymbolTableRecord
100
AcDbLinetypeTableRecord
  2
AM_ISO02W050
 70
     0
  3
__ __ __ __ __ __ __ __ __ __ __ __ __ __ __
 72
    65
 73
     2
 40
7.5
 49
6.0
 74
     0
 49
-1.5
 74
     0
  0
LTYPE
  5
48
330
5
100
AcDbSymbolTableRecord
100
AcDbLinetypeTableRecord
  2
AM_ISO08W050
 70
     0
  3
____ . ____ . ____ . ____ . ____ . ____ . ____
 72
    65
 73
     4
 40
18.0
 49
12.0
 74
     0
 49
-1.5
 74
     0
 49
3.0
 74
     0
 49
-1.5
 74
     0
  0
LTYPE
  5
49
330
5
100
AcDbSymbolTableRecord
100
AcDbLinetypeTableRecord
  2
AM_ISO09W050
 70
     0
  3
_____ . . _____ . . _____ . . ____ .. ____
 72
    65
 73
     6
 40
22.5
 49
12.0
 74
     0
 49
-1.5
 74
     0
 49
3.0
 74
     0
 49
-1.5
 74
     0
 49
3.0
 74
     0
 49
-1.5
 74
     0
  0
LTYPE
  5
4A
330
5
100
AcDbSymbolTableRecord
100
AcDbLinetypeTableRecord
  2
Amconstr
 70
     0
  3
_______________________
 72
    65
 73
     2
 40
9999.0
 49
9999.0
 74
     0
 49
0.0
 74
     0
  0
LTYPE
  5
4B
330
5
100
AcDbSymbolTableRecord
100
AcDbLinetypeTableRecord
  2
AM_ISO08W050x2
 70
     0
  3
__ . __ . __ . __ . __ . __
 72
    65
 73
     4
 40
9.0
 49
6.0
 74
     0
 49
-0.75
 74
     0
 49
1.5
 74
     0
 49
-0.75
 74
     0
  0
LTYPE
  5
4C
330
5
100
AcDbSymbolTableRecord
100
AcDbLinetypeTableRecord
  2
AM_ISO02W050x2
 70
     0
  3
 _ _ _ _ _ _ _ _ _ _ _ _
 72
    65
 73
     2
 40
3.75
 49
3.0
 74
     0
 49
-0.75
 74
     0
  0
LTYPE
  5
4D
330
5
100
AcDbSymbolTableRecord
100
AcDbLinetypeTableRecord
  2
Amzigzag
 70
     0
  3
/\/-/\/-/\/-/\/-/\/-/\/
 72
    65
 73
     2
 40
11.0001
 49
0.0001
 74
     4
 75
   135
340
4E
 46
0.04
 50
0.0
 44
0.0
 45
0.0
 49
-11.0
 74
     0
  0
LTYPE
  5
6B
330
5
100
AcDbSymbolTableRecord
100
AcDbLinetypeTableRecord
  2
HIDDEN
 70
     0
  3
Hidden __ __ __ __ __ __ __ __ __ __ __ __ __ _
 72
    65
 73
     2
 40
9.524999999999996
 49
6.349999999999998
 74
     0
 49
-3.174999999999998
 74
     0
  0
LTYPE
  5
6C
330
5
100
AcDbSymbolTableRecord
100
AcDbLinetypeTableRecord
  2
PHANTOM2
 70
     0
  3
Phantom (.5x) ___ _ _ ___ _ _ ___ _ _ ___ _ _
 72
    65
 73
     6
 40
31.75
 49
15.875
 74
     0
 49
-3.174999999999998
 74
     0
 49
3.174999999999998
 74
     0
 49
-3.174999999999998
 74
     0
 49
3.174999999999998
 74
     0
 49
-3.174999999999998
 74
     0
  0
LTYPE
  5
6D
330
5
100
AcDbSymbolTableRecord
100
AcDbLinetypeTableRecord
  2
CENTER
 70
     0
  3
Center ____ _ ____ _ ____ _ ____ _ ____ _ ____
 72
    65
 73
     4
 40
50.8
 49
31.75
 74
     0
 49
-6.349999999999998
 74
     0
 49
6.349999999999998
 74
     0
 49
-6.349999999999998
 74
     0
  0
LTYPE
  5
AC
330
5
100
AcDbSymbolTableRecord
100
AcDbLinetypeTableRecord
  2
ACISOWELD
 70
     0
  3
_ _ _ _ _
 72
    65
 73
     2
 40
2.0
 49
2.0
 74
     0
 49
-1.0
 74
     0
  0
LTYPE
  5
AF
330
5
100
AcDbSymbolTableRecord
100
AcDbLinetypeTableRecord
  2
ACISOTGB
 70
     0
  3
__ . . __ . .
 72
    65
 73
     6
 40
9.0
 49
4.0
 74
     0
 49
-1.0
 74
     0
 49
1.0
 74
     0
 49
-1.0
 74
     0
 49
1.0
 74
     0
 49
-1.0
 74
     0
  0
LTYPE
  5
B0
330
5
100
AcDbSymbolTableRecord
100
AcDbLinetypeTableRecord
  2
ACISOTGL
 70
     0
  3
_ _ _ _ _
 72
    65
 73
     2
 40
3.0
 49
2.0
 74
     0
 49
-1.0
 74
     0
  0
LTYPE
  5
48C
330
5
100
AcDbSymbolTableRecord
100
AcDbLinetypeTableRecord
  2
GEN3B
 70
     0
  3
 - - - - -
 72
    65
 73
     2
 40
1.0
 49
0.5
 74
     0
 49
-0.5
 74
     0
  0
LTYPE
  5
4BF
330
5
100
AcDbSymbolTableRecord
100
AcDbLinetypeTableRecord
  2
GEN7
 70
     0
  3
____ . ____ . ____ . ____ . ____ . ____ . ____
 72
    65
 73
     4
 40
14.25
 49
9.75
 74
     0
 49
-1.5
 74
     0
 49
1.5
 74
     0
 49
-1.5
 74
     0
  0
LTYPE
  5
4C0
330
5
100
AcDbSymbolTableRecord
100
AcDbLinetypeTableRecord
  2
GEN7A
 70
     0
  3
__ . __ . __
 72
    65
 73
     4
 40
7.375
 49
4.75
 74
     0
 49
-0.875
 74
     0
 49
0.875
 74
     0
 49
-0.875
 74
     0
  0
ENDTAB
  0
TABLE
  2
LAYER
  5
2
102
{ACAD_XDICTIONARY
360
65E
102
}
330
0
100
AcDbSymbolTable
 70
     9
  0
LAYER
  5
10
330
2
100
AcDbSymbolTableRecord
100
AcDbLayerTableRecord
  2
0
 70
     0
 62
     7
  6
Continuous
370
    -3
390
F
  0
LAYER
  5
2F
330
2
100
AcDbSymbolTableRecord
100
AcDbLayerTableRecord
  2
Defpoints
 70
     0
 62
     7
  6
Continuous
290
     0
370
    -3
390
F
  0
LAYER
  5
491
330
2
100
AcDbSymbolTableRecord
100
AcDbLayerTableRecord
  2
ｶｸﾚｾﾝ2
 70
     0
 62
     3
  6
GEN3B
370
    -3
390
F
  0
LAYER
  5
655
330
2
100
AcDbSymbolTableRecord
100
AcDbLayerTableRecord
  2
AM_5
 70
     0
 62
     2
  6
Continuous
370
    35
390
F
  0
LAYER
  5
656
330
2
100
AcDbSymbolTableRecord
100
AcDbLayerTableRecord
  2
ﾁｭｳｼﾝｾﾝ
 70
     0
 62
     1
  6
GEN7
370
    -3
390
F
  0
LAYER
  5
657
330
2
100
AcDbSymbolTableRecord
100
AcDbLayerTableRecord
  2
ﾁｭｳｼﾝｾﾝ1
 70
     0
 62
     1
  6
GEN7A
370
    -3
390
F
  0
LAYER
  5
658
330
2
100
AcDbSymbolTableRecord
100
AcDbLayerTableRecord
  2
AM_7
 70
     0
 62
     1
  6
AM_ISO08W050
370
    25
390
F
  0
LAYER
  5
659
330
2
100
AcDbSymbolTableRecord
100
AcDbLayerTableRecord
  2
AM_0
 70
     0
 62
     7
  6
Continuous
370
    50
390
F
  0
LAYER
  5
E2D
330
2
100
AcDbSymbolTableRecord
100
AcDbLayerTableRecord
  2
図面枠-ｷｲﾛ
 70
     0
 62
     2
  6
Continuous
370
    -3
390
F
  0
ENDTAB
  0
TABLE
  2
STYLE
  5
3
330
0
100
AcDbSymbolTable
 70
     8
  0
STYLE
  5
11
330
3
100
AcDbSymbolTableRecord
100
AcDbTextStyleTableRecord
  2
STANDARD
 70
     0
 40
0.0
 41
0.84
 50
0.0
 71
     0
 42
2.5
  3
txt.shx
  4
bigfont.shx
  0
STYLE
  5
4E
330
3
100
AcDbSymbolTableRecord
100
AcDbTextStyleTableRecord
  2

 70
     1
 40
0.0
 41
1.0
 50
0.0
 71
     0
 42
2.5
  3
ltypeshp.shx
  4

  0
STYLE
  5
A6
330
3
100
AcDbSymbolTableRecord
100
AcDbTextStyleTableRecord
  2
ACISOTS
 70
     0
 40
1.0
 41
1.0
 50
0.0
 71
     0
 42
2.5
  3
isocp.shx
  4
extfont.shx
  0
STYLE
  5
AA
330
3
100
AcDbSymbolTableRecord
100
AcDbTextStyleTableRecord
  2
ACISOGDT
 70
     0
 40
0.0
 41
1.0
 50
0.0
 71
     0
 42
2.5
  3
amgdt.shx
  4

  0
ENDTAB
  0
TABLE
  2
VIEW
  5
6
330
0
100
AcDbSymbolTable
 70
     6
  0
VIEW
  5
2D6
330
6
100
AcDbSymbolTableRecord
100
AcDbViewTableRecord
  2
AM_VIEW1
 70
     0
 40
390.4809602649007
 10
284.5
 20
544.7595198675498
 41
569.0
 11
0.0
 21
0.0
 31
1.0
 12
0.0
 22
0.0
 32
0.0
 42
50.0
 43
0.0
 44
0.0
 50
0.0
 71
     0
281
     0
 72
     0
  0
VIEW
  5
2D7
330
6
100
AcDbSymbolTableRecord
100
AcDbViewTableRecord
  2
AM_VIEW2
 70
     0
 40
390.4809602649007
 10
853.5
 20
544.7595198675498
 41
569.0
 11
0.0
 21
0.0
 31
1.0
 12
0.0
 22
0.0
 32
0.0
 42
50.0
 43
0.0
 44
0.0
 50
0.0
 71
     0
281
     0
 72
     0
  0
VIEW
  5
2D8
330
6
100
AcDbSymbolTableRecord
100
AcDbViewTableRecord
  2
AM_VIEW3
 70
     0
 40
390.4809602649007
 10
284.5
 20
195.2404801324503
 41
569.0
 11
0.0
 21
0.0
 31
1.0
 12
0.0
 22
0.0
 32
0.0
 42
50.0
 43
0.0
 44
0.0
 50
0.0
 71
     0
281
     0
 72
     0
  0
VIEW
  5
2D9
330
6
100
AcDbSymbolTableRecord
100
AcDbViewTableRecord
  2
AM_VIEW4
 70
     0
 40
390.4809602649007
 10
853.5
 20
195.2404801324503
 41
569.0
 11
0.0
 21
0.0
 31
1.0
 12
0.0
 22
0.0
 32
0.0
 42
50.0
 43
0.0
 44
0.0
 50
0.0
 71
     0
281
     0
 72
     0
  0
VIEW
  5
2DA
330
6
100
AcDbSymbolTableRecord
100
AcDbViewTableRecord
  2
AM_VIEW5
 70
     0
 40
390.4809602649006
 10
569.0
 20
370.0
 41
569.0
 11
0.0
 21
0.0
 31
1.0
 12
0.0
 22
0.0
 32
0.0
 42
50.0
 43
0.0
 44
0.0
 50
0.0
 71
     0
281
     0
 72
     0
  0
VIEW
  5
2DB
330
6
100
AcDbSymbolTableRecord
100
AcDbViewTableRecord
  2
AM_VIEW6
 70
     0
 40
780.954110910596
 10
569.0
 20
370.0000000000002
 41
1137.98862
 11
0.0
 21
0.0
 31
1.0
 12
0.0
 22
0.0
 32
0.0
 42
50.0
 43
0.0
 44
0.0
 50
0.0
 71
     0
281
     0
 72
     0
  0
ENDTAB
  0
TABLE
  2
UCS
  5
7
330
0
100
AcDbSymbolTable
 70
     0
  0
ENDTAB
  0
TABLE
  2
APPID
  5
9
330
0
100
AcDbSymbolTable
 70
    45
  0
APPID
  5
12
330
9
100
AcDbSymbolTableRecord
100
AcDbRegAppTableRecord
  2
ACAD
 70
     0
  0
APPID
  5
30
330
9
100
AcDbSymbolTableRecord
100
AcDbRegAppTableRecord
  2
MCAD_NO_VIS
 70
     0
  0
APPID
  5
31
330
9
100
AcDbSymbolTableRecord
100
AcDbRegAppTableRecord
  2
ACAD_TEMP_GRAPHIC
 70
     0
  0
APPID
  5
32
330
9
100
AcDbSymbolTableRecord
100
AcDbRegAppTableRecord
  2
AD_DRAW
 70
     0
  0
APPID
  5
33
330
9
100
AcDbSymbolTableRecord
100
AcDbRegAppTableRecord
  2
ACATTRIBSERVICES
 70
     0
  0
APPID
  5
34
330
9
100
AcDbSymbolTableRecord
100
AcDbRegAppTableRecord
  2
DESIGNERASSEMBLIES
 70
     0
  0
APPID
  5
35
330
9
100
AcDbSymbolTableRecord
100
AcDbRegAppTableRecord
  2
ACADM_DIM_EDIT
 70
     0
  0
APPID
  5
36
330
9
100
AcDbSymbolTableRecord
100
AcDbRegAppTableRecord
  2
AMDT_DM_ADJ
 70
     0
  0
APPID
  5
37
330
9
100
AcDbSymbolTableRecord
100
AcDbRegAppTableRecord
  2
GENIUS_GENDIMSH_14
 70
     0
  0
APPID
  5
38
330
9
100
AcDbSymbolTableRecord
100
AcDbRegAppTableRecord
  2
GEVID1057795304
 70
     0
  0
APPID
  5
39
330
9
100
AcDbSymbolTableRecord
100
AcDbRegAppTableRecord
  2
GEVDC
 70
     0
  0
APPID
  5
3A
330
9
100
AcDbSymbolTableRecord
100
AcDbRegAppTableRecord
  2
GEVCON
 70
     0
  0
APPID
  5
3B
330
9
100
AcDbSymbolTableRecord
100
AcDbRegAppTableRecord
  2
GENIUS_GENBH_13
 70
     0
  0
APPID
  5
3C
330
9
100
AcDbSymbolTableRecord
100
AcDbRegAppTableRecord
  2
GENIUS_GENOENT_13
 70
     0
  0
APPID
  5
3D
330
9
100
AcDbSymbolTableRecord
100
AcDbRegAppTableRecord
  2
GENIUS_GENOBJ-NBEHI-BHF_13
 70
     0
  0
APPID
  5
3E
330
9
100
AcDbSymbolTableRecord
100
AcDbRegAppTableRecord
  2
GENIUS_GENOLIS_13
 70
     0
  0
APPID
  5
3F
330
9
100
AcDbSymbolTableRecord
100
AcDbRegAppTableRecord
  2
GENIUS_GENODEF_13
 70
     0
  0
APPID
  5
40
330
9
100
AcDbSymbolTableRecord
100
AcDbRegAppTableRecord
  2
GENIUS_GENOREF_13
 70
     0
  0
APPID
  5
41
330
9
100
AcDbSymbolTableRecord
100
AcDbRegAppTableRecord
  2
GENIUS_GENOBJ-NBEHI-BHB_13
 70
     0
  0
APPID
  5
42
330
9
100
AcDbSymbolTableRecord
100
AcDbRegAppTableRecord
  2
GENIUS_GENOBJ-F-SCPASSM_13
 70
     0
  0
APPID
  5
43
330
9
100
AcDbSymbolTableRecord
100
AcDbRegAppTableRecord
  2
GENIUS_GENDTOL_13
 70
     0
  0
APPID
  5
21C
330
9
100
AcDbSymbolTableRecord
100
AcDbRegAppTableRecord
  2
GENIUS_GENTRA_14
 70
     0
  0
APPID
  5
248
330
9
100
AcDbSymbolTableRecord
100
AcDbRegAppTableRecord
  2
ASURF_PCURVE_APPNAME
 70
     0
  0
APPID
  5
249
330
9
100
AcDbSymbolTableRecord
100
AcDbRegAppTableRecord
  2
GENIUS_GENCFG_13
 70
     0
  0
APPID
  5
24A
330
9
100
AcDbSymbolTableRecord
100
AcDbRegAppTableRecord
  2
GENIUS_GE3CFG0_13
 70
     0
  0
APPID
  5
24B
330
9
100
AcDbSymbolTableRecord
100
AcDbRegAppTableRecord
  2
GENIUS_GENCFG0_13
 70
     0
  0
APPID
  5
24C
330
9
100
AcDbSymbolTableRecord
100
AcDbRegAppTableRecord
  2
GENIUS_GENCFG1_13
 70
     0
  0
APPID
  5
24D
330
9
100
AcDbSymbolTableRecord
100
AcDbRegAppTableRecord
  2
GENIUS_GENCFG2_13
 70
     0
  0
APPID
  5
24E
330
9
100
AcDbSymbolTableRecord
100
AcDbRegAppTableRecord
  2
GENIUS_GENCFG3_13
 70
     0
  0
APPID
  5
24F
330
9
100
AcDbSymbolTableRecord
100
AcDbRegAppTableRecord
  2
GENIUS_GENCFG4_13
 70
     0
  0
APPID
  5
250
330
9
100
AcDbSymbolTableRecord
100
AcDbRegAppTableRecord
  2
GENIUS_GEVCFG0_13
 70
     0
  0
APPID
  5
2D4
330
9
100
AcDbSymbolTableRecord
100
AcDbRegAppTableRecord
  2
GENIUS_GENOBJ-N-TIT_13
 70
     0
  0
APPID
  5
2D5
330
9
100
AcDbSymbolTableRecord
100
AcDbRegAppTableRecord
  2
GENIUS_GENTITLE_13
 70
     0
  0
APPID
  5
2DC
330
9
100
AcDbSymbolTableRecord
100
AcDbRegAppTableRecord
  2
GENIUS_GENSCREG_15
 70
     0
  0
APPID
  5
2DD
330
9
100
AcDbSymbolTableRecord
100
AcDbRegAppTableRecord
  2
GENIUS_GENOBJ-N-SDF_13
 70
     0
  0
APPID
  5
30E
330
9
100
AcDbSymbolTableRecord
100
AcDbRegAppTableRecord
  2
GENIUS_GENFIL_13
 70
     0
  0
APPID
  5
30F
330
9
100
AcDbSymbolTableRecord
100
AcDbRegAppTableRecord
  2
GENIUS_GENOBJ-N-CHA_13
 70
     0
  0
APPID
  5
310
330
9
100
AcDbSymbolTableRecord
100
AcDbRegAppTableRecord
  2
GENIUS_GEFSH_13
 70
     0
  0
APPID
  5
311
330
9
100
AcDbSymbolTableRecord
100
AcDbRegAppTableRecord
  2
GENIUS_GENOBJ-F-SHS_13
 70
     0
  0
APPID
  5
40D
330
9
100
AcDbSymbolTableRecord
100
AcDbRegAppTableRecord
  2
GENIUS_GENOBJ-N-CEN_13
 70
     0
  0
APPID
  5
496
330
9
100
AcDbSymbolTableRecord
100
AcDbRegAppTableRecord
  2
GENIUS_GENREC_14
 70
     0
  0
APPID
  5
497
330
9
100
AcDbSymbolTableRecord
100
AcDbRegAppTableRecord
  2
GENIUS_GENOBJ-N-REC_13
 70
     0
  0
APPID
  5
65B
330
9
100
AcDbSymbolTableRecord
100
AcDbRegAppTableRecord
  2
GENIUS_GENOBJ-N-FIL_13
 70
     0
  0
APPID
  5
65C
330
9
100
AcDbSymbolTableRecord
100
AcDbRegAppTableRecord
  2
ACAD_PSEXT
 70
     0
  0
APPID
  5
65D
330
9
100
AcDbSymbolTableRecord
100
AcDbRegAppTableRecord
  2
GENIUS_GENCEN_19
 70
     0
  0
ENDTAB
  0
TABLE
  2
DIMSTYLE
  5
A
330
0
100
AcDbSymbolTable
 70
    22
100
AcDbDimStyleTable
 71
     1
340
EA
  0
DIMSTYLE
105
C6
330
A
100
AcDbSymbolTableRecord
100
AcDbDimStyleTableRecord
  2
AM_ISO
 70
     0
  4
"
 41
2.5
 42
1.0
 43
10.0
 44
1.0
 47
0.1
 48
0.1
 73
     0
 74
     0
 77
     1
 78
     8
 79
     2
140
3.5
141
0.0
143
0.0393701
146
0.71
147
1.5
172
     1
176
   256
177
   256
178
     2
271
     2
272
     3
274
     4
283
     0
284
     8
340
11
371
    -1
372
    -1
  0
DIMSTYLE
105
C7
330
A
100
AcDbSymbolTableRecord
100
AcDbDimStyleTableRecord
  2
AM_ISO$3
 70
     0
  4
"
 41
2.5
 42
1.0
 43
10.0
 44
1.0
 47
0.1
 48
0.1
 73
     0
 77
     1
 78
     8
 79
     2
140
3.5
141
0.0
143
0.0393701
146
0.71
147
1.5
176
   256
177
   256
178
     2
271
     2
272
     3
274
     4
283
     0
284
     8
288
     1
289
     0
340
11
371
    -1
372
    -1
  0
DIMSTYLE
105
C8
330
A
100
AcDbSymbolTableRecord
100
AcDbDimStyleTableRecord
  2
AM_ISO$4
 70
     0
  4
"
 41
2.5
 42
1.0
 43
10.0
 44
1.0
 47
0.1
 48
0.1
 73
     0
 77
     1
 78
     8
 79
     2
140
3.5
141
0.0
143
0.0393701
146
0.71
147
1.5
176
   256
177
   256
178
     2
271
     2
272
     3
274
     4
283
     0
284
     8
288
     1
289
     0
340
11
371
    -1
372
    -1
  0
DIMSTYLE
105
C9
330
A
100
AcDbSymbolTableRecord
100
AcDbDimStyleTableRecord
  2
AM_ISO$6
 70
     0
  4
"
 41
2.5
 42
1.0
 43
10.0
 44
1.0
 47
0.1
 48
0.1
 73
     0
 74
     0
 78
     8
 79
     2
140
3.5
141
0.0
143
0.0393701
146
0.71
147
1.5
172
     1
176
   256
177
   256
178
     2
271
     2
272
     3
274
     4
283
     0
284
     8
340
11
371
    -1
372
    -1
  0
DIMSTYLE
105
CA
330
A
100
AcDbSymbolTableRecord
100
AcDbDimStyleTableRecord
  2
AM_ISO$7
 70
     0
  4
"
 41
2.5
 42
1.0
 43
10.0
 44
1.0
 47
0.1
 48
0.1
 73
     0
 74
     0
 77
     1
 78
     8
 79
     2
140
5.0
141
0.0
143
0.0393701
146
0.71
147
1.5
172
     1
176
   256
177
   256
178
     2
271
     2
272
     3
274
     4
283
     0
284
     8
340
11
371
    -1
372
    -1
  0
DIMSTYLE
105
CB
330
A
100
AcDbSymbolTableRecord
100
AcDbDimStyleTableRecord
  2
AM_ISO$SF
 70
     0
  4
"
 41
2.5
 42
1.0
 43
10.0
 44
1.0
 47
0.1
 48
0.1
 73
     0
 74
     0
 75
     1
 76
     1
 77
     1
 78
     8
 79
     2
140
3.5
141
0.0
143
0.0393701
146
0.71
147
1.5
172
     1
176
   256
177
   256
178
     2
271
     2
272
     3
274
     4
283
     0
284
     8
340
11
371
    -1
372
    -1
  0
DIMSTYLE
105
CC
330
A
100
AcDbSymbolTableRecord
100
AcDbDimStyleTableRecord
  2
AM_ISO$SH
 70
     0
  4
"
 41
2.5
 42
1.0
 43
10.0
 44
1.0
 47
0.1
 48
0.1
 73
     0
 74
     0
 75
     1
 76
     1
 77
     1
 78
     8
 79
     2
140
3.5
141
0.0
143
0.0393701
144
2.0
146
0.71
147
1.5
172
     1
173
     1
176
   256
177
   256
178
     2
271
     2
272
     3
274
     4
283
     0
284
     8
340
11
343
CD
371
    -1
372
    -1
  0
DIMSTYLE
105
EA
330
A
100
AcDbSymbolTableRecord
100
AcDbDimStyleTableRecord
  2
AM_JIS
 70
     0
  4
"
 41
2.0
 42
1.0
 43
8.0
 44
1.0
 47
0.1
 48
0.1
 73
     0
 74
     0
 77
     3
 78
     8
 79
     2
140
2.5
141
0.0
143
0.0393701
146
0.71
147
1.5
172
     1
176
     2
177
     2
178
     4
271
     2
272
     2
283
     0
284
     8
340
11
371
    35
372
    35
  0
DIMSTYLE
105
ECA
330
A
100
AcDbSymbolTableRecord
100
AcDbDimStyleTableRecord
  2
STANDARD
 70
     0
279
     2
340
11
  0
ENDTAB
  0
TABLE
  2
BLOCK_RECORD
  5
1
330
0
100
AcDbSymbolTable
 70
     4
  0
BLOCK_RECORD
  5
21
102
{ACAD_XDICTIONARY
360
109
102
}
330
1
100
AcDbSymbolTableRecord
100
AcDbBlockTableRecord
  2
*Model_Space
340
24
  0
BLOCK_RECORD
  5
1D
330
1
100
AcDbSymbolTableRecord
100
AcDbBlockTableRecord
  2
*Paper_Space
340
20
  0
BLOCK_RECORD
  5
25
330
1
100
AcDbSymbolTableRecord
100
AcDbBlockTableRecord
  2
*Paper_Space0
340
28
  0
BLOCK_RECORD
  5
CD
330
1
100
AcDbSymbolTableRecord
100
AcDbBlockTableRecord
  2
GENAXEH
340
0
  0
ENDTAB
  0
ENDSEC
  0
SECTION
  2
BLOCKS
  0
BLOCK
  5
22
330
21
100
AcDbEntity
  8
0
100
AcDbBlockBegin
  2
*Model_Space
 70
     0
 10
0.0
 20
0.0
 30
0.0
  3
*Model_Space
  1

  0
ENDBLK
  5
23
330
21
100
AcDbEntity
  8
0
100
AcDbBlockEnd
  0
BLOCK
  5
1E
330
1D
100
AcDbEntity
 67
     1
  8
0
100
AcDbBlockBegin
  2
*Paper_Space
 70
     0
 10
0.0
 20
0.0
 30
0.0
  3
*Paper_Space
  1

  0
ENDBLK
  5
1F
330
1D
100
AcDbEntity
 67
     1
  8
0
100
AcDbBlockEnd
  0
BLOCK
  5
26
330
25
100
AcDbEntity
  8
0
100
AcDbBlockBegin
  2
*Paper_Space0
 70
     0
 10
0.0
 20
0.0
 30
0.0
  3
*Paper_Space0
  1

  0
ENDBLK
  5
27
330
25
100
AcDbEntity
  8
0
100
AcDbBlockEnd
  0
BLOCK
  5
CE
330
CD
100
AcDbEntity
  8
0
100
AcDbBlockBegin
  2
GENAXEH
 70
     0
 10
0.0
 20
0.0
 30
0.0
  3
GENAXEH
  1

  0
LINE
  5
CF
330
CD
100
AcDbEntity
  8
0
100
AcDbLine
 10
-1.0
 20
0.0
 30
0.0
 11
1.0
 21
0.0
 31
0.0
  0
ENDBLK
  5
D0
330
CD
100
AcDbEntity
  8
0
100
AcDbBlockEnd
  0
ENDSEC
  0
SECTION
  2
ENTITIES
  0
LINE
  5
787
330
21
100
AcDbEntity
  8
ﾁｭｳｼﾝｾﾝ1
 48
0.8
100
AcDbLine
 10
606.5857494024729
 20
251.712994848394
 30
0.0
 11
606.5857494024729
 21
277.2936228483941
 31
0.0
  0
LINE
  5
788
330
21
100
AcDbEntity
  8
ﾁｭｳｼﾝｾﾝ1
 48
0.8
100
AcDbLine
 10
481.585739402473
 20
251.712994848394
 30
0.0
 11
481.585739402473
 21
277.2936228483941
 31
0.0
  0
LINE
  5
789
330
21
100
AcDbEntity
  8
ﾁｭｳｼﾝｾﾝ
100
AcDbLine
 10
476.3514894024729
 20
395.044282848394
 30
0.0
 11
689.3649594024728
 21
395.044282848394
 31
0.0
  0
LINE
  5
78A
330
21
100
AcDbEntity
  8
ﾁｭｳｼﾝｾﾝ
100
AcDbLine
 10
349.6519163994133
 20
367.0443138483939
 30
0.0
 11
483.9327689549149
 21
367.0443138483939
 31
0.0
  0
LINE
  5
78D
330
21
100
AcDbEntity
  8
ﾁｭｳｼﾝｾﾝ1
 48
0.8
100
AcDbLine
 10
977.1119289211126
 20
277.293622848394
 30
0.0
 11
977.1119289211126
 21
251.712994848394
 31
0.0
  0
LINE
  5
78E
330
21
100
AcDbEntity
  8
ﾁｭｳｼﾝｾﾝ1
 48
0.8
100
AcDbLine
 10
787.1119329211128
 20
277.293622848394
 30
0.0
 11
787.1119329211128
 21
251.712994848394
 31
0.0
  0
LINE
  5
78F
330
21
100
AcDbEntity
  8
AM_0
100
AcDbLine
 10
887.1119199211129
 20
406.044319848394
 30
0.0
 11
887.1119199211129
 21
414.0442698483938
 31
0.0
  0
LINE
  5
790
330
21
100
AcDbEntity
  8
AM_0
100
AcDbLine
 10
877.1119209211128
 20
406.044319848394
 30
0.0
 11
887.1119199211129
 21
406.044319848394
 31
0.0
  0
LINE
  5
791
330
21
100
AcDbEntity
  8
AM_0
100
AcDbLine
 10
877.1119209211128
 20
406.044319848394
 30
0.0
 11
877.1119209211128
 21
414.0442698483938
 31
0.0
  0
LINE
  5
792
330
21
100
AcDbEntity
  8
AM_0
100
AcDbLine
 10
686.5857294024731
 20
379.0443138483939
 30
0.0
 11
628.5857094024732
 21
379.0443138483939
 31
0.0
  0
LINE
  5
793
330
21
100
AcDbEntity
  8
AM_0
100
AcDbLine
 10
628.5857094024732
 20
412.5442698483938
 30
0.0
 11
624.5857494024732
 21
412.5442698483938
 31
0.0
  0
LINE
  5
794
330
21
100
AcDbEntity
  8
AM_0
100
AcDbLine
 10
686.5857294024731
 20
414.0442698483938
 30
0.0
 11
641.5857294024731
 21
414.0442698483938
 31
0.0
  0
LINE
  5
795
330
21
100
AcDbEntity
  8
AM_0
100
AcDbLine
 10
686.5857294024731
 20
411.0442698483939
 30
0.0
 11
628.5857094024732
 21
411.0442698483939
 31
0.0
  0
LINE
  5
796
330
21
100
AcDbEntity
  8
AM_0
100
AcDbLine
 10
628.5857094024732
 20
377.5443138483939
 30
0.0
 11
624.5857494024732
 21
377.5443138483939
 31
0.0
  0
LINE
  5
797
330
21
100
AcDbEntity
  8
AM_0
100
AcDbLine
 10
628.5857094024732
 20
377.5443138483939
 30
0.0
 11
628.5857094024732
 21
412.5442698483938
 31
0.0
  0
LINE
  5
798
330
21
100
AcDbEntity
  8
AM_0
100
AcDbLine
 10
686.5857294024731
 20
379.0443138483939
 30
0.0
 11
686.5857294024731
 21
414.0442698483938
 31
0.0
  0
LINE
  5
799
330
21
100
AcDbEntity
  8
AM_0
100
AcDbLine
 10
641.5857294024731
 20
411.0442698483939
 30
0.0
 11
641.5857294024731
 21
414.0442698483938
 31
0.0
  0
LINE
  5
79A
330
21
100
AcDbEntity
  8
ﾁｭｳｼﾝｾﾝ
100
AcDbLine
 10
882.1119249211129
 20
248.3057869668788
 30
0.0
 11
882.1119339211128
 21
471.3504323416901
 31
0.0
  0
LINE
  5
79B
330
21
100
AcDbEntity
  8
AM_0
100
AcDbLine
 10
877.1119209211128
 20
414.0442698483938
 30
0.0
 11
887.1119199211129
 21
414.0442698483938
 31
0.0
  0
LINE
  5
79C
330
21
100
AcDbEntity
  8
ﾁｭｳｼﾝｾﾝ
100
AcDbLine
 10
829.3612639373295
 20
395.044282848394
 30
0.0
 11
936.7490797079565
 21
395.044282848394
 31
0.0
  0
LINE
  5
79D
330
21
100
AcDbEntity
  8
ｶｸﾚｾﾝ2
100
AcDbLine
 10
599.0857494024729
 20
273.044293848394
 30
0.0
 11
599.0857494024729
 21
255.044293848394
 31
0.0
  0
LINE
  5
79E
330
21
100
AcDbEntity
  8
AM_0
100
AcDbLine
 10
511.585739402473
 20
466.544329848394
 30
0.0
 11
511.585739402473
 21
310.544296848394
 31
0.0
  0
LINE
  5
79F
330
21
100
AcDbEntity
  8
AM_0
100
AcDbLine
 10
817.1119179211128
 20
269.044294848394
 30
0.0
 11
817.1119179211128
 21
255.044293848394
 31
0.0
  0
LINE
  5
7A0
330
21
100
AcDbEntity
  8
AM_0
100
AcDbLine
 10
767.1119229211129
 20
255.044293848394
 30
0.0
 11
817.1119179211128
 21
255.044293848394
 31
0.0
  0
LINE
  5
7A1
330
21
100
AcDbEntity
  8
AM_0
100
AcDbLine
 10
767.1119229211129
 20
270.0442938483941
 30
0.0
 11
767.1119229211129
 21
255.044293848394
 31
0.0
  0
LINE
  5
7A2
330
21
100
AcDbEntity
  8
AM_0
100
AcDbLine
 10
947.1119289211129
 20
255.044293848394
 30
0.0
 11
997.1119299211126
 21
255.044293848394
 31
0.0
  0
LINE
  5
7A3
330
21
100
AcDbEntity
  8
AM_0
100
AcDbLine
 10
947.1119289211129
 20
269.044294848394
 30
0.0
 11
947.1119289211129
 21
255.044293848394
 31
0.0
  0
LINE
  5
7A4
330
21
100
AcDbEntity
  8
AM_0
100
AcDbLine
 10
997.1119299211126
 20
270.0442938483941
 30
0.0
 11
997.1119299211126
 21
255.044293848394
 31
0.0
  0
LINE
  5
7A5
330
21
100
AcDbEntity
  8
AM_0
100
AcDbLine
 10
813.1119339211128
 20
273.044293848394
 30
0.0
 11
770.1119229211128
 21
273.044293848394
 31
0.0
  0
LINE
  5
7A6
330
21
100
AcDbEntity
  8
AM_0
100
AcDbLine
 10
951.1119309211126
 20
273.044293848394
 30
0.0
 11
994.1119299211129
 21
273.044293848394
 31
0.0
  0
LINE
  5
7A7
330
21
100
AcDbEntity
  8
AM_0
100
AcDbLine
 10
624.5857494024732
 20
395.044282848394
 30
0.0
 11
624.5857494024732
 21
422.3122398483938
 31
0.0
  0
LINE
  5
7A8
330
21
100
AcDbEntity
  8
AM_0
100
AcDbLine
 10
624.5857494024732
 20
367.776367848394
 30
0.0
 11
624.5857494024732
 21
395.044282848394
 31
0.0
  0
LINE
  5
7A9
330
21
100
AcDbEntity
  8
AM_0
100
AcDbLine
 10
619.085699402473
 20
362.868898848394
 30
0.0
 11
623.085719402473
 21
365.178286848394
 31
0.0
  0
LINE
  5
7AA
330
21
100
AcDbEntity
  8
AM_0
100
AcDbLine
 10
619.0857594024731
 20
427.219729848394
 30
0.0
 11
623.0857494024729
 21
424.9103298483938
 31
0.0
  0
LINE
  5
7AB
330
21
100
AcDbEntity
  8
AM_0
100
AcDbLine
 10
800.3979129211128
 20
438.3662898483938
 30
0.0
 11
787.3010799211128
 21
397.229647848394
 31
0.0
  0
LINE
  5
7AC
330
21
100
AcDbEntity
  8
ｶｸﾚｾﾝ2
100
AcDbLine
 10
969.6119289211129
 20
273.044293848394
 30
0.0
 11
969.6119289211129
 21
255.044293848394
 31
0.0
  0
LINE
  5
7AD
330
21
100
AcDbEntity
  8
ｶｸﾚｾﾝ2
100
AcDbLine
 10
984.6119319211128
 20
273.044293848394
 30
0.0
 11
984.6119319211128
 21
255.044293848394
 31
0.0
  0
LINE
  5
7AE
330
21
100
AcDbEntity
  8
ｶｸﾚｾﾝ2
100
AcDbLine
 10
614.085749402473
 20
273.044293848394
 30
0.0
 11
614.085749402473
 21
255.044293848394
 31
0.0
  0
LINE
  5
7AF
330
21
100
AcDbEntity
  8
ｶｸﾚｾﾝ2
100
AcDbLine
 10
599.0857494024729
 20
273.044293848394
 30
0.0
 11
599.0857494024729
 21
255.044293848394
 31
0.0
  0
LINE
  5
7B0
330
21
100
AcDbEntity
  8
AM_0
100
AcDbLine
 10
591.5857494024732
 20
273.044293848394
 30
0.0
 11
622.5857094024729
 21
273.044293848394
 31
0.0
  0
LINE
  5
7B1
330
21
100
AcDbEntity
  8
AM_0
100
AcDbLine
 10
501.585749402473
 20
257.044294848394
 30
0.0
 11
586.5857094024732
 21
257.044294848394
 31
0.0
  0
LINE
  5
7B2
330
21
100
AcDbEntity
  8
ｶｸﾚｾﾝ2
100
AcDbLine
 10
794.6119329211128
 20
273.044293848394
 30
0.0
 11
794.6119329211128
 21
255.044293848394
 31
0.0
  0
LINE
  5
7B3
330
21
100
AcDbEntity
  8
AM_0
100
AcDbLine
 10
617.5857294024731
 20
280.5836928483941
 30
0.0
 11
617.5857294024731
 21
439.044319848394
 31
0.0
  0
LINE
  5
7B4
330
21
100
AcDbEntity
  8
AM_0
100
AcDbLine
 10
576.585749402473
 20
288.044311848394
 30
0.0
 11
576.585749402473
 21
426.4870398483938
 31
0.0
  0
LINE
  5
7B5
330
21
100
AcDbEntity
  8
AM_0
100
AcDbLine
 10
465.5857494024729
 20
273.044293848394
 30
0.0
 11
496.6659294024731
 21
273.044293848394
 31
0.0
  0
LINE
  5
7B6
330
21
100
AcDbEntity
  8
AM_0
100
AcDbLine
 10
463.5857394024728
 20
255.044293848394
 30
0.0
 11
499.585739402473
 21
255.044293848394
 31
0.0
  0
LINE
  5
7B7
330
21
100
AcDbEntity
  8
AM_0
100
AcDbLine
 10
624.5857494024732
 20
255.044293848394
 30
0.0
 11
624.5857494024732
 21
271.0443108483939
 31
0.0
  0
LINE
  5
7B8
330
21
100
AcDbEntity
  8
AM_0
100
AcDbLine
 10
463.5857394024728
 20
255.044293848394
 30
0.0
 11
463.5857394024728
 21
271.0443108483939
 31
0.0
  0
LINE
  5
7B9
330
21
100
AcDbEntity
  8
AM_0
100
AcDbLine
 10
500.4756294024731
 20
275.8251948483939
 30
0.0
 11
515.3954394024728
 21
322.449586848394
 31
0.0
  0
LINE
  5
7BA
330
21
100
AcDbEntity
  8
ｶｸﾚｾﾝ2
100
AcDbLine
 10
779.6119329211128
 20
273.044293848394
 30
0.0
 11
779.6119329211128
 21
255.044293848394
 31
0.0
  0
LINE
  5
7BB
330
21
100
AcDbEntity
  8
AM_0
100
AcDbLine
 10
596.5857294024731
 20
295.502029848394
 30
0.0
 11
596.5857294024731
 21
456.5252298483938
 31
0.0
  0
LINE
  5
7BC
330
21
100
AcDbEntity
  8
AM_0
100
AcDbLine
 10
604.585709402473
 20
443.044309848394
 30
0.0
 11
613.5857094024729
 21
443.044309848394
 31
0.0
  0
LINE
  5
7BD
330
21
100
AcDbEntity
  8
AM_0
100
AcDbLine
 10
817.1119179211128
 20
378.044281848394
 30
0.0
 11
817.1119179211128
 21
288.044311848394
 31
0.0
  0
LINE
  5
7BE
330
21
100
AcDbEntity
  8
AM_0
100
AcDbLine
 10
810.7899729211126
 20
448.758349848394
 30
0.0
 11
851.9265999211128
 21
461.8551798483938
 31
0.0
  0
LINE
  5
7BF
330
21
100
AcDbEntity
  8
AM_0
100
AcDbLine
 10
515.5857294024731
 20
323.668702848394
 30
0.0
 11
515.5857294024731
 21
381.6920478483941
 31
0.0
  0
LINE
  5
7C0
330
21
100
AcDbEntity
  8
AM_0
100
AcDbLine
 10
964.2278889211128
 20
438.565069848394
 30
0.0
 11
977.2238169211128
 21
396.267214848394
 31
0.0
  0
LINE
  5
7C1
330
21
100
AcDbEntity
  8
AM_0
100
AcDbLine
 10
953.6326749211129
 20
449.1602598483939
 30
0.0
 11
911.3348529211128
 21
462.156169848394
 31
0.0
  0
LINE
  5
7C2
330
21
100
AcDbEntity
  8
AM_0
100
AcDbLine
 10
947.1119289211129
 20
378.044281848394
 30
0.0
 11
947.1119289211129
 21
288.044311848394
 31
0.0
  0
LINE
  5
7C3
330
21
100
AcDbEntity
  8
AM_0
100
AcDbLine
 10
959.1119289211126
 20
427.137979848394
 30
0.0
 11
959.1119289211126
 21
328.781554848394
 31
0.0
  0
LINE
  5
7C4
330
21
100
AcDbEntity
  8
AM_0
100
AcDbLine
 10
805.1119329211129
 20
427.137979848394
 30
0.0
 11
805.1119329211129
 21
328.781554848394
 31
0.0
  0
LINE
  5
7C5
330
21
100
AcDbEntity
  8
AM_0
100
AcDbLine
 10
511.585739402473
 20
466.544299848394
 30
0.0
 11
588.7951194024731
 21
464.522509848394
 31
0.0
  0
LINE
  5
7C6
330
21
100
AcDbEntity
  8
AM_0
100
AcDbLine
 10
997.0792479211128
 20
270.485929848394
 30
0.0
 11
980.5278459211127
 21
381.692080848394
 31
0.0
  0
LINE
  5
7C7
330
21
100
AcDbEntity
  8
AM_0
100
AcDbLine
 10
767.1446229211128
 20
270.485929848394
 30
0.0
 11
783.6960069211128
 21
381.692080848394
 31
0.0
  0
LINE
  5
7C8
330
21
100
AcDbEntity
  8
AM_0
100
AcDbLine
 10
511.585739402473
 20
381.6920478483941
 30
0.0
 11
515.5857294024731
 21
381.6920478483941
 31
0.0
  0
LINE
  5
7C9
330
21
100
AcDbEntity
  8
AM_0
100
AcDbLine
 10
581.6607294024731
 20
287.5020438483939
 30
0.0
 11
588.5857494024731
 21
287.5020438483939
 31
0.0
  0
LINE
  5
7CA
330
21
100
AcDbEntity
  8
AM_0
100
AcDbLine
 10
588.5857494024731
 20
255.044293848394
 30
0.0
 11
624.5857494024732
 21
255.044293848394
 31
0.0
  0
LINE
  5
7CB
330
21
100
AcDbEntity
  8
AM_0
100
AcDbLine
 10
588.5857494024731
 20
255.044293848394
 30
0.0
 11
588.5857494024731
 21
255.044293848394
 31
0.0
  0
LINE
  5
7CC
330
21
100
AcDbEntity
  8
AM_0
100
AcDbLine
 10
819.1119189211129
 20
257.044294848394
 30
0.0
 11
945.1119309211128
 21
257.044294848394
 31
0.0
  0
LINE
  5
7CD
330
21
100
AcDbEntity
  8
AM_0
100
AcDbLine
 10
584.5857294024731
 20
434.4869898483938
 30
0.0
 11
592.985219402473
 21
434.4869898483938
 31
0.0
  0
LINE
  5
7CE
330
21
100
AcDbEntity
  8
AM_0
100
AcDbLine
 10
511.585739402473
 20
397.229617848394
 30
0.0
 11
511.587329402473
 21
397.229617848394
 31
0.0
  0
LINE
  5
7CF
330
21
100
AcDbEntity
  8
AM_0
100
AcDbLine
 10
511.585739402473
 20
397.229617848394
 30
0.0
 11
539.3543994024732
 21
422.5160898483938
 31
0.0
  0
LINE
  5
7D0
330
21
100
AcDbEntity
  8
ｶｸﾚｾﾝ2
100
AcDbLine
 10
489.0857394024727
 20
273.044293848394
 30
0.0
 11
489.0857394024727
 21
255.044293848394
 31
0.0
  0
LINE
  5
7D1
330
21
100
AcDbEntity
  8
ｶｸﾚｾﾝ2
100
AcDbLine
 10
474.085739402473
 20
273.044293848394
 30
0.0
 11
474.085739402473
 21
255.044293848394
 31
0.0
  0
LINE
  5
7D2
330
21
100
AcDbEntity
  8
AM_0
100
AcDbLine
 10
491.206949402473
 20
445.179589848394
 30
0.0
 11
511.585739402473
 21
445.179589848394
 31
0.0
  0
LINE
  5
7D3
330
21
100
AcDbEntity
  8
AM_0
100
AcDbLine
 10
455.0857494024731
 20
293.544295848394
 30
0.0
 11
487.1555694024731
 21
292.424392848394
 31
0.0
  0
LINE
  5
7D4
330
21
100
AcDbEntity
  8
AM_0
100
AcDbLine
 10
503.5159194024729
 20
466.2624798483938
 30
0.0
 11
511.585739402473
 21
466.544329848394
 31
0.0
  0
LINE
  5
7D5
330
21
100
AcDbEntity
  8
AM_0
100
AcDbLine
 10
455.0857494024731
 20
440.5442898483938
 30
0.0
 11
486.6904194024729
 21
441.6479598483938
 31
0.0
  0
LINE
  5
7D6
330
21
100
AcDbEntity
  8
AM_0
100
AcDbLine
 10
501.585749402473
 20
279.2943108483939
 30
0.0
 11
501.585749402473
 21
284.6265258483938
 31
0.0
  0
LINE
  5
7D7
330
21
100
AcDbEntity
  8
AM_0
100
AcDbLine
 10
492.4809894024729
 20
461.0665098483939
 30
0.0
 11
499.655489402473
 21
461.317009848394
 31
0.0
  0
LINE
  5
7D8
330
21
100
AcDbEntity
  8
AM_0
100
AcDbLine
 10
489.5857494024729
 20
458.068369848394
 30
0.0
 11
489.5857494024729
 21
276.020857848394
 31
0.0
  0
LINE
  5
7D9
330
21
100
AcDbEntity
  8
AM_0
100
AcDbLine
 10
491.5857294024731
 20
450.3469698483939
 30
0.0
 11
499.585739402473
 21
450.3469698483939
 31
0.0
  0
LINE
  5
7DA
330
21
100
AcDbEntity
  8
AM_0
100
AcDbLine
 10
491.5857294024731
 20
433.3763898483938
 30
0.0
 11
499.585739402473
 21
433.3763898483938
 31
0.0
  0
LINE
  5
7DB
330
21
100
AcDbEntity
  8
AM_0
100
AcDbLine
 10
491.064239402473
 20
424.426969848394
 30
0.0
 11
500.0148294024731
 21
424.426969848394
 31
0.0
  0
LINE
  5
7DC
330
21
100
AcDbEntity
  8
AM_0
100
AcDbLine
 10
501.585749402473
 20
452.3469498483939
 30
0.0
 11
501.585749402473
 21
464.263699848394
 31
0.0
  0
LINE
  5
7DD
330
21
100
AcDbEntity
  8
AM_0
100
AcDbLine
 10
455.0857494024731
 20
327.5696268483939
 30
0.0
 11
489.5857494024729
 21
327.5696268483939
 31
0.0
  0
LINE
  5
7DE
330
21
100
AcDbEntity
  8
AM_0
100
AcDbLine
 10
455.0857494024731
 20
406.518979848394
 30
0.0
 11
489.5857494024729
 21
406.518979848394
 31
0.0
  0
LINE
  5
7DF
330
21
100
AcDbEntity
  8
AM_0
100
AcDbLine
 10
491.5857294024731
 20
286.626523848394
 30
0.0
 11
499.585739402473
 21
286.626523848394
 31
0.0
  0
LINE
  5
7E0
330
21
100
AcDbEntity
  8
AM_0
100
AcDbLine
 10
491.5857294024731
 20
307.301620848394
 30
0.0
 11
499.585739402473
 21
307.301620848394
 31
0.0
  0
LINE
  5
7E1
330
21
100
AcDbEntity
  8
AM_0
100
AcDbLine
 10
501.585749402473
 20
303.184921848394
 30
0.0
 11
509.2307694024731
 21
303.184921848394
 31
0.0
  0
LINE
  5
7E2
330
21
100
AcDbEntity
  8
AM_0
100
AcDbLine
 10
501.585749402473
 20
305.184919848394
 30
0.0
 11
501.585749402473
 21
431.376409848394
 31
0.0
  0
LINE
  5
7E3
330
21
100
AcDbEntity
  8
AM_0
100
AcDbLine
 10
455.0857494024731
 20
428.6229498483939
 30
0.0
 11
489.5857494024729
 21
428.6229498483939
 31
0.0
  0
LINE
  5
7E4
330
21
100
AcDbEntity
  8
AM_0
100
AcDbLine
 10
455.0857494024731
 20
305.465668848394
 30
0.0
 11
489.5857494024729
 21
305.465668848394
 31
0.0
  0
LINE
  5
7E5
330
21
100
AcDbEntity
  8
ﾁｭｳｼﾝｾﾝ
100
AcDbLine
 10
795.7551819211127
 20
367.0443138483939
 30
0.0
 11
969.6219789211127
 21
367.0443138483939
 31
0.0
  0
CIRCLE
  5
7EA
330
21
100
AcDbEntity
  8
AM_0
100
AcDbCircle
 10
882.1119339211128
 20
395.044282848394
 30
0.0
 40
2.75000007
  0
CIRCLE
  5
7EB
330
21
100
AcDbEntity
  8
AM_5
100
AcDbCircle
 10
882.1119339211128
 20
395.044282848394
 30
0.0
 40
4.000000199999998
  0
ARC
  5
7EC
330
21
100
AcDbEntity
  8
AM_0
100
AcDbCircle
 10
882.1119339211128
 20
395.044282848394
 30
0.0
 40
16.0000005
100
AcDbArc
 50
108.2099600000001
 51
71.79005200000034
  0
ARC
  5
7ED
330
21
100
AcDbEntity
  8
AM_0
100
AcDbCircle
 10
501.585749402473
 20
255.044293848394
 30
0.0
 40
2.00000007
100
AcDbArc
 50
90.0000029999993
 51
180.0000099999994
  0
ARC
  5
7EE
330
21
100
AcDbEntity
  8
AM_0
100
AcDbCircle
 10
813.1119339211128
 20
269.044294848394
 30
0.0
 40
4.000000199999998
100
AcDbArc
 50
0.0
 51
90.0000029999993
  0
ARC
  5
7EF
330
21
100
AcDbEntity
  8
AM_0
100
AcDbCircle
 10
496.6659294024731
 20
277.0443108483939
 30
0.0
 40
4.000000199999998
100
AcDbArc
 50
270.0
 51
342.2553299999993
  0
ARC
  5
7F0
330
21
100
AcDbEntity
  8
AM_0
100
AcDbCircle
 10
511.585739402473
 20
323.668702848394
 30
0.0
 40
4.000000199999998
100
AcDbArc
 50
342.2553299999993
 51
0.0
  0
ARC
  5
7F1
330
21
100
AcDbEntity
  8
AM_0
100
AcDbCircle
 10
591.5857494024732
 20
288.044311848394
 30
0.0
 40
15.00000029999999
100
AcDbArc
 50
179.999989999999
 51
270.0
  0
ARC
  5
7F2
330
21
100
AcDbEntity
  8
AM_0
100
AcDbCircle
 10
584.5857294024731
 20
426.4870398483938
 30
0.0
 40
8.000000099999999
100
AcDbArc
 50
90.0000029999993
 51
180.0000099999994
  0
ARC
  5
7F3
330
21
100
AcDbEntity
  8
AM_0
100
AcDbCircle
 10
770.1119229211128
 20
270.0442938483941
 30
0.0
 40
3.0
100
AcDbArc
 50
90.0000029999993
 51
180.0000099999994
  0
ARC
  5
7F4
330
21
100
AcDbEntity
  8
AM_0
100
AcDbCircle
 10
994.1119299211129
 20
270.0442938483941
 30
0.0
 40
3.0
100
AcDbArc
 50
0.0
 51
90.0000029999993
  0
ARC
  5
7F5
330
21
100
AcDbEntity
  8
AM_0
100
AcDbCircle
 10
951.1119309211126
 20
269.044294848394
 30
0.0
 40
4.000000199999998
100
AcDbArc
 50
90.0000029999993
 51
180.0000099999994
  0
ARC
  5
7F6
330
21
100
AcDbEntity
  8
AM_0
100
AcDbCircle
 10
882.1119339211128
 20
328.781554848394
 30
0.0
 40
77.000001
100
AcDbArc
 50
179.999989999999
 51
212.4183899999994
  0
ARC
  5
7F7
330
21
100
AcDbEntity
  8
AM_0
100
AcDbCircle
 10
620.5857294024731
 20
360.270784848394
 30
0.0
 40
3.0
100
AcDbArc
 50
119.9999999999997
 51
180.0000099999994
  0
ARC
  5
7F8
330
21
100
AcDbEntity
  8
AM_0
100
AcDbCircle
 10
620.5857294024731
 20
429.817819848394
 30
0.0
 40
3.0
100
AcDbArc
 50
179.999989999999
 51
240.0000099999997
  0
ARC
  5
7F9
330
21
100
AcDbEntity
  8
AM_0
100
AcDbCircle
 10
621.5857494024731
 20
422.3122398483938
 30
0.0
 40
3.0
100
AcDbArc
 50
0.0
 51
60.0000019999999
  0
ARC
  5
7FA
330
21
100
AcDbEntity
  8
AM_0
100
AcDbCircle
 10
621.5857494024731
 20
367.776367848394
 30
0.0
 40
3.0
100
AcDbArc
 50
299.9999999999997
 51
0.0
  0
ARC
  5
7FB
330
21
100
AcDbEntity
  8
AM_0
100
AcDbCircle
 10
588.5857494024731
 20
456.5252298483938
 30
0.0
 40
8.000000099999999
100
AcDbArc
 50
0.0
 51
88.49999700000074
  0
ARC
  5
7FC
330
21
100
AcDbEntity
  8
AM_0
100
AcDbCircle
 10
802.1119329211128
 20
288.044311848394
 30
0.0
 40
15.00000029999999
100
AcDbArc
 50
270.0
 51
0.0
  0
ARC
  5
7FD
330
21
100
AcDbEntity
  8
AM_0
100
AcDbCircle
 10
465.5857494024729
 20
271.0443108483939
 30
0.0
 40
2.00000007
100
AcDbArc
 50
90.0000029999993
 51
180.0000099999994
  0
ARC
  5
7FE
330
21
100
AcDbEntity
  8
AM_0
100
AcDbCircle
 10
622.5857094024729
 20
271.0443108483939
 30
0.0
 40
2.00000007
100
AcDbArc
 50
0.0
 51
90.0000029999993
  0
ARC
  5
7FF
330
21
100
AcDbEntity
  8
AM_0
100
AcDbCircle
 10
588.5857494024731
 20
295.502029848394
 30
0.0
 40
8.000000099999999
100
AcDbArc
 50
270.0
 51
0.0
  0
ARC
  5
800
330
21
100
AcDbEntity
  8
AM_0
100
AcDbCircle
 10
945.1119309211128
 20
255.044293848394
 30
0.0
 40
2.00000007
100
AcDbArc
 50
0.0
 51
90.0000029999993
  0
ARC
  5
801
330
21
100
AcDbEntity
  8
AM_0
100
AcDbCircle
 10
819.1119189211129
 20
255.044293848394
 30
0.0
 40
2.00000007
100
AcDbArc
 50
90.0000029999993
 51
180.0000099999994
  0
ARC
  5
802
330
21
100
AcDbEntity
  8
AM_0
100
AcDbCircle
 10
604.585709402473
 20
451.0443198483939
 30
0.0
 40
8.000000099999999
100
AcDbArc
 50
179.999989999999
 51
270.0
  0
ARC
  5
803
330
21
100
AcDbEntity
  8
AM_0
100
AcDbCircle
 10
882.1119339211128
 20
378.044281848394
 30
0.0
 40
65.000001
100
AcDbArc
 50
0.0
 51
180.0000099999994
  0
ARC
  5
804
330
21
100
AcDbEntity
  8
AM_0
100
AcDbCircle
 10
882.1119339211128
 20
367.0443138483939
 30
0.0
 40
99.500004
100
AcDbArc
 50
8.465490099999916
 51
171.5344999999999
  0
ARC
  5
805
330
21
100
AcDbEntity
  8
AM_0
100
AcDbCircle
 10
625.585709402473
 20
280.5836928483941
 30
0.0
 40
8.000000099999999
100
AcDbArc
 50
179.999989999999
 51
252.5423900000004
  0
ARC
  5
806
330
21
100
AcDbEntity
  8
AM_0
100
AcDbCircle
 10
948.9335229211128
 20
433.8658998483938
 30
0.0
 40
16.0000005
100
AcDbArc
 50
17.07946299999921
 51
72.92053399999923
  0
ARC
  5
807
330
21
100
AcDbEntity
  8
AM_0
100
AcDbCircle
 10
962.1119289211128
 20
288.044311848394
 30
0.0
 40
15.00000029999999
100
AcDbArc
 50
179.999989999999
 51
270.0
  0
ARC
  5
808
330
21
100
AcDbEntity
  8
AM_0
100
AcDbCircle
 10
882.1119339211128
 20
328.781554848394
 30
0.0
 40
77.000001
100
AcDbArc
 50
327.5815999999997
 51
0.0
  0
ARC
  5
809
330
21
100
AcDbEntity
  8
AM_0
100
AcDbCircle
 10
815.6438709211128
 20
433.5123198483938
 30
0.0
 40
16.0000005
100
AcDbArc
 50
107.0794599999997
 51
162.9205299999997
  0
ARC
  5
80A
330
21
100
AcDbEntity
  8
AM_0
100
AcDbCircle
 10
586.5857094024732
 20
255.044293848394
 30
0.0
 40
2.00000007
100
AcDbArc
 50
0.0
 51
90.0000029999993
  0
ARC
  5
80B
330
21
100
AcDbEntity
  8
AM_0
100
AcDbCircle
 10
951.1119309211126
 20
427.137979848394
 30
0.0
 40
8.000000099999999
100
AcDbArc
 50
0.0
 51
41.05335100000092
  0
ARC
  5
80C
330
21
100
AcDbEntity
  8
AM_0
100
AcDbCircle
 10
813.1119339211128
 20
427.137979848394
 30
0.0
 40
8.000000099999999
100
AcDbArc
 50
138.9466499999997
 51
180.0000099999994
  0
ARC
  5
80D
330
21
100
AcDbEntity
  8
AM_0
100
AcDbCircle
 10
613.5857094024729
 20
439.044319848394
 30
0.0
 40
4.000000199999998
100
AcDbArc
 50
0.0
 51
90.0000029999993
  0
CIRCLE
  5
80E
330
21
100
AcDbEntity
  8
AM_0
100
AcDbCircle
 10
882.1119339211128
 20
395.044282848394
 30
0.0
 40
29.000001
  0
ARC
  5
80F
330
21
100
AcDbEntity
  8
AM_0
100
AcDbCircle
 10
486.5857494024729
 20
444.6461598483938
 30
0.0
 40
3.0
100
AcDbArc
 50
272.0000000000004
 51
0.0
  0
ARC
  5
810
330
21
100
AcDbEntity
  8
AM_0
100
AcDbCircle
 10
486.5857494024729
 20
289.442473848394
 30
0.0
 40
3.0
100
AcDbArc
 50
0.0
 51
87.99999999999959
  0
ARC
  5
811
330
21
100
AcDbEntity
  8
AM_0
100
AcDbCircle
 10
503.5857294024731
 20
464.263699848394
 30
0.0
 40
2.00000007
100
AcDbArc
 50
91.99999800000057
 51
180.0000099999994
  0
ARC
  5
812
330
21
100
AcDbEntity
  8
AM_0
100
AcDbCircle
 10
492.5857494024731
 20
276.020857848394
 30
0.0
 40
3.0
100
AcDbArc
 50
179.999989999999
 51
268.0000100000003
  0
ARC
  5
813
330
21
100
AcDbEntity
  8
AM_0
100
AcDbCircle
 10
492.5857494024731
 20
458.068369848394
 30
0.0
 40
3.0
100
AcDbArc
 50
91.99999800000057
 51
180.0000099999994
  0
ARC
  5
814
330
21
100
AcDbEntity
  8
AM_0
100
AcDbCircle
 10
499.585739402473
 20
463.315849848394
 30
0.0
 40
2.00000007
100
AcDbArc
 50
272.0000000000004
 51
0.0
  0
ARC
  5
815
330
21
100
AcDbEntity
  8
AM_0
100
AcDbCircle
 10
499.585739402473
 20
452.3469498483939
 30
0.0
 40
2.00000007
100
AcDbArc
 50
270.0
 51
0.0
  0
ARC
  5
816
330
21
100
AcDbEntity
  8
AM_0
100
AcDbCircle
 10
499.585739402473
 20
431.376409848394
 30
0.0
 40
2.00000007
100
AcDbArc
 50
0.0
 51
90.0000029999993
  0
ARC
  5
817
330
21
100
AcDbEntity
  8
AM_0
100
AcDbCircle
 10
491.5857294024731
 20
448.346959848394
 30
0.0
 40
2.00000007
100
AcDbArc
 50
90.0000029999993
 51
180.0000099999994
  0
ARC
  5
818
330
21
100
AcDbEntity
  8
AM_0
100
AcDbCircle
 10
491.5857294024731
 20
435.3763698483938
 30
0.0
 40
2.00000007
100
AcDbArc
 50
179.999989999999
 51
270.0
  0
ARC
  5
819
330
21
100
AcDbEntity
  8
AM_0
100
AcDbCircle
 10
491.5857294024731
 20
288.626509848394
 30
0.0
 40
2.00000007
100
AcDbArc
 50
179.999989999999
 51
270.0
  0
ARC
  5
81A
330
21
100
AcDbEntity
  8
AM_0
100
AcDbCircle
 10
491.5857294024731
 20
309.301636848394
 30
0.0
 40
2.00000007
100
AcDbArc
 50
179.999989999999
 51
270.0
  0
ARC
  5
81B
330
21
100
AcDbEntity
  8
AM_0
100
AcDbCircle
 10
499.585739402473
 20
284.6265258483938
 30
0.0
 40
2.00000007
100
AcDbArc
 50
0.0
 51
90.0000029999993
  0
ARC
  5
81C
330
21
100
AcDbEntity
  8
AM_0
100
AcDbCircle
 10
499.585739402473
 20
309.301636848394
 30
0.0
 40
2.00000007
100
AcDbArc
 50
270.0
 51
0.0
  0
ARC
  5
81D
330
21
100
AcDbEntity
  8
AM_0
100
AcDbCircle
 10
499.585739402473
 20
305.184919848394
 30
0.0
 40
2.00000007
100
AcDbArc
 50
270.0
 51
0.0
  0
POLYLINE
  5
81E
330
21
100
AcDbEntity
  8
AM_0
100
AcDb2dPolyline
 66
     1
 10
0.0
 20
0.0
 30
0.0
  0
VERTEX
  5
81F
330
81E
100
AcDbEntity
  8
AM_0
100
AcDbVertex
100
AcDb2dVertex
 10
539.3549394024729
 20
422.516629848394
 30
0.0
 42
0.038759412
  0
VERTEX
  5
820
330
81E
100
AcDbEntity
  8
AM_0
100
AcDbVertex
100
AcDb2dVertex
 10
542.102759402473
 20
425.427469848394
 30
0.0
 42
0.04530642
  0
VERTEX
  5
821
330
81E
100
AcDbEntity
  8
AM_0
100
AcDbVertex
100
AcDb2dVertex
 10
544.3249494024732
 20
428.7551898483938
 30
0.0
 42
0.052171517
  0
VERTEX
  5
822
330
81E
100
AcDbEntity
  8
AM_0
100
AcDbVertex
100
AcDb2dVertex
 10
545.8616394024728
 20
432.4529898483938
 30
0.0
 42
0.057266797
  0
VERTEX
  5
823
330
81E
100
AcDbEntity
  8
AM_0
100
AcDbVertex
100
AcDb2dVertex
 10
546.5558994024729
 20
436.3917498483941
 30
0.0
 42
0.058402473
  0
VERTEX
  5
824
330
81E
100
AcDbEntity
  8
AM_0
100
AcDbVertex
100
AcDb2dVertex
 10
546.325139402473
 20
440.379949848394
 30
0.0
 42
0.055045428
  0
VERTEX
  5
825
330
81E
100
AcDbEntity
  8
AM_0
100
AcDbVertex
100
AcDb2dVertex
 10
545.1996294024731
 20
444.215119848394
 30
0.0
 42
0.048778207
  0
VERTEX
  5
826
330
81E
100
AcDbEntity
  8
AM_0
100
AcDbVertex
100
AcDb2dVertex
 10
543.3067494024729
 20
447.735649848394
 30
0.0
 42
0.041944178
  0
VERTEX
  5
827
330
81E
100
AcDbEntity
  8
AM_0
100
AcDbVertex
100
AcDb2dVertex
 10
540.8092494024731
 20
450.8586798483938
 30
0.0
 42
0.035908203
  0
VERTEX
  5
828
330
81E
100
AcDbEntity
  8
AM_0
100
AcDbVertex
100
AcDb2dVertex
 10
537.8566494024729
 20
453.559459848394
 30
0.0
 42
0.031063143
  0
VERTEX
  5
829
330
81E
100
AcDbEntity
  8
AM_0
100
AcDbVertex
100
AcDb2dVertex
 10
534.5699694024731
 20
455.8434198483938
 30
0.0
 42
0.027381807
  0
VERTEX
  5
82A
330
81E
100
AcDbEntity
  8
AM_0
100
AcDbVertex
100
AcDb2dVertex
 10
531.0380394024731
 20
457.730509848394
 30
0.0
 42
0.024647351
  0
VERTEX
  5
82B
330
81E
100
AcDbEntity
  8
AM_0
100
AcDbVertex
100
AcDb2dVertex
 10
527.329019402473
 20
459.2416398483938
 30
0.0
 42
0.022677519
  0
VERTEX
  5
82C
330
81E
100
AcDbEntity
  8
AM_0
100
AcDbVertex
100
AcDb2dVertex
 10
523.493639402473
 20
460.396309848394
 30
0.0
 42
0.021321472
  0
VERTEX
  5
82D
330
81E
100
AcDbEntity
  8
AM_0
100
AcDbVertex
100
AcDb2dVertex
 10
519.571229402473
 20
461.210149848394
 30
0.0
 42
0.020471059
  0
VERTEX
  5
82E
330
81E
100
AcDbEntity
  8
AM_0
100
AcDbVertex
100
AcDb2dVertex
 10
515.5943394024729
 20
461.6941998483938
 30
0.0
 42
0.020088491
  0
VERTEX
  5
82F
330
81E
100
AcDbEntity
  8
AM_0
100
AcDbVertex
100
AcDb2dVertex
 10
511.5857094024731
 20
461.855119848394
 30
0.0
  0
SEQEND
  5
830
330
81E
100
AcDbEntity
  8
AM_0
 62
     7
  0
POLYLINE
  5
831
330
21
100
AcDbEntity
  8
AM_0
100
AcDb2dPolyline
 66
     1
 10
0.0
 20
0.0
 30
0.0
  0
VERTEX
  5
832
330
831
100
AcDbEntity
  8
AM_0
100
AcDbVertex
100
AcDb2dVertex
 10
545.0423994024729
 20
439.6856898483938
 30
0.0
 42
0.046333928
  0
VERTEX
  5
833
330
831
100
AcDbEntity
  8
AM_0
100
AcDbVertex
100
AcDb2dVertex
 10
543.1905894024729
 20
440.7433398483938
 30
0.0
 42
0.024113287
  0
VERTEX
  5
834
330
831
100
AcDbEntity
  8
AM_0
100
AcDbVertex
100
AcDb2dVertex
 10
541.2110994024731
 20
441.5431998483938
 30
0.0
 42
0.015482173
  0
VERTEX
  5
835
330
831
100
AcDbEntity
  8
AM_0
100
AcDbVertex
100
AcDb2dVertex
 10
539.174159402473
 20
442.187869848394
 30
0.0
 42
0.01117072
  0
VERTEX
  5
836
330
831
100
AcDbEntity
  8
AM_0
100
AcDbVertex
100
AcDb2dVertex
 10
537.106439402473
 20
442.7243598483938
 30
0.0
 42
0.0086851636
  0
VERTEX
  5
837
330
831
100
AcDbEntity
  8
AM_0
100
AcDbVertex
100
AcDb2dVertex
 10
535.018859402473
 20
443.179009848394
 30
0.0
 42
0.0071112813
  0
VERTEX
  5
838
330
831
100
AcDbEntity
  8
AM_0
100
AcDbVertex
100
AcDb2dVertex
 10
532.917179402473
 20
443.5680498483939
 30
0.0
 42
0.0060487741
  0
VERTEX
  5
839
330
831
100
AcDbEntity
  8
AM_0
100
AcDbVertex
100
AcDb2dVertex
 10
530.8044594024729
 20
443.902069848394
 30
0.0
 42
0.0052886701
  0
VERTEX
  5
83A
330
831
100
AcDbEntity
  8
AM_0
100
AcDbVertex
100
AcDb2dVertex
 10
528.687089402473
 20
444.187909848394
 30
0.0
 42
0.0047450804
  0
VERTEX
  5
83B
330
831
100
AcDbEntity
  8
AM_0
100
AcDbVertex
100
AcDb2dVertex
 10
526.5619794024729
 20
444.431569848394
 30
0.0
 42
0.004337472
  0
VERTEX
  5
83C
330
831
100
AcDbEntity
  8
AM_0
100
AcDbVertex
100
AcDb2dVertex
 10
524.4322794024731
 20
444.6367098483939
 30
0.0
 42
0.0040309329
  0
VERTEX
  5
83D
330
831
100
AcDbEntity
  8
AM_0
100
AcDbVertex
100
AcDb2dVertex
 10
522.2994894024728
 20
444.806209848394
 30
0.0
 42
0.0038017188
  0
VERTEX
  5
83E
330
831
100
AcDbEntity
  8
AM_0
100
AcDbVertex
100
AcDb2dVertex
 10
520.1642694024728
 20
444.942349848394
 30
0.0
 42
0.0036333127
  0
VERTEX
  5
83F
330
831
100
AcDbEntity
  8
AM_0
100
AcDbVertex
100
AcDb2dVertex
 10
518.027189402473
 20
445.046719848394
 30
0.0
 42
0.0035147917
  0
VERTEX
  5
840
330
831
100
AcDbEntity
  8
AM_0
100
AcDbVertex
100
AcDb2dVertex
 10
515.8887894024728
 20
445.1205798483938
 30
0.0
 42
0.0034390753
  0
VERTEX
  5
841
330
831
100
AcDbEntity
  8
AM_0
100
AcDbVertex
100
AcDb2dVertex
 10
513.7495494024729
 20
445.164709848394
 30
0.0
 42
0.0034021186
  0
VERTEX
  5
842
330
831
100
AcDbEntity
  8
AM_0
100
AcDbVertex
100
AcDb2dVertex
 10
511.6098594024729
 20
445.179589848394
 30
0.0
  0
SEQEND
  5
843
330
831
100
AcDbEntity
  8
AM_0
 62
     7
  0
LINE
  5
857
330
21
100
AcDbEntity
  8
AM_0
100
AcDbLine
 10
455.0857494024731
 20
440.5442898483938
 30
0.0
 11
455.0857494024731
 21
293.544295848394
 31
0.0
  0
LINE
  5
858
330
21
100
AcDbEntity
  8
0
100
AcDbLine
 10
355.0857494024731
 20
327.0442928483939
 30
0.0
 11
355.0857494024731
 21
407.0442928483941
 31
0.0
  0
LINE
  5
85A
330
21
100
AcDbEntity
  8
0
100
AcDbLine
 10
455.0857494024731
 20
441.0430313621218
 30
0.0
 11
445.015950409068
 21
440.6913862326446
 31
0.0
  0
LINE
  5
85B
330
21
100
AcDbEntity
  8
0
100
AcDbLine
 10
443.085749402473
 20
438.6926045786066
 30
0.0
 11
443.0857494024746
 21
295.3959811181817
 31
0.0
  0
ARC
  5
85C
330
21
100
AcDbEntity
  8
0
100
AcDbCircle
 10
445.0857494024729
 20
438.6926045786066
 30
0.0
 40
2.0
100
AcDbArc
 50
92.0000000000004
 51
180.0
1001
GENIUS_GENODEF_13
1002
{
1000
HIER
1070
     0
1002
}
1002
{
1000
MANEDIT
1070
     0
1002
}
1002
{
1000
NOSEL
1070
     0
1002
}
1002
{
1000
BEHIND
1070
     0
1002
}
1002
{
1000
OTHER
1070
     0
1002
}
1002
{
1000
REACTOR
1002
}
1001
GENIUS_GENOBJ-N-FIL_13
1002
{
1000
OWNER
1000
GEN
1002
}
  0
LINE
  5
85D
330
21
100
AcDbEntity
  8
0
100
AcDbLine
 10
414.4603060283064
 20
409.1176980539998
 30
0.0
 11
355.0857494024731
 21
407.0442928483941
 31
0.0
  0
ARC
  5
85E
330
21
100
AcDbEntity
  8
0
100
AcDbCircle
 10
413.9368135777688
 20
424.1085604592863
 30
0.0
 40
15.0
100
AcDbArc
 50
272.0000000000004
 51
315.0
1001
GENIUS_GENODEF_13
1002
{
1000
HIER
1070
     0
1002
}
1002
{
1000
MANEDIT
1070
     0
1002
}
1002
{
1000
NOSEL
1070
     0
1002
}
1002
{
1000
BEHIND
1070
     0
1002
}
1002
{
1000
OTHER
1070
     0
1002
}
1002
{
1000
REACTOR
1002
}
1001
GENIUS_GENOBJ-N-FIL_13
1002
{
1000
OWNER
1000
GEN
1002
}
  0
LINE
  5
85F
330
21
100
AcDbEntity
  8
0
100
AcDbLine
 10
424.5434152955671
 20
413.501958741488
 30
0.0
 11
441.6212833084056
 21
430.5798267543268
 31
0.0
  0
ARC
  5
860
330
21
100
AcDbEntity
  8
0
100
AcDbCircle
 10
438.0857494024728
 20
434.1153606602595
 30
0.0
 40
5.0
100
AcDbArc
 50
315.0
 51
0.0
1001
GENIUS_GENODEF_13
1002
{
1000
HIER
1070
     0
1002
}
1002
{
1000
MANEDIT
1070
     0
1002
}
1002
{
1000
NOSEL
1070
     0
1002
}
1002
{
1000
BEHIND
1070
     0
1002
}
1002
{
1000
OTHER
1070
     0
1002
}
1002
{
1000
REACTOR
1002
}
1001
GENIUS_GENOBJ-N-FIL_13
1002
{
1000
OWNER
1000
GEN
1002
}
  0
LINE
  5
861
330
21
100
AcDbEntity
  8
0
100
AcDbLine
 10
455.0857494024731
 20
441.0430313621218
 30
0.0
 11
455.0857494024731
 21
293.0455543346665
 31
0.0
  0
LINE
  5
862
330
21
100
AcDbEntity
  8
0
100
AcDbLine
 10
455.0857494024732
 20
293.0455543346665
 30
0.0
 11
445.0159504090683
 21
293.3971994641435
 31
0.0
  0
ARC
  5
863
330
21
100
AcDbEntity
  8
0
100
AcDbCircle
 10
445.0857494024732
 20
295.3959811181817
 30
0.0
 40
2.0
100
AcDbArc
 50
180.0
 51
267.9999999999996
1001
GENIUS_GENODEF_13
1002
{
1000
HIER
1070
     0
1002
}
1002
{
1000
MANEDIT
1070
     0
1002
}
1002
{
1000
NOSEL
1070
     0
1002
}
1002
{
1000
BEHIND
1070
     0
1002
}
1002
{
1000
OTHER
1070
     0
1002
}
1002
{
1000
REACTOR
1002
}
1001
GENIUS_GENOBJ-N-FIL_13
1002
{
1000
OWNER
1000
GEN
1002
}
  0
LINE
  5
864
330
21
100
AcDbEntity
  8
0
100
AcDbLine
 10
414.4603060283066
 20
324.9708876427882
 30
0.0
 11
355.0857494024733
 21
327.0442928483939
 31
0.0
  0
LINE
  5
865
330
21
100
AcDbEntity
  8
0
100
AcDbLine
 10
424.5434152955673
 20
320.5866269553
 30
0.0
 11
441.6212833084058
 21
303.5087589424614
 31
0.0
  0
ARC
  5
866
330
21
100
AcDbEntity
  8
0
100
AcDbCircle
 10
413.9368135777691
 20
309.9800252375018
 30
0.0
 40
15.0
100
AcDbArc
 50
45.0
 51
87.99999999999959
1001
GENIUS_GENODEF_13
1002
{
1000
HIER
1070
     0
1002
}
1002
{
1000
MANEDIT
1070
     0
1002
}
1002
{
1000
NOSEL
1070
     0
1002
}
1002
{
1000
BEHIND
1070
     0
1002
}
1002
{
1000
OTHER
1070
     0
1002
}
1002
{
1000
REACTOR
1002
}
1001
GENIUS_GENOBJ-N-FIL_13
1002
{
1000
OWNER
1000
GEN
1002
}
  0
ARC
  5
867
330
21
100
AcDbEntity
  8
0
100
AcDbCircle
 10
438.0857494024731
 20
299.9732250365287
 30
0.0
 40
5.0
100
AcDbArc
 50
0.0
 51
45.0
1001
GENIUS_GENODEF_13
1002
{
1000
HIER
1070
     0
1002
}
1002
{
1000
MANEDIT
1070
     0
1002
}
1002
{
1000
NOSEL
1070
     0
1002
}
1002
{
1000
BEHIND
1070
     0
1002
}
1002
{
1000
OTHER
1070
     0
1002
}
1002
{
1000
REACTOR
1002
}
1001
GENIUS_GENOBJ-N-FIL_13
1002
{
1000
OWNER
1000
GEN
1002
}
  0
ARC
  5
868
330
21
100
AcDbEntity
  8
AM_5
 62
     2
370
    35
100
AcDbCircle
 10
457.8797494024731
 20
367.0442928483941
 30
0.0
 40
48.4502085537012
100
AcDbArc
 50
135.0617711120811
 51
224.9382288879189
  0
ARC
  5
869
330
21
100
AcDbEntity
  8
AM_5
 62
     2
370
    35
100
AcDbCircle
 10
420.0440193052798
 20
329.2900570271446
 30
0.0
 40
5.0
100
AcDbArc
 50
267.9999999999996
 51
44.93822888791888
1001
GENIUS_GENOBJ-N-FIL_13
1002
{
1000
OWNER
1000
GEN
1002
}
1001
GENIUS_GENODEF_13
1002
{
1000
HIER
1070
     0
1002
}
1002
{
1000
MANEDIT
1070
     0
1002
}
1002
{
1000
NOSEL
1070
     0
1002
}
1002
{
1000
BEHIND
1070
     0
1002
}
1002
{
1000
OTHER
1070
     0
1002
}
1002
{
1000
REACTOR
1002
}
  0
ARC
  5
86A
330
21
100
AcDbEntity
  8
AM_5
 62
     2
370
    35
100
AcDbCircle
 10
420.0440193052801
 20
404.7985286696436
 30
0.0
 40
5.0
100
AcDbArc
 50
315.0617711120812
 51
92.0000000000004
1001
GENIUS_GENODEF_13
1002
{
1000
HIER
1070
     0
1002
}
1002
{
1000
MANEDIT
1070
     0
1002
}
1002
{
1000
NOSEL
1070
     0
1002
}
1002
{
1000
BEHIND
1070
     0
1002
}
1002
{
1000
OTHER
1070
     0
1002
}
1002
{
1000
REACTOR
1002
}
1001
GENIUS_GENOBJ-N-FIL_13
1002
{
1000
OWNER
1000
GEN
1002
}
  0
LINE
  5
897
330
21
100
AcDbEntity
  8
AM_0
100
AcDbLine
 10
455.0858094024731
 20
428.6229243483938
 30
0.0
 11
443.0857494024731
 21
428.6229243483937
 31
0.0
  0
LINE
  5
898
330
21
100
AcDbEntity
  8
AM_0
100
AcDbLine
 10
455.0858094024731
 20
406.5189513483938
 30
0.0
 11
443.0857494024733
 21
406.5189513483938
 31
0.0
  0
LINE
  5
899
330
21
100
AcDbEntity
  8
AM_0
100
AcDbLine
 10
455.0858094024731
 20
327.5696073483938
 30
0.0
 11
443.0857494024744
 21
327.5696073483938
 31
0.0
  0
LINE
  5
89A
330
21
100
AcDbEntity
  8
AM_0
100
AcDbLine
 10
455.0858094024731
 20
305.4656313483939
 30
0.0
 11
443.0857494024746
 21
305.4656313483938
 31
0.0
  0
TEXT
  5
E8B
330
21
100
AcDbEntity
  8
AM_0
100
AcDbText
 10
801.9570079233027
 20
505.9749653838251
 30
0.0
 40
7.5
  1
ＶＸ０８－０４０～１００Ｈ－Ｔ１（Ｔ３）（Ｔ５）
 41
0.8299999999999998
100
AcDbText
  0
LINE
  5
E93
330
21
100
AcDbEntity
  8
AM_0
100
AcDbLine
 10
455.0857494024731
 20
611.6461810065344
 30
0.0
 11
455.0857494024731
 21
758.6461510065344
 31
0.0
  0
LINE
  5
E94
330
21
100
AcDbEntity
  8
0
100
AcDbLine
 10
355.0857494024731
 20
645.1461660065342
 30
0.0
 11
355.0857494024731
 21
725.1461660065346
 31
0.0
  0
LINE
  5
E95
330
21
100
AcDbEntity
  8
0
100
AcDbLine
 10
455.0857494024731
 20
759.1449045202623
 30
0.0
 11
445.015950409068
 21
758.7932593907852
 31
0.0
  0
LINE
  5
E96
330
21
100
AcDbEntity
  8
0
100
AcDbLine
 10
443.085749402473
 20
756.7944777367471
 30
0.0
 11
443.0857494024746
 21
613.4978542763223
 31
0.0
  0
ARC
  5
E97
330
21
100
AcDbEntity
  8
0
100
AcDbCircle
 10
445.0857494024729
 20
756.7944777367471
 30
0.0
 40
2.0
100
AcDbArc
 50
92.00000000000034
 51
180.0
1001
GENIUS_GENODEF_13
1002
{
1000
HIER
1070
     0
1002
}
1002
{
1000
MANEDIT
1070
     0
1002
}
1002
{
1000
NOSEL
1070
     0
1002
}
1002
{
1000
BEHIND
1070
     0
1002
}
1002
{
1000
OTHER
1070
     0
1002
}
1002
{
1000
REACTOR
1002
}
1001
GENIUS_GENOBJ-N-FIL_13
1002
{
1000
OWNER
1000
GEN
1002
}
  0
LINE
  5
E98
330
21
100
AcDbEntity
  8
0
100
AcDbLine
 10
414.4603060283064
 20
727.2195712121402
 30
0.0
 11
355.0857494024731
 21
725.1461660065346
 31
0.0
  0
ARC
  5
E99
330
21
100
AcDbEntity
  8
0
100
AcDbCircle
 10
413.9368135777688
 20
742.2104336174267
 30
0.0
 40
15.0
100
AcDbArc
 50
272.0000000000004
 51
315.0
1001
GENIUS_GENODEF_13
1002
{
1000
HIER
1070
     0
1002
}
1002
{
1000
MANEDIT
1070
     0
1002
}
1002
{
1000
NOSEL
1070
     0
1002
}
1002
{
1000
BEHIND
1070
     0
1002
}
1002
{
1000
OTHER
1070
     0
1002
}
1002
{
1000
REACTOR
1002
}
1001
GENIUS_GENOBJ-N-FIL_13
1002
{
1000
OWNER
1000
GEN
1002
}
  0
LINE
  5
E9A
330
21
100
AcDbEntity
  8
0
100
AcDbLine
 10
424.5434152955671
 20
731.6038318996286
 30
0.0
 11
441.6212833084056
 21
748.6816999124671
 31
0.0
  0
ARC
  5
E9B
330
21
100
AcDbEntity
  8
0
100
AcDbCircle
 10
438.0857494024728
 20
752.2172338184001
 30
0.0
 40
5.0
100
AcDbArc
 50
315.0
 51
0.0
1001
GENIUS_GENODEF_13
1002
{
1000
HIER
1070
     0
1002
}
1002
{
1000
MANEDIT
1070
     0
1002
}
1002
{
1000
NOSEL
1070
     0
1002
}
1002
{
1000
BEHIND
1070
     0
1002
}
1002
{
1000
OTHER
1070
     0
1002
}
1002
{
1000
REACTOR
1002
}
1001
GENIUS_GENOBJ-N-FIL_13
1002
{
1000
OWNER
1000
GEN
1002
}
  0
LINE
  5
E9C
330
21
100
AcDbEntity
  8
0
100
AcDbLine
 10
455.0857494024732
 20
611.1474274928069
 30
0.0
 11
445.0159504090683
 21
611.4990726222839
 31
0.0
  0
ARC
  5
E9D
330
21
100
AcDbEntity
  8
0
100
AcDbCircle
 10
445.0857494024732
 20
613.4978542763223
 30
0.0
 40
2.0
100
AcDbArc
 50
180.0
 51
267.9999999999997
1001
GENIUS_GENODEF_13
1002
{
1000
HIER
1070
     0
1002
}
1002
{
1000
MANEDIT
1070
     0
1002
}
1002
{
1000
NOSEL
1070
     0
1002
}
1002
{
1000
BEHIND
1070
     0
1002
}
1002
{
1000
OTHER
1070
     0
1002
}
1002
{
1000
REACTOR
1002
}
1001
GENIUS_GENOBJ-N-FIL_13
1002
{
1000
OWNER
1000
GEN
1002
}
  0
LINE
  5
E9E
330
21
100
AcDbEntity
  8
0
100
AcDbLine
 10
414.4603060283066
 20
643.0727608009286
 30
0.0
 11
355.0857494024733
 21
645.1461660065342
 31
0.0
  0
LINE
  5
E9F
330
21
100
AcDbEntity
  8
0
100
AcDbLine
 10
424.5434152955673
 20
638.6885001134404
 30
0.0
 11
441.6212833084058
 21
621.6106321006018
 31
0.0
  0
ARC
  5
EA0
330
21
100
AcDbEntity
  8
0
100
AcDbCircle
 10
413.9368135777691
 20
628.0818983956423
 30
0.0
 40
15.0
100
AcDbArc
 50
45.0
 51
87.99999999999966
1001
GENIUS_GENODEF_13
1002
{
1000
HIER
1070
     0
1002
}
1002
{
1000
MANEDIT
1070
     0
1002
}
1002
{
1000
NOSEL
1070
     0
1002
}
1002
{
1000
BEHIND
1070
     0
1002
}
1002
{
1000
OTHER
1070
     0
1002
}
1002
{
1000
REACTOR
1002
}
1001
GENIUS_GENOBJ-N-FIL_13
1002
{
1000
OWNER
1000
GEN
1002
}
  0
ARC
  5
EA1
330
21
100
AcDbEntity
  8
0
100
AcDbCircle
 10
438.0857494024731
 20
618.075098194669
 30
0.0
 40
5.0
100
AcDbArc
 50
0.0
 51
45.0
1001
GENIUS_GENODEF_13
1002
{
1000
HIER
1070
     0
1002
}
1002
{
1000
MANEDIT
1070
     0
1002
}
1002
{
1000
NOSEL
1070
     0
1002
}
1002
{
1000
BEHIND
1070
     0
1002
}
1002
{
1000
OTHER
1070
     0
1002
}
1002
{
1000
REACTOR
1002
}
1001
GENIUS_GENOBJ-N-FIL_13
1002
{
1000
OWNER
1000
GEN
1002
}
  0
ARC
  5
EA2
330
21
100
AcDbEntity
  8
AM_5
 62
     2
370
    35
100
AcDbCircle
 10
457.8797494024731
 20
685.1461660065345
 30
0.0
 40
48.4502085537012
100
AcDbArc
 50
135.0617711120834
 51
224.9382288879166
  0
ARC
  5
EA3
330
21
100
AcDbEntity
  8
AM_5
 62
     2
370
    35
100
AcDbCircle
 10
420.0440193052798
 20
647.3919301852852
 30
0.0
 40
5.0
100
AcDbArc
 50
267.9999999999997
 51
44.93822888791657
1001
GENIUS_GENOBJ-N-FIL_13
1002
{
1000
OWNER
1000
GEN
1002
}
1001
GENIUS_GENODEF_13
1002
{
1000
HIER
1070
     0
1002
}
1002
{
1000
MANEDIT
1070
     0
1002
}
1002
{
1000
NOSEL
1070
     0
1002
}
1002
{
1000
BEHIND
1070
     0
1002
}
1002
{
1000
OTHER
1070
     0
1002
}
1002
{
1000
REACTOR
1002
}
  0
ARC
  5
EA4
330
21
100
AcDbEntity
  8
AM_5
 62
     2
370
    35
100
AcDbCircle
 10
420.0440193052801
 20
722.9004018277843
 30
0.0
 40
5.0
100
AcDbArc
 50
315.0617711120834
 51
92.00000000000034
1001
GENIUS_GENODEF_13
1002
{
1000
HIER
1070
     0
1002
}
1002
{
1000
MANEDIT
1070
     0
1002
}
1002
{
1000
NOSEL
1070
     0
1002
}
1002
{
1000
BEHIND
1070
     0
1002
}
1002
{
1000
OTHER
1070
     0
1002
}
1002
{
1000
REACTOR
1002
}
1001
GENIUS_GENOBJ-N-FIL_13
1002
{
1000
OWNER
1000
GEN
1002
}
  0
LINE
  5
EA5
330
21
100
AcDbEntity
  8
AM_0
100
AcDbLine
 10
455.0858094024731
 20
746.7247975065344
 30
0.0
 11
443.0857494024731
 21
746.7247975065342
 31
0.0
  0
LINE
  5
EA6
330
21
100
AcDbEntity
  8
AM_0
100
AcDbLine
 10
455.0858094024731
 20
724.6208245065344
 30
0.0
 11
443.0857494024733
 21
724.6208245065344
 31
0.0
  0
LINE
  5
EA7
330
21
100
AcDbEntity
  8
AM_0
100
AcDbLine
 10
455.0858094024731
 20
645.6714805065343
 30
0.0
 11
443.0857494024744
 21
645.6714805065343
 31
0.0
  0
LINE
  5
EA8
330
21
100
AcDbEntity
  8
AM_0
100
AcDbLine
 10
455.0858094024731
 20
623.5675045065343
 30
0.0
 11
443.0857494024746
 21
623.5675045065343
 31
0.0
  0
CIRCLE
  5
EA9
330
21
100
AcDbEntity
  8
0
100
AcDbCircle
 10
381.0857494024731
 20
707.6461660065343
 30
0.0
 40
10.0
  0
LINE
  5
EAA
330
21
100
AcDbEntity
  8
ﾁｭｳｼﾝｾﾝ1
 48
0.7
100
AcDbLine
 10
381.0857494024731
 20
720.6461660065343
 30
0.0
 11
381.085749402473
 21
694.6461660065343
 31
0.0
1001
GENIUS_GENODEF_13
1002
{
1000
HIER
1070
     0
1002
}
1002
{
1000
MANEDIT
1070
     0
1002
}
1002
{
1000
NOSEL
1070
     0
1002
}
1002
{
1000
BEHIND
1070
     0
1002
}
1002
{
1000
OTHER
1070
     0
1002
}
1002
{
1000
REACTOR
1002
}
1001
GENIUS_GENOBJ-N-CEN_13
1002
{
1000
OWNER
1000
GEN
1002
}
1001
GENIUS_GENCEN_19
1002
{
1040
3.0
1002
}
  0
LINE
  5
EAB
330
21
100
AcDbEntity
  8
AM_0
100
AcDbLine
 10
380.0857494024731
 20
712.6461660065343
 30
0.0
 11
380.0857494024731
 21
702.6461660065344
 31
0.0
1001
GENIUS_GENODEF_13
1002
{
1000
HIER
1070
     0
1002
}
1002
{
1000
MANEDIT
1070
     0
1002
}
1002
{
1000
NOSEL
1070
     0
1002
}
1002
{
1000
BEHIND
1070
     0
1002
}
1002
{
1000
OTHER
1070
     0
1002
}
1002
{
1000
REACTOR
1002
}
1001
GENIUS_GENOBJ-N-CEN_13
1002
{
1000
OWNER
1000
GEN
1002
}
1001
GENIUS_GENCEN_19
1002
{
1040
3.0
1002
}
  0
LINE
  5
EAC
330
21
100
AcDbEntity
  8
AM_0
100
AcDbLine
 10
382.0857494024732
 20
712.6461660065343
 30
0.0
 11
382.0857494024732
 21
702.6461660065344
 31
0.0
1001
GENIUS_GENODEF_13
1002
{
1000
HIER
1070
     0
1002
}
1002
{
1000
MANEDIT
1070
     0
1002
}
1002
{
1000
NOSEL
1070
     0
1002
}
1002
{
1000
BEHIND
1070
     0
1002
}
1002
{
1000
OTHER
1070
     0
1002
}
1002
{
1000
REACTOR
1002
}
1001
GENIUS_GENOBJ-N-CEN_13
1002
{
1000
OWNER
1000
GEN
1002
}
1001
GENIUS_GENCEN_19
1002
{
1040
3.0
1002
}
  0
CIRCLE
  5
EAD
330
21
100
AcDbEntity
  8
AM_0
100
AcDbCircle
 10
381.0857494024731
 20
707.6461660065343
 30
0.0
 40
8.500000000000056
  0
CIRCLE
  5
EAE
330
21
100
AcDbEntity
  8
AM_0
100
AcDbCircle
 10
381.0857494024731
 20
707.6461660065343
 30
0.0
 40
8.999999999999969
  0
ARC
  5
EAF
330
21
100
AcDbEntity
  8
AM_0
100
AcDbCircle
 10
381.0857494024731
 20
712.6461660065343
 30
0.0
 40
1.0
100
AcDbArc
 50
0.0
 51
180.0
  0
ARC
  5
EB0
330
21
100
AcDbEntity
  8
AM_0
100
AcDbCircle
 10
381.0857494024731
 20
702.6461660065344
 30
0.0
 40
1.0
100
AcDbArc
 50
180.0
 51
0.0
  0
LINE
  5
EB1
330
21
100
AcDbEntity
  8
ﾁｭｳｼﾝｾﾝ1
 48
0.7
100
AcDbLine
 10
368.0857494024731
 20
707.6461660065343
 30
0.0
 11
394.0857494024731
 21
707.6461660065343
 31
0.0
1001
GENIUS_GENOBJ-N-CEN_13
1002
{
1000
OWNER
1000
GEN
1002
}
1001
GENIUS_GENODEF_13
1002
{
1000
HIER
1070
     0
1002
}
1002
{
1000
MANEDIT
1070
     0
1002
}
1002
{
1000
NOSEL
1070
     0
1002
}
1002
{
1000
BEHIND
1070
     0
1002
}
1002
{
1000
OTHER
1070
     0
1002
}
1002
{
1000
REACTOR
1002
}
1001
GENIUS_GENCEN_19
1002
{
1040
3.0
1002
}
  0
LINE
  5
EB2
330
21
100
AcDbEntity
  8
0
100
AcDbLine
 10
389.5857494024732
 20
408.2490803958595
 30
0.0
 11
389.5857494024732
 21
408.6538699653443
 31
0.0
1001
GENIUS_GENOBJ-N-CEN_13
1002
{
1000
OWNER
1000
GEN
1002
}
1001
GENIUS_GENODEF_13
1002
{
1000
HIER
1070
     0
1002
}
1002
{
1000
MANEDIT
1070
     0
1002
}
1002
{
1000
NOSEL
1070
     0
1002
}
1002
{
1000
BEHIND
1070
     0
1002
}
1002
{
1000
OTHER
1070
     0
1002
}
1002
{
1000
REACTOR
1002
}
1001
GENIUS_GENCEN_19
1002
{
1040
2.793999999999999
1002
}
  0
LINE
  5
EB3
330
21
100
AcDbEntity
  8
0
100
AcDbLine
 10
372.5857494024731
 20
407.6538699653443
 30
0.0
 11
372.5857494024731
 21
408.6538699653443
 31
0.0
1001
GENIUS_GENOBJ-N-CEN_13
1002
{
1000
OWNER
1000
GEN
1002
}
1001
GENIUS_GENODEF_13
1002
{
1000
HIER
1070
     0
1002
}
1002
{
1000
MANEDIT
1070
     0
1002
}
1002
{
1000
NOSEL
1070
     0
1002
}
1002
{
1000
BEHIND
1070
     0
1002
}
1002
{
1000
OTHER
1070
     0
1002
}
1002
{
1000
REACTOR
1002
}
1001
GENIUS_GENCEN_19
1002
{
1040
2.793999999999999
1002
}
  0
LINE
  5
EB4
330
21
100
AcDbEntity
  8
0
100
AcDbLine
 10
372.0857494024731
 20
407.6379669297538
 30
0.0
 11
372.0857494024731
 21
407.6538699653443
 31
0.0
1001
GENIUS_GENOBJ-N-CEN_13
1002
{
1000
OWNER
1000
GEN
1002
}
1001
GENIUS_GENODEF_13
1002
{
1000
HIER
1070
     0
1002
}
1002
{
1000
MANEDIT
1070
     0
1002
}
1002
{
1000
NOSEL
1070
     0
1002
}
1002
{
1000
BEHIND
1070
     0
1002
}
1002
{
1000
OTHER
1070
     0
1002
}
1002
{
1000
REACTOR
1002
}
1001
GENIUS_GENCEN_19
1002
{
1040
2.793999999999999
1002
}
  0
LINE
  5
EB5
330
21
100
AcDbEntity
  8
0
100
AcDbLine
 10
372.0857494024731
 20
407.6538699653442
 30
0.0
 11
372.5411527576083
 21
407.6538699653442
 31
0.0
  0
LINE
  5
EB6
330
21
100
AcDbEntity
  8
図面枠-ｷｲﾛ
100
AcDbLine
 10
372.5857494024731
 20
408.6538699653443
 30
0.0
 11
389.5857494024732
 21
408.6538699653443
 31
0.0
  0
ARC
  5
EB7
330
21
100
AcDbEntity
  8
0
100
AcDbCircle
 10
381.0857494024732
 20
391.5913699653444
 30
0.0
 40
19.06249999999999
100
AcDbArc
 50
63.51896016962665
 51
116.4810398303733
  0
LINE
  5
EB8
330
21
100
AcDbEntity
  8
AM_7
  6
AM_ISO08W050x2
 62
     1
370
    25
100
AcDbLine
 10
381.0857494024731
 20
413.4478699653443
 30
0.0
 11
381.0857494024731
 21
398.3900284263608
 31
0.0
1001
GENIUS_GENODEF_13
1002
{
1000
HIER
1070
     0
1002
}
1002
{
1000
MANEDIT
1070
     0
1002
}
1002
{
1000
NOSEL
1070
     0
1002
}
1002
{
1000
BEHIND
1070
     0
1002
}
1002
{
1000
OTHER
1070
     0
1002
}
1002
{
1000
REACTOR
1002
}
1001
GENIUS_GENOBJ-N-CEN_13
1002
{
1000
OWNER
1000
GEN
1002
}
1001
GENIUS_GENCEN_19
1002
{
1040
2.793999999999999
1002
}
  0
LINE
  5
F65
330
21
100
AcDbEntity
  8
AM_0
100
AcDbLine
 10
463.5857494024731
 20
767.6847360065345
 30
0.0
 11
463.5857494024731
 21
791.7564560065342
 31
0.0
  0
LINE
  5
F66
330
21
100
AcDbEntity
  8
AM_0
100
AcDbLine
 10
624.585779402473
 20
754.1461660065343
 30
0.0
 11
624.585779402473
 21
792.5468560065345
 31
0.0
  0
LINE
  5
F67
330
21
100
AcDbEntity
  8
AM_0
100
AcDbLine
 10
511.5857494024728
 20
585.6461660065344
 30
0.0
 11
511.5857494024728
 21
784.6461660065342
 31
0.0
  0
LINE
  5
F68
330
21
100
AcDbEntity
  8
AM_0
100
AcDbLine
 10
467.2371194024728
 20
795.7412560065344
 30
0.0
 11
517.5858094024728
 21
800.1461660065343
 31
0.0
  0
LINE
  5
F69
330
21
100
AcDbEntity
  8
ﾁｭｳｼﾝｾﾝ1
 48
0.8
100
AcDbLine
 10
481.5857494024728
 20
766.6461660065343
 30
0.0
 11
481.5857494024728
 21
793.6461660065344
 31
0.0
  0
LINE
  5
F6A
330
21
100
AcDbEntity
  8
AM_0
100
AcDbLine
 10
617.585779402473
 20
624.0427960065342
 30
0.0
 11
617.585779402473
 21
746.2495560065344
 31
0.0
  0
LINE
  5
F6B
330
21
100
AcDbEntity
  8
ﾁｭｳｼﾝｾﾝ1
 48
0.8
100
AcDbLine
 10
606.5857794024728
 20
766.6461660065343
 30
0.0
 11
606.5857794024728
 21
793.6461660065344
 31
0.0
  0
LINE
  5
F6C
330
21
100
AcDbEntity
  8
ﾁｭｳｼﾝｾﾝ1
 48
0.8
100
AcDbLine
 10
468.085749402473
 20
780.1461660065342
 30
0.0
 11
495.0857494024728
 21
780.1461660065342
 31
0.0
  0
LINE
  5
F6D
330
21
100
AcDbEntity
  8
ﾁｭｳｼﾝｾﾝ1
 48
0.8
100
AcDbLine
 10
593.085779402473
 20
780.1461660065342
 30
0.0
 11
620.085779402473
 21
780.1461660065342
 31
0.0
  0
LINE
  5
F6E
330
21
100
AcDbEntity
  8
AM_0
100
AcDbLine
 10
517.585749402473
 20
800.1461660065343
 30
0.0
 11
620.7253694024728
 21
796.5444160065344
 31
0.0
  0
LINE
  5
F6F
330
21
100
AcDbEntity
  8
AM_0
100
AcDbLine
 10
466.5505394024729
 20
763.8210260065342
 30
0.0
 11
482.3148194024728
 21
759.5969660065342
 31
0.0
  0
LINE
  5
F70
330
21
100
AcDbEntity
  8
AM_0
100
AcDbLine
 10
502.8472894024729
 20
792.8337860065345
 30
0.0
 11
511.2371794024729
 21
793.5677960065348
 31
0.0
  0
LINE
  5
F71
330
21
100
AcDbEntity
  8
AM_0
100
AcDbLine
 10
466.5505394024729
 20
606.4712960065342
 30
0.0
 11
482.3146994024728
 21
610.6952960065345
 31
0.0
  0
LINE
  5
F72
330
21
100
AcDbEntity
  8
AM_0
100
AcDbLine
 10
517.585749402473
 20
570.1461660065343
 30
0.0
 11
620.7253394024729
 21
573.7478760065344
 31
0.0
  0
LINE
  5
F73
330
21
100
AcDbEntity
  8
ﾁｭｳｼﾝｾﾝ1
 48
0.8
100
AcDbLine
 10
593.085779402473
 20
590.1461660065344
 30
0.0
 11
620.085779402473
 21
590.1461660065344
 31
0.0
  0
LINE
  5
F74
330
21
100
AcDbEntity
  8
ﾁｭｳｼﾝｾﾝ1
 48
0.8
100
AcDbLine
 10
468.085749402473
 20
590.1461660065344
 30
0.0
 11
495.0857494024728
 21
590.1461660065344
 31
0.0
  0
LINE
  5
F75
330
21
100
AcDbEntity
  8
ﾁｭｳｼﾝｾﾝ1
 48
0.8
100
AcDbLine
 10
606.5857794024728
 20
603.6461660065343
 30
0.0
 11
606.5857794024728
 21
576.6461660065345
 31
0.0
  0
LINE
  5
F76
330
21
100
AcDbEntity
  8
ﾁｭｳｼﾝｾﾝ1
 48
0.8
100
AcDbLine
 10
481.5857494024728
 20
603.6461660065343
 30
0.0
 11
481.5857494024728
 21
576.6461660065345
 31
0.0
  0
LINE
  5
F77
330
21
100
AcDbEntity
  8
AM_0
100
AcDbLine
 10
467.2371194024728
 20
574.5510960065343
 30
0.0
 11
517.585749402473
 21
570.1461660065343
 31
0.0
  0
LINE
  5
F78
330
21
100
AcDbEntity
  8
AM_0
100
AcDbLine
 10
624.585779402473
 20
616.1461660065343
 30
0.0
 11
624.585779402473
 21
577.7454360065343
 31
0.0
  0
LINE
  5
F79
330
21
100
AcDbEntity
  8
AM_0
100
AcDbLine
 10
463.5857494024731
 20
602.6075860065343
 30
0.0
 11
463.5857494024731
 21
578.5358760065342
 31
0.0
  0
LINE
  5
F7A
330
21
100
AcDbEntity
  8
AM_0
100
AcDbLine
 10
686.5857494024727
 20
701.1461660065342
 30
0.0
 11
628.585779402473
 21
701.1461660065342
 31
0.0
  0
LINE
  5
F7B
330
21
100
AcDbEntity
  8
AM_0
100
AcDbLine
 10
501.585749402473
 20
620.0739560065344
 30
0.0
 11
501.585749402473
 21
750.2183660065344
 31
0.0
  0
LINE
  5
F7C
330
21
100
AcDbEntity
  8
AM_0
100
AcDbLine
 10
619.0857794024728
 20
717.3215760065344
 30
0.0
 11
623.0857494024727
 21
715.0121860065345
 31
0.0
  0
LINE
  5
F7D
330
21
100
AcDbEntity
  8
AM_0
100
AcDbLine
 10
619.0857194024728
 20
652.9708060065345
 30
0.0
 11
623.0857194024728
 21
655.2801960065343
 31
0.0
  0
LINE
  5
F7E
330
21
100
AcDbEntity
  8
AM_0
100
AcDbLine
 10
624.5857494024727
 20
657.8782160065342
 30
0.0
 11
624.5857494024727
 21
685.1461660065345
 31
0.0
  0
LINE
  5
F7F
330
21
100
AcDbEntity
  8
AM_0
100
AcDbLine
 10
624.5857494024727
 20
685.1461660065345
 30
0.0
 11
624.5857494024727
 21
712.4141060065344
 31
0.0
  0
LINE
  5
F80
330
21
100
AcDbEntity
  8
AM_0
100
AcDbLine
 10
628.585779402473
 20
702.6461660065344
 30
0.0
 11
624.5857494024727
 21
702.6461660065344
 31
0.0
  0
LINE
  5
F81
330
21
100
AcDbEntity
  8
AM_0
100
AcDbLine
 10
686.5857494024727
 20
669.1461660065344
 30
0.0
 11
686.5857494024727
 21
701.1461660065342
 31
0.0
  0
LINE
  5
F82
330
21
100
AcDbEntity
  8
AM_0
100
AcDbLine
 10
628.585779402473
 20
667.6461660065345
 30
0.0
 11
628.585779402473
 21
702.6461660065344
 31
0.0
  0
LINE
  5
F83
330
21
100
AcDbEntity
  8
AM_0
100
AcDbLine
 10
641.585779402473
 20
680.1461660065345
 30
0.0
 11
641.585779402473
 21
690.1461660065344
 31
0.0
  0
LINE
  5
F84
330
21
100
AcDbEntity
  8
AM_0
100
AcDbLine
 10
686.5857494024727
 20
669.1461660065344
 30
0.0
 11
628.585779402473
 21
669.1461660065344
 31
0.0
  0
LINE
  5
F85
330
21
100
AcDbEntity
  8
AM_0
100
AcDbLine
 10
628.585779402473
 20
667.6461660065345
 30
0.0
 11
624.5857494024727
 21
667.6461660065345
 31
0.0
  0
LINE
  5
F86
330
21
100
AcDbEntity
  8
AM_0
100
AcDbLine
 10
641.5857494024727
 20
680.1461660065345
 30
0.0
 11
686.5857494024727
 21
680.1461660065345
 31
0.0
  0
LINE
  5
F87
330
21
100
AcDbEntity
  8
AM_0
100
AcDbLine
 10
641.5857494024727
 20
690.1461660065344
 30
0.0
 11
686.5857494024727
 21
690.1461660065344
 31
0.0
  0
LINE
  5
F88
330
21
100
AcDbEntity
  8
AM_0
100
AcDbLine
 10
613.6904594024728
 20
750.2481560065346
 30
0.0
 11
603.828579402473
 21
750.5063960065342
 31
0.0
  0
LINE
  5
F89
330
21
100
AcDbEntity
  8
AM_0
100
AcDbLine
 10
613.6904594024728
 20
620.0441760065346
 30
0.0
 11
603.828579402473
 21
619.7859360065343
 31
0.0
  0
LINE
  5
F8A
330
21
100
AcDbEntity
  8
AM_0
100
AcDbLine
 10
596.585779402473
 20
615.9394360065345
 30
0.0
 11
596.585779402473
 21
754.3528860065342
 31
0.0
  0
LINE
  5
F8B
330
21
100
AcDbEntity
  8
AM_0
100
AcDbLine
 10
576.5857494024727
 20
580.4907360065343
 30
0.0
 11
576.5857494024727
 21
595.9325660065342
 31
0.0
  0
LINE
  5
F8C
330
21
100
AcDbEntity
  8
AM_0
100
AcDbLine
 10
588.795159402473
 20
762.3501460065344
 30
0.0
 11
588.2716294024727
 21
762.3638760065346
 31
0.0
  0
LINE
  5
F8D
330
21
100
AcDbEntity
  8
AM_0
100
AcDbLine
 10
588.7951894024728
 20
607.9421860065345
 30
0.0
 11
588.2715994024728
 21
607.9284460065344
 31
0.0
  0
LINE
  5
F8E
330
21
100
AcDbEntity
  8
AM_0
100
AcDbLine
 10
576.5857494024727
 20
774.3597860065344
 30
0.0
 11
576.5857494024727
 21
789.8016160065342
 31
0.0
  0
LINE
  5
F8F
330
21
100
AcDbEntity
  8
AM_0
100
AcDbLine
 10
511.5857494024728
 20
585.6461660065344
 30
0.0
 11
515.5857494024728
 21
585.6461660065344
 31
0.0
  0
LINE
  5
F90
330
21
100
AcDbEntity
  8
AM_0
100
AcDbLine
 10
511.5857494024728
 20
784.6461660065342
 30
0.0
 11
515.5857494024728
 21
784.6461660065342
 31
0.0
  0
LINE
  5
F91
330
21
100
AcDbEntity
  8
AM_0
100
AcDbLine
 10
515.5857494024728
 20
784.6461660065342
 30
0.0
 11
515.5857494024728
 21
794.5146360065344
 31
0.0
  0
LINE
  5
F92
330
21
100
AcDbEntity
  8
AM_0
100
AcDbLine
 10
502.8472294024728
 20
577.4585460065342
 30
0.0
 11
511.2371794024729
 21
576.7245060065345
 31
0.0
  0
LINE
  5
F93
330
21
100
AcDbEntity
  8
AM_0
100
AcDbLine
 10
515.5857494024728
 20
585.6461660065344
 30
0.0
 11
515.5857494024728
 21
575.7776960065346
 31
0.0
  0
LINE
  5
F94
330
21
100
AcDbEntity
  8
AM_0
100
AcDbLine
 10
504.4810794024728
 20
585.8942360065347
 30
0.0
 11
511.5856894024731
 21
585.6461660065344
 31
0.0
  0
LINE
  5
F95
330
21
100
AcDbEntity
  8
AM_0
100
AcDbLine
 10
511.5857494024728
 20
590.3559760065345
 30
0.0
 11
501.585749402473
 21
590.3559760065345
 31
0.0
  0
LINE
  5
F96
330
21
100
AcDbEntity
  8
AM_0
100
AcDbLine
 10
511.5857494024728
 20
607.7293560065345
 30
0.0
 11
489.5857494024729
 21
607.7293560065345
 31
0.0
  0
LINE
  5
F97
330
21
100
AcDbEntity
  8
AM_0
100
AcDbLine
 10
511.5857494024728
 20
654.8697360065345
 30
0.0
 11
501.585749402473
 21
654.8697360065345
 31
0.0
  0
LINE
  5
F98
330
21
100
AcDbEntity
  8
AM_0
100
AcDbLine
 10
511.5857494024728
 20
715.4225960065346
 30
0.0
 11
501.585749402473
 21
715.4225960065346
 31
0.0
  0
LINE
  5
F99
330
21
100
AcDbEntity
  8
AM_0
100
AcDbLine
 10
511.5857494024728
 20
762.5629760065345
 30
0.0
 11
489.5857494024729
 21
762.5629760065345
 31
0.0
  0
LINE
  5
F9A
330
21
100
AcDbEntity
  8
AM_0
100
AcDbLine
 10
455.0857494024731
 20
623.5675160065344
 30
0.0
 11
489.5857494024729
 21
623.5675160065344
 31
0.0
  0
LINE
  5
F9B
330
21
100
AcDbEntity
  8
AM_0
100
AcDbLine
 10
455.0857494024731
 20
746.7247760065344
 30
0.0
 11
489.5857494024729
 21
746.7247760065344
 31
0.0
  0
LINE
  5
F9C
330
21
100
AcDbEntity
  8
AM_0
100
AcDbLine
 10
455.0857494024731
 20
724.6208360065344
 30
0.0
 11
489.5857494024729
 21
724.6208360065344
 31
0.0
  0
LINE
  5
F9D
330
21
100
AcDbEntity
  8
AM_0
100
AcDbLine
 10
455.0857494024731
 20
645.6714960065343
 30
0.0
 11
489.5857494024729
 21
645.6714960065343
 31
0.0
  0
LINE
  5
F9E
330
21
100
AcDbEntity
  8
AM_0
100
AcDbLine
 10
455.0856894024731
 20
611.6461360065344
 30
0.0
 11
487.1555794024728
 21
610.5262260065345
 31
0.0
  0
LINE
  5
F9F
330
21
100
AcDbEntity
  8
AM_0
100
AcDbLine
 10
455.0857494024731
 20
758.6461660065343
 30
0.0
 11
486.6904294024728
 21
759.7497960065346
 31
0.0
  0
LINE
  5
FA0
330
21
100
AcDbEntity
  8
AM_0
100
AcDbLine
 10
489.5857494024729
 20
594.2250560065343
 30
0.0
 11
489.5857494024729
 21
776.0673060065345
 31
0.0
  0
LINE
  5
FA1
330
21
100
AcDbEntity
  8
AM_0
100
AcDbLine
 10
489.5857494024729
 20
617.0739560065344
 30
0.0
 11
498.5857494024728
 21
617.0739560065344
 31
0.0
  0
LINE
  5
FA2
330
21
100
AcDbEntity
  8
AM_0
100
AcDbLine
 10
489.5857494024729
 20
627.8285960065343
 30
0.0
 11
501.585749402473
 21
627.8285960065343
 31
0.0
  0
LINE
  5
FA3
330
21
100
AcDbEntity
  8
AM_0
100
AcDbLine
 10
489.5857494024729
 20
753.2183660065344
 30
0.0
 11
498.5857494024728
 21
753.2183660065344
 31
0.0
  0
LINE
  5
FA4
330
21
100
AcDbEntity
  8
AM_0
100
AcDbLine
 10
489.5857494024729
 20
742.4637260065344
 30
0.0
 11
501.585749402473
 21
742.4637260065344
 31
0.0
  0
LINE
  5
FA5
330
21
100
AcDbEntity
  8
AM_0
100
AcDbLine
 10
492.585749402473
 20
602.2561460065343
 30
0.0
 11
498.5857494024728
 21
602.2561460065343
 31
0.0
  0
LINE
  5
FA6
330
21
100
AcDbEntity
  8
AM_0
100
AcDbLine
 10
501.585749402473
 20
588.8924360065344
 30
0.0
 11
501.585749402473
 21
599.2561460065343
 31
0.0
  0
LINE
  5
FA7
330
21
100
AcDbEntity
  8
AM_0
100
AcDbLine
 10
492.585749402473
 20
591.2250560065343
 30
0.0
 11
498.6229794024728
 21
591.2250560065343
 31
0.0
  0
LINE
  5
FA8
330
21
100
AcDbEntity
  8
AM_0
100
AcDbLine
 10
492.585749402473
 20
779.0673060065345
 30
0.0
 11
498.6229794024728
 21
779.0673060065345
 31
0.0
  0
LINE
  5
FA9
330
21
100
AcDbEntity
  8
AM_0
100
AcDbLine
 10
501.585749402473
 20
781.3998860065345
 30
0.0
 11
501.585749402473
 21
771.0361760065347
 31
0.0
  0
LINE
  5
FAA
330
21
100
AcDbEntity
  8
AM_0
100
AcDbLine
 10
492.585749402473
 20
768.0361760065342
 30
0.0
 11
498.5857494024728
 21
768.0361760065342
 31
0.0
  0
LINE
  5
FAB
330
21
100
AcDbEntity
  8
AM_0
100
AcDbLine
 10
504.4810194024728
 20
784.3980560065343
 30
0.0
 11
511.5856894024731
 21
784.6461660065342
 31
0.0
  0
LINE
  5
FAC
330
21
100
AcDbEntity
  8
AM_0
100
AcDbLine
 10
511.5857494024728
 20
779.9363260065343
 30
0.0
 11
501.585749402473
 21
779.9363260065343
 31
0.0
  0
LINE
  5
FAD
330
21
100
AcDbEntity
  8
AM_0
100
AcDbLine
 10
455.0857494024731
 20
611.6461660065343
 30
0.0
 11
455.0857494024731
 21
758.6461660065343
 31
0.0
  0
ARC
  5
FAE
330
21
100
AcDbEntity
  8
AM_0
100
AcDbCircle
 10
620.585779402473
 20
792.5468560065345
 30
0.0
 40
4.0
100
AcDbArc
 50
0.0
 51
88.00000000000279
  0
CIRCLE
  5
FAF
330
21
100
AcDbEntity
  8
AM_0
100
AcDbCircle
 10
481.5857494024728
 20
780.1461660065342
 30
0.0
 40
7.5
  0
CIRCLE
  5
FB0
330
21
100
AcDbEntity
  8
AM_0
100
AcDbCircle
 10
606.5857794024728
 20
780.1461660065342
 30
0.0
 40
7.5
  0
ARC
  5
FB1
330
21
100
AcDbEntity
  8
AM_0
100
AcDbCircle
 10
467.5857494024731
 20
791.7564560065342
 30
0.0
 40
4.0
100
AcDbArc
 50
95.00000199999858
 51
180.000010000001
  0
ARC
  5
FB2
330
21
100
AcDbEntity
  8
AM_0
100
AcDbCircle
 10
621.585779402473
 20
746.2089060065342
 30
0.0
 40
4.0
100
AcDbArc
 50
97.18075800000082
 51
180.000010000001
  0
ARC
  5
FB3
330
21
100
AcDbEntity
  8
AM_0
100
AcDbCircle
 10
620.585779402473
 20
754.1461660065343
 30
0.0
 40
4.0
100
AcDbArc
 50
277.1807499999971
 51
0.0
  0
ARC
  5
FB4
330
21
100
AcDbEntity
  8
AM_0
100
AcDbCircle
 10
467.5857494024731
 20
767.6847360065345
 30
0.0
 40
4.0
100
AcDbArc
 50
180.000010000001
 51
254.9999899999987
  0
ARC
  5
FB5
330
21
100
AcDbEntity
  8
AM_0
100
AcDbCircle
 10
502.5857494024728
 20
795.8223760065342
 30
0.0
 40
3.0
100
AcDbArc
 50
95.00000199999858
 51
275.0
  0
ARC
  5
FB6
330
21
100
AcDbEntity
  8
AM_0
100
AcDbCircle
 10
511.5857494024728
 20
789.5830560065344
 30
0.0
 40
4.0
100
AcDbArc
 50
0.0
 51
95.00000199999858
  0
ARC
  5
FB7
330
21
100
AcDbEntity
  8
AM_0
100
AcDbCircle
 10
467.5857494024731
 20
602.6075860065343
 30
0.0
 40
4.0
100
AcDbArc
 50
105.0000000000007
 51
180.000010000001
  0
ARC
  5
FB8
330
21
100
AcDbEntity
  8
AM_0
100
AcDbCircle
 10
620.585779402473
 20
616.1461660065343
 30
0.0
 40
4.0
100
AcDbArc
 50
0.0
 51
82.81924699999697
  0
ARC
  5
FB9
330
21
100
AcDbEntity
  8
AM_0
100
AcDbCircle
 10
621.585779402473
 20
624.0834160065345
 30
0.0
 40
4.0
100
AcDbArc
 50
180.000010000001
 51
262.8192500000029
  0
ARC
  5
FBA
330
21
100
AcDbEntity
  8
AM_0
100
AcDbCircle
 10
467.5857494024731
 20
578.5358760065342
 30
0.0
 40
4.0
100
AcDbArc
 50
180.000010000001
 51
265.0000100000004
  0
CIRCLE
  5
FBB
330
21
100
AcDbEntity
  8
AM_0
100
AcDbCircle
 10
606.5857794024728
 20
590.1461660065344
 30
0.0
 40
7.5
  0
CIRCLE
  5
FBC
330
21
100
AcDbEntity
  8
AM_0
100
AcDbCircle
 10
481.5857494024728
 20
590.1461660065344
 30
0.0
 40
7.5
  0
ARC
  5
FBD
330
21
100
AcDbEntity
  8
AM_0
100
AcDbCircle
 10
620.585779402473
 20
577.7454360065343
 30
0.0
 40
4.0
100
AcDbArc
 50
271.9999999999972
 51
0.0
  0
ARC
  5
FBE
330
21
100
AcDbEntity
  8
AM_0
100
AcDbCircle
 10
621.5857494024727
 20
657.8782160065342
 30
0.0
 40
3.0
100
AcDbArc
 50
300.0000100000008
 51
0.0
  0
ARC
  5
FBF
330
21
100
AcDbEntity
  8
AM_0
100
AcDbCircle
 10
621.5857494024727
 20
712.4141060065344
 30
0.0
 40
3.0
100
AcDbArc
 50
0.0
 51
60.0000020000013
  0
ARC
  5
FC0
330
21
100
AcDbEntity
  8
AM_0
100
AcDbCircle
 10
620.585779402473
 20
719.9196660065342
 30
0.0
 40
3.0
100
AcDbArc
 50
179.999989999999
 51
240.0000099999997
  0
ARC
  5
FC1
330
21
100
AcDbEntity
  8
AM_0
100
AcDbCircle
 10
620.585779402473
 20
650.3726660065344
 30
0.0
 40
3.0
100
AcDbArc
 50
120.0000000000005
 51
180.000010000001
  0
ARC
  5
FC2
330
21
100
AcDbEntity
  8
AM_0
100
AcDbCircle
 10
641.5857494024727
 20
685.1461660065345
 30
0.0
 40
4.9999924
100
AcDbArc
 50
90.00000299999769
 51
270.0
  0
ARC
  5
FC3
330
21
100
AcDbEntity
  8
AM_0
100
AcDbCircle
 10
613.585779402473
 20
624.0427960065342
 30
0.0
 40
4.0
100
AcDbArc
 50
271.5000000000027
 51
0.0
  0
ARC
  5
FC4
330
21
100
AcDbEntity
  8
AM_0
100
AcDbCircle
 10
613.585779402473
 20
746.2495560065344
 30
0.0
 40
4.0
100
AcDbArc
 50
0.0
 51
88.49999700000065
  0
ARC
  5
FC5
330
21
100
AcDbEntity
  8
AM_0
100
AcDbCircle
 10
588.585779402473
 20
754.3528860065342
 30
0.0
 40
8.0
100
AcDbArc
 50
0.0
 51
88.49999700000065
  0
ARC
  5
FC6
330
21
100
AcDbEntity
  8
AM_0
100
AcDbCircle
 10
588.585779402473
 20
615.9394360065345
 30
0.0
 40
8.0
100
AcDbArc
 50
271.5000000000027
 51
0.0
  0
ARC
  5
FC7
330
21
100
AcDbEntity
  8
AM_0
100
AcDbCircle
 10
604.0379894024728
 20
611.7886760065344
 30
0.0
 40
8.0
100
AcDbArc
 50
91.50000100000154
 51
164.964200000003
  0
ARC
  5
FC8
330
21
100
AcDbEntity
  8
AM_0
100
AcDbCircle
 10
604.0379894024728
 20
758.5036460065346
 30
0.0
 40
8.0
100
AcDbArc
 50
195.0357999999969
 51
268.4999999999973
  0
ARC
  5
FC9
330
21
100
AcDbEntity
  8
AM_0
100
AcDbCircle
 10
588.5857494024727
 20
774.3597860065344
 30
0.0
 40
12.0
100
AcDbArc
 50
180.000010000001
 51
268.4999999999973
  0
ARC
  5
FCA
330
21
100
AcDbEntity
  8
AM_0
100
AcDbCircle
 10
588.5857494024727
 20
595.9325660065342
 30
0.0
 40
12.0
100
AcDbArc
 50
91.50000100000154
 51
180.000010000001
  0
ARC
  5
FCB
330
21
100
AcDbEntity
  8
AM_0
100
AcDbCircle
 10
584.5857494024727
 20
789.8016160065342
 30
0.0
 40
8.0
100
AcDbArc
 50
88.00000000000279
 51
180.000010000001
  0
ARC
  5
FCC
330
21
100
AcDbEntity
  8
AM_0
100
AcDbCircle
 10
584.5857494024727
 20
580.4907360065343
 30
0.0
 40
8.0
100
AcDbArc
 50
180.000010000001
 51
271.9999900000014
  0
ARC
  5
FCD
330
21
100
AcDbEntity
  8
AM_0
100
AcDbCircle
 10
511.5857494024728
 20
580.7092760065345
 30
0.0
 40
4.0
100
AcDbArc
 50
265.0000100000004
 51
0.0000006832495047
  0
ARC
  5
FCE
330
21
100
AcDbEntity
  8
AM_0
100
AcDbCircle
 10
502.5857494024728
 20
574.4699560065344
 30
0.0
 40
3.0
100
AcDbArc
 50
85.00000399999768
 51
265.0
  0
ARC
  5
FCF
330
21
100
AcDbEntity
  8
AM_0
100
AcDbCircle
 10
510.5857494024728
 20
794.5146360065344
 30
0.0
 40
5.0
100
AcDbArc
 50
0.0
 51
95.00000199999858
  0
ARC
  5
FD0
330
21
100
AcDbEntity
  8
AM_0
100
AcDbCircle
 10
510.5857494024728
 20
575.7776960065346
 30
0.0
 40
5.0
100
AcDbArc
 50
265.0000100000004
 51
0.0000006832495047
  0
ARC
  5
FD1
330
21
100
AcDbEntity
  8
AM_0
100
AcDbCircle
 10
486.5857494024728
 20
762.7479660065346
 30
0.0
 40
3.0
100
AcDbArc
 50
271.9999999999972
 51
0.0
  0
ARC
  5
FD2
330
21
100
AcDbEntity
  8
AM_0
100
AcDbCircle
 10
486.5857494024728
 20
607.5443260065346
 30
0.0
 40
3.0
100
AcDbArc
 50
0.0
 51
88.00000000000279
  0
ARC
  5
FD3
330
21
100
AcDbEntity
  8
AM_0
100
AcDbCircle
 10
498.5857494024728
 20
620.0739560065344
 30
0.0
 40
3.0
100
AcDbArc
 50
270.0
 51
0.0
  0
ARC
  5
FD4
330
21
100
AcDbEntity
  8
AM_0
100
AcDbCircle
 10
498.5857494024728
 20
750.2183660065344
 30
0.0
 40
3.0
100
AcDbArc
 50
0.0
 51
90.00000299999769
  0
ARC
  5
FD5
330
21
100
AcDbEntity
  8
AM_0
100
AcDbCircle
 10
498.5857494024728
 20
599.2561460065343
 30
0.0
 40
3.0
100
AcDbArc
 50
0.0
 51
90.00000299999769
  0
ARC
  5
FD6
330
21
100
AcDbEntity
  8
AM_0
100
AcDbCircle
 10
504.5857494024728
 20
588.8924360065344
 30
0.0
 40
3.0
100
AcDbArc
 50
180.000010000001
 51
268.0000000000029
  0
ARC
  5
FD7
330
21
100
AcDbEntity
  8
AM_0
100
AcDbCircle
 10
492.585749402473
 20
605.2561460065343
 30
0.0
 40
3.0
100
AcDbArc
 50
180.000010000001
 51
270.0
  0
ARC
  5
FD8
330
21
100
AcDbEntity
  8
AM_0
100
AcDbCircle
 10
492.585749402473
 20
594.2250560065343
 30
0.0
 40
3.0
100
AcDbArc
 50
180.000010000001
 51
270.0
  0
ARC
  5
FD9
330
21
100
AcDbEntity
  8
AM_0
100
AcDbCircle
 10
498.6229794024728
 20
588.2250560065345
 30
0.0
 40
3.0
100
AcDbArc
 50
6.386299399996091
 51
90.00000299999769
  0
ARC
  5
FDA
330
21
100
AcDbEntity
  8
AM_0
100
AcDbCircle
 10
498.6229794024728
 20
782.0673060065345
 30
0.0
 40
3.0
100
AcDbArc
 50
270.0
 51
353.6137000000033
  0
ARC
  5
FDB
330
21
100
AcDbEntity
  8
AM_0
100
AcDbCircle
 10
492.585749402473
 20
765.0361760065342
 30
0.0
 40
3.0
100
AcDbArc
 50
90.00000299999769
 51
180.000010000001
  0
ARC
  5
FDC
330
21
100
AcDbEntity
  8
AM_0
100
AcDbCircle
 10
504.5857494024728
 20
781.3998860065345
 30
0.0
 40
3.0
100
AcDbArc
 50
91.99999800000057
 51
180.000010000001
  0
ARC
  5
FDD
330
21
100
AcDbEntity
  8
AM_0
100
AcDbCircle
 10
498.5857494024728
 20
771.0361760065347
 30
0.0
 40
3.0
100
AcDbArc
 50
270.0
 51
0.0
  0
ARC
  5
FDE
330
21
100
AcDbEntity
  8
AM_0
100
AcDbCircle
 10
492.585749402473
 20
776.0673060065345
 30
0.0
 40
3.0
100
AcDbArc
 50
90.00000299999769
 51
180.000010000001
  0
POLYLINE
  5
FDF
330
21
100
AcDbEntity
  8
AM_0
100
AcDb2dPolyline
 66
     1
 10
0.0
 20
0.0
 30
0.0
  0
VERTEX
  5
FE0
330
FDF
100
AcDbEntity
  8
AM_0
100
AcDbVertex
100
AcDb2dVertex
 10
511.5857494024728
 20
654.8697360065345
 30
0.0
 42
-0.07005559
  0
VERTEX
  5
FE1
330
FDF
100
AcDbEntity
  8
AM_0
100
AcDbVertex
100
AcDb2dVertex
 10
537.9464094024731
 20
634.6723960065343
 30
0.0
 42
-0.27110578
  0
VERTEX
  5
FE2
330
FDF
100
AcDbEntity
  8
AM_0
100
AcDbVertex
100
AcDb2dVertex
 10
546.5857494024728
 20
614.7890460065345
 30
0.0
 42
-0.21303172
  0
VERTEX
  5
FE3
330
FDF
100
AcDbEntity
  8
AM_0
100
AcDbVertex
100
AcDb2dVertex
 10
526.995309402473
 20
596.6542360065342
 30
0.0
  0
VERTEX
  5
FE4
330
FDF
100
AcDbEntity
  8
AM_0
100
AcDbVertex
100
AcDb2dVertex
 10
511.5857494024728
 20
590.3559760065345
 30
0.0
 42
-1.0
  0
SEQEND
  5
FE5
330
FDF
100
AcDbEntity
  8
AM_0
  0
POLYLINE
  5
FE6
330
21
100
AcDbEntity
  8
AM_0
100
AcDb2dPolyline
 66
     1
 10
0.0
 20
0.0
 30
0.0
  0
VERTEX
  5
FE7
330
FE6
100
AcDbEntity
  8
AM_0
100
AcDbVertex
100
AcDb2dVertex
 10
511.5857494024728
 20
607.7293560065345
 30
0.0
 42
0.040443759
  0
VERTEX
  5
FE8
330
FE6
100
AcDbEntity
  8
AM_0
100
AcDbVertex
100
AcDb2dVertex
 10
523.1139294024728
 20
607.9527260065344
 30
0.0
 42
0.042469384
  0
VERTEX
  5
FE9
330
FE6
100
AcDbEntity
  8
AM_0
100
AcDbVertex
100
AcDb2dVertex
 10
534.4476194024731
 20
610.0662360065342
 30
0.0
 42
0.022671411
  0
VERTEX
  5
FEA
330
FE6
100
AcDbEntity
  8
AM_0
100
AcDbVertex
100
AcDb2dVertex
 10
539.9321094024729
 20
611.8571760065345
 30
0.0
  0
VERTEX
  5
FEB
330
FE6
100
AcDbEntity
  8
AM_0
100
AcDbVertex
100
AcDb2dVertex
 10
545.2377294024728
 20
614.1260160065345
 30
0.0
 42
-1.0
  0
SEQEND
  5
FEC
330
FE6
100
AcDbEntity
  8
AM_0
  0
POLYLINE
  5
FED
330
21
100
AcDbEntity
  8
AM_0
100
AcDb2dPolyline
 66
     1
 10
0.0
 20
0.0
 30
0.0
  0
VERTEX
  5
FEE
330
FED
100
AcDbEntity
  8
AM_0
100
AcDbVertex
100
AcDb2dVertex
 10
511.5857494024728
 20
762.5629760065345
 30
0.0
 42
-0.040443759
  0
VERTEX
  5
FEF
330
FED
100
AcDbEntity
  8
AM_0
100
AcDbVertex
100
AcDb2dVertex
 10
523.1139294024728
 20
762.3396060065342
 30
0.0
 42
-0.042469384
  0
VERTEX
  5
FF0
330
FED
100
AcDbEntity
  8
AM_0
100
AcDbVertex
100
AcDb2dVertex
 10
534.4476194024731
 20
760.2260860065346
 30
0.0
 42
-0.022671411
  0
VERTEX
  5
FF1
330
FED
100
AcDbEntity
  8
AM_0
100
AcDbVertex
100
AcDb2dVertex
 10
539.9321094024729
 20
758.4351460065342
 30
0.0
  0
VERTEX
  5
FF2
330
FED
100
AcDbEntity
  8
AM_0
100
AcDbVertex
100
AcDb2dVertex
 10
545.2377294024728
 20
756.1663160065344
 30
0.0
 42
-1.0
  0
SEQEND
  5
FF3
330
FED
100
AcDbEntity
  8
AM_0
  0
POLYLINE
  5
FF4
330
21
100
AcDbEntity
  8
AM_0
100
AcDb2dPolyline
 66
     1
 10
0.0
 20
0.0
 30
0.0
  0
VERTEX
  5
FF5
330
FF4
100
AcDbEntity
  8
AM_0
100
AcDbVertex
100
AcDb2dVertex
 10
511.5857494024728
 20
715.4225960065346
 30
0.0
 42
0.070055609
  0
VERTEX
  5
FF6
330
FF4
100
AcDbEntity
  8
AM_0
100
AcDbVertex
100
AcDb2dVertex
 10
537.9464094024731
 20
735.6199360065344
 30
0.0
 42
0.27110581
  0
VERTEX
  5
FF7
330
FF4
100
AcDbEntity
  8
AM_0
100
AcDbVertex
100
AcDb2dVertex
 10
546.5857494024728
 20
755.5032760065345
 30
0.0
 42
0.21303143
  0
VERTEX
  5
FF8
330
FF4
100
AcDbEntity
  8
AM_0
100
AcDbVertex
100
AcDb2dVertex
 10
526.995309402473
 20
773.6381160065344
 30
0.0
  0
VERTEX
  5
FF9
330
FF4
100
AcDbEntity
  8
AM_0
100
AcDbVertex
100
AcDb2dVertex
 10
511.5857494024728
 20
779.9363860065344
 30
0.0
 42
-1.0
  0
SEQEND
  5
FFA
330
FF4
100
AcDbEntity
  8
AM_0
  0
LINE
  5
1007
330
21
100
AcDbEntity
  8
AM_7
 62
     1
370
    25
100
AcDbLine
 10
343.9097494024732
 20
685.1461660065345
 30
0.0
 11
697.7617494024728
 21
685.1461660065344
 31
0.0
1001
GENIUS_GENODEF_13
1002
{
1000
HIER
1070
     0
1002
}
1002
{
1000
MANEDIT
1070
     0
1002
}
1002
{
1000
NOSEL
1070
     0
1002
}
1002
{
1000
BEHIND
1070
     0
1002
}
1002
{
1000
OTHER
1070
     0
1002
}
1002
{
1000
REACTOR
1002
}
1001
GENIUS_GENOBJ-N-CEN_13
1002
{
1000
OWNER
1000
GEN
1002
}
1001
GENIUS_GENCEN_19
1002
{
1040
11.176
1002
}
  0
ENDSEC
  0
SECTION
  2
OBJECTS
  0
DICTIONARY
  5
C
330
0
100
AcDbDictionary
281
     1
  3
ACAD_COLOR
350
1C
  3
ACAD_GROUP
350
D
  3
ACAD_LAYOUT
350
1A
  3
ACAD_MATERIAL
350
1B
  3
ACAD_MLINESTYLE
350
17
  3
ACAD_PLOTSETTINGS
350
19
  3
ACAD_PLOTSTYLENAME
350
E
  3
ACAD_TABLESTYLE
350
462
  3
ACDBHEADERROUNDTRIPXREC
350
10AA
  3
AcDbVariableDictionary
350
DDC
  3
AcmDictionary
350
A1
  3
AMG
350
2D
  3
AMGSNAPSETTINGS
350
220
  0
DICTIONARY
  5
65E
330
2
100
AcDbDictionary
280
     1
281
     1
  3
ACAD_LAYERSTATES
360
65F
  0
DICTIONARY
  5
109
330
21
100
AcDbDictionary
280
     1
281
     1
  0
DICTIONARY
  5
1C
102
{ACAD_REACTORS
330
C
102
}
330
C
100
AcDbDictionary
281
     1
  0
DICTIONARY
  5
D
102
{ACAD_REACTORS
330
C
102
}
330
C
100
AcDbDictionary
281
     1
  0
DICTIONARY
  5
1A
102
{ACAD_REACTORS
330
C
102
}
330
C
100
AcDbDictionary
281
     1
  3
Model
350
24
  3
レイアウト1
350
20
  3
レイアウト2
350
28
  0
DICTIONARY
  5
1B
102
{ACAD_REACTORS
330
C
102
}
330
C
100
AcDbDictionary
281
     1
  0
DICTIONARY
  5
17
102
{ACAD_REACTORS
330
C
102
}
330
C
100
AcDbDictionary
281
     1
  3
Standard
350
18
  0
DICTIONARY
  5
19
102
{ACAD_REACTORS
330
C
102
}
330
C
100
AcDbDictionary
281
     1
  0
ACDBDICTIONARYWDFLT
  5
E
102
{ACAD_REACTORS
330
C
102
}
330
C
100
AcDbDictionary
281
     1
  3
Normal
350
F
100
AcDbDictionaryWithDefault
340
F
  0
DICTIONARY
  5
462
102
{ACAD_REACTORS
330
C
102
}
330
C
100
AcDbDictionary
281
     1
  3
Standard
350
463
  0
DICTIONARY
  5
10AA
102
{ACAD_REACTORS
330
C
102
}
330
C
100
AcDbDictionary
281
     1
  0
DICTIONARY
  5
DDC
102
{ACAD_REACTORS
330
C
102
}
330
C
100
AcDbDictionary
281
     1
  3
CTABLESTYLE
350
DDD
  3
DIMASSOC
350
100E
  3
HIDETEXT
350
100D
  3
PROJECTNAME
350
100F
  0
DICTIONARY
  5
A1
102
{ACAD_REACTORS
330
C
102
}
330
C
100
AcDbDictionary
281
     1
  3
AcmStdDictionary
350
A4
  3
AMDTSECTSYM_ARROWCOLOR
350
46F
  0
DICTIONARY
  5
2D
102
{ACAD_REACTORS
330
C
102
}
330
C
100
AcDbDictionary
281
     1
  0
DICTIONARY
  5
220
102
{ACAD_REACTORS
330
C
102
}
330
C
100
AcDbDictionary
281
     1
  0
DICTIONARY
  5
65F
102
{ACAD_REACTORS
330
65E
102
}
330
65E
100
AcDbDictionary
281
     1
  0
LAYOUT
  5
24
102
{ACAD_XDICTIONARY
360
10AD
102
}
102
{ACAD_REACTORS
330
1A
102
}
330
1A
100
AcDbPlotSettings
  1

  2
\\Xseries235\Canon LASER SHOT LBP-910
  4
A4
  6

 40
5.873749732971191
 41
5.873747825622557
 42
5.873748779296875
 43
5.873748779296875
 44
209.9733276367186
 45
296.9259948730469
 46
0.0
 47
0.34
 48
0.0
 49
0.0
140
0.0
141
0.0
142
1.0
143
4.0
 70
 11952
 72
     1
 73
     1
 74
     2
  7
acad1.ctb
 75
    18
147
0.25
148
0.0
149
0.0
100
AcDbLayout
  1
Model
 70
     1
 71
     0
 10
0.0
 20
0.0
 11
12.0
 21
9.0
 12
0.0
 22
0.0
 32
0.0
 14
0.0
 24
0.0
 34
0.0
 15
0.0
 25
0.0
 35
0.0
146
0.0
 13
0.0
 23
0.0
 33
0.0
 16
1.0
 26
0.0
 36
0.0
 17
0.0
 27
1.0
 37
0.0
 76
     0
330
21
1001
ACAD_PSEXT
1000
\\Xseries235\Canon LASER SHOT LBP-910
1000
Canon LASER SHOT LBP-910
1000
\\XSERIES235
1000

1070
     0
  0
LAYOUT
  5
20
102
{ACAD_XDICTIONARY
360
10AB
102
}
102
{ACAD_REACTORS
330
1A
102
}
330
1A
100
AcDbPlotSettings
  1

  2
\\Xseries235\Canon LASER SHOT LBP-910
  4

  6

 40
0.0
 41
0.0
 42
0.0
 43
0.0
 44
0.0
 45
0.0
 46
0.0
 47
0.0
 48
0.0
 49
0.0
140
0.0
141
0.0
142
1.0
143
1.0
 70
   688
 72
     0
 73
     0
 74
     5
  7
acad1.ctb
 75
    16
147
1.0
148
0.0
149
0.0
100
AcDbLayout
  1
レイアウト1
 70
     1
 71
     1
 10
0.0
 20
0.0
 11
420.0
 21
297.0
 12
0.0
 22
0.0
 32
0.0
 14
1.000000000000000E+20
 24
1.000000000000000E+20
 34
1.000000000000000E+20
 15
-1.000000000000000E+20
 25
-1.000000000000000E+20
 35
-1.000000000000000E+20
146
0.0
 13
0.0
 23
0.0
 33
0.0
 16
1.0
 26
0.0
 36
0.0
 17
0.0
 27
1.0
 37
0.0
 76
     0
330
1D
  0
LAYOUT
  5
28
102
{ACAD_XDICTIONARY
360
10AF
102
}
102
{ACAD_REACTORS
330
1A
102
}
330
1A
100
AcDbPlotSettings
  1

  2
\\Xseries235\Canon LASER SHOT LBP-910
  4

  6

 40
0.0
 41
0.0
 42
0.0
 43
0.0
 44
0.0
 45
0.0
 46
0.0
 47
0.0
 48
0.0
 49
0.0
140
0.0
141
0.0
142
1.0
143
1.0
 70
   688
 72
     0
 73
     0
 74
     5
  7
acad1.ctb
 75
    16
147
1.0
148
0.0
149
0.0
100
AcDbLayout
  1
レイアウト2
 70
     1
 71
     2
 10
0.0
 20
0.0
 11
12.0
 21
9.0
 12
0.0
 22
0.0
 32
0.0
 14
0.0
 24
0.0
 34
0.0
 15
0.0
 25
0.0
 35
0.0
146
0.0
 13
0.0
 23
0.0
 33
0.0
 16
1.0
 26
0.0
 36
0.0
 17
0.0
 27
1.0
 37
0.0
 76
     0
330
25
  0
MLINESTYLE
  5
18
102
{ACAD_REACTORS
330
17
102
}
330
17
100
AcDbMlineStyle
  2
STANDARD
 70
     0
  3

 62
   256
 51
90.0
 52
90.0
 71
     2
 49
0.5
 62
   256
  6
BYLAYER
 49
-0.5
 62
   256
  6
BYLAYER
  0
ACDBPLACEHOLDER
  5
F
102
{ACAD_REACTORS
330
E
102
}
330
E
  0
TABLESTYLE
  5
463
102
{ACAD_REACTORS
330
462
102
}
330
462
100
AcDbTableStyle
  3
Standard
 70
     0
 71
     0
 40
1.5
 41
1.5
280
     0
281
     0
  7
STANDARD
140
4.5
170
     2
 62
     0
 63
     7
283
     0
274
    -2
284
     1
 64
     0
275
    -2
285
     1
 65
     0
276
    -2
286
     1
 66
     0
277
    -2
287
     1
 67
     0
278
    -2
288
     1
 68
     0
279
    -2
289
     1
 69
     0
  7
STANDARD
140
6.0
170
     5
 62
     0
 63
     7
283
     0
274
    -2
284
     1
 64
     0
275
    -2
285
     1
 65
     0
276
    -2
286
     1
 66
     0
277
    -2
287
     1
 67
     0
278
    -2
288
     1
 68
     0
279
    -2
289
     1
 69
     0
  7
STANDARD
140
4.5
170
     5
 62
     0
 63
     7
283
     0
274
    -2
284
     1
 64
     0
275
    -2
285
     1
 65
     0
276
    -2
286
     1
 66
     0
277
    -2
287
     1
 67
     0
278
    -2
288
     1
 68
     0
279
    -2
289
     1
 69
     0
  0
DICTIONARYVAR
  5
DDD
102
{ACAD_REACTORS
330
DDC
102
}
330
DDC
100
DictionaryVariables
280
     0
  1
STANDARD
  0
DICTIONARYVAR
  5
100E
102
{ACAD_REACTORS
330
DDC
102
}
330
DDC
100
DictionaryVariables
280
     0
  1
2
  0
DICTIONARYVAR
  5
100D
102
{ACAD_REACTORS
330
DDC
102
}
330
DDC
100
DictionaryVariables
280
     0
  1
1
  0
DICTIONARYVAR
  5
100F
102
{ACAD_REACTORS
330
DDC
102
}
330
DDC
100
DictionaryVariables
280
     0
  1

  0
DICTIONARY
  5
A4
102
{ACAD_REACTORS
330
A1
102
}
330
A1
100
AcDbDictionary
281
     1
  0
XRECORD
  5
46F
102
{ACAD_REACTORS
330
A1
102
}
330
A1
100
AcDbXrecord
280
     1
 90
-1023410169
  0
DICTIONARY
  5
10AD
330
24
100
AcDbDictionary
280
     1
281
     1
  3
ACAD_XREC_ROUNDTRIP
360
10AE
  0
DICTIONARY
  5
10AB
330
20
100
AcDbDictionary
280
     1
281
     1
  3
ACAD_XREC_ROUNDTRIP
360
10AC
  0
DICTIONARY
  5
10AF
330
28
100
AcDbDictionary
280
     1
281
     1
  3
ACAD_XREC_ROUNDTRIP
360
10B0
  0
XRECORD
  5
10AE
102
{ACAD_REACTORS
330
10AD
102
}
330
10AD
100
AcDbXrecord
280
     1
102
SHADEPLOT
 70
     0
102
SHADEPLOTRESLEVEL
 70
     2
102
SHADEPLOTCUSTOMDPI
 70
   300
  0
XRECORD
  5
10AC
102
{ACAD_REACTORS
330
10AB
102
}
330
10AB
100
AcDbXrecord
280
     1
102
SHADEPLOT
 70
     0
102
SHADEPLOTRESLEVEL
 70
     2
102
SHADEPLOTCUSTOMDPI
 70
   300
  0
XRECORD
  5
10B0
102
{ACAD_REACTORS
330
10AF
102
}
330
10AF
100
AcDbXrecord
280
     1
102
SHADEPLOT
 70
     0
102
SHADEPLOTRESLEVEL
 70
     2
102
SHADEPLOTCUSTOMDPI
 70
   300
  0
ENDSEC
  0
EOF
