  0
SECTION
  2
HEADER
  9
$ACADVER
  1
AC1015
  9
$ACADMAINTVER
 70
    20
  9
$DWGCODEPAGE
  3
ANSI_932
  9
$INSBASE
 10
0.0
 20
0.0
 30
0.0
  9
$EXTMIN
 10
292.7143366054838
 20
163.1894365938099
 30
0.0
  9
$EXTMAX
 10
776.8127934858934
 20
542.2496469271926
 30
0.0
  9
$LIMMIN
 10
0.0
 20
0.0
  9
$LIMMAX
 10
853.5
 20
555.0000000000001
  9
$ORTHOMODE
 70
     1
  9
$REGENMODE
 70
     1
  9
$FILLMODE
 70
     1
  9
$QTEXTMODE
 70
     0
  9
$MIRRTEXT
 70
     1
  9
$LTSCALE
 40
3.0
  9
$ATTMODE
 70
     1
  9
$TEXTSIZE
 40
2.5
  9
$TRACEWID
 40
1.0
  9
$TEXTSTYLE
  7
STANDARD
  9
$CLAYER
  8
AM_0
  9
$CELTYPE
  6
ByLayer
  9
$CECOLOR
 62
   256
  9
$CELTSCALE
 40
1.0
  9
$DISPSILH
 70
     0
  9
$DIMSCALE
 40
1.0
  9
$DIMASZ
 40
2.5
  9
$DIMEXO
 40
1.0
  9
$DIMDLI
 40
8.0
  9
$DIMRND
 40
0.0
  9
$DIMDLE
 40
0.0
  9
$DIMEXE
 40
0.6
  9
$DIMTP
 40
0.1
  9
$DIMTM
 40
0.1
  9
$DIMTXT
 40
2.5
  9
$DIMCEN
 40
0.0
  9
$DIMTSZ
 40
0.0
  9
$DIMTOL
 70
     0
  9
$DIMLIM
 70
     0
  9
$DIMTIH
 70
     0
  9
$DIMTOH
 70
     0
  9
$DIMSE1
 70
     0
  9
$DIMSE2
 70
     0
  9
$DIMTAD
 70
     1
  9
$DIMZIN
 70
     8
  9
$DIMBLK
  1

  9
$DIMASO
 70
     1
  9
$DIMSHO
 70
     1
  9
$DIMPOST
  1

  9
$DIMAPOST
  1
"
  9
$DIMALT
 70
     0
  9
$DIMALTD
 70
     2
  9
$DIMALTF
 40
0.0393701
  9
$DIMLFAC
 40
1.0
  9
$DIMTOFL
 70
     1
  9
$DIMTVP
 40
0.0
  9
$DIMTIX
 70
     0
  9
$DIMSOXD
 70
     0
  9
$DIMSAH
 70
     0
  9
$DIMBLK1
  1

  9
$DIMBLK2
  1

  9
$DIMSTYLE
  2
AM_ISO
  9
$DIMCLRD
 70
   256
  9
$DIMCLRE
 70
   256
  9
$DIMCLRT
 70
     4
  9
$DIMTFAC
 40
0.71
  9
$DIMGAP
 40
0.8
  9
$DIMJUST
 70
     0
  9
$DIMSD1
 70
     0
  9
$DIMSD2
 70
     0
  9
$DIMTOLJ
 70
     0
  9
$DIMTZIN
 70
     8
  9
$DIMALTZ
 70
     0
  9
$DIMALTTZ
 70
     0
  9
$DIMUPT
 70
     0
  9
$DIMDEC
 70
     2
  9
$DIMTDEC
 70
     2
  9
$DIMALTU
 70
     2
  9
$DIMALTTD
 70
     2
  9
$DIMTXSTY
  7
STANDARD
  9
$DIMAUNIT
 70
     0
  9
$DIMADEC
 70
     0
  9
$DIMALTRND
 40
0.0
  9
$DIMAZIN
 70
     2
  9
$DIMDSEP
 70
    46
  9
$DIMATFIT
 70
     3
  9
$DIMFRAC
 70
     0
  9
$DIMLDRBLK
  1

  9
$DIMLUNIT
 70
     2
  9
$DIMLWD
 70
    -1
  9
$DIMLWE
 70
    -1
  9
$DIMTMOVE
 70
     0
  9
$LUNITS
 70
     2
  9
$LUPREC
 70
     2
  9
$SKETCHINC
 40
1.0
  9
$FILLETRAD
 40
5.0
  9
$AUNITS
 70
     0
  9
$AUPREC
 70
     0
  9
$MENU
  1
.
  9
$ELEVATION
 40
0.0
  9
$PELEVATION
 40
0.0
  9
$THICKNESS
 40
0.0
  9
$LIMCHECK
 70
     0
  9
$CHAMFERA
 40
6.0
  9
$CHAMFERB
 40
3.0
  9
$CHAMFERC
 40
20.0
  9
$CHAMFERD
 40
0.0
  9
$SKPOLY
 70
     0
  9
$TDCREATE
 40
2452065.605619213
  9
$TDUCREATE
 40
2452065.230619213
  9
$TDUPDATE
 40
2454770.740872084
  9
$TDUUPDATE
 40
2454770.365872084
  9
$TDINDWG
 40
0.5327080324
  9
$TDUSRTIMER
 40
0.5327076620
  9
$USRTIMER
 70
     1
  9
$ANGBASE
 50
0.0
  9
$ANGDIR
 70
     0
  9
$PDMODE
 70
     0
  9
$PDSIZE
 40
0.0
  9
$PLINEWID
 40
0.0
  9
$SPLFRAME
 70
     0
  9
$SPLINETYPE
 70
     6
  9
$SPLINESEGS
 70
     8
  9
$HANDSEED
  5
49B1
  9
$SURFTAB1
 70
     6
  9
$SURFTAB2
 70
     6
  9
$SURFTYPE
 70
     6
  9
$SURFU
 70
     6
  9
$SURFV
 70
     6
  9
$UCSBASE
  2

  9
$UCSNAME
  2

  9
$UCSORG
 10
0.0
 20
0.0
 30
0.0
  9
$UCSXDIR
 10
1.0
 20
0.0
 30
0.0
  9
$UCSYDIR
 10
0.0
 20
1.0
 30
0.0
  9
$UCSORTHOREF
  2

  9
$UCSORTHOVIEW
 70
     0
  9
$UCSORGTOP
 10
0.0
 20
0.0
 30
0.0
  9
$UCSORGBOTTOM
 10
0.0
 20
0.0
 30
0.0
  9
$UCSORGLEFT
 10
0.0
 20
0.0
 30
0.0
  9
$UCSORGRIGHT
 10
0.0
 20
0.0
 30
0.0
  9
$UCSORGFRONT
 10
0.0
 20
0.0
 30
0.0
  9
$UCSORGBACK
 10
0.0
 20
0.0
 30
0.0
  9
$PUCSBASE
  2

  9
$PUCSNAME
  2

  9
$PUCSORG
 10
0.0
 20
0.0
 30
0.0
  9
$PUCSXDIR
 10
1.0
 20
0.0
 30
0.0
  9
$PUCSYDIR
 10
0.0
 20
1.0
 30
0.0
  9
$PUCSORTHOREF
  2

  9
$PUCSORTHOVIEW
 70
     0
  9
$PUCSORGTOP
 10
0.0
 20
0.0
 30
0.0
  9
$PUCSORGBOTTOM
 10
0.0
 20
0.0
 30
0.0
  9
$PUCSORGLEFT
 10
0.0
 20
0.0
 30
0.0
  9
$PUCSORGRIGHT
 10
0.0
 20
0.0
 30
0.0
  9
$PUCSORGFRONT
 10
0.0
 20
0.0
 30
0.0
  9
$PUCSORGBACK
 10
0.0
 20
0.0
 30
0.0
  9
$USERI1
 70
     0
  9
$USERI2
 70
     0
  9
$USERI3
 70
     0
  9
$USERI4
 70
     0
  9
$USERI5
 70
     0
  9
$USERR1
 40
0.0
  9
$USERR2
 40
0.0
  9
$USERR3
 40
0.0
  9
$USERR4
 40
0.0
  9
$USERR5
 40
0.0
  9
$WORLDVIEW
 70
     1
  9
$SHADEDGE
 70
     3
  9
$SHADEDIF
 70
    70
  9
$TILEMODE
 70
     1
  9
$MAXACTVP
 70
    64
  9
$PINSBASE
 10
0.0
 20
0.0
 30
0.0
  9
$PLIMCHECK
 70
     0
  9
$PEXTMIN
 10
1.000000000000000E+20
 20
1.000000000000000E+20
 30
1.000000000000000E+20
  9
$PEXTMAX
 10
-1.000000000000000E+20
 20
-1.000000000000000E+20
 30
-1.000000000000000E+20
  9
$PLIMMIN
 10
0.0
 20
0.0
  9
$PLIMMAX
 10
420.0
 20
297.0
  9
$UNITMODE
 70
     0
  9
$VISRETAIN
 70
     1
  9
$PLINEGEN
 70
     0
  9
$PSLTSCALE
 70
     1
  9
$TREEDEPTH
 70
  3020
  9
$CMLSTYLE
  2
Standard
  9
$CMLJUST
 70
     0
  9
$CMLSCALE
 40
20.0
  9
$PROXYGRAPHICS
 70
     1
  9
$MEASUREMENT
 70
     1
  9
$CELWEIGHT
370
    -1
  9
$ENDCAPS
280
     0
  9
$JOINSTYLE
280
     0
  9
$LWDISPLAY
290
     0
  9
$INSUNITS
 70
     4
  9
$HYPERLINKBASE
  1

  9
$STYLESHEET
  1
ACAD1.CTB
  9
$XEDIT
290
     1
  9
$CEPSNTYPE
380
     0
  9
$PSTYLEMODE
290
     1
  9
$FINGERPRINTGUID
  2
{91B11402-3528-11D5-BE34-000255C217F4}
  9
$VERSIONGUID
  2
{6C848DCB-203D-4794-AA37-58005FBCD2B3}
  9
$EXTNAMES
290
     1
  9
$PSVPSCALE
 40
0.0
  9
$OLESTARTUP
290
     0
  0
ENDSEC
  0
SECTION
  2
CLASSES
  0
CLASS
  1
ACDBDICTIONARYWDFLT
  2
AcDbDictionaryWithDefault
  3
ObjectDBX Classes
 90
        0
280
     0
281
     0
  0
CLASS
  1
ACDBPLACEHOLDER
  2
AcDbPlaceHolder
  3
ObjectDBX Classes
 90
        0
280
     0
281
     0
  0
CLASS
  1
LAYOUT
  2
AcDbLayout
  3
ObjectDBX Classes
 90
        0
280
     0
281
     0
  0
CLASS
  1
AMGSETTINGSOBJ
  2
AmgSettingsObj
  3
"AcadM|Product Description: AutoCAD Mechanical 2000|Company: Autodesk"
 90
        0
280
     0
281
     0
  0
CLASS
  1
ACME_DOCUMENT
  2
AcMeDbDoc
  3
AcMeServices
 90
        0
280
     0
281
     0
  0
CLASS
  1
ACMESCOPE
  2
AcMeScope
  3
AcMeServices
 90
        0
280
     0
281
     0
  0
CLASS
  1
ACMECOMMANDHISTORY
  2
AcMeCommandHistory
  3
AcMeServices
 90
        0
280
     0
281
     0
  0
CLASS
  1
DICTIONARYVAR
  2
AcDbDictionaryVar
  3
ObjectDBX Classes
 90
        0
280
     0
281
     0
  0
CLASS
  1
ACIMSYSVARMAN
  2
AcImSysVarManager
  3
AcMeServices
 90
        0
280
     0
281
     0
  0
CLASS
  1
ACIMREALSYSVAR
  2
AcImRealSysVar
  3
AcMeServices
 90
        0
280
     0
281
     0
  0
CLASS
  1
ACIMINTSYSVAR
  2
AcImIntSysVar
  3
AcMeServices
 90
        0
280
     0
281
     0
  0
CLASS
  1
ACMEDRAWINGMAN
  2
AcMeDrawingMan
  3
AcMeServices
 90
        0
280
     0
281
     0
  0
CLASS
  1
ACMEVIEW
  2
AcMeView
  3
AcMeServices
 90
        0
280
     0
281
     0
  0
CLASS
  1
ACDBENTITYCACHE
  2
AcMeEntityCache
  3
AcMeServices
 90
        0
280
     0
281
     0
  0
CLASS
  1
GSMANAGER
  2
AcMeGSManager
  3
AcMeServices
 90
        0
280
     0
281
     0
  0
CLASS
  1
AMDTINTERNALREACTOR
  2
AmdtInternalReactor
  3
AcMeServices
 90
        0
280
     0
281
     0
  0
CLASS
  1
ACMESTATEMGR
  2
AcMeStateMgr
  3
AcMeServices
 90
        0
280
     0
281
     0
  0
CLASS
  1
ACGREFMASTER
  2
AcGrefMaster
  3
AcAttribServices
 90
        0
280
     0
281
     0
  0
CLASS
  1
ACME_DATABASE
  2
AcMeDbDatabase
  3
AcMeServices
 90
        0
280
     0
281
     0
  0
CLASS
  1
ACRFINSADJUSTERMGR
  2
AcRfInsAdjusterMgr
  3
AcMeServices
 90
        0
280
     0
281
     0
  0
CLASS
  1
ACGREFACADMASTER
  2
AcGrefacadMaster
  3
AcGrefServices
 90
        0
280
     0
281
     0
  0
CLASS
  1
AMIMASTER
  2
AmiMaster
  3
AmiServices
 90
        0
280
     0
281
     0
  0
CLASS
  1
ACMDATADICTIONARY
  2
AcmDataDictionary
  3
"AcmSymBB|Product Description: AutoCAD Mechanical 2004 DX|Company: Autodesk"
 90
        0
280
     0
281
     0
  0
CLASS
  1
ACMDATAENTRYBLOCK
  2
AcmDataEntryBlock
  3
"AcmSymBB|Product Description: AutoCAD Mechanical 2004 DX|Company: Autodesk"
 90
    32768
280
     0
281
     0
  0
CLASS
  1
ACIMSTRSYSVAR
  2
AcImStrSysVar
  3
AcMeServices
 90
        0
280
     0
281
     0
  0
CLASS
  1
ACMSTANDARDISO
  2
AcmStandardISO
  3
"Amdt_StdImp|Product Description: AutoCAD Mechanical 2004 DX|Company: Autodesk"
 90
        0
280
     0
281
     0
  0
CLASS
  1
AMGOBJPROPCFG
  2
AmgObjPropCfg
  3
"AmgLay|Product Description: AutoCAD Mechanical 2000|Company: Autodesk"
 90
        1
280
     0
281
     0
  0
CLASS
  1
AMDTEDGESTANDARDISO
  2
AmdtEdgeStdISO
  3
"Amdt_StdImp|Product Description: AutoCAD Mechanical 2004 DX|Company: Autodesk"
 90
    32768
280
     0
281
     0
  0
CLASS
  1
ACMSURFSTANDARDISO
  2
AcmSurfTextStdISO
  3
"Amdt_StdImp|Product Description: AutoCAD Mechanical 2004 DX|Company: Autodesk"
 90
        0
280
     0
281
     0
  0
CLASS
  1
ACMFCFSTANDARDISO
  2
AcmFCFStdISO
  3
"Amdt_StdImp|Product Description: AutoCAD Mechanical 2004 DX|Company: Autodesk"
 90
        0
280
     0
281
     0
  0
CLASS
  1
ACMWELDSTANDARDISO
  2
AcmWeldingStdISO
  3
"Amdt_StdImp|Product Description: AutoCAD Mechanical 2004 DX|Company: Autodesk"
 90
        0
280
     0
281
     0
  0
CLASS
  1
ACMIDSTANDARDISO
  2
AcmIdStdISO
  3
"Amdt_StdImp|Product Description: AutoCAD Mechanical 2004 DX|Company: Autodesk"
 90
        0
280
     0
281
     0
  0
CLASS
  1
ACMDATUMSTANDARDISO
  2
AcmDatumStdISO
  3
"Amdt_StdImp|Product Description: AutoCAD Mechanical 2004 DX|Company: Autodesk"
 90
        0
280
     0
281
     0
  0
CLASS
  1
ACMBOMSTANDARDISO
  2
AcmBOMStdISO
  3
"Amdt_StdImp|Product Description: AutoCAD Mechanical 2004 DX|Company: Autodesk"
 90
        0
280
     0
281
     0
  0
CLASS
  1
ACMDETAILSTANDARDISO
  2
AmdtDetailSymStdISO
  3
"Amdt_StdImp|Product Description: AutoCAD Mechanical 2004 DX|Company: Autodesk"
 90
        0
280
     0
281
     0
  0
CLASS
  1
ACMSECTIONSTANDARDISO
  2
AmdtSectionSymStdISO
  3
"Amdt_StdImp|Product Description: AutoCAD Mechanical 2004 DX|Company: Autodesk"
 90
        0
280
     0
281
     0
  0
CLASS
  1
ACMCENTERLINESTANDARDISO
  2
AmdtCenterLineStdISO
  3
"Amdt_StdImp|Product Description: AutoCAD Mechanical 2004 DX|Company: Autodesk"
 90
        0
280
     0
281
     0
  0
CLASS
  1
ACAMGLAYSTD
  2
AcAmgLayStd
  3
"AcAmgLayStd|Product Description: AutoCAD Mechanical 2000|Company: Autodesk"
 90
        0
280
     0
281
     0
  0
CLASS
  1
ACAMGDIMSTD
  2
AcAmgDimStd
  3
"AcAmgDimStd|Product Description: AutoCAD Mechanical 2000|Company: Autodesk"
 90
        0
280
     0
281
     0
  0
CLASS
  1
ACAMGTITLESTD
  2
AcAmgTitleStd
  3
"TITLEAPP"
 90
        0
280
     0
281
     0
  0
CLASS
  1
ACAMGFILTERDAT
  2
AcAmgFilterDat
  3
"AcadM|Product Description: AutoCAD Mechanical 2000|Company: Autodesk"
 90
    32768
280
     0
281
     0
  0
CLASS
  1
AMDTFORMULAUPDATEDISPATCHER
  2
AmdtFormulaUpdateDispatcher
  3
AcMeServices
 90
    32768
280
     0
281
     0
  0
CLASS
  1
LAYER_INDEX
  2
AcDbLayerIndex
  3
ObjectDBX Classes
 90
    32768
280
     0
281
     0
  0
CLASS
  1
IDBUFFER
  2
AcDbIdBuffer
  3
ObjectDBX Classes
 90
    32768
280
     0
281
     0
  0
CLASS
  1
PLOTSETTINGS
  2
AcDbPlotSettings
  3
ObjectDBX Classes
 90
        0
280
     0
281
     0
  0
CLASS
  1
ACMSTANDARDANSI
  2
AcmStandardANSI
  3
"Amdt_StdImp|Product Description: AutoCAD Mechanical 2004 DX|Company: Autodesk"
 90
        0
280
     0
281
     0
  0
CLASS
  1
ACMSURFSTANDARDANSI
  2
AcmSurfTextStdANSI
  3
"Amdt_StdImp|Product Description: AutoCAD Mechanical 2004 DX|Company: Autodesk"
 90
        0
280
     0
281
     0
  0
CLASS
  1
ACMFCFSTANDARDANSI
  2
AcmFCFStdANSI
  3
"Amdt_StdImp|Product Description: AutoCAD Mechanical 2004 DX|Company: Autodesk"
 90
        0
280
     0
281
     0
  0
CLASS
  1
ACMWELDSTANDARDANSI
  2
AcmWeldingStdANSI
  3
"Amdt_StdImp|Product Description: AutoCAD Mechanical 2004 DX|Company: Autodesk"
 90
        0
280
     0
281
     0
  0
CLASS
  1
ACMIDSTANDARDANSI
  2
AcmIdStdANSI
  3
"Amdt_StdImp|Product Description: AutoCAD Mechanical 2004 DX|Company: Autodesk"
 90
        0
280
     0
281
     0
  0
CLASS
  1
ACMDATUMSTANDARDANSI
  2
AcmDatumStdANSI
  3
"Amdt_StdImp|Product Description: AutoCAD Mechanical 2004 DX|Company: Autodesk"
 90
        0
280
     0
281
     0
  0
CLASS
  1
ACMBOMSTANDARDANSI
  2
AcmBOMStdANSI
  3
"Amdt_StdImp|Product Description: AutoCAD Mechanical 2004 DX|Company: Autodesk"
 90
        0
280
     0
281
     0
  0
CLASS
  1
ACMDETAILSTANDARDANSI
  2
AmdtDetailSymStdANSI
  3
"Amdt_StdImp|Product Description: AutoCAD Mechanical 2004 DX|Company: Autodesk"
 90
        0
280
     0
281
     0
  0
CLASS
  1
ACMSECTIONSTANDARDANSI
  2
AmdtSectionSymStdANSI
  3
"Amdt_StdImp|Product Description: AutoCAD Mechanical 2004 DX|Company: Autodesk"
 90
        0
280
     0
281
     0
  0
CLASS
  1
ACMCENTERLINESTANDARDANSI
  2
AmdtCenterLineStdANSI
  3
"Amdt_StdImp|Product Description: AutoCAD Mechanical 2004 DX|Company: Autodesk"
 90
        0
280
     0
281
     0
  0
CLASS
  1
ACMSTANDARDJIS
  2
AcmStandardJIS
  3
"Amdt_StdImp|Product Description: AutoCAD Mechanical 2004 DX|Company: Autodesk"
 90
    32768
280
     0
281
     0
  0
CLASS
  1
ACMSURFSTANDARDJIS
  2
AcmSurfTextStdJIS
  3
"Amdt_StdImp|Product Description: AutoCAD Mechanical 2004 DX|Company: Autodesk"
 90
    32768
280
     0
281
     0
  0
CLASS
  1
ACMFCFSTANDARDJIS
  2
AcmFCFStdJIS
  3
"Amdt_StdImp|Product Description: AutoCAD Mechanical 2004 DX|Company: Autodesk"
 90
    32768
280
     0
281
     0
  0
CLASS
  1
ACMWELDSTANDARDJIS
  2
AcmWeldingStdJIS
  3
"Amdt_StdImp|Product Description: AutoCAD Mechanical 2004 DX|Company: Autodesk"
 90
    32768
280
     0
281
     0
  0
CLASS
  1
ACMIDSTANDARDJIS
  2
AcmIdStdJIS
  3
"Amdt_StdImp|Product Description: AutoCAD Mechanical 2004 DX|Company: Autodesk"
 90
    32768
280
     0
281
     0
  0
CLASS
  1
ACMDATUMSTANDARDJIS
  2
AcmDatumStdJIS
  3
"Amdt_StdImp|Product Description: AutoCAD Mechanical 2004 DX|Company: Autodesk"
 90
    32768
280
     0
281
     0
  0
CLASS
  1
ACMBOMSTANDARDJIS
  2
AcmBOMStdJIS
  3
"Amdt_StdImp|Product Description: AutoCAD Mechanical 2004 DX|Company: Autodesk"
 90
    32768
280
     0
281
     0
  0
CLASS
  1
ACMDETAILSTANDARDJIS
  2
AmdtDetailSymStdJIS
  3
"Amdt_StdImp|Product Description: AutoCAD Mechanical 2004 DX|Company: Autodesk"
 90
    32768
280
     0
281
     0
  0
CLASS
  1
ACMSECTIONSTANDARDJIS
  2
AmdtSectionSymStdJIS
  3
"Amdt_StdImp|Product Description: AutoCAD Mechanical 2004 DX|Company: Autodesk"
 90
    32768
280
     0
281
     0
  0
CLASS
  1
ACMCENTERLINESTANDARDJIS
  2
AmdtCenterLineStdJIS
  3
"Amdt_StdImp|Product Description: AutoCAD Mechanical 2004 DX|Company: Autodesk"
 90
    32768
280
     0
281
     0
  0
CLASS
  1
TABLESTYLE
  2
AcDbTableStyle
  3
ObjectDBX Classes
 90
     2047
280
     0
281
     0
  0
CLASS
  1
AM_DRAWING_MGR
  2
AcDmDwgMgr
  3
AcMechDwgViewMgmt
 90
        0
280
     0
281
     0
  0
CLASS
  1
AM_DWG_DOCUMENT
  2
AcDmDwgDocument
  3
AcMechDwgViewMgmt
 90
        0
280
     0
281
     0
  0
CLASS
  1
AM_DWG_SHEET
  2
AcDmSheet
  3
AcMechDwgViewMgmt
 90
        0
280
     0
281
     0
  0
CLASS
  1
AM_VIEWDIMPARMAP
  2
AcDmViewDimParMap
  3
AcMechDwgViewMgmt
 90
        0
280
     0
281
     0
  0
CLASS
  1
AM_DWGMGR_NAME
  2
AcDmDwgMgrName
  3
AcMechDwgViewMgmt
 90
        0
280
     0
281
     0
  0
CLASS
  1
AMDTMENUSTATEMGR
  2
AmdtMenuStateMgr
  3
McadcomServices
 90
        0
280
     0
281
     0
  0
CLASS
  1
AMDTMCOMMENUSTATE
  2
AmdtMcomMenuState
  3
McadcomServices
 90
        0
280
     0
281
     0
  0
CLASS
  1
MAPIAMMOUDLE
  2
MApiAmModule
  3
MApiAmServices
 90
        0
280
     0
281
     0
  0
CLASS
  1
AMDTADMENUSTATE
  2
AmdtAdMenuState
  3
DesignerServices
 90
        0
280
     0
281
     0
  0
CLASS
  1
ADAPPL
  2
AcAdAppl
  3
DesignerServices
 90
        0
280
     0
281
     0
  0
CLASS
  1
DEPMGR
  2
AcAdDepMgr
  3
DesignerServices
 90
        0
280
     0
281
     0
  0
CLASS
  1
PARAMMGR
  2
AcAdParamMgr
  3
DesignerServices
 90
        0
280
     0
281
     0
  0
CLASS
  1
PARAMSCOPE
  2
AcAdParamScope
  3
DesignerServices
 90
        0
280
     0
281
     0
  0
CLASS
  1
NAMEDAPPL
  2
AcAdNamedAppl
  3
DesignerServices
 90
        0
280
     0
281
     0
  0
CLASS
  1
AMDTDMMENUSTATE
  2
AmdtDmMenuState
  3
AcMechDwgViewMgmt
 90
        0
280
     0
281
     0
  0
CLASS
  1
AMDTAMMENUSTATE
  2
AmdtAmMenuState
  3
DesignerAssemblies
 90
        0
280
     0
281
     0
  0
CLASS
  1
ACAMPROJECT
  2
AcAmProject
  3
DesignerAssemblies
 90
        0
280
     0
281
     0
  0
CLASS
  1
ACAMGRCOMPDEF
  2
AcAmGrCompDef
  3
DesignerAssemblies
 90
        0
280
     0
281
     0
  0
CLASS
  1
ACCMCONTEXT
  2
AcCmContext
  3
DesignerAssemblies
 90
        0
280
     0
281
     0
  0
CLASS
  1
ACAMCOMPDEF
  2
AcAmCompDef
  3
DesignerAssemblies
 90
        0
280
     0
281
     0
  0
CLASS
  1
ACAMCOMPDEFMGR
  2
AcAmCompDefMgr
  3
DesignerAssemblies
 90
        0
280
     0
281
     0
  0
CLASS
  1
AMCONTEXTMGR
  2
AcAmContextMgr
  3
DesignerAssemblies
 90
        0
280
     0
281
     0
  0
CLASS
  1
ACAMCONTEXTMODELER
  2
AcAmContextModeler
  3
DesignerAssemblies
 90
        0
280
     0
281
     0
  0
CLASS
  1
ACMTHREADLINESTANDARDISO
  2
AmdtThreadLineStdISO
  3
"Amdt_StdImp|Product Description: AutoCAD Mechanical 2004 DX|Company: Autodesk"
 90
        0
280
     0
281
     0
  0
CLASS
  1
ACMNOTESTANDARDISO
  2
AmdtNoteStdISO
  3
"Amdt_StdImp|Product Description: AutoCAD Mechanical 2004 DX|Company: Autodesk"
 90
        0
280
     0
281
     0
  0
CLASS
  1
AMDTNOTETEMPLATEDB
  2
AmdtNoteTemplateDB
  3
AMDT_STDIMP_MODULE_NAME
 90
        0
280
     0
281
     0
  0
CLASS
  1
ACMTHREADLINESTANDARDANSI
  2
AmdtThreadLineStdANSI
  3
"Amdt_StdImp|Product Description: AutoCAD Mechanical 2004 DX|Company: Autodesk"
 90
        0
280
     0
281
     0
  0
CLASS
  1
ACMNOTESTANDARDANSI
  2
AmdtNoteStdANSI
  3
"Amdt_StdImp|Product Description: AutoCAD Mechanical 2004 DX|Company: Autodesk"
 90
        0
280
     0
281
     0
  0
CLASS
  1
ACMTHREADLINESTANDARDJIS
  2
AmdtThreadLineStdJIS
  3
"Amdt_StdImp|Product Description: AutoCAD Mechanical 2004 DX|Company: Autodesk"
 90
    32768
280
     0
281
     0
  0
CLASS
  1
ACMNOTESTANDARDJIS
  2
AmdtNoteStdJIS
  3
"Amdt_StdImp|Product Description: AutoCAD Mechanical 2004 DX|Company: Autodesk"
 90
    32768
280
     0
281
     0
  0
CLASS
  1
CATALOGSTATE
  2
AcAmCatalogState
  3
DesignerAssemblies
 90
        0
280
     0
281
     0
  0
CLASS
  1
ACAMGRCOMPDEFSET
  2
AcAmGrCompDefSet
  3
DesignerAssemblies
 90
        0
280
     0
281
     0
  0
CLASS
  1
AMDTBROWSERDBTAB
  2
AmdtBrowserDbTab
  3
McadcomServices
 90
        0
280
     0
281
     0
  0
CLASS
  1
CBROWSERAPPOBJECT
  2
CBrowserAppObject
  3
McadcomServices
 90
        0
280
     0
281
     0
  0
CLASS
  1
DM_PLACEHOLDER
  2
AcDmSelsetPlaceholder
  3
AcMechDwgViewMgmt
 90
        0
280
     0
281
     0
  0
CLASS
  1
DIMASSOC
  2
AcDbDimAssoc
  3
"AcDbDimAssoc|Product Desc:     AcDim ARX App For Dimension|Company:          Autodesk, Inc.|WEB Address:      www.autodesk.com"
 90
    32768
280
     0
281
     0
  0
CLASS
  1
SORTENTSTABLE
  2
AcDbSortentsTable
  3
ObjectDBX Classes
 90
        0
280
     0
281
     0
  0
CLASS
  1
STDPART2D
  2
AmgStdPart
  3
"AmgStdPart|Product Description: AutoCAD Mechanical 2000|Company: Autodesk"
 90
    33791
280
     0
281
     1
  0
CLASS
  1
AMDTNOTE
  2
AmdtNote
  3
"AcmSymBB|Product Description: AutoCAD Mechanical 2004 DX|Company: Autodesk"
 90
    33791
280
     0
281
     1
  0
CLASS
  1
ACMDATUMID
  2
AcmDatumId
  3
"AcmSymBB|Product Description: AutoCAD Mechanical 2004 DX|Company: Autodesk"
 90
    33791
280
     0
281
     1
  0
CLASS
  1
ACDBDIMENSIONRES
  2
AcDbDimensionRes
  3
"AcDbDimensionRes|Product Description: AutoCAD Mechanical 2000|Company: Autodesk"
 90
    32768
280
     0
281
     0
  0
CLASS
  1
ACRFATTGENMGR
  2
AcRfAttGeneralMgr
  3
AcAttribServices
 90
        0
280
     0
281
     0
  0
CLASS
  1
AMDTEDGESTANDARDISO13715
  2
AmdtEdgeStdISO13715
  3
"Amdt_StdImp|Product Description: AutoCAD Mechanical 2004 DX|Company: Autodesk"
 90
        0
280
     0
281
     0
  0
CLASS
  1
ACAMGHOLECHARTSTDISO
  2
AcAmgHoleChartStdISO
  3
ACMSYMBB_MODULE_NAME
 90
        0
280
     0
281
     0
  0
CLASS
  1
ACAMGHOLECHARTSTDANSI
  2
AcAmgHoleChartStdANSI
  3
ACMSYMBB_MODULE_NAME
 90
        0
280
     0
281
     0
  0
ENDSEC
  0
SECTION
  2
TABLES
  0
TABLE
  2
VPORT
  5
8
330
0
100
AcDbSymbolTable
 70
     8
  0
VPORT
  5
499A
330
8
100
AcDbSymbolTableRecord
100
AcDbViewportTableRecord
  2
*Active
 70
     0
 10
0.0
 20
0.0
 11
1.0
 21
1.0
 12
534.7463514476507
 22
352.7225889652299
 13
0.0
 23
0.0
 14
7.5
 24
7.5
 15
30.0
 25
30.0
 16
0.0
 26
0.0
 36
1.0
 17
0.0
 27
0.0
 37
0.0
 40
382.0264146903333
 41
1.475550122249388
 42
50.0
 43
0.0
 44
0.0
 50
0.0
 51
0.0
 71
     0
 72
   100
 73
     1
 74
     3
 75
     0
 76
     0
 77
     0
 78
     0
281
     0
 65
     0
110
0.0
120
0.0
130
0.0
111
1.0
121
0.0
131
0.0
112
0.0
122
1.0
132
0.0
 79
     0
146
0.0
  0
ENDTAB
  0
TABLE
  2
LTYPE
  5
5
330
0
100
AcDbSymbolTable
 70
    18
  0
LTYPE
  5
14
330
5
100
AcDbSymbolTableRecord
100
AcDbLinetypeTableRecord
  2
ByBlock
 70
     0
  3

 72
    65
 73
     0
 40
0.0
  0
LTYPE
  5
15
330
5
100
AcDbSymbolTableRecord
100
AcDbLinetypeTableRecord
  2
ByLayer
 70
     0
  3

 72
    65
 73
     0
 40
0.0
  0
LTYPE
  5
16
330
5
100
AcDbSymbolTableRecord
100
AcDbLinetypeTableRecord
  2
Continuous
 70
     0
  3
Solid line
 72
    65
 73
     0
 40
0.0
  0
LTYPE
  5
6CA
330
5
100
AcDbSymbolTableRecord
100
AcDbLinetypeTableRecord
  2
GEN7
 70
     0
  3
____ . ____ . ____ . ____ . ____ . ____ . ____
 72
    65
 73
     4
 40
14.25
 49
9.75
 74
     0
 49
-1.5
 74
     0
 49
1.5
 74
     0
 49
-1.5
 74
     0
  0
LTYPE
  5
6D8
330
5
100
AcDbSymbolTableRecord
100
AcDbLinetypeTableRecord
  2
GEN7A
 70
     0
  3
__ . __ . __
 72
    65
 73
     4
 40
7.375
 49
4.75
 74
     0
 49
-0.875
 74
     0
 49
0.875
 74
     0
 49
-0.875
 74
     0
  0
LTYPE
  5
45E2
330
5
100
AcDbSymbolTableRecord
100
AcDbLinetypeTableRecord
  2
AM_ISO08W050
 70
     0
  3
____ . ____ . ____ . ____ . ____ . ____ . ____
 72
    65
 73
     4
 40
18.0
 49
12.0
 74
     0
 49
-1.5
 74
     0
 49
3.0
 74
     0
 49
-1.5
 74
     0
  0
LTYPE
  5
45E5
330
5
100
AcDbSymbolTableRecord
100
AcDbLinetypeTableRecord
  2
AM_ISO08W050x2
 70
     0
  3
__ . __ . __ . __ . __ . __
 72
    65
 73
     4
 40
9.0
 49
6.0
 74
     0
 49
-0.75
 74
     0
 49
1.5
 74
     0
 49
-0.75
 74
     0
  0
ENDTAB
  0
TABLE
  2
LAYER
  5
2
102
{ACAD_XDICTIONARY
360
2D9C
102
}
330
0
100
AcDbSymbolTable
 70
     7
  0
LAYER
  5
10
330
2
100
AcDbSymbolTableRecord
100
AcDbLayerTableRecord
  2
0
 70
     0
 62
     7
  6
Continuous
370
    -3
390
F
  0
LAYER
  5
124
330
2
100
AcDbSymbolTableRecord
100
AcDbLayerTableRecord
  2
Defpoints
 70
     0
 62
     7
  6
Continuous
290
     0
370
    -3
390
F
  0
LAYER
  5
6FE
330
2
100
AcDbSymbolTableRecord
100
AcDbLayerTableRecord
  2
ﾁｭｳｼﾝｾﾝ
 70
     0
 62
     1
  6
GEN7
370
    -3
390
F
  0
LAYER
  5
6FF
330
2
100
AcDbSymbolTableRecord
100
AcDbLayerTableRecord
  2
ﾁｭｳｼﾝｾﾝ1
 70
     0
 62
     1
  6
GEN7A
370
    -3
390
F
  0
LAYER
  5
71D
330
2
100
AcDbSymbolTableRecord
100
AcDbLayerTableRecord
  2
AM_0
 70
     0
 62
     7
  6
Continuous
370
    50
390
F
  0
LAYER
  5
1A93
330
2
100
AcDbSymbolTableRecord
100
AcDbLayerTableRecord
  2
図面枠-ｷｲﾛ
 70
     0
 62
     2
  6
Continuous
370
    -3
390
F
  0
LAYER
  5
46C2
330
2
100
AcDbSymbolTableRecord
100
AcDbLayerTableRecord
  2
AM_7
 70
     0
 62
     4
  6
AM_ISO08W050
370
    25
390
F
  0
ENDTAB
  0
TABLE
  2
STYLE
  5
3
330
0
100
AcDbSymbolTable
 70
     6
  0
STYLE
  5
11
330
3
100
AcDbSymbolTableRecord
100
AcDbTextStyleTableRecord
  2
STANDARD
 70
     0
 40
0.0
 41
0.8299999999999998
 50
0.0
 71
     0
 42
2.5
  3
t.shx
  4
bigfont.shx
  0
ENDTAB
  0
TABLE
  2
VIEW
  5
6
330
0
100
AcDbSymbolTable
 70
     6
  0
VIEW
  5
C2
330
6
100
AcDbSymbolTableRecord
100
AcDbViewTableRecord
  2
AM_VIEW1
 70
     0
 40
277.5000000000001
 10
249.6477900552487
 20
416.2500000000001
 41
499.2955801104971
 11
0.0
 21
0.0
 31
1.0
 12
0.0
 22
0.0
 32
0.0
 42
50.0
 43
0.0
 44
0.0
 50
0.0
 71
     0
281
     0
 72
     0
  0
VIEW
  5
C3
330
6
100
AcDbSymbolTableRecord
100
AcDbViewTableRecord
  2
AM_VIEW2
 70
     0
 40
277.5000000000001
 10
603.8522099447512
 20
416.2500000000001
 41
499.2955801104971
 11
0.0
 21
0.0
 31
1.0
 12
0.0
 22
0.0
 32
0.0
 42
50.0
 43
0.0
 44
0.0
 50
0.0
 71
     0
281
     0
 72
     0
  0
VIEW
  5
C4
330
6
100
AcDbSymbolTableRecord
100
AcDbViewTableRecord
  2
AM_VIEW3
 70
     0
 40
277.5000000000001
 10
249.6477900552487
 20
138.75
 41
499.2955801104971
 11
0.0
 21
0.0
 31
1.0
 12
0.0
 22
0.0
 32
0.0
 42
50.0
 43
0.0
 44
0.0
 50
0.0
 71
     0
281
     0
 72
     0
  0
VIEW
  5
C5
330
6
100
AcDbSymbolTableRecord
100
AcDbViewTableRecord
  2
AM_VIEW4
 70
     0
 40
277.5000000000001
 10
603.8522099447512
 20
138.75
 41
499.2955801104971
 11
0.0
 21
0.0
 31
1.0
 12
0.0
 22
0.0
 32
0.0
 42
50.0
 43
0.0
 44
0.0
 50
0.0
 71
     0
281
     0
 72
     0
  0
VIEW
  5
C6
330
6
100
AcDbSymbolTableRecord
100
AcDbViewTableRecord
  2
AM_VIEW5
 70
     0
 40
277.5000000000001
 10
426.75
 20
277.5000000000001
 41
499.2955801104971
 11
0.0
 21
0.0
 31
1.0
 12
0.0
 22
0.0
 32
0.0
 42
50.0
 43
0.0
 44
0.0
 50
0.0
 71
     0
281
     0
 72
     0
  0
VIEW
  5
C7
330
6
100
AcDbSymbolTableRecord
100
AcDbViewTableRecord
  2
AM_VIEW6
 70
     0
 40
554.9944500000001
 10
426.75
 20
277.5
 41
998.5811743093924
 11
0.0
 21
0.0
 31
1.0
 12
0.0
 22
0.0
 32
0.0
 42
50.0
 43
0.0
 44
0.0
 50
0.0
 71
     0
281
     0
 72
     0
  0
ENDTAB
  0
TABLE
  2
UCS
  5
7
330
0
100
AcDbSymbolTable
 70
     0
  0
ENDTAB
  0
TABLE
  2
APPID
  5
9
330
0
100
AcDbSymbolTable
 70
    95
  0
APPID
  5
12
330
9
100
AcDbSymbolTableRecord
100
AcDbRegAppTableRecord
  2
ACAD
 70
     0
  0
APPID
  5
30
330
9
100
AcDbSymbolTableRecord
100
AcDbRegAppTableRecord
  2
MCAD_NO_VIS
 70
     0
  0
APPID
  5
31
330
9
100
AcDbSymbolTableRecord
100
AcDbRegAppTableRecord
  2
ACAD_TEMP_GRAPHIC
 70
     0
  0
APPID
  5
44
330
9
100
AcDbSymbolTableRecord
100
AcDbRegAppTableRecord
  2
ACATTRIBSERVICES
 70
     0
  0
APPID
  5
8D
330
9
100
AcDbSymbolTableRecord
100
AcDbRegAppTableRecord
  2
GENIUS_GENREC_14
 70
     0
  0
APPID
  5
8E
330
9
100
AcDbSymbolTableRecord
100
AcDbRegAppTableRecord
  2
GENIUS_GENOBJ-N-REC_13
 70
     0
  0
APPID
  5
8F
330
9
100
AcDbSymbolTableRecord
100
AcDbRegAppTableRecord
  2
GENIUS_GENODEF_13
 70
     0
  0
APPID
  5
BD
330
9
100
AcDbSymbolTableRecord
100
AcDbRegAppTableRecord
  2
GENIUS_GENOLIS_13
 70
     0
  0
APPID
  5
BE
330
9
100
AcDbSymbolTableRecord
100
AcDbRegAppTableRecord
  2
GENIUS_GENOBJ-N-TIT_13
 70
     0
  0
APPID
  5
BF
330
9
100
AcDbSymbolTableRecord
100
AcDbRegAppTableRecord
  2
GENIUS_GENOENT_13
 70
     0
  0
APPID
  5
C0
330
9
100
AcDbSymbolTableRecord
100
AcDbRegAppTableRecord
  2
GENIUS_GENTITLE_13
 70
     0
  0
APPID
  5
C1
330
9
100
AcDbSymbolTableRecord
100
AcDbRegAppTableRecord
  2
GENIUS_GENOREF_13
 70
     0
  0
APPID
  5
C8
330
9
100
AcDbSymbolTableRecord
100
AcDbRegAppTableRecord
  2
GENIUS_GENSCREG_15
 70
     0
  0
APPID
  5
C9
330
9
100
AcDbSymbolTableRecord
100
AcDbRegAppTableRecord
  2
GENIUS_GENOBJ-N-SDF_13
 70
     0
  0
APPID
  5
103
330
9
100
AcDbSymbolTableRecord
100
AcDbRegAppTableRecord
  2
GENIUS_GENFIL_13
 70
     0
  0
APPID
  5
104
330
9
100
AcDbSymbolTableRecord
100
AcDbRegAppTableRecord
  2
GENIUS_GENOBJ-N-CHA_13
 70
     0
  0
APPID
  5
13E
330
9
100
AcDbSymbolTableRecord
100
AcDbRegAppTableRecord
  2
GENIUS_GENDTOL_13
 70
     0
  0
APPID
  5
187
330
9
100
AcDbSymbolTableRecord
100
AcDbRegAppTableRecord
  2
GENIUS_GENOBJ-N-FIL_13
 70
     0
  0
APPID
  5
75A
330
9
100
AcDbSymbolTableRecord
100
AcDbRegAppTableRecord
  2
AD_DRAW
 70
     0
  0
APPID
  5
75B
330
9
100
AcDbSymbolTableRecord
100
AcDbRegAppTableRecord
  2
DESIGNERASSEMBLIES
 70
     0
  0
APPID
  5
75C
330
9
100
AcDbSymbolTableRecord
100
AcDbRegAppTableRecord
  2
ASURF_PCURVE_APPNAME
 70
     0
  0
APPID
  5
75D
330
9
100
AcDbSymbolTableRecord
100
AcDbRegAppTableRecord
  2
GENIUS_GE3SECT_13
 70
     0
  0
APPID
  5
75E
330
9
100
AcDbSymbolTableRecord
100
AcDbRegAppTableRecord
  2
GENIUS_GENCFG_13
 70
     0
  0
APPID
  5
75F
330
9
100
AcDbSymbolTableRecord
100
AcDbRegAppTableRecord
  2
GENIUS_GE3CFG0_13
 70
     0
  0
APPID
  5
760
330
9
100
AcDbSymbolTableRecord
100
AcDbRegAppTableRecord
  2
GENIUS_GENCFG0_13
 70
     0
  0
APPID
  5
761
330
9
100
AcDbSymbolTableRecord
100
AcDbRegAppTableRecord
  2
GENIUS_GENCFG1_13
 70
     0
  0
APPID
  5
762
330
9
100
AcDbSymbolTableRecord
100
AcDbRegAppTableRecord
  2
GENIUS_GENCFG2_13
 70
     0
  0
APPID
  5
763
330
9
100
AcDbSymbolTableRecord
100
AcDbRegAppTableRecord
  2
GENIUS_GENCFG3_13
 70
     0
  0
APPID
  5
764
330
9
100
AcDbSymbolTableRecord
100
AcDbRegAppTableRecord
  2
GENIUS_GENCFG4_13
 70
     0
  0
APPID
  5
765
330
9
100
AcDbSymbolTableRecord
100
AcDbRegAppTableRecord
  2
GENIUS_GEVCFG0_13
 70
     0
  0
APPID
  5
766
330
9
100
AcDbSymbolTableRecord
100
AcDbRegAppTableRecord
  2
GENIUS_GENHINW_13
 70
     0
  0
APPID
  5
767
330
9
100
AcDbSymbolTableRecord
100
AcDbRegAppTableRecord
  2
GENIUS_FIRSTVISTXT_14
 70
     0
  0
APPID
  5
768
330
9
100
AcDbSymbolTableRecord
100
AcDbRegAppTableRecord
  2
GENIUS_GENOBJ-N-LEADER_13
 70
     0
  0
APPID
  5
769
330
9
100
AcDbSymbolTableRecord
100
AcDbRegAppTableRecord
  2
GEV_VCCNULL_SWITCH_OFF
 70
     0
  0
APPID
  5
76A
330
9
100
AcDbSymbolTableRecord
100
AcDbRegAppTableRecord
  2
GENIUS_GEFCFG0_13
 70
     0
  0
APPID
  5
76B
330
9
100
AcDbSymbolTableRecord
100
AcDbRegAppTableRecord
  2
GENIUS_GENZVEED_13
 70
     0
  0
APPID
  5
76C
330
9
100
AcDbSymbolTableRecord
100
AcDbRegAppTableRecord
  2
GENIUS_GENSCREG_13
 70
     0
  0
APPID
  5
76D
330
9
100
AcDbSymbolTableRecord
100
AcDbRegAppTableRecord
  2
GENIUS_DUMCFG0_13
 70
     0
  0
APPID
  5
76E
330
9
100
AcDbSymbolTableRecord
100
AcDbRegAppTableRecord
  2
GEVID936201362
 70
     0
  0
APPID
  5
76F
330
9
100
AcDbSymbolTableRecord
100
AcDbRegAppTableRecord
  2
GEVDC
 70
     0
  0
APPID
  5
770
330
9
100
AcDbSymbolTableRecord
100
AcDbRegAppTableRecord
  2
GEVCON
 70
     0
  0
APPID
  5
771
330
9
100
AcDbSymbolTableRecord
100
AcDbRegAppTableRecord
  2
VCC
 70
     0
  0
APPID
  5
772
330
9
100
AcDbSymbolTableRecord
100
AcDbRegAppTableRecord
  2
GEVPT
 70
     0
  0
APPID
  5
773
330
9
100
AcDbSymbolTableRecord
100
AcDbRegAppTableRecord
  2
GEVIT
 70
     0
  0
APPID
  5
774
330
9
100
AcDbSymbolTableRecord
100
AcDbRegAppTableRecord
  2
GENBH
 70
     0
  0
APPID
  5
775
330
9
100
AcDbSymbolTableRecord
100
AcDbRegAppTableRecord
  2
GEVMK
 70
     0
  0
APPID
  5
776
330
9
100
AcDbSymbolTableRecord
100
AcDbRegAppTableRecord
  2
GENIUS_GENBH_13
 70
     0
  0
APPID
  5
777
330
9
100
AcDbSymbolTableRecord
100
AcDbRegAppTableRecord
  2
GENIUS_GENOBJ-NBEHI-BHF_13
 70
     0
  0
APPID
  5
778
330
9
100
AcDbSymbolTableRecord
100
AcDbRegAppTableRecord
  2
GENIUS_GENOBJ-NBEHI-BHB_13
 70
     0
  0
APPID
  5
779
330
9
100
AcDbSymbolTableRecord
100
AcDbRegAppTableRecord
  2
GENIUS_GENOBJ-F-DESC_13
 70
     0
  0
APPID
  5
77A
330
9
100
AcDbSymbolTableRecord
100
AcDbRegAppTableRecord
  2
GENIUS_GEFDESC_14
 70
     0
  0
APPID
  5
77B
330
9
100
AcDbSymbolTableRecord
100
AcDbRegAppTableRecord
  2
GENIUS_GENOBJ-F-PART_13
 70
     0
  0
APPID
  5
77C
330
9
100
AcDbSymbolTableRecord
100
AcDbRegAppTableRecord
  2
GENIUS_GEFSTDP_13
 70
     0
  0
APPID
  5
77D
330
9
100
AcDbSymbolTableRecord
100
AcDbRegAppTableRecord
  2
GENIUS_GEFPARTINS_13
 70
     0
  0
APPID
  5
77E
330
9
100
AcDbSymbolTableRecord
100
AcDbRegAppTableRecord
  2
GENIUS_GENTRA_14
 70
     0
  0
APPID
  5
77F
330
9
100
AcDbSymbolTableRecord
100
AcDbRegAppTableRecord
  2
GENIUS_GENINF13_13
 70
     0
  0
APPID
  5
780
330
9
100
AcDbSymbolTableRecord
100
AcDbRegAppTableRecord
  2
GENIUS_GENOBJ-N-INFOPT_13
 70
     0
  0
APPID
  5
781
330
9
100
AcDbSymbolTableRecord
100
AcDbRegAppTableRecord
  2
GENIUS_GENOBJ-N-RSSYM_13
 70
     0
  0
APPID
  5
782
330
9
100
AcDbSymbolTableRecord
100
AcDbRegAppTableRecord
  2
GENIUS_GENSYMENT_13
 70
     0
  0
APPID
  5
783
330
9
100
AcDbSymbolTableRecord
100
AcDbRegAppTableRecord
  2
GENIUS_GENSCSYM_13
 70
     0
  0
APPID
  5
784
330
9
100
AcDbSymbolTableRecord
100
AcDbRegAppTableRecord
  2
GENIUS_GEFINFNAM_13
 70
     0
  0
APPID
  5
785
330
9
100
AcDbSymbolTableRecord
100
AcDbRegAppTableRecord
  2
GENIUS_GENOBJ-N-CEN_13
 70
     0
  0
APPID
  5
786
330
9
100
AcDbSymbolTableRecord
100
AcDbRegAppTableRecord
  2
GENIUS_GENOBJ-N-CRS_13
 70
     0
  0
APPID
  5
787
330
9
100
AcDbSymbolTableRecord
100
AcDbRegAppTableRecord
  2
GENIUS_GENOBJ-N-CRC_13
 70
     0
  0
APPID
  5
788
330
9
100
AcDbSymbolTableRecord
100
AcDbRegAppTableRecord
  2
GENIUS_GENCRC_14
 70
     0
  0
APPID
  5
789
330
9
100
AcDbSymbolTableRecord
100
AcDbRegAppTableRecord
  2
GEVID942827039
 70
     0
  0
APPID
  5
78A
330
9
100
AcDbSymbolTableRecord
100
AcDbRegAppTableRecord
  2
GEVID942827040
 70
     0
  0
APPID
  5
78B
330
9
100
AcDbSymbolTableRecord
100
AcDbRegAppTableRecord
  2
GEVID942827041
 70
     0
  0
APPID
  5
78C
330
9
100
AcDbSymbolTableRecord
100
AcDbRegAppTableRecord
  2
GENIUS_GENOBJ-F-SCPASSM_13
 70
     0
  0
APPID
  5
78D
330
9
100
AcDbSymbolTableRecord
100
AcDbRegAppTableRecord
  2
GENIUS_GENDIMSH_14
 70
     0
  0
APPID
  5
78E
330
9
100
AcDbSymbolTableRecord
100
AcDbRegAppTableRecord
  2
GEVID942827042
 70
     0
  0
APPID
  5
78F
330
9
100
AcDbSymbolTableRecord
100
AcDbRegAppTableRecord
  2
GEVID946020473
 70
     0
  0
APPID
  5
790
330
9
100
AcDbSymbolTableRecord
100
AcDbRegAppTableRecord
  2
GEVID946020474
 70
     0
  0
APPID
  5
791
330
9
100
AcDbSymbolTableRecord
100
AcDbRegAppTableRecord
  2
GEVID946020475
 70
     0
  0
APPID
  5
792
330
9
100
AcDbSymbolTableRecord
100
AcDbRegAppTableRecord
  2
GENIUS_GENOBJ-N-HTC_13
 70
     0
  0
APPID
  5
793
330
9
100
AcDbSymbolTableRecord
100
AcDbRegAppTableRecord
  2
GENIUS_GENHATCH_13
 70
     0
  0
APPID
  5
794
330
9
100
AcDbSymbolTableRecord
100
AcDbRegAppTableRecord
  2
GEVID948854295
 70
     0
  0
APPID
  5
795
330
9
100
AcDbSymbolTableRecord
100
AcDbRegAppTableRecord
  2
GEVID939402019
 70
     0
  0
APPID
  5
796
330
9
100
AcDbSymbolTableRecord
100
AcDbRegAppTableRecord
  2
GEVID952919491
 70
     0
  0
APPID
  5
797
330
9
100
AcDbSymbolTableRecord
100
AcDbRegAppTableRecord
  2
GEVID952919492
 70
     0
  0
APPID
  5
798
330
9
100
AcDbSymbolTableRecord
100
AcDbRegAppTableRecord
  2
GENIUS_GEFWELD_13
 70
     0
  0
APPID
  5
799
330
9
100
AcDbSymbolTableRecord
100
AcDbRegAppTableRecord
  2
GENIUS_GENOBJ-F-WELS_13
 70
     0
  0
APPID
  5
79A
330
9
100
AcDbSymbolTableRecord
100
AcDbRegAppTableRecord
  2
GEVID952919493
 70
     0
  0
APPID
  5
79B
330
9
100
AcDbSymbolTableRecord
100
AcDbRegAppTableRecord
  2
GENIUS_GENOBJ-N-RSBK_13
 70
     0
  0
APPID
  5
79C
330
9
100
AcDbSymbolTableRecord
100
AcDbRegAppTableRecord
  2
GENIUS_GENOBJ-N-LIB_13
 70
     0
  0
APPID
  5
79D
330
9
100
AcDbSymbolTableRecord
100
AcDbRegAppTableRecord
  2
GENIUS_GENSCALE_13
 70
     0
  0
APPID
  5
79E
330
9
100
AcDbSymbolTableRecord
100
AcDbRegAppTableRecord
  2
GEVID986376691
 70
     0
  0
APPID
  5
79F
330
9
100
AcDbSymbolTableRecord
100
AcDbRegAppTableRecord
  2
DCO15
 70
     0
  0
APPID
  5
1A97
330
9
100
AcDbSymbolTableRecord
100
AcDbRegAppTableRecord
  2
GEVID988070561
 70
     0
  0
APPID
  5
1A98
330
9
100
AcDbSymbolTableRecord
100
AcDbRegAppTableRecord
  2
GEVID988070562
 70
     0
  0
APPID
  5
1A99
330
9
100
AcDbSymbolTableRecord
100
AcDbRegAppTableRecord
  2
GEVID988070563
 70
     0
  0
APPID
  5
2201
330
9
100
AcDbSymbolTableRecord
100
AcDbRegAppTableRecord
  2
ACADM_DIM_EDIT
 70
     0
  0
APPID
  5
2202
330
9
100
AcDbSymbolTableRecord
100
AcDbRegAppTableRecord
  2
AMDT_DM_ADJ
 70
     0
  0
APPID
  5
222C
330
9
100
AcDbSymbolTableRecord
100
AcDbRegAppTableRecord
  2
ACAD_PSEXT
 70
     0
  0
APPID
  5
222D
330
9
100
AcDbSymbolTableRecord
100
AcDbRegAppTableRecord
  2
GENIUS_GENCEN_19
 70
     0
  0
ENDTAB
  0
TABLE
  2
DIMSTYLE
  5
A
330
0
100
AcDbSymbolTable
 70
    15
100
AcDbDimStyleTable
 71
     1
340
6C
  0
DIMSTYLE
105
6C
330
A
100
AcDbSymbolTableRecord
100
AcDbDimStyleTableRecord
  2
AM_ISO
 70
     0
  4
"
 41
2.5
 42
1.0
 43
8.0
 44
0.6
 47
0.1
 48
0.1
 73
     0
 74
     0
 77
     1
 78
     8
 79
     2
140
2.5
141
0.0
143
0.0393701
146
0.71
147
0.8
172
     1
176
   256
177
   256
178
     4
271
     2
272
     2
283
     0
284
     8
340
11
371
    -1
372
    -1
  0
DIMSTYLE
105
740
330
A
100
AcDbSymbolTableRecord
100
AcDbDimStyleTableRecord
  2
STANDARD
 70
     0
340
11
  0
ENDTAB
  0
TABLE
  2
BLOCK_RECORD
  5
1
330
0
100
AcDbSymbolTable
 70
     3
  0
BLOCK_RECORD
  5
1F
102
{ACAD_XDICTIONARY
360
CC
102
}
330
1
100
AcDbSymbolTableRecord
100
AcDbBlockTableRecord
  2
*Model_Space
340
22
  0
BLOCK_RECORD
  5
1B
330
1
100
AcDbSymbolTableRecord
100
AcDbBlockTableRecord
  2
*Paper_Space
340
1E
  0
BLOCK_RECORD
  5
23
330
1
100
AcDbSymbolTableRecord
100
AcDbBlockTableRecord
  2
*Paper_Space0
340
26
  0
ENDTAB
  0
ENDSEC
  0
SECTION
  2
BLOCKS
  0
BLOCK
  5
20
330
1F
100
AcDbEntity
  8
0
100
AcDbBlockBegin
  2
*Model_Space
 70
     0
 10
0.0
 20
0.0
 30
0.0
  3
*Model_Space
  1

  0
ENDBLK
  5
21
330
1F
100
AcDbEntity
  8
0
100
AcDbBlockEnd
  0
BLOCK
  5
1C
330
1B
100
AcDbEntity
 67
     1
  8
0
100
AcDbBlockBegin
  2
*Paper_Space
 70
     0
 10
0.0
 20
0.0
 30
0.0
  3
*Paper_Space
  1

  0
ENDBLK
  5
1D
330
1B
100
AcDbEntity
 67
     1
  8
0
100
AcDbBlockEnd
  0
BLOCK
  5
24
330
23
100
AcDbEntity
  8
0
100
AcDbBlockBegin
  2
*Paper_Space0
 70
     0
 10
0.0
 20
0.0
 30
0.0
  3
*Paper_Space0
  1

  0
ENDBLK
  5
25
330
23
100
AcDbEntity
  8
0
100
AcDbBlockEnd
  0
ENDSEC
  0
SECTION
  2
ENTITIES
  0
LINE
  5
3243
330
1F
100
AcDbEntity
  8
AM_0
100
AcDbLine
 10
462.857903483469
 20
252.5527195938098
 30
0.0
 11
464.8578534834688
 21
252.5527195938098
 31
0.0
  0
LINE
  5
3244
330
1F
100
AcDbEntity
  8
AM_0
100
AcDbLine
 10
462.857903483469
 20
277.5527155938097
 30
0.0
 11
464.8578534834688
 21
277.5527155938097
 31
0.0
  0
LINE
  5
3245
330
1F
100
AcDbEntity
  8
AM_0
100
AcDbLine
 10
464.8578534834688
 20
277.0527055938097
 30
0.0
 11
504.8579034834689
 21
277.0527055938097
 31
0.0
  0
LINE
  5
3246
330
1F
100
AcDbEntity
  8
AM_0
100
AcDbLine
 10
504.8579034834689
 20
280.0527055938097
 30
0.0
 11
504.8579034834689
 21
253.0527205938099
 31
0.0
  0
LINE
  5
3247
330
1F
100
AcDbEntity
  8
AM_0
100
AcDbLine
 10
464.8578534834688
 20
253.0527205938099
 30
0.0
 11
504.8579034834689
 21
253.0527205938099
 31
0.0
  0
LINE
  5
3248
330
1F
100
AcDbEntity
  8
AM_0
100
AcDbLine
 10
464.8578534834688
 20
277.5527155938097
 30
0.0
 11
464.8578534834688
 21
252.5527195938098
 31
0.0
  0
LINE
  5
3249
330
1F
100
AcDbEntity
  8
ﾁｭｳｼﾝｾﾝ
 48
0.8
100
AcDbLine
 10
508.5703734834687
 20
265.0527205938098
 30
0.0
 11
380.9571774539379
 21
265.0527205938098
 31
0.0
  0
LINE
  5
324B
330
1F
100
AcDbEntity
  8
AM_0
100
AcDbLine
 10
472.8578634834691
 20
280.0527055938097
 30
0.0
 11
472.8578634834691
 21
277.0527055938097
 31
0.0
  0
LINE
  5
3267
330
1F
100
AcDbEntity
  8
AM_0
100
AcDbLine
 10
472.8578634834691
 20
280.0527055938097
 30
0.0
 11
504.8579034834689
 21
280.0527055938097
 31
0.0
  0
LINE
  5
3277
330
1F
100
AcDbEntity
  8
AM_0
100
AcDbLine
 10
385.8578634834693
 20
294.7198855938098
 30
0.0
 11
385.8578634834693
 21
275.0807755938097
 31
0.0
  0
LINE
  5
3278
330
1F
100
AcDbEntity
  8
ﾁｭｳｼﾝｾﾝ
 48
0.8
100
AcDbLine
 10
292.7143366054838
 20
245.0527195938098
 30
0.0
 11
395.2838132146919
 21
245.0527195938098
 31
0.0
  0
LINE
  5
3279
330
1F
100
AcDbEntity
  8
AM_0
100
AcDbLine
 10
359.8578534834692
 20
301.0527355938098
 30
0.0
 11
385.9887834834692
 21
301.7369755938097
 31
0.0
  0
LINE
  5
327A
330
1F
100
AcDbEntity
  8
AM_0
100
AcDbLine
 10
359.8579134834693
 20
189.0527335938097
 30
0.0
 11
382.9364034834692
 21
188.4483925938098
 31
0.0
  0
LINE
  5
327C
330
1F
100
AcDbEntity
  8
AM_0
100
AcDbLine
 10
392.8579134834692
 20
316.0527355938098
 30
0.0
 11
397.8578634834692
 21
316.0527355938098
 31
0.0
  0
LINE
  5
327D
330
1F
100
AcDbEntity
  8
AM_0
100
AcDbLine
 10
390.857933483469
 20
314.0527255938098
 30
0.0
 11
390.857933483469
 21
298.7198755938099
 31
0.0
  0
LINE
  5
32BE
330
1F
100
AcDbEntity
  8
AM_0
100
AcDbLine
 10
387.857933483469
 20
296.7198655938097
 30
0.0
 11
388.8578634834693
 21
296.7198655938097
 31
0.0
  0
LINE
  5
32BF
330
1F
100
AcDbEntity
  8
AM_0
100
AcDbLine
 10
385.8578634834693
 20
195.8369905938098
 30
0.0
 11
390.857933483469
 21
195.8369905938098
 31
0.0
  0
LINE
  5
32C0
330
1F
100
AcDbEntity
  8
AM_0
100
AcDbLine
 10
385.8578634834693
 20
273.0807655938099
 30
0.0
 11
390.857933483469
 21
273.0807655938099
 31
0.0
  0
LINE
  5
32C1
330
1F
100
AcDbEntity
  8
AM_0
100
AcDbLine
 10
387.857933483469
 20
288.5470855938099
 30
0.0
 11
388.8578634834693
 21
288.5470855938099
 31
0.0
  0
LINE
  5
32C2
330
1F
100
AcDbEntity
  8
AM_0
100
AcDbLine
 10
390.857933483469
 20
286.5470755938098
 30
0.0
 11
390.857933483469
 21
176.0437567054065
 31
0.0
  0
LINE
  5
32C3
330
1F
100
AcDbEntity
  8
AM_0
100
AcDbLine
 10
385.8578634834693
 20
193.8369745938098
 30
0.0
 11
385.8578634834693
 21
182.0527315938097
 31
0.0
  0
LINE
  5
32C4
330
1F
100
AcDbEntity
  8
AM_0
100
AcDbLine
 10
359.8579134834693
 20
291.0527155938098
 30
0.0
 11
385.8578634834693
 21
291.0527155938098
 31
0.0
  0
LINE
  5
32C5
330
1F
100
AcDbEntity
  8
AM_0
100
AcDbLine
 10
359.8579134834693
 20
276.9897355938098
 30
0.0
 11
385.8578634834693
 21
276.9897355938098
 31
0.0
  0
LINE
  5
32C6
330
1F
100
AcDbEntity
  8
AM_0
100
AcDbLine
 10
359.8579134834693
 20
213.1157065938098
 30
0.0
 11
390.857933483469
 21
213.1157065938098
 31
0.0
  0
LINE
  5
32C7
330
1F
100
AcDbEntity
  8
AM_0
100
AcDbLine
 10
359.8579134834693
 20
199.0527325938098
 30
0.0
 11
390.857933483469
 21
199.0527325938098
 31
0.0
  0
ARC
  5
32E5
330
1F
100
AcDbEntity
  8
AM_0
100
AcDbCircle
 10
385.8578634834693
 20
306.7352755938098
 30
0.0
 40
5.000000099999998
100
AcDbArc
 50
271.4999999999995
 51
0.0
  0
ARC
  5
32E6
330
1F
100
AcDbEntity
  8
AM_0
100
AcDbCircle
 10
392.8579134834692
 20
314.0527255938098
 30
0.0
 40
2.00000007
100
AcDbArc
 50
90.0000029999993
 51
180.0000099999994
  0
ARC
  5
32E7
330
1F
100
AcDbEntity
  8
AM_0
100
AcDbCircle
 10
382.8578634834693
 20
185.4494155938097
 30
0.0
 40
3.0
100
AcDbArc
 50
0.0
 51
88.49999700000074
  0
ARC
  5
3323
330
1F
100
AcDbEntity
  8
AM_0
100
AcDbCircle
 10
387.857933483469
 20
294.7198855938098
 30
0.0
 40
2.00000007
100
AcDbArc
 50
90.0000029999993
 51
180.0000099999994
  0
ARC
  5
3324
330
1F
100
AcDbEntity
  8
AM_0
100
AcDbCircle
 10
388.8578634834693
 20
298.7198755938099
 30
0.0
 40
2.00000007
100
AcDbArc
 50
270.0
 51
0.0
  0
ARC
  5
3325
330
1F
100
AcDbEntity
  8
AM_0
100
AcDbCircle
 10
387.857933483469
 20
290.5470655938098
 30
0.0
 40
2.00000007
100
AcDbArc
 50
179.9999900000006
 51
270.0
  0
ARC
  5
3326
330
1F
100
AcDbEntity
  8
AM_0
100
AcDbCircle
 10
388.8578634834693
 20
286.5470755938098
 30
0.0
 40
2.00000007
100
AcDbArc
 50
0.0
 51
90.0000029999993
  0
ARC
  5
3327
330
1F
100
AcDbEntity
  8
AM_0
100
AcDbCircle
 10
383.8579134834692
 20
275.0807755938097
 30
0.0
 40
2.00000007
100
AcDbArc
 50
270.0
 51
0.0
  0
ARC
  5
3328
330
1F
100
AcDbEntity
  8
AM_0
100
AcDbCircle
 10
383.8579134834692
 20
193.8369745938098
 30
0.0
 40
2.00000007
100
AcDbArc
 50
0.0
 51
90.0000029999993
  0
LINE
  5
40F3
330
1F
100
AcDbEntity
  8
AM_0
100
AcDbLine
 10
458.5701234834687
 20
297.2833285938096
 30
0.0
 11
461.8578534834687
 21
293.3651155938097
 31
0.0
  0
LINE
  5
40F4
330
1F
100
AcDbEntity
  8
AM_0
100
AcDbLine
 10
461.8578534834687
 20
293.3651155938097
 30
0.0
 11
462.1559934834687
 21
293.0098285938097
 31
0.0
  0
LINE
  5
40F5
330
1F
100
AcDbEntity
  8
AM_0
100
AcDbLine
 10
457.8578634834689
 20
182.5527025938097
 30
0.0
 11
457.8578634834689
 21
350.0527225938097
 31
0.0
  0
LINE
  5
40F6
330
1F
100
AcDbEntity
  8
AM_0
100
AcDbLine
 10
447.8579034834687
 20
184.8332815938097
 30
0.0
 11
447.8579034834687
 21
217.8983755938098
 31
0.0
  0
LINE
  5
40F7
330
1F
100
AcDbEntity
  8
AM_0
100
AcDbLine
 10
429.8579034834687
 20
329.1266725938097
 30
0.0
 11
429.8579034834687
 21
283.8975535938098
 31
0.0
  0
LINE
  5
40F8
330
1F
100
AcDbEntity
  8
AM_0
100
AcDbLine
 10
457.8578634834689
 20
335.0526925938096
 30
0.0
 11
461.8578834834686
 21
335.0526925938096
 31
0.0
  0
LINE
  5
40F9
330
1F
100
AcDbEntity
  8
AM_0
100
AcDbLine
 10
449.7880734834687
 20
349.7709025938096
 30
0.0
 11
457.8578634834689
 21
350.0527225938097
 31
0.0
  0
LINE
  5
40FA
330
1F
100
AcDbEntity
  8
AM_0
100
AcDbLine
 10
435.1833834834687
 20
334.1236225938096
 30
0.0
 11
444.9626034834686
 21
334.4651125938096
 31
0.0
  0
LINE
  5
40FB
330
1F
100
AcDbEntity
  8
AM_0
100
AcDbLine
 10
397.8578634834688
 20
316.0527055938096
 30
0.0
 11
397.8578634834688
 21
171.5527165938097
 31
0.0
  0
LINE
  5
40FC
330
1F
100
AcDbEntity
  8
AM_0
100
AcDbLine
 10
457.8578634834689
 20
195.0527185938097
 30
0.0
 11
461.8578834834686
 21
195.0527185938097
 31
0.0
  0
LINE
  5
40FD
330
1F
100
AcDbEntity
  8
AM_0
100
AcDbLine
 10
461.8578834834686
 20
265.0527055938096
 30
0.0
 11
461.8578834834686
 21
276.8556685938097
 31
0.0
  0
LINE
  5
40FE
330
1F
100
AcDbEntity
  8
AM_0
100
AcDbLine
 10
461.8578834834686
 20
265.0527055938096
 30
0.0
 11
461.8578834834686
 21
195.0527185938097
 31
0.0
  0
LINE
  5
40FF
330
1F
100
AcDbEntity
  8
AM_0
100
AcDbLine
 10
447.8579034834687
 20
307.0043665938098
 30
0.0
 11
447.8579034834687
 21
347.7720925938098
 31
0.0
  0
LINE
  5
4100
330
1F
100
AcDbEntity
  8
AM_0
100
AcDbLine
 10
434.8578834834686
 20
278.8975705938096
 30
0.0
 11
449.0886534834687
 21
278.8975705938096
 31
0.0
  0
LINE
  5
4101
330
1F
100
AcDbEntity
  8
AM_0
100
AcDbLine
 10
451.8578634834688
 20
200.7713785938097
 30
0.0
 11
451.8578634834688
 21
331.8340525938098
 31
0.0
  0
LINE
  5
4102
330
1F
100
AcDbEntity
  8
AM_0
100
AcDbLine
 10
449.7881034834687
 20
182.8345015938096
 30
0.0
 11
457.8578934834688
 21
182.5527025938097
 31
0.0
  0
LINE
  5
4103
330
1F
100
AcDbEntity
  8
AM_0
100
AcDbLine
 10
397.8579234834688
 20
316.0527055938096
 30
0.0
 11
426.9364134834686
 21
316.8141505938097
 31
0.0
  0
LINE
  5
4104
330
1F
100
AcDbEntity
  8
AM_0
100
AcDbLine
 10
397.8578634834688
 20
293.8497325938097
 30
0.0
 11
428.1761634834687
 21
293.8497325938097
 31
0.0
  0
LINE
  5
4105
330
1F
100
AcDbEntity
  8
AM_0
100
AcDbLine
 10
397.8578634834688
 20
171.5527165938097
 30
0.0
 11
433.8578634834687
 21
170.0527165938097
 31
0.0
  0
LINE
  5
4106
330
1F
100
AcDbEntity
  8
AM_0
100
AcDbLine
 10
433.8578634834687
 20
185.4631795938097
 30
0.0
 11
433.8578634834687
 21
170.0527165938097
 31
0.0
  0
LINE
  5
4107
330
1F
100
AcDbEntity
  8
AM_0
100
AcDbLine
 10
434.8317234834688
 20
186.4628425938097
 30
0.0
 11
447.8579034834687
 21
186.8039395938096
 31
0.0
  0
LINE
  5
4108
330
1F
100
AcDbEntity
  8
AM_0
100
AcDbLine
 10
431.3060634834688
 20
304.7813755938096
 30
0.0
 11
448.3433334834686
 21
304.7813755938096
 31
0.0
  0
LINE
  5
4109
330
1F
100
AcDbEntity
  8
AM_0
100
AcDbLine
 10
397.8578634834688
 20
182.1826315938096
 30
0.0
 11
433.8578634834687
 21
182.1826315938096
 31
0.0
  0
LINE
  5
410A
330
1F
100
AcDbEntity
  8
AM_0
100
AcDbLine
 10
429.8579034834687
 20
311.2863805938097
 30
0.0
 11
446.1870234834687
 21
319.3562035938096
 31
0.0
  0
LINE
  5
410B
330
1F
100
AcDbEntity
  8
AM_0
100
AcDbLine
 10
431.8578834834686
 20
307.7098735938098
 30
0.0
 11
445.313963483469
 21
307.7098735938098
 31
0.0
  0
LINE
  5
410C
330
1F
100
AcDbEntity
  8
AM_0
100
AcDbLine
 10
462.8579034834687
 20
239.1033955938096
 30
0.0
 11
462.8579034834687
 21
291.0814525938098
 31
0.0
  0
LINE
  5
410D
330
1F
100
AcDbEntity
  8
AM_0
100
AcDbLine
 10
457.8578634834689
 20
303.6773395938098
 30
0.0
 11
461.8578834834686
 21
303.6773395938098
 31
0.0
  0
LINE
  5
410E
330
1F
100
AcDbEntity
  8
AM_0
100
AcDbLine
 10
457.8578634834689
 20
276.8556685938097
 30
0.0
 11
461.8578834834686
 21
276.8556685938097
 31
0.0
  0
LINE
  5
410F
330
1F
100
AcDbEntity
  8
AM_0
100
AcDbLine
 10
461.8578834834686
 20
303.6773395938098
 30
0.0
 11
461.8578834834686
 21
335.0526925938096
 31
0.0
  0
ARC
  5
4110
330
1F
100
AcDbEntity
  8
AM_0
100
AcDbCircle
 10
459.8579034834687
 20
291.0814525938098
 30
0.0
 40
3.0
100
AcDbArc
 50
0.0
 51
39.99999900000136
  0
ARC
  5
4111
330
1F
100
AcDbEntity
  8
AM_0
100
AcDbCircle
 10
434.8578834834686
 20
185.4631795938097
 30
0.0
 40
1.000000019999997
100
AcDbArc
 50
91.50000099999992
 51
180.0000100000009
  0
ARC
  5
4112
330
1F
100
AcDbEntity
  8
AM_0
100
AcDbCircle
 10
426.8579334834687
 20
319.8131425938097
 30
0.0
 40
3.0
100
AcDbArc
 50
271.4999999999994
 51
0.0
  0
ARC
  5
4113
330
1F
100
AcDbEntity
  8
AM_0
100
AcDbCircle
 10
434.8578834834686
 20
329.1266725938097
 30
0.0
 40
5.000000099999998
100
AcDbArc
 50
91.99999799999892
 51
180.0000100000009
  0
ARC
  5
4114
330
1F
100
AcDbEntity
  8
AM_0
100
AcDbCircle
 10
448.8578634834688
 20
200.7713785938097
 30
0.0
 40
3.0
100
AcDbArc
 50
270.0
 51
0.0
  0
ARC
  5
4115
330
1F
100
AcDbEntity
  8
AM_0
100
AcDbCircle
 10
449.8578834834686
 20
347.7720925938098
 30
0.0
 40
2.00000007
100
AcDbArc
 50
91.99999799999892
 51
180.0000100000009
  0
ARC
  5
4116
330
1F
100
AcDbEntity
  8
AM_0
100
AcDbCircle
 10
434.8578834834686
 20
283.8975535938098
 30
0.0
 40
5.000000099999998
100
AcDbArc
 50
179.999989999999
 51
270.0
  0
ARC
  5
4117
330
1F
100
AcDbEntity
  8
AM_0
100
AcDbCircle
 10
449.8578834834686
 20
184.8332815938097
 30
0.0
 40
2.00000007
100
AcDbArc
 50
179.999989999999
 51
268.0000100000003
  0
ARC
  5
4118
330
1F
100
AcDbEntity
  8
AM_0
100
AcDbCircle
 10
448.8578634834688
 20
331.8340525938098
 30
0.0
 40
3.0
100
AcDbArc
 50
0.0
 51
90.00000300000095
  0
ARC
  5
4119
330
1F
100
AcDbEntity
  8
AM_0
100
AcDbCircle
 10
450.8579034834687
 20
307.0043665938098
 30
0.0
 40
3.0
100
AcDbArc
 50
179.999989999999
 51
270.0
  0
ARC
  5
411A
330
1F
100
AcDbEntity
  8
AM_0
100
AcDbCircle
 10
450.8579034834687
 20
217.8983755938098
 30
0.0
 40
3.0
100
AcDbArc
 50
90.00000300000095
 51
180.0000100000009
  0
ARC
  5
411B
330
1F
100
AcDbEntity
  8
AM_0
100
AcDbCircle
 10
444.8579034834686
 20
337.4633125938097
 30
0.0
 40
3.0
100
AcDbArc
 50
272.0000000000005
 51
0.0
  0
ARC
  5
411C
330
1F
100
AcDbEntity
  8
AM_0
100
AcDbCircle
 10
445.313963483469
 20
304.7098735938098
 30
0.0
 40
3.0
100
AcDbArc
 50
22.4835360000014
 51
90.00000300000095
  0
ARC
  5
411D
330
1F
100
AcDbEntity
  8
AM_0
100
AcDbCircle
 10
444.8579034834686
 20
322.0456885938098
 30
0.0
 40
3.0
100
AcDbArc
 50
296.2984300000016
 51
0.0
  0
ARC
  5
411E
330
1F
100
AcDbEntity
  8
AM_0
100
AcDbCircle
 10
431.8578834834686
 20
309.7098715938098
 30
0.0
 40
2.00000007
100
AcDbArc
 50
179.999989999999
 51
270.0
  0
ARC
  5
411F
330
1F
100
AcDbEntity
  8
AM_0
100
AcDbCircle
 10
459.8579034834687
 20
239.1033955938096
 30
0.0
 40
3.0
100
AcDbArc
 50
311.8103099999991
 51
0.0
  0
ARC
  5
4120
330
1F
100
AcDbEntity
  8
AM_0
100
AcDbCircle
 10
456.2720034834687
 20
295.3549825938096
 30
0.0
 40
3.0
100
AcDbArc
 50
39.99999900000136
 51
58.08679699999932
  0
LINE
  5
4137
330
1F
100
AcDbEntity
  8
AM_0
100
AcDbLine
 10
385.8578634834689
 20
182.1826315938096
 30
0.0
 11
390.857933483469
 21
182.1826315938096
 31
0.0
  0
LINE
  5
4138
330
1F
100
AcDbEntity
  8
AM_0
100
AcDbLine
 10
392.8579134834689
 20
174.0527035938097
 30
0.0
 11
397.8578634834688
 21
174.0527035938097
 31
0.0
  0
ARC
  5
4139
330
1F
100
AcDbEntity
  8
AM_0
100
AcDbCircle
 10
387.857933483469
 20
180.1826455938097
 30
0.0
 40
2.00000007
100
AcDbArc
 50
90.00000300000095
 51
110.7662299999999
  0
ARC
  5
413A
330
1F
100
AcDbEntity
  8
AM_0
100
AcDbCircle
 10
392.8579134834689
 20
176.0527165938097
 30
0.0
 40
2.00000007
100
AcDbArc
 50
179.999989999999
 51
270.0
  0
LINE
  5
4145
330
1F
100
AcDbEntity
  8
AM_0
100
AcDbLine
 10
692.1991884858933
 20
280.0527205938098
 30
0.0
 11
692.1991884858933
 21
273.0527215938099
 31
0.0
  0
LINE
  5
4146
330
1F
100
AcDbEntity
  8
AM_0
100
AcDbLine
 10
684.1991874858933
 20
280.0527205938098
 30
0.0
 11
684.1991874858933
 21
273.0527215938099
 31
0.0
  0
LINE
  5
4147
330
1F
100
AcDbEntity
  8
AM_0
100
AcDbLine
 10
684.1991874858933
 20
280.0527205938098
 30
0.0
 11
692.1991884858933
 21
280.0527205938098
 31
0.0
  0
LINE
  5
4148
330
1F
100
AcDbEntity
  8
AM_0
100
AcDbLine
 10
684.1991874858933
 20
273.0527215938099
 30
0.0
 11
692.1991884858933
 21
273.0527215938099
 31
0.0
  0
LINE
  5
4149
330
1F
100
AcDbEntity
  8
AM_0
100
AcDbLine
 10
740.1992184858934
 20
260.05273459381
 30
0.0
 11
740.1992184858934
 21
243.0527335938099
 31
0.0
  0
LINE
  5
414A
330
1F
100
AcDbEntity
  8
AM_0
100
AcDbLine
 10
621.2612724858934
 20
276.8556835938099
 30
0.0
 11
621.2612724858934
 21
276.8556835938099
 31
0.0
  0
LINE
  5
414B
330
1F
100
AcDbEntity
  8
AM_0
100
AcDbLine
 10
743.8774584858929
 20
304.0390495938098
 30
0.0
 11
743.8774584858929
 21
304.0390495938098
 31
0.0
  0
LINE
  5
414C
330
1F
100
AcDbEntity
  8
AM_0
100
AcDbLine
 10
755.1371784858933
 20
276.8556835938099
 30
0.0
 11
755.1371784858933
 21
276.8556835938099
 31
0.0
  0
LINE
  5
414D
330
1F
100
AcDbEntity
  8
AM_0
100
AcDbLine
 10
632.5209774858932
 20
304.0390495938098
 30
0.0
 11
632.5209774858932
 21
304.0390495938098
 31
0.0
  0
LINE
  5
414E
330
1F
100
AcDbEntity
  8
ﾁｭｳｼﾝｾﾝ1
100
AcDbLine
 10
608.3820924858931
 20
344.8698175938099
 30
0.0
 11
627.2047854858932
 21
326.0471575938098
 31
0.0
  0
LINE
  5
414F
330
1F
100
AcDbEntity
  8
ﾁｭｳｼﾝｾﾝ1
100
AcDbLine
 10
608.4998424858932
 20
185.3533615938099
 30
0.0
 11
627.1951104858932
 21
204.0486145938099
 31
0.0
  0
LINE
  5
4150
330
1F
100
AcDbEntity
  8
AM_0
100
AcDbLine
 10
603.199232485893
 20
295.0527205938098
 30
0.0
 11
605.4668724858933
 21
338.3221375938098
 31
0.0
  0
LINE
  5
4151
330
1F
100
AcDbEntity
  8
AM_0
100
AcDbLine
 10
658.1992014858932
 20
350.0527375938099
 30
0.0
 11
688.1992044858932
 21
350.0527375938099
 31
0.0
  0
LINE
  5
4152
330
1F
100
AcDbEntity
  8
AM_0
100
AcDbLine
 10
650.1992004858931
 20
240.0527335938099
 30
0.0
 11
629.1653274858933
 21
240.0527335938099
 31
0.0
  0
LINE
  5
4153
330
1F
100
AcDbEntity
  8
AM_0
100
AcDbLine
 10
603.199232485893
 20
295.0527205938098
 30
0.0
 11
603.199232485893
 21
265.0527205938098
 31
0.0
  0
LINE
  5
4154
330
1F
100
AcDbEntity
  8
AM_0
100
AcDbLine
 10
658.1992164858932
 20
350.0527375938099
 30
0.0
 11
614.9297904858932
 21
347.7850675938099
 31
0.0
  0
LINE
  5
4155
330
1F
100
AcDbEntity
  8
AM_0
100
AcDbLine
 10
603.1992024858932
 20
235.0527205938098
 30
0.0
 11
605.4539724858931
 21
192.0293725938098
 31
0.0
  0
LINE
  5
4157
330
1F
100
AcDbEntity
  8
AM_0
100
AcDbLine
 10
615.4402584858934
 20
182.5527175938099
 30
0.0
 11
644.6499144858933
 21
182.5527175938099
 31
0.0
  0
LINE
  5
4158
330
1F
100
AcDbEntity
  8
AM_0
100
AcDbLine
 10
731.7484914858932
 20
182.5527175938099
 30
0.0
 11
760.9581624858932
 21
182.5527175938099
 31
0.0
  0
LINE
  5
4159
330
1F
100
AcDbEntity
  8
AM_0
100
AcDbLine
 10
773.1992064858931
 20
235.0527205938098
 30
0.0
 11
773.1992064858931
 21
265.0527205938098
 31
0.0
  0
LINE
  5
415A
330
1F
100
AcDbEntity
  8
ﾁｭｳｼﾝｾﾝ1
100
AcDbLine
 10
768.0163284858929
 20
344.8698475938098
 30
0.0
 11
749.1629484858933
 21
326.0164675938099
 31
0.0
  0
LINE
  5
415B
330
1F
100
AcDbEntity
  8
AM_0
100
AcDbLine
 10
718.1992044858932
 20
350.0527375938099
 30
0.0
 11
688.1992044858932
 21
350.0527375938099
 31
0.0
  0
LINE
  5
415C
330
1F
100
AcDbEntity
  8
AM_0
100
AcDbLine
 10
636.1992024858932
 20
260.05273459381
 30
0.0
 11
636.1992024858932
 21
243.0527335938099
 31
0.0
  0
LINE
  5
415D
330
1F
100
AcDbEntity
  8
AM_0
100
AcDbLine
 10
625.3979304858932
 20
267.0527365938099
 30
0.0
 11
633.4269534858933
 21
267.0527365938099
 31
0.0
  0
LINE
  5
415E
330
1F
100
AcDbEntity
  8
AM_0
100
AcDbLine
 10
721.1992044858932
 20
265.0527205938098
 30
0.0
 11
721.1992044858932
 21
245.05273459381
 31
0.0
  0
LINE
  5
415F
330
1F
100
AcDbEntity
  8
AM_0
100
AcDbLine
 10
625.3979304858932
 20
263.05273459381
 30
0.0
 11
633.1992024858932
 21
263.05273459381
 31
0.0
  0
LINE
  5
4160
330
1F
100
AcDbEntity
  8
AM_0
100
AcDbLine
 10
730.8090984858933
 20
311.19813859381
 30
0.0
 11
711.5884554858934
 21
291.97749559381
 31
0.0
  0
LINE
  5
4161
330
1F
100
AcDbEntity
  8
AM_0
100
AcDbLine
 10
734.3446194858933
 20
307.66261459381
 30
0.0
 11
715.1239944858932
 21
288.4419715938098
 31
0.0
  0
LINE
  5
4162
330
1F
100
AcDbEntity
  8
AM_0
100
AcDbLine
 10
645.5893374858931
 20
311.19813859381
 30
0.0
 11
664.8099804858932
 21
291.97749559381
 31
0.0
  0
LINE
  5
4163
330
1F
100
AcDbEntity
  8
AM_0
100
AcDbLine
 10
660.0719274858932
 20
170.14761259381
 30
0.0
 11
716.3264934858934
 21
170.14761259381
 31
0.0
  0
LINE
  5
4164
330
1F
100
AcDbEntity
  8
AM_0
100
AcDbLine
 10
726.199220485893
 20
240.0527335938099
 30
0.0
 11
747.2331084858932
 21
240.0527335938099
 31
0.0
  0
LINE
  5
4165
330
1F
100
AcDbEntity
  8
AM_0
100
AcDbLine
 10
690.1992174858932
 20
327.8539975938098
 30
0.0
 11
690.1992174858932
 21
319.8249985938099
 31
0.0
  0
LINE
  5
4166
330
1F
100
AcDbEntity
  8
AM_0
100
AcDbLine
 10
686.1992034858931
 20
327.8539975938098
 30
0.0
 11
686.1992034858931
 21
319.8249985938099
 31
0.0
  0
LINE
  5
4167
330
1F
100
AcDbEntity
  8
AM_0
100
AcDbLine
 10
642.0538164858932
 20
307.6625845938098
 30
0.0
 11
661.2744444858932
 21
288.4419715938098
 31
0.0
  0
LINE
  5
4168
330
1F
100
AcDbEntity
  8
AM_0
100
AcDbLine
 10
751.0004904858932
 20
267.0527365938099
 30
0.0
 11
742.9714674858934
 21
267.0527365938099
 31
0.0
  0
LINE
  5
4169
330
1F
100
AcDbEntity
  8
AM_0
100
AcDbLine
 10
751.0004904858932
 20
263.05273459381
 30
0.0
 11
743.1992184858934
 21
263.05273459381
 31
0.0
  0
LINE
  5
416A
330
1F
100
AcDbEntity
  8
AM_0
100
AcDbLine
 10
644.6499144858933
 20
182.5527325938097
 30
0.0
 11
647.2479984858932
 21
187.0527325938097
 31
0.0
  0
LINE
  5
416B
330
1F
100
AcDbEntity
  8
AM_0
100
AcDbLine
 10
731.7485064858932
 20
182.5527175938099
 30
0.0
 11
729.1504224858933
 21
187.0527325938097
 31
0.0
  0
LINE
  5
416C
330
1F
100
AcDbEntity
  8
AM_0
100
AcDbLine
 10
773.1992064858931
 20
295.0527205938098
 30
0.0
 11
773.1992064858931
 21
265.0527205938098
 31
0.0
  0
LINE
  5
416D
330
1F
100
AcDbEntity
  8
AM_0
100
AcDbLine
 10
773.1992064858931
 20
295.0527205938098
 30
0.0
 11
770.9315514858932
 21
338.3221375938098
 31
0.0
  0
LINE
  5
416E
330
1F
100
AcDbEntity
  8
AM_0
100
AcDbLine
 10
773.1992214858934
 20
235.0527205938098
 30
0.0
 11
770.9444604858929
 21
192.0293725938098
 31
0.0
  0
LINE
  5
416F
330
1F
100
AcDbEntity
  8
AM_0
100
AcDbLine
 10
718.199219485893
 20
350.0527375938099
 30
0.0
 11
761.4686304858933
 21
347.7850975938101
 31
0.0
  0
LINE
  5
4170
330
1F
100
AcDbEntity
  8
AM_0
100
AcDbLine
 10
647.2479984858932
 20
187.0527475938099
 30
0.0
 11
729.1504224858933
 21
187.0527475938099
 31
0.0
  0
LINE
  5
4171
330
1F
100
AcDbEntity
  8
ﾁｭｳｼﾝｾﾝ1
100
AcDbLine
 10
750.8410974858932
 20
202.4108425938099
 30
0.0
 11
767.8985754858934
 21
185.3533615938099
 31
0.0
  0
LINE
  5
4172
330
1F
100
AcDbEntity
  8
AM_0
100
AcDbLine
 10
655.1992014858932
 20
265.0527205938098
 30
0.0
 11
655.1992014858932
 21
245.05273459381
 31
0.0
  0
LINE
  5
4173
330
1F
100
AcDbEntity
  8
AM_0
100
AcDbLine
 10
722.0764914858932
 20
177.14761159381
 30
0.0
 11
719.2014924858931
 21
172.16796859381
 31
0.0
  0
LINE
  5
4174
330
1F
100
AcDbEntity
  8
AM_0
100
AcDbLine
 10
719.2014924858931
 20
172.16796859381
 30
0.0
 11
713.4515064858931
 21
172.16796859381
 31
0.0
  0
LINE
  5
4175
330
1F
100
AcDbEntity
  8
AM_0
100
AcDbLine
 10
713.4514914858932
 20
172.16796859381
 30
0.0
 11
710.5764924858931
 21
177.1475965938098
 31
0.0
  0
LINE
  5
4176
330
1F
100
AcDbEntity
  8
AM_0
100
AcDbLine
 10
710.5764924858931
 20
177.14761159381
 30
0.0
 11
713.4514914858932
 21
182.1272575938099
 31
0.0
  0
LINE
  5
4177
330
1F
100
AcDbEntity
  8
AM_0
100
AcDbLine
 10
719.2014924858931
 20
182.1272575938099
 30
0.0
 11
713.4515064858931
 21
182.1272575938099
 31
0.0
  0
LINE
  5
4178
330
1F
100
AcDbEntity
  8
AM_0
100
AcDbLine
 10
722.0764914858932
 20
177.14761159381
 30
0.0
 11
719.2015074858931
 21
182.1272575938099
 31
0.0
  0
LINE
  5
4179
330
1F
100
AcDbEntity
  8
AM_0
100
AcDbLine
 10
665.821928485893
 20
177.14761159381
 30
0.0
 11
662.9469294858933
 21
182.1272575938099
 31
0.0
  0
LINE
  5
417A
330
1F
100
AcDbEntity
  8
AM_0
100
AcDbLine
 10
662.9469144858934
 20
182.1272575938099
 30
0.0
 11
657.1969434858931
 21
182.1272575938099
 31
0.0
  0
LINE
  5
417B
330
1F
100
AcDbEntity
  8
AM_0
100
AcDbLine
 10
654.3219144858934
 20
177.14761159381
 30
0.0
 11
657.1969134858932
 21
182.1272575938099
 31
0.0
  0
LINE
  5
417C
330
1F
100
AcDbEntity
  8
AM_0
100
AcDbLine
 10
657.1969134858932
 20
172.16796859381
 30
0.0
 11
654.3219144858934
 21
177.1475965938098
 31
0.0
  0
LINE
  5
417D
330
1F
100
AcDbEntity
  8
AM_0
100
AcDbLine
 10
662.9469144858934
 20
172.16796859381
 30
0.0
 11
657.1969434858931
 21
172.16796859381
 31
0.0
  0
LINE
  5
417E
330
1F
100
AcDbEntity
  8
AM_0
100
AcDbLine
 10
665.8219134858931
 20
177.14761159381
 30
0.0
 11
662.9469144858934
 21
172.16796859381
 31
0.0
  0
LINE
  5
417F
330
1F
100
AcDbEntity
  8
AM_0
100
AcDbLine
 10
635.6377704858933
 20
289.7967385938099
 30
0.0
 11
632.7627684858931
 21
284.8170655938099
 31
0.0
  0
LINE
  5
4180
330
1F
100
AcDbEntity
  8
AM_0
100
AcDbLine
 10
632.7627684858931
 20
284.8170655938099
 30
0.0
 11
627.0127704858932
 21
284.8170655938099
 31
0.0
  0
LINE
  5
4181
330
1F
100
AcDbEntity
  8
AM_0
100
AcDbLine
 10
627.0127704858932
 20
284.81709559381
 30
0.0
 11
624.1377684858933
 21
289.7967085938098
 31
0.0
  0
LINE
  5
4182
330
1F
100
AcDbEntity
  8
AM_0
100
AcDbLine
 10
624.1377684858933
 20
289.7967085938098
 30
0.0
 11
627.0127704858932
 21
294.7763845938099
 31
0.0
  0
LINE
  5
4183
330
1F
100
AcDbEntity
  8
AM_0
100
AcDbLine
 10
632.7627684858931
 20
294.77635459381
 30
0.0
 11
627.0127704858932
 21
294.77635459381
 31
0.0
  0
LINE
  5
4184
330
1F
100
AcDbEntity
  8
AM_0
100
AcDbLine
 10
635.6377404858932
 20
289.7967385938099
 30
0.0
 11
632.7627684858931
 21
294.77635459381
 31
0.0
  0
LINE
  5
4185
330
1F
100
AcDbEntity
  8
AM_0
100
AcDbLine
 10
752.2606974858932
 20
289.7966485938099
 30
0.0
 11
749.3857134858932
 21
284.8170025938099
 31
0.0
  0
LINE
  5
4186
330
1F
100
AcDbEntity
  8
AM_0
100
AcDbLine
 10
749.3857134858932
 20
284.8170025938099
 30
0.0
 11
743.6357124858932
 21
284.8170025938099
 31
0.0
  0
LINE
  5
4187
330
1F
100
AcDbEntity
  8
AM_0
100
AcDbLine
 10
743.6356974858933
 20
284.8170325938098
 30
0.0
 11
740.7606984858932
 21
289.7966485938099
 31
0.0
  0
LINE
  5
4188
330
1F
100
AcDbEntity
  8
AM_0
100
AcDbLine
 10
740.7607134858932
 20
289.7966485938099
 30
0.0
 11
743.6357124858932
 21
294.7762915938098
 31
0.0
  0
LINE
  5
4189
330
1F
100
AcDbEntity
  8
AM_0
100
AcDbLine
 10
749.3857134858932
 20
294.7763245938098
 30
0.0
 11
743.6357124858932
 21
294.7763245938098
 31
0.0
  0
LINE
  5
418A
330
1F
100
AcDbEntity
  8
AM_0
100
AcDbLine
 10
752.2606974858932
 20
289.7966785938099
 30
0.0
 11
749.3857134858932
 21
294.7763245938098
 31
0.0
  0
ARC
  5
4197
330
1F
100
AcDbEntity
  8
AM_0
100
AcDbCircle
 10
688.1992044858932
 20
265.0527205938098
 30
0.0
 40
12.0000003
100
AcDbArc
 50
109.4712199999996
 51
70.52878899999931
  0
CIRCLE
  5
4198
330
1F
100
AcDbEntity
  8
AM_0
 62
     2
100
AcDbCircle
 10
688.1992044858932
 20
265.0527205938098
 30
0.0
 40
4.000000199999997
  0
CIRCLE
  5
4199
330
1F
100
AcDbEntity
  8
AM_0
100
AcDbCircle
 10
688.1992044858932
 20
265.0527205938098
 30
0.0
 40
3.0
  0
ARC
  5
419A
330
1F
100
AcDbEntity
  8
AM_0
100
AcDbCircle
 10
620.9139534858929
 20
274.88607859381
 30
0.0
 40
2.00000007
100
AcDbArc
 50
351.6854100000013
 51
79.99999799999947
  0
ARC
  5
419B
330
1F
100
AcDbEntity
  8
AM_0
100
AcDbCircle
 10
688.1992044858932
 20
265.0527205938098
 30
0.0
 40
66.00000300000001
100
AcDbArc
 50
34.10995399999982
 51
145.8900400000004
  0
ARC
  5
419C
330
1F
100
AcDbEntity
  8
AM_0
100
AcDbCircle
 10
755.4844674858932
 20
274.88607859381
 30
0.0
 40
2.00000007
100
AcDbArc
 50
100.0000000000002
 51
188.3145899999988
  0
ARC
  5
419D
330
1F
100
AcDbEntity
  8
AM_0
100
AcDbCircle
 10
631.0697754858932
 20
303.7467535938099
 30
0.0
 40
3.0
100
AcDbArc
 50
265.1568200000002
 51
325.8900499999997
  0
ARC
  5
419E
330
1F
100
AcDbEntity
  8
AM_0
100
AcDbCircle
 10
755.4844674858932
 20
274.88607859381
 30
0.0
 40
2.00000007
100
AcDbArc
 50
8.314587400002102
 51
100.0000000000002
  0
ARC
  5
419F
330
1F
100
AcDbEntity
  8
AM_0
100
AcDbCircle
 10
746.5106664858932
 20
289.7967085938098
 30
0.0
 40
11.0000004
100
AcDbArc
 50
311.1439400000003
 51
94.84317999999985
  0
ARC
  5
41A0
330
1F
100
AcDbEntity
  8
AM_0
100
AcDbCircle
 10
633.6681354858934
 20
305.6773555938098
 30
0.0
 40
2.00000007
100
AcDbArc
 50
235.0000000000013
 51
323.3145900000011
  0
ARC
  5
41A1
330
1F
100
AcDbEntity
  8
AM_0
100
AcDbCircle
 10
620.6764344858932
 20
279.2539075938098
 30
0.0
 40
3.0
100
AcDbArc
 50
348.1228399999986
 51
48.85606300000168
  0
ARC
  5
41A2
330
1F
100
AcDbEntity
  8
AM_0
100
AcDbCircle
 10
755.7220014858934
 20
279.2539075938098
 30
0.0
 40
3.0
100
AcDbArc
 50
131.1439400000004
 51
191.8771600000013
  0
ARC
  5
41A3
330
1F
100
AcDbEntity
  8
AM_0
100
AcDbCircle
 10
629.8877694858934
 20
289.7967085938098
 30
0.0
 40
11.0000004
100
AcDbArc
 50
85.15681800000043
 51
228.8560599999996
  0
ARC
  5
41A4
330
1F
100
AcDbEntity
  8
AM_0
100
AcDbCircle
 10
688.1992044858932
 20
265.0527205938098
 30
0.0
 40
70.00000199999999
100
AcDbArc
 50
30.53462700000029
 51
149.4653699999979
  0
ARC
  5
41A5
330
1F
100
AcDbEntity
  8
AM_0
100
AcDbCircle
 10
688.1992044858932
 20
265.0527205938098
 30
0.0
 40
66.00000300000001
100
AcDbArc
 50
0.0
 51
11.87716200000044
  0
ARC
  5
41A6
330
1F
100
AcDbEntity
  8
AM_0
100
AcDbCircle
 10
688.1992044858932
 20
245.05273459381
 30
0.0
 40
71.00000099999999
100
AcDbArc
 50
301.5067199999998
 51
305.2242100000001
  0
ARC
  5
41A7
330
1F
100
AcDbEntity
  8
AM_0
100
AcDbCircle
 10
742.7303034858929
 20
305.6773555938098
 30
0.0
 40
2.00000007
100
AcDbArc
 50
304.9999999999987
 51
36.68541400000176
  0
ARC
  5
41A8
330
1F
100
AcDbEntity
  8
AM_0
100
AcDbCircle
 10
688.1992044858932
 20
265.0527205938098
 30
0.0
 40
52.00000799999999
100
AcDbArc
 50
137.755670000002
 51
174.7840899999998
  0
ARC
  5
41A9
330
1F
100
AcDbEntity
  8
AM_0
100
AcDbCircle
 10
728.6877744858932
 20
313.3194445938098
 30
0.0
 40
3.0
100
AcDbArc
 50
315.0
 51
50.00838799999826
  0
ARC
  5
41AA
330
1F
100
AcDbEntity
  8
AM_0
100
AcDbCircle
 10
688.1992044858932
 20
265.0527205938098
 30
0.0
 40
52.00000799999999
100
AcDbArc
 50
5.215907699998194
 51
42.24433400000063
  0
ARC
  5
41AB
330
1F
100
AcDbEntity
  8
AM_0
100
AcDbCircle
 10
620.9139534858929
 20
274.88607859381
 30
0.0
 40
2.00000007
100
AcDbArc
 50
79.99999799999947
 51
171.6854100000012
  0
ARC
  5
41AC
330
1F
100
AcDbEntity
  8
AM_0
100
AcDbCircle
 10
688.1992044858932
 20
265.0527205938098
 30
0.0
 40
66.00000300000001
100
AcDbArc
 50
168.1228399999985
 51
0.0000100179138904
  0
ARC
  5
41AD
330
1F
100
AcDbEntity
  8
AM_0
100
AcDbCircle
 10
633.6681354858934
 20
305.6773555938098
 30
0.0
 40
2.00000007
100
AcDbArc
 50
143.3145800000007
 51
235.0000100000003
  0
ARC
  5
41AE
330
1F
100
AcDbEntity
  8
AM_0
100
AcDbCircle
 10
743.1992184858934
 20
243.0527335938099
 30
0.0
 40
3.0
100
AcDbArc
 50
179.999989999999
 51
270.0
  0
ARC
  5
41AF
330
1F
100
AcDbEntity
  8
AM_0
100
AcDbCircle
 10
736.4659434858931
 20
305.5412785938099
 30
0.0
 40
3.0
100
AcDbArc
 50
39.99161099999826
 51
135.0
  0
ARC
  5
41B0
330
1F
100
AcDbEntity
  8
AM_0
100
AcDbCircle
 10
688.1992044858932
 20
265.0527205938098
 30
0.0
 40
70.00000199999999
100
AcDbArc
 50
0.0
 51
15.45248699999942
  0
ARC
  5
41B1
330
1F
100
AcDbEntity
  8
AM_0
100
AcDbCircle
 10
745.3286604858932
 20
303.7467535938099
 30
0.0
 40
3.0
100
AcDbArc
 50
214.1099599999995
 51
274.8431799999998
  0
ARC
  5
41B2
330
1F
100
AcDbEntity
  8
AM_0
100
AcDbCircle
 10
688.1992044858932
 20
265.0527205938098
 30
0.0
 40
70.00000199999999
100
AcDbArc
 50
164.5475099999992
 51
0.0000100179138904
  0
ARC
  5
41B3
330
1F
100
AcDbEntity
  8
ﾁｭｳｼﾝｾﾝ1
100
AcDbCircle
 10
688.1992044858932
 20
265.0527205938098
 30
0.0
 40
100.000011
100
AcDbArc
 50
217.7573800000021
 51
232.6399199999991
  0
ARC
  5
41B4
330
1F
100
AcDbEntity
  8
ﾁｭｳｼﾝｾﾝ1
100
AcDbCircle
 10
688.1992044858932
 20
265.0527205938098
 30
0.0
 40
100.000011
100
AcDbArc
 50
123.1702499999994
 51
142.6399200000026
  0
CIRCLE
  5
41B5
330
1F
100
AcDbEntity
  8
AM_0
100
AcDbCircle
 10
617.4885384858932
 20
335.7634075938098
 30
0.0
 40
6.000000299999999
  0
ARC
  5
41B6
330
1F
100
AcDbEntity
  8
AM_0
100
AcDbCircle
 10
615.4531674858932
 20
337.7987875938099
 30
0.0
 40
10.0000002
100
AcDbArc
 50
92.99999900000004
 51
176.9999900000001
  0
CIRCLE
  5
41B7
330
1F
100
AcDbEntity
  8
AM_0
100
AcDbCircle
 10
617.4885384858932
 20
194.3420545938098
 30
0.0
 40
6.000000299999999
  0
ARC
  5
41B8
330
1F
100
AcDbEntity
  8
ﾁｭｳｼﾝｾﾝ1
100
AcDbCircle
 10
688.1992044858932
 20
265.0527205938098
 30
0.0
 40
100.000011
100
AcDbArc
 50
304.4115100000016
 51
322.6399200000027
  0
CIRCLE
  5
41B9
330
1F
100
AcDbEntity
  8
AM_0
100
AcDbCircle
 10
758.9098824858931
 20
194.3420545938098
 30
0.0
 40
6.000000299999999
  0
ARC
  5
41BA
330
1F
100
AcDbEntity
  8
ﾁｭｳｼﾝｾﾝ1
100
AcDbCircle
 10
688.1992044858932
 20
265.0527205938098
 30
0.0
 40
100.000011
100
AcDbArc
 50
37.75737500000179
 51
52.63991600000075
  0
CIRCLE
  5
41BB
330
1F
100
AcDbEntity
  8
AM_0
100
AcDbCircle
 10
758.9098824858931
 20
335.7634075938098
 30
0.0
 40
6.000000299999999
  0
ARC
  5
41BC
330
1F
100
AcDbEntity
  8
AM_0
100
AcDbCircle
 10
760.9452684858934
 20
337.7987875938099
 30
0.0
 40
10.0000002
100
AcDbArc
 50
3.000000099998846
 51
86.99999900000021
  0
ARC
  5
41BD
330
1F
100
AcDbEntity
  8
AM_0
100
AcDbCircle
 10
688.1992044858932
 20
265.0527205938098
 30
0.0
 40
33.0
100
AcDbArc
 50
0.0
 51
180.0000100000009
  0
ARC
  5
41BE
330
1F
100
AcDbEntity
  8
AM_0
100
AcDbCircle
 10
633.1992024858932
 20
243.0527335938099
 30
0.0
 40
3.0
100
AcDbArc
 50
270.0
 51
0.0
  0
ARC
  5
41BF
330
1F
100
AcDbEntity
  8
AM_0
100
AcDbCircle
 10
666.9312894858934
 20
294.0988345938098
 30
0.0
 40
3.0
100
AcDbArc
 50
225.0
 51
306.2120600000018
  0
ARC
  5
41C0
330
1F
100
AcDbEntity
  8
AM_0
100
AcDbCircle
 10
625.3979304858932
 20
270.0527365938099
 30
0.0
 40
3.0
100
AcDbArc
 50
175.447930000001
 51
270.0
  0
ARC
  5
41C1
330
1F
100
AcDbEntity
  8
AM_0
100
AcDbCircle
 10
625.3979304858932
 20
260.05273459381
 30
0.0
 40
3.0
100
AcDbArc
 50
90.00000300000095
 51
184.552069999999
  0
ARC
  5
41C2
330
1F
100
AcDbEntity
  8
AM_0
100
AcDbCircle
 10
688.1992044858932
 20
265.0527205938098
 30
0.0
 40
52.00000799999999
100
AcDbArc
 50
47.75566499999771
 51
84.78409399999899
  0
ARC
  5
41C3
330
1F
100
AcDbEntity
  8
AM_0
100
AcDbCircle
 10
709.4671314858932
 20
294.0988345938098
 30
0.0
 40
3.0
100
AcDbArc
 50
233.7879399999982
 51
315.0
  0
ARC
  5
41C4
330
1F
100
AcDbEntity
  8
AM_0
100
AcDbCircle
 10
639.932477485893
 20
305.5412785938099
 30
0.0
 40
3.0
100
AcDbArc
 50
45.00000100000149
 51
140.0083899999996
  0
ARC
  5
41C5
330
1F
100
AcDbEntity
  8
AM_0
100
AcDbCircle
 10
717.2453154858934
 20
286.3206355938099
 30
0.0
 40
3.0
100
AcDbArc
 50
135.0
 51
216.2120600000012
  0
ARC
  5
41C6
330
1F
100
AcDbEntity
  8
AM_0
100
AcDbCircle
 10
647.710646485893
 20
313.3194445938098
 30
0.0
 40
3.0
100
AcDbArc
 50
129.9916100000014
 51
225.0
  0
ARC
  5
41C7
330
1F
100
AcDbEntity
  8
AM_0
100
AcDbCircle
 10
648.4817034858931
 20
180.2567425938098
 30
0.0
 40
5.000000099999998
100
AcDbArc
 50
344.9836399999993
 51
56.87254299999818
  0
ARC
  5
41C8
330
1F
100
AcDbEntity
  8
AM_0
100
AcDbCircle
 10
660.0719274858932
 20
177.14761159381
 30
0.0
 40
7.0000008
100
AcDbArc
 50
164.9194400000011
 51
270.0
  0
ARC
  5
41C9
330
1F
100
AcDbEntity
  8
AM_0
100
AcDbCircle
 10
727.9167174858931
 20
180.2567425938098
 30
0.0
 40
5.000000099999998
100
AcDbArc
 50
121.5067299999983
 51
195.0163499999971
  0
ARC
  5
41CA
330
1F
100
AcDbEntity
  8
AM_0
100
AcDbCircle
 10
629.1653274858933
 20
243.0527335938099
 30
0.0
 40
3.0
100
AcDbArc
 50
200.4387800000003
 51
270.0
  0
ARC
  5
41CB
330
1F
100
AcDbEntity
  8
AM_0
100
AcDbCircle
 10
747.2331084858932
 20
243.0527335938099
 30
0.0
 40
3.0
100
AcDbArc
 50
270.0
 51
339.5612199999998
  0
ARC
  5
41CC
330
1F
100
AcDbEntity
  8
AM_0
100
AcDbCircle
 10
650.1992004858931
 20
245.05273459381
 30
0.0
 40
5.000000099999998
100
AcDbArc
 50
270.0
 51
0.0
  0
ARC
  5
41CD
330
1F
100
AcDbEntity
  8
AM_0
100
AcDbCircle
 10
726.199220485893
 20
245.05273459381
 30
0.0
 40
5.000000099999998
100
AcDbArc
 50
179.999989999999
 51
270.0
  0
ARC
  5
41CE
330
1F
100
AcDbEntity
  8
AM_0
100
AcDbCircle
 10
693.1992174858931
 20
319.8249985938099
 30
0.0
 40
3.0
100
AcDbArc
 50
179.999989999999
 51
264.78409
  0
ARC
  5
41CF
330
1F
100
AcDbEntity
  8
AM_0
100
AcDbCircle
 10
633.4269534858933
 20
270.0527365938099
 30
0.0
 40
3.0
100
AcDbArc
 50
270.0
 51
354.7840899999998
  0
ARC
  5
41D0
330
1F
100
AcDbEntity
  8
AM_0
100
AcDbCircle
 10
633.1992024858932
 20
260.05273459381
 30
0.0
 40
3.0
100
AcDbArc
 50
0.0
 51
90.00000300000095
  0
ARC
  5
41D1
330
1F
100
AcDbEntity
  8
AM_0
100
AcDbCircle
 10
743.1992184858934
 20
260.05273459381
 30
0.0
 40
3.0
100
AcDbArc
 50
90.00000300000095
 51
180.0000100000009
  0
ARC
  5
41D2
330
1F
100
AcDbEntity
  8
AM_0
100
AcDbCircle
 10
683.1992034858931
 20
319.8249985938099
 30
0.0
 40
3.0
100
AcDbArc
 50
275.21591
 51
0.0
  0
ARC
  5
41D3
330
1F
100
AcDbEntity
  8
AM_0
100
AcDbCircle
 10
693.1992174858931
 20
327.8539975938098
 30
0.0
 40
3.0
100
AcDbArc
 50
85.44792699999971
 51
180.0000100000009
  0
ARC
  5
41D4
330
1F
100
AcDbEntity
  8
AM_0
100
AcDbCircle
 10
742.9714674858934
 20
270.0527365938099
 30
0.0
 40
3.0
100
AcDbArc
 50
185.21591
 51
270.0
  0
ARC
  5
41D5
330
1F
100
AcDbEntity
  8
AM_0
100
AcDbCircle
 10
659.1531054858932
 20
286.3206355938099
 30
0.0
 40
3.0
100
AcDbArc
 50
323.7879399999988
 51
45.00000100000149
  0
ARC
  5
41D6
330
1F
100
AcDbEntity
  8
AM_0
100
AcDbCircle
 10
683.1992034858931
 20
327.8539975938098
 30
0.0
 40
3.0
100
AcDbArc
 50
0.0
 51
94.55207099999915
  0
ARC
  5
41D7
330
1F
100
AcDbEntity
  8
AM_0
100
AcDbCircle
 10
751.0004904858932
 20
260.05273459381
 30
0.0
 40
3.0
100
AcDbArc
 50
355.447930000001
 51
90.00000300000095
  0
ARC
  5
41D8
330
1F
100
AcDbEntity
  8
AM_0
100
AcDbCircle
 10
751.0004904858932
 20
270.0527365938099
 30
0.0
 40
3.0
100
AcDbArc
 50
270.0
 51
4.552071399998237
  0
ARC
  5
41D9
330
1F
100
AcDbEntity
  8
AM_0
100
AcDbCircle
 10
742.7303034858929
 20
305.6773555938098
 30
0.0
 40
2.00000007
100
AcDbArc
 50
216.6854199999992
 51
304.9999999999987
  0
ARC
  5
41DA
330
1F
100
AcDbEntity
  8
AM_0
100
AcDbCircle
 10
688.1992044858932
 20
265.05275059381
 30
0.0
 40
26.5000026
100
AcDbArc
 50
270.0
 51
90.00000300000095
  0
ARC
  5
41DB
330
1F
100
AcDbEntity
  8
AM_0
100
AcDbCircle
 10
688.1992044858932
 20
265.05275059381
 30
0.0
 40
26.5000026
100
AcDbArc
 50
90.00000300000095
 51
270.0
  0
ARC
  5
41DC
330
1F
100
AcDbEntity
  8
AM_0
100
AcDbCircle
 10
615.4402584858934
 20
192.55273459381
 30
0.0
 40
10.0000002
100
AcDbArc
 50
183.0000099999998
 51
270.0
  0
ARC
  5
41DD
330
1F
100
AcDbEntity
  8
AM_0
100
AcDbCircle
 10
760.9581624858932
 20
192.55273459381
 30
0.0
 40
10.0000002
100
AcDbArc
 50
270.0
 51
357.0000000000009
  0
ARC
  5
41DE
330
1F
100
AcDbEntity
  8
AM_0
100
AcDbCircle
 10
688.1992044858932
 20
245.05273459381
 30
0.0
 40
71.00000099999999
100
AcDbArc
 50
234.7757899999998
 51
238.4932700000017
  0
ARC
  5
41DF
330
1F
100
AcDbEntity
  8
AM_0
100
AcDbCircle
 10
716.3264934858934
 20
177.14761159381
 30
0.0
 40
7.0000008
100
AcDbArc
 50
270.0000200000005
 51
15.08055899999697
  0
CIRCLE
  5
41E0
330
1F
100
AcDbEntity
  8
AM_0
100
AcDbCircle
 10
716.3264934858934
 20
177.14761159381
 30
0.0
 40
4.979646299999997
  0
CIRCLE
  5
41E1
330
1F
100
AcDbEntity
  8
AM_0
100
AcDbCircle
 10
660.0719274858932
 20
177.14761159381
 30
0.0
 40
4.979646299999997
  0
CIRCLE
  5
41E2
330
1F
100
AcDbEntity
  8
AM_0
100
AcDbCircle
 10
629.8877694858934
 20
289.7967085938098
 30
0.0
 40
4.979646299999997
  0
CIRCLE
  5
41E3
330
1F
100
AcDbEntity
  8
AM_0
100
AcDbCircle
 10
746.5107114858932
 20
289.7966485938099
 30
0.0
 40
4.979646299999997
  0
ARC
  5
41EB
330
1F
100
AcDbEntity
  8
AM_0
100
AcDbCircle
 10
688.199189385628
 20
265.05275059381
 30
0.0
 40
52.00000799999999
100
AcDbArc
 50
95.21591099999984
 51
132.2443299999958
  0
LINE
  5
41F1
330
1F
100
AcDbEntity
  8
ﾁｭｳｼﾝｾﾝ1
 48
1.5
100
AcDbLine
 10
596.861132485893
 20
265.0527205938098
 30
0.0
 11
776.8127934858934
 21
265.0527205938098
 31
0.0
  0
LINE
  5
41F2
330
1F
100
AcDbEntity
  8
ﾁｭｳｼﾝｾﾝ1
 48
1.5
100
AcDbLine
 10
723.1992044858932
 20
245.05273459381
 30
0.0
 11
653.1992014858932
 21
245.05273459381
 31
0.0
  0
LINE
  5
41F3
330
1F
100
AcDbEntity
  8
ﾁｭｳｼﾝｾﾝ1
 48
1.5
100
AcDbLine
 10
688.1992044858932
 20
354.5510308690213
 30
0.0
 11
688.1992044858932
 21
163.1894365938099
 31
0.0
  0
LINE
  5
4257
330
1F
100
AcDbEntity
  8
AM_0
100
AcDbLine
 10
603.199232485893
 20
265.0527205938098
 30
0.0
 11
603.1992024858932
 21
235.0527205938098
 31
0.0
  0
LINE
  5
4731
330
1F
100
AcDbEntity
  8
ﾁｭｳｼﾝｾﾝ
 48
0.8
100
AcDbLine
 10
292.7420020380571
 20
457.1415287055337
 30
0.0
 11
507.8578834834692
 21
457.1415495749881
 31
0.0
1001
GENIUS_GENODEF_13
1002
{
1000
HIER
1070
     0
1002
}
1002
{
1000
MANEDIT
1070
     0
1002
}
1002
{
1000
NOSEL
1070
     0
1002
}
1002
{
1000
BEHIND
1070
     0
1002
}
1002
{
1000
OTHER
1070
     0
1002
}
1002
{
1000
REACTOR
1002
}
1001
GENIUS_GENOBJ-N-CEN_13
1002
{
1000
OWNER
1000
GEN
1002
}
1001
GENIUS_GENCEN_19
1002
{
1040
3.0
1002
}
  0
LINE
  5
47B1
330
1F
100
AcDbEntity
  8
0
  6
Continuous
 62
     7
100
AcDbLine
 10
462.8578834834692
 20
444.6415792839433
 30
0.0
 11
464.8578534834692
 21
444.6415792839433
 31
0.0
  0
LINE
  5
47B2
330
1F
100
AcDbEntity
  8
0
  6
Continuous
 62
     7
100
AcDbLine
 10
462.8578834834692
 20
469.6415192839433
 30
0.0
 11
464.8578534834692
 21
469.6415192839433
 31
0.0
  0
LINE
  5
47B3
330
1F
100
AcDbEntity
  8
0
  6
Continuous
 62
     7
100
AcDbLine
 10
504.8578834834692
 20
469.1415492839432
 30
0.0
 11
504.8578834834692
 21
445.1415492839432
 31
0.0
  0
LINE
  5
47B4
330
1F
100
AcDbEntity
  8
0
  6
Continuous
 62
     7
100
AcDbLine
 10
464.8578534834692
 20
469.6415192839433
 30
0.0
 11
464.8578534834692
 21
444.6415792839433
 31
0.0
  0
LINE
  5
47B5
330
1F
100
AcDbEntity
  8
0
  6
Continuous
 62
     7
100
AcDbLine
 10
464.8578534834692
 20
469.1415492839432
 30
0.0
 11
504.8578834834692
 21
469.1415492839432
 31
0.0
  0
LINE
  5
47B6
330
1F
100
AcDbEntity
  8
0
  6
Continuous
 62
     7
100
AcDbLine
 10
464.8578534834692
 20
445.1415492839432
 30
0.0
 11
504.8578834834692
 21
445.1415492839432
 31
0.0
  0
LINE
  5
47B7
330
1F
100
AcDbEntity
  8
0
  6
Continuous
 62
     7
100
AcDbLine
 10
472.8578834834691
 20
461.1415192839432
 30
0.0
 11
472.8578834834691
 21
453.1415492839432
 31
0.0
  0
LINE
  5
47B8
330
1F
100
AcDbEntity
  8
0
  6
Continuous
 62
     7
100
AcDbLine
 10
397.8578834834692
 20
528.1415492839433
 30
0.0
 11
397.8578834834692
 21
386.1415492839433
 31
0.0
  0
LINE
  5
47B9
330
1F
100
AcDbEntity
  8
0
  6
Continuous
 62
     7
100
AcDbLine
 10
461.8579134834692
 20
430.6066292839432
 30
0.0
 11
461.8927634834691
 21
430.6078592839432
 31
0.0
  0
LINE
  5
47BA
330
1F
100
AcDbEntity
  8
0
  6
Continuous
 62
     7
100
AcDbLine
 10
461.8579134834692
 20
483.6764592839433
 30
0.0
 11
461.8927934834692
 21
483.675239283943
 31
0.0
  0
LINE
  5
47BB
330
1F
100
AcDbEntity
  8
0
  6
Continuous
 62
     7
100
AcDbLine
 10
462.8578834834692
 20
431.6072092839432
 30
0.0
 11
462.8578834834692
 21
482.6758492839433
 31
0.0
  0
LINE
  5
47BC
330
1F
100
AcDbEntity
  8
0
  6
Continuous
 62
     7
100
AcDbLine
 10
472.8578834834691
 20
453.1415492839432
 30
0.0
 11
504.8578834834692
 21
453.1415492839432
 31
0.0
  0
LINE
  5
47BD
330
1F
100
AcDbEntity
  8
0
  6
Continuous
 62
     7
100
AcDbLine
 10
472.8578834834691
 20
461.1415192839432
 30
0.0
 11
504.8578834834692
 21
461.1415192839432
 31
0.0
  0
LINE
  5
47BE
330
1F
100
AcDbEntity
  8
0
  6
Continuous
 62
     7
100
AcDbLine
 10
428.8814734834692
 20
385.3291692839432
 30
0.0
 11
392.8055434834693
 21
386.2738392839432
 31
0.0
  0
LINE
  5
47BF
330
1F
100
AcDbEntity
  8
0
  6
Continuous
 62
     7
100
AcDbLine
 10
428.8815034834692
 20
528.9539492839432
 30
0.0
 11
392.8055734834692
 21
528.0092492839433
 31
0.0
  0
LINE
  5
47C0
330
1F
100
AcDbEntity
  8
0
  6
Continuous
 62
     7
100
AcDbLine
 10
390.8579134834693
 20
388.2731692839432
 30
0.0
 11
390.8579134834693
 21
526.0099192839431
 31
0.0
  0
LINE
  5
47C1
330
1F
100
AcDbEntity
  8
0
  6
Continuous
 62
     7
100
AcDbLine
 10
385.8578834834692
 20
400.4607292839431
 30
0.0
 11
359.8579434834692
 21
401.1415492839431
 31
0.0
  0
LINE
  5
47C2
330
1F
100
AcDbEntity
  8
0
  6
Continuous
 62
     7
100
AcDbLine
 10
359.8579134834693
 20
411.1412392839433
 30
0.0
 11
390.8579134834693
 21
411.1412392839433
 31
0.0
  0
LINE
  5
47C3
330
1F
100
AcDbEntity
  8
0
  6
Continuous
 62
     7
100
AcDbLine
 10
387.8578834834692
 20
391.9302692839433
 30
0.0
 11
388.8579134834693
 21
391.9302692839433
 31
0.0
  0
LINE
  5
47C4
330
1F
100
AcDbEntity
  8
0
  6
Continuous
 62
     7
100
AcDbLine
 10
385.8578834834692
 20
393.9302692839433
 30
0.0
 11
385.8578834834692
 21
409.1412392839433
 31
0.0
  0
LINE
  5
47C5
330
1F
100
AcDbEntity
  8
0
  6
Continuous
 62
     7
100
AcDbLine
 10
385.8578834834692
 20
520.3528492839431
 30
0.0
 11
385.8578834834692
 21
505.141849283943
 31
0.0
  0
LINE
  5
47C6
330
1F
100
AcDbEntity
  8
0
  6
Continuous
 62
     7
100
AcDbLine
 10
385.8579134834692
 20
513.8223892839432
 30
0.0
 11
359.8579434834692
 21
513.1415492839432
 31
0.0
  0
LINE
  5
47C7
330
1F
100
AcDbEntity
  8
0
  6
Continuous
 62
     7
100
AcDbLine
 10
359.8579134834693
 20
503.141849283943
 30
0.0
 11
390.8579134834693
 21
503.141849283943
 31
0.0
  0
LINE
  5
47C8
330
1F
100
AcDbEntity
  8
0
  6
Continuous
 62
     7
100
AcDbLine
 10
387.8578834834692
 20
522.3528492839432
 30
0.0
 11
388.8579134834693
 21
522.3528492839432
 31
0.0
  0
LINE
  5
47C9
330
1F
100
AcDbEntity
  8
0
  6
Continuous
 62
     7
100
AcDbLine
 10
359.8579134834693
 20
425.201609283943
 30
0.0
 11
390.8579134834693
 21
425.201609283943
 31
0.0
  0
LINE
  5
47CA
330
1F
100
AcDbEntity
  8
0
  6
Continuous
 62
     7
100
AcDbLine
 10
359.8579134834693
 20
489.0814892839433
 30
0.0
 11
390.8579134834693
 21
489.0814892839433
 31
0.0
  0
LINE
  5
47CB
330
1F
100
AcDbEntity
  8
0
  6
Continuous
 62
     7
100
AcDbLine
 10
429.8578834834694
 20
527.5305192839432
 30
0.0
 11
429.8578834834694
 21
386.7525692839432
 31
0.0
  0
LINE
  5
47CC
330
1F
100
AcDbEntity
  8
0
  6
Continuous
 62
     7
100
AcDbLine
 10
432.7793634834693
 20
530.5294892839432
 30
0.0
 11
444.9364034834692
 21
530.8478092839433
 31
0.0
  0
LINE
  5
47CD
330
1F
100
AcDbEntity
  8
0
  6
Continuous
 62
     7
100
AcDbLine
 10
457.8578834834692
 20
372.1415492839432
 30
0.0
 11
457.8578834834692
 21
542.1415492839432
 31
0.0
  0
LINE
  5
47CE
330
1F
100
AcDbEntity
  8
0
  6
Continuous
 62
     7
100
AcDbLine
 10
457.8578834834692
 20
527.1415492839432
 30
0.0
 11
461.8579134834692
 21
527.1415492839432
 31
0.0
  0
LINE
  5
47CF
330
1F
100
AcDbEntity
  8
0
  6
Continuous
 62
     7
100
AcDbLine
 10
449.7880834834693
 20
541.8597492839433
 30
0.0
 11
457.8578534834693
 21
542.1415492839432
 31
0.0
  0
LINE
  5
47D0
330
1F
100
AcDbEntity
  8
0
  6
Continuous
 62
     7
100
AcDbLine
 10
447.8578834834691
 20
499.0932092839432
 30
0.0
 11
447.8578834834691
 21
539.8609392839432
 31
0.0
  0
LINE
  5
47D1
330
1F
100
AcDbEntity
  8
0
  6
Continuous
 62
     7
100
AcDbLine
 10
451.8578834834694
 20
390.3601992839433
 30
0.0
 11
451.8578834834694
 21
523.9228892839433
 31
0.0
  0
LINE
  5
47D2
330
1F
100
AcDbEntity
  8
0
  6
Continuous
 62
     7
100
AcDbLine
 10
432.7793934834692
 20
383.7535792839432
 30
0.0
 11
444.9364334834692
 21
383.4352492839432
 31
0.0
  0
LINE
  5
47D3
330
1F
100
AcDbEntity
  8
0
  6
Continuous
 62
     7
100
AcDbLine
 10
457.8578834834692
 20
387.1415492839432
 30
0.0
 11
461.8579134834692
 21
387.1415492839432
 31
0.0
  0
LINE
  5
47D4
330
1F
100
AcDbEntity
  8
0
  6
Continuous
 62
     7
100
AcDbLine
 10
449.7880534834693
 20
372.4233492839433
 30
0.0
 11
457.8578834834692
 21
372.1415492839432
 31
0.0
  0
LINE
  5
47D5
330
1F
100
AcDbEntity
  8
0
  6
Continuous
 62
     7
100
AcDbLine
 10
447.8578834834691
 20
415.1898892839431
 30
0.0
 11
447.8578834834691
 21
374.4221592839433
 31
0.0
  0
LINE
  5
47D6
330
1F
100
AcDbEntity
  8
0
  6
Continuous
 62
     7
100
AcDbLine
 10
461.8579134834692
 20
527.1415492839432
 30
0.0
 11
461.8579134834692
 21
387.1415492839432
 31
0.0
  0
LINE
  5
47D7
330
1F
100
AcDbEntity
  8
0
  6
Continuous
 62
     7
100
AcDbLine
 10
445.4007234834691
 20
515.819399283943
 30
0.0
 11
432.3150634834692
 21
508.0903692839433
 31
0.0
  0
LINE
  5
47D8
330
1F
100
AcDbEntity
  8
0
  6
Continuous
 62
     7
100
AcDbLine
 10
430.8578834834694
 20
504.8396692839433
 30
0.0
 11
445.8578834834694
 21
504.8396692839433
 31
0.0
  0
LINE
  5
47D9
330
1F
100
AcDbEntity
  8
0
  6
Continuous
 62
     7
100
AcDbLine
 10
445.4007234834691
 20
519.3036292839433
 30
0.0
 11
432.3150634834692
 21
511.5745892839433
 31
0.0
  0
LINE
  5
47DA
330
1F
100
AcDbEntity
  8
0
  6
Continuous
 62
     7
100
AcDbLine
 10
430.8578834834694
 20
409.4434292839433
 30
0.0
 11
445.8578834834694
 21
409.4434292839433
 31
0.0
  0
LINE
  5
47DB
330
1F
100
AcDbEntity
  8
0
  6
Continuous
 62
     7
100
AcDbLine
 10
445.4007234834691
 20
398.4636892839434
 30
0.0
 11
432.3150634834692
 21
406.1927492839432
 31
0.0
  0
LINE
  5
47DC
330
1F
100
AcDbEntity
  8
0
  6
Continuous
 62
     7
100
AcDbLine
 10
445.4007234834691
 20
394.9794392839432
 30
0.0
 11
432.3150634834692
 21
402.7084992839432
 31
0.0
  0
ARC
  5
47DD
330
1F
100
AcDbEntity
  8
0
  6
Continuous
 62
     7
100
AcDbCircle
 10
461.8578834834692
 20
431.6072092839432
 30
0.0
 40
1.0
100
AcDbArc
 50
272.0000000000004
 51
0.0
  0
ARC
  5
47DE
330
1F
100
AcDbEntity
  8
0
  6
Continuous
 62
     7
100
AcDbCircle
 10
461.8578834834692
 20
482.6758492839433
 30
0.0
 40
1.0
100
AcDbArc
 50
0.0
 51
87.99999999999965
  0
ARC
  5
47DF
330
1F
100
AcDbEntity
  8
0
  6
Continuous
 62
     7
100
AcDbCircle
 10
472.8578834834691
 20
457.1415192839433
 30
0.0
 40
3.9999962
100
AcDbArc
 50
90.00000300000095
 51
270.0
  0
ARC
  5
47E0
330
1F
100
AcDbEntity
  8
0
  6
Continuous
 62
     7
100
AcDbCircle
 10
392.8579134834694
 20
388.2731692839432
 30
0.0
 40
2.0
100
AcDbArc
 50
180.000010000001
 51
268.5000000000005
  0
ARC
  5
47E1
330
1F
100
AcDbEntity
  8
0
  6
Continuous
 62
     7
100
AcDbCircle
 10
392.8579134834694
 20
526.0099192839431
 30
0.0
 40
2.0
100
AcDbArc
 50
91.50000100000154
 51
180.000010000001
  0
ARC
  5
47E2
330
1F
100
AcDbEntity
  8
0
  6
Continuous
 62
     7
100
AcDbCircle
 10
387.8578834834692
 20
393.9302692839433
 30
0.0
 40
2.0
100
AcDbArc
 50
180.000010000001
 51
270.0
  0
ARC
  5
47E3
330
1F
100
AcDbEntity
  8
0
  6
Continuous
 62
     7
100
AcDbCircle
 10
383.8578834834692
 20
409.1412392839433
 30
0.0
 40
2.0
100
AcDbArc
 50
0.0
 51
90.00000300000095
  0
ARC
  5
47E4
330
1F
100
AcDbEntity
  8
0
  6
Continuous
 62
     7
100
AcDbCircle
 10
388.8579134834693
 20
389.9302692839433
 30
0.0
 40
2.0
100
AcDbArc
 50
0.0
 51
90.00000300000095
  0
ARC
  5
47E5
330
1F
100
AcDbEntity
  8
0
  6
Continuous
 62
     7
100
AcDbCircle
 10
388.8579134834693
 20
524.3528492839431
 30
0.0
 40
2.0
100
AcDbArc
 50
270.0
 51
0.0
  0
ARC
  5
47E6
330
1F
100
AcDbEntity
  8
0
  6
Continuous
 62
     7
100
AcDbCircle
 10
387.8578834834692
 20
520.3528492839431
 30
0.0
 40
2.0
100
AcDbArc
 50
90.00000300000095
 51
180.000010000001
  0
ARC
  5
47E7
330
1F
100
AcDbEntity
  8
0
  6
Continuous
 62
     7
100
AcDbCircle
 10
383.8578834834692
 20
505.141849283943
 30
0.0
 40
2.0
100
AcDbArc
 50
270.0
 51
0.0
  0
ARC
  5
47E8
330
1F
100
AcDbEntity
  8
0
  6
Continuous
 62
     7
100
AcDbCircle
 10
432.8578834834692
 20
527.5305192839432
 30
0.0
 40
3.0
100
AcDbArc
 50
91.50000100000154
 51
180.000010000001
  0
ARC
  5
47E9
330
1F
100
AcDbEntity
  8
0
  6
Continuous
 62
     7
100
AcDbCircle
 10
432.8578834834692
 20
386.7525692839432
 30
0.0
 40
3.0
100
AcDbArc
 50
179.999989999999
 51
268.5000099999988
  0
ARC
  5
47EA
330
1F
100
AcDbEntity
  8
0
  6
Continuous
 62
     7
100
AcDbCircle
 10
428.8029534834691
 20
531.9528892839432
 30
0.0
 40
3.0
100
AcDbArc
 50
271.4999999999995
 51
312.5181199999989
  0
ARC
  5
47EB
330
1F
100
AcDbEntity
  8
0
  6
Continuous
 62
     7
100
AcDbCircle
 10
428.8029534834691
 20
382.3301792839432
 30
0.0
 40
3.0
100
AcDbArc
 50
47.48195200000163
 51
88.49999700000074
  0
ARC
  5
47EC
330
1F
100
AcDbEntity
  8
0
  6
Continuous
 62
     7
100
AcDbCircle
 10
449.8579134834692
 20
539.8609392839432
 30
0.0
 40
2.0
100
AcDbArc
 50
91.99999800000055
 51
180.000010000001
  0
ARC
  5
47ED
330
1F
100
AcDbEntity
  8
0
  6
Continuous
 62
     7
100
AcDbCircle
 10
448.8578834834692
 20
523.9228892839433
 30
0.0
 40
3.0
100
AcDbArc
 50
0.0
 51
90.00000300000095
  0
ARC
  5
47EE
330
1F
100
AcDbEntity
  8
0
  6
Continuous
 62
     7
100
AcDbCircle
 10
450.8578834834692
 20
499.0932092839432
 30
0.0
 40
3.0
100
AcDbArc
 50
179.999989999999
 51
270.0
  0
ARC
  5
47EF
330
1F
100
AcDbEntity
  8
0
  6
Continuous
 62
     7
100
AcDbCircle
 10
444.8578834834692
 20
533.8468092839432
 30
0.0
 40
3.0
100
AcDbArc
 50
271.4999999999995
 51
0.0
  0
ARC
  5
47F0
330
1F
100
AcDbEntity
  8
0
  6
Continuous
 62
     7
100
AcDbCircle
 10
444.8578834834692
 20
380.4362892839434
 30
0.0
 40
3.0
100
AcDbArc
 50
0.0
 51
88.49999700000074
  0
ARC
  5
47F1
330
1F
100
AcDbEntity
  8
0
  6
Continuous
 62
     7
100
AcDbCircle
 10
449.8579134834692
 20
374.4221592839433
 30
0.0
 40
2.0
100
AcDbArc
 50
179.999989999999
 51
268.0000099999986
  0
ARC
  5
47F2
330
1F
100
AcDbEntity
  8
0
  6
Continuous
 62
     7
100
AcDbCircle
 10
448.8578834834692
 20
390.3601992839433
 30
0.0
 40
3.0
100
AcDbArc
 50
270.0
 51
0.0
  0
ARC
  5
47F3
330
1F
100
AcDbEntity
  8
0
  6
Continuous
 62
     7
100
AcDbCircle
 10
450.8578834834692
 20
415.1898892839431
 30
0.0
 40
3.0
100
AcDbArc
 50
90.00000300000095
 51
180.000010000001
  0
ARC
  5
47F4
330
1F
100
AcDbEntity
  8
0
  6
Continuous
 62
     7
100
AcDbCircle
 10
442.8578834834691
 20
520.1245192839433
 30
0.0
 40
5.0
100
AcDbArc
 50
300.5682899999989
 51
0.0
  0
ARC
  5
47F5
330
1F
100
AcDbEntity
  8
0
  6
Continuous
 62
     7
100
AcDbCircle
 10
434.8578834834691
 20
503.7852192839432
 30
0.0
 40
5.0
100
AcDbArc
 50
120.5682899999989
 51
180.000010000001
  0
ARC
  5
47F6
330
1F
100
AcDbEntity
  8
0
  6
Continuous
 62
     7
100
AcDbCircle
 10
430.8578834834694
 20
503.8396692839432
 30
0.0
 40
1.0
100
AcDbArc
 50
90.00000300000095
 51
180.000010000001
  0
ARC
  5
47F7
330
1F
100
AcDbEntity
  8
0
  6
Continuous
 62
     7
100
AcDbCircle
 10
442.8578834834691
 20
523.6087692839432
 30
0.0
 40
5.0
100
AcDbArc
 50
300.5682899999989
 51
0.0
  0
ARC
  5
47F8
330
1F
100
AcDbEntity
  8
0
  6
Continuous
 62
     7
100
AcDbCircle
 10
434.8578834834691
 20
507.2694792839433
 30
0.0
 40
5.0
100
AcDbArc
 50
120.5682899999989
 51
180.000010000001
  0
ARC
  5
47F9
330
1F
100
AcDbEntity
  8
0
  6
Continuous
 62
     7
100
AcDbCircle
 10
442.8578834834691
 20
394.1585792839433
 30
0.0
 40
5.0
100
AcDbArc
 50
0.0
 51
59.4317090000005
  0
ARC
  5
47FA
330
1F
100
AcDbEntity
  8
0
  6
Continuous
 62
     7
100
AcDbCircle
 10
430.8578834834694
 20
410.4434292839433
 30
0.0
 40
1.0
100
AcDbArc
 50
179.999989999999
 51
270.0
  0
ARC
  5
47FB
330
1F
100
AcDbEntity
  8
0
  6
Continuous
 62
     7
100
AcDbCircle
 10
442.8578834834691
 20
390.6743192839433
 30
0.0
 40
5.0
100
AcDbArc
 50
0.0
 51
59.4317090000005
  0
ARC
  5
47FC
330
1F
100
AcDbEntity
  8
0
  6
Continuous
 62
     7
100
AcDbCircle
 10
434.8578834834691
 20
410.4978692839432
 30
0.0
 40
5.0
100
AcDbArc
 50
179.999989999999
 51
239.431710000001
  0
ARC
  5
47FD
330
1F
100
AcDbEntity
  8
0
  6
Continuous
 62
     7
100
AcDbCircle
 10
434.8578834834691
 20
407.0136192839431
 30
0.0
 40
5.0
100
AcDbArc
 50
179.999989999999
 51
239.431710000001
  0
ARC
  5
47FE
330
1F
100
AcDbEntity
  8
0
  6
Continuous
 62
     7
100
AcDbCircle
 10
445.8578834834694
 20
506.8396692839432
 30
0.0
 40
2.0
100
AcDbArc
 50
270.0
 51
0.0
  0
ARC
  5
47FF
330
1F
100
AcDbEntity
  8
0
  6
Continuous
 62
     7
100
AcDbCircle
 10
445.8578834834694
 20
407.4434292839432
 30
0.0
 40
2.0
100
AcDbArc
 50
0.0
 51
90.00000300000095
  0
TEXT
  5
485B
330
1F
100
AcDbEntity
  8
AM_0
100
AcDbText
 10
603.9823959311312
 20
429.5560998504362
 30
0.0
 40
7.5
  1
ＶＸ０１－０６０～１００ＨＦ－Ｔ２（Ｔ４）
 41
0.8299999999999998
100
AcDbText
  0
CIRCLE
  5
48CA
330
1F
100
AcDbEntity
  8
0
100
AcDbCircle
 10
316.3579584834679
 20
468.1415352167828
 30
0.0
 40
10.0
  0
LINE
  5
48CC
330
1F
100
AcDbEntity
  8
ﾁｭｳｼﾝｾﾝ1
 48
0.7
100
AcDbLine
 10
316.3579584834679
 20
481.1415352167828
 30
0.0
 11
316.3579584834679
 21
455.1415352167828
 31
0.0
1001
GENIUS_GENODEF_13
1002
{
1000
HIER
1070
     0
1002
}
1002
{
1000
MANEDIT
1070
     0
1002
}
1002
{
1000
NOSEL
1070
     0
1002
}
1002
{
1000
BEHIND
1070
     0
1002
}
1002
{
1000
OTHER
1070
     0
1002
}
1002
{
1000
REACTOR
1002
}
1001
GENIUS_GENOBJ-N-CEN_13
1002
{
1000
OWNER
1000
GEN
1002
}
1001
GENIUS_GENCEN_19
1002
{
1040
3.0
1002
}
  0
LINE
  5
48CD
330
1F
100
AcDbEntity
  8
AM_0
100
AcDbLine
 10
315.3579584834679
 20
473.1415352167828
 30
0.0
 11
315.3579584834679
 21
463.1415352167828
 31
0.0
1001
GENIUS_GENODEF_13
1002
{
1000
HIER
1070
     0
1002
}
1002
{
1000
MANEDIT
1070
     0
1002
}
1002
{
1000
NOSEL
1070
     0
1002
}
1002
{
1000
BEHIND
1070
     0
1002
}
1002
{
1000
OTHER
1070
     0
1002
}
1002
{
1000
REACTOR
1002
}
1001
GENIUS_GENOBJ-N-CEN_13
1002
{
1000
OWNER
1000
GEN
1002
}
1001
GENIUS_GENCEN_19
1002
{
1040
3.0
1002
}
  0
LINE
  5
48CE
330
1F
100
AcDbEntity
  8
AM_0
100
AcDbLine
 10
317.3579584834679
 20
473.1415352167828
 30
0.0
 11
317.3579584834679
 21
463.1415352167828
 31
0.0
1001
GENIUS_GENODEF_13
1002
{
1000
HIER
1070
     0
1002
}
1002
{
1000
MANEDIT
1070
     0
1002
}
1002
{
1000
NOSEL
1070
     0
1002
}
1002
{
1000
BEHIND
1070
     0
1002
}
1002
{
1000
OTHER
1070
     0
1002
}
1002
{
1000
REACTOR
1002
}
1001
GENIUS_GENOBJ-N-CEN_13
1002
{
1000
OWNER
1000
GEN
1002
}
1001
GENIUS_GENCEN_19
1002
{
1040
3.0
1002
}
  0
CIRCLE
  5
48CF
330
1F
100
AcDbEntity
  8
AM_0
100
AcDbCircle
 10
316.3579584834679
 20
468.1415352167828
 30
0.0
 40
8.500000000000056
  0
CIRCLE
  5
48D0
330
1F
100
AcDbEntity
  8
AM_0
100
AcDbCircle
 10
316.3579584834679
 20
468.1415352167828
 30
0.0
 40
8.999999999999971
  0
ARC
  5
48D1
330
1F
100
AcDbEntity
  8
AM_0
100
AcDbCircle
 10
316.3579584834679
 20
473.1415352167828
 30
0.0
 40
1.0
100
AcDbArc
 50
0.0
 51
180.0
  0
ARC
  5
48D2
330
1F
100
AcDbEntity
  8
AM_0
100
AcDbCircle
 10
316.3579584834679
 20
463.1415352167828
 30
0.0
 40
1.0
100
AcDbArc
 50
180.0
 51
0.0
  0
LINE
  5
48D3
330
1F
100
AcDbEntity
  8
ﾁｭｳｼﾝｾﾝ1
 48
0.7
100
AcDbLine
 10
303.3579584834679
 20
468.1415352167828
 30
0.0
 11
329.357958483468
 21
468.1415352167828
 31
0.0
1001
GENIUS_GENOBJ-N-CEN_13
1002
{
1000
OWNER
1000
GEN
1002
}
1001
GENIUS_GENODEF_13
1002
{
1000
HIER
1070
     0
1002
}
1002
{
1000
MANEDIT
1070
     0
1002
}
1002
{
1000
NOSEL
1070
     0
1002
}
1002
{
1000
BEHIND
1070
     0
1002
}
1002
{
1000
OTHER
1070
     0
1002
}
1002
{
1000
REACTOR
1002
}
1001
GENIUS_GENCEN_19
1002
{
1040
3.0
1002
}
  0
LINE
  5
48D4
330
1F
100
AcDbEntity
  8
AM_0
100
AcDbLine
 10
359.8579434834692
 20
301.0527250938098
 30
0.0
 11
359.8579434834692
 21
189.0527140938098
 31
0.0
  0
LINE
  5
48D5
330
1F
100
AcDbEntity
  8
0
100
AcDbLine
 10
351.7881444900642
 20
301.2709160033164
 30
0.0
 11
359.8579434834692
 21
301.5527195938098
 31
0.0
  0
LINE
  5
48D6
330
1F
100
AcDbEntity
  8
0
100
AcDbLine
 10
351.7881444900643
 20
188.8345231843032
 30
0.0
 11
359.8579434834692
 21
188.5527195938098
 31
0.0
  0
ARC
  5
48D7
330
1F
100
AcDbEntity
  8
0
100
AcDbCircle
 10
351.8579434834693
 20
190.8333048383414
 30
0.0
 40
2.0
100
AcDbArc
 50
180.0
 51
267.9999999999997
1001
GENIUS_GENODEF_13
1002
{
1000
HIER
1070
     0
1002
}
1002
{
1000
MANEDIT
1070
     0
1002
}
1002
{
1000
NOSEL
1070
     0
1002
}
1002
{
1000
BEHIND
1070
     0
1002
}
1002
{
1000
OTHER
1070
     0
1002
}
1002
{
1000
REACTOR
1002
}
1001
GENIUS_GENOBJ-N-FIL_13
1002
{
1000
OWNER
1000
GEN
1002
}
  0
LINE
  5
48D8
330
1F
100
AcDbEntity
  8
0
100
AcDbLine
 10
359.8579434834692
 20
301.5527195938098
 30
0.0
 11
359.8579434834692
 21
188.5527195938098
 31
0.0
  0
LINE
  5
48D9
330
1F
100
AcDbEntity
  8
0
100
AcDbLine
 10
355.8579434834692
 20
188.6924026717768
 30
0.0
 11
355.8579434834692
 21
188.5527195938098
 31
0.0
  0
LINE
  5
48DA
330
1F
100
AcDbEntity
  8
0
100
AcDbLine
 10
349.8579434834692
 20
299.2721343492782
 30
0.0
 11
349.8579434834693
 21
190.8333048383414
 31
0.0
  0
ARC
  5
48DB
330
1F
100
AcDbEntity
  8
0
100
AcDbCircle
 10
351.8579434834692
 20
299.2721343492782
 30
0.0
 40
2.0
100
AcDbArc
 50
92.00000000000034
 51
180.0
1001
GENIUS_GENOBJ-N-FIL_13
1002
{
1000
OWNER
1000
GEN
1002
}
1001
GENIUS_GENODEF_13
1002
{
1000
HIER
1070
     0
1002
}
1002
{
1000
MANEDIT
1070
     0
1002
}
1002
{
1000
NOSEL
1070
     0
1002
}
1002
{
1000
BEHIND
1070
     0
1002
}
1002
{
1000
OTHER
1070
     0
1002
}
1002
{
1000
REACTOR
1002
}
  0
ARC
  5
48DC
330
1F
100
AcDbEntity
  8
0
100
AcDbCircle
 10
344.8579434834678
 20
297.1237679056752
 30
0.0
 40
5.0
100
AcDbArc
 50
315.0
 51
0.0
1001
GENIUS_GENOBJ-N-FIL_13
1002
{
1000
OWNER
1000
GEN
1002
}
1001
GENIUS_GENODEF_13
1002
{
1000
HIER
1070
     0
1002
}
1002
{
1000
MANEDIT
1070
     0
1002
}
1002
{
1000
NOSEL
1070
     0
1002
}
1002
{
1000
BEHIND
1070
     0
1002
}
1002
{
1000
OTHER
1070
     0
1002
}
1002
{
1000
REACTOR
1002
}
  0
LINE
  5
48DD
330
1F
100
AcDbEntity
  8
0
100
AcDbLine
 10
332.4989870310674
 20
277.6937436414092
 30
0.0
 11
348.3934773894006
 21
293.5882339997426
 31
0.0
  0
ARC
  5
48DE
330
1F
100
AcDbEntity
  8
0
100
AcDbCircle
 10
328.9634531251346
 20
281.2292775473419
 30
0.0
 40
5.0
100
AcDbArc
 50
272.0000000000004
 51
315.0
1001
GENIUS_GENOBJ-N-FIL_13
1002
{
1000
OWNER
1000
GEN
1002
}
1001
GENIUS_GENODEF_13
1002
{
1000
HIER
1070
     0
1002
}
1002
{
1000
MANEDIT
1070
     0
1002
}
1002
{
1000
NOSEL
1070
     0
1002
}
1002
{
1000
BEHIND
1070
     0
1002
}
1002
{
1000
OTHER
1070
     0
1002
}
1002
{
1000
REACTOR
1002
}
  0
LINE
  5
48DF
330
1F
100
AcDbEntity
  8
0
100
AcDbLine
 10
295.3579584834679
 20
275.0527000938097
 30
0.0
 11
295.3579584834679
 21
215.0527000938097
 31
0.0
  0
LINE
  5
48E0
330
1F
100
AcDbEntity
  8
0
100
AcDbLine
 10
333.1784267812633
 20
276.3734199493073
 30
0.0
 11
295.3579584834679
 21
275.0527000938097
 31
0.0
  0
ARC
  5
48E1
330
1F
100
AcDbEntity
  8
0
100
AcDbCircle
 10
344.8579434834678
 20
192.9816322819443
 30
0.0
 40
5.0
100
AcDbArc
 50
0.0
 51
45.0
1001
GENIUS_GENOBJ-N-FIL_13
1002
{
1000
OWNER
1000
GEN
1002
}
1001
GENIUS_GENODEF_13
1002
{
1000
HIER
1070
     0
1002
}
1002
{
1000
MANEDIT
1070
     0
1002
}
1002
{
1000
NOSEL
1070
     0
1002
}
1002
{
1000
BEHIND
1070
     0
1002
}
1002
{
1000
OTHER
1070
     0
1002
}
1002
{
1000
REACTOR
1002
}
  0
LINE
  5
48E2
330
1F
100
AcDbEntity
  8
0
100
AcDbLine
 10
332.4989870310674
 20
212.4116565462103
 30
0.0
 11
348.3934773894006
 21
196.517166187877
 31
0.0
  0
ARC
  5
48E3
330
1F
100
AcDbEntity
  8
0
100
AcDbCircle
 10
328.9634531251346
 20
208.8761226402776
 30
0.0
 40
5.0
100
AcDbArc
 50
45.0
 51
87.99999999999965
1001
GENIUS_GENOBJ-N-FIL_13
1002
{
1000
OWNER
1000
GEN
1002
}
1001
GENIUS_GENODEF_13
1002
{
1000
HIER
1070
     0
1002
}
1002
{
1000
MANEDIT
1070
     0
1002
}
1002
{
1000
NOSEL
1070
     0
1002
}
1002
{
1000
BEHIND
1070
     0
1002
}
1002
{
1000
OTHER
1070
     0
1002
}
1002
{
1000
REACTOR
1002
}
  0
LINE
  5
48E4
330
1F
100
AcDbEntity
  8
0
100
AcDbLine
 10
333.1784267812633
 20
213.7319802383122
 30
0.0
 11
295.3579584834679
 21
215.0527000938098
 31
0.0
  0
ARC
  5
48E5
330
1F
100
AcDbEntity
  8
図面枠-ｷｲﾛ
100
AcDbCircle
 10
409.4010648213584
 20
245.0527000938097
 30
0.0
 40
75.47521558726231
100
AcDbArc
 50
160.9069053726745
 51
199.0930946273255
  0
ARC
  5
48E6
330
1F
100
AcDbEntity
  8
図面枠-ｷｲﾛ
100
AcDbCircle
 10
333.352924264776
 20
218.7289343734077
 30
0.0
 40
5.0
100
AcDbArc
 50
267.9999999999997
 51
19.09309462732549
1001
GENIUS_GENOBJ-N-FIL_13
1002
{
1000
OWNER
1000
GEN
1002
}
1001
GENIUS_GENODEF_13
1002
{
1000
HIER
1070
     0
1002
}
1002
{
1000
MANEDIT
1070
     0
1002
}
1002
{
1000
NOSEL
1070
     0
1002
}
1002
{
1000
BEHIND
1070
     0
1002
}
1002
{
1000
OTHER
1070
     0
1002
}
1002
{
1000
REACTOR
1002
}
  0
ARC
  5
48E7
330
1F
100
AcDbEntity
  8
図面枠-ｷｲﾛ
100
AcDbCircle
 10
333.352924264776
 20
271.3764658142119
 30
0.0
 40
5.0
100
AcDbArc
 50
340.9069053726745
 51
92.00000000000034
1001
GENIUS_GENODEF_13
1002
{
1000
HIER
1070
     0
1002
}
1002
{
1000
MANEDIT
1070
     0
1002
}
1002
{
1000
NOSEL
1070
     0
1002
}
1002
{
1000
BEHIND
1070
     0
1002
}
1002
{
1000
OTHER
1070
     0
1002
}
1002
{
1000
REACTOR
1002
}
1001
GENIUS_GENOBJ-N-FIL_13
1002
{
1000
OWNER
1000
GEN
1002
}
  0
LINE
  5
48E8
330
1F
100
AcDbEntity
  8
AM_0
100
AcDbLine
 10
359.8579434834692
 20
291.0527050938098
 30
0.0
 11
349.8579434834692
 21
291.0527050938098
 31
0.0
  0
LINE
  5
48E9
330
1F
100
AcDbEntity
  8
AM_0
100
AcDbLine
 10
359.8579434834692
 20
276.9901390938098
 30
0.0
 11
349.8579434834692
 21
276.9901390938098
 31
0.0
  0
LINE
  5
48EA
330
1F
100
AcDbEntity
  8
AM_0
100
AcDbLine
 10
359.8579434834692
 20
213.1152610938098
 30
0.0
 11
349.8579434834692
 21
213.1152610938098
 31
0.0
  0
LINE
  5
48EB
330
1F
100
AcDbEntity
  8
AM_0
100
AcDbLine
 10
359.8579434834692
 20
199.0526980938098
 30
0.0
 11
349.8579434834692
 21
199.0526980938098
 31
0.0
  0
LINE
  5
48EC
330
1F
100
AcDbEntity
  8
AM_7
  6
AM_ISO08W050x2
 62
     1
370
    25
100
AcDbLine
 10
316.3579584834679
 20
266.3285416327934
 30
0.0
 11
316.3579584834679
 21
279.3348552770697
 31
0.0
1001
GENIUS_GENOBJ-N-CEN_13
1002
{
1000
OWNER
1000
GEN
1002
}
1001
GENIUS_GENODEF_13
1002
{
1000
HIER
1070
     0
1002
}
1002
{
1000
MANEDIT
1070
     0
1002
}
1002
{
1000
NOSEL
1070
     0
1002
}
1002
{
1000
BEHIND
1070
     0
1002
}
1002
{
1000
OTHER
1070
     0
1002
}
1002
{
1000
REACTOR
1002
}
1001
GENIUS_GENCEN_19
1002
{
1040
2.794
1002
}
  0
LINE
  5
48ED
330
1F
100
AcDbEntity
  8
0
100
AcDbLine
 10
324.857958483468
 20
276.0828627938166
 30
0.0
 11
324.857958483468
 21
276.5225416327934
 31
0.0
1001
GENIUS_GENOBJ-N-CEN_13
1002
{
1000
OWNER
1000
GEN
1002
}
1001
GENIUS_GENODEF_13
1002
{
1000
HIER
1070
     0
1002
}
1002
{
1000
MANEDIT
1070
     0
1002
}
1002
{
1000
NOSEL
1070
     0
1002
}
1002
{
1000
BEHIND
1070
     0
1002
}
1002
{
1000
OTHER
1070
     0
1002
}
1002
{
1000
REACTOR
1002
}
1001
GENIUS_GENCEN_19
1002
{
1040
2.794
1002
}
  0
LINE
  5
48EE
330
1F
100
AcDbEntity
  8
0
100
AcDbLine
 10
307.8579584834679
 20
275.5225416327935
 30
0.0
 11
307.8579584834679
 21
276.5225416327934
 31
0.0
1001
GENIUS_GENOBJ-N-CEN_13
1002
{
1000
OWNER
1000
GEN
1002
}
1001
GENIUS_GENODEF_13
1002
{
1000
HIER
1070
     0
1002
}
1002
{
1000
MANEDIT
1070
     0
1002
}
1002
{
1000
NOSEL
1070
     0
1002
}
1002
{
1000
BEHIND
1070
     0
1002
}
1002
{
1000
OTHER
1070
     0
1002
}
1002
{
1000
REACTOR
1002
}
1001
GENIUS_GENCEN_19
1002
{
1040
2.794
1002
}
  0
LINE
  5
48EF
330
1F
100
AcDbEntity
  8
0
100
AcDbLine
 10
307.3579584834679
 20
275.4717493277108
 30
0.0
 11
307.3579584834679
 21
275.5225416327935
 31
0.0
1001
GENIUS_GENOBJ-N-CEN_13
1002
{
1000
OWNER
1000
GEN
1002
}
1001
GENIUS_GENODEF_13
1002
{
1000
HIER
1070
     0
1002
}
1002
{
1000
MANEDIT
1070
     0
1002
}
1002
{
1000
NOSEL
1070
     0
1002
}
1002
{
1000
BEHIND
1070
     0
1002
}
1002
{
1000
OTHER
1070
     0
1002
}
1002
{
1000
REACTOR
1002
}
1001
GENIUS_GENCEN_19
1002
{
1040
2.794
1002
}
  0
LINE
  5
48F0
330
1F
100
AcDbEntity
  8
0
100
AcDbLine
 10
307.3579584834679
 20
275.5225416327934
 30
0.0
 11
308.8124597966339
 21
275.5225416327934
 31
0.0
  0
LINE
  5
48F1
330
1F
100
AcDbEntity
  8
図面枠-ｷｲﾛ
100
AcDbLine
 10
307.8579584834679
 20
276.5225416327933
 30
0.0
 11
324.857958483468
 21
276.5225416327934
 31
0.0
  0
ARC
  5
48F2
330
1F
100
AcDbEntity
  8
0
100
AcDbCircle
 10
316.3579584834681
 20
259.4600416327934
 30
0.0
 40
19.06249999999999
100
AcDbArc
 50
63.51896016962665
 51
116.4810398303733
  0
LINE
  5
48F3
330
1F
100
AcDbEntity
  8
AM_0
100
AcDbLine
 10
359.8579434834692
 20
513.1415407167828
 30
0.0
 11
359.8579434834692
 21
401.1415297167828
 31
0.0
  0
LINE
  5
48F4
330
1F
100
AcDbEntity
  8
0
100
AcDbLine
 10
351.7881444900642
 20
513.3597316262894
 30
0.0
 11
359.8579434834692
 21
513.6415352167828
 31
0.0
  0
LINE
  5
48F5
330
1F
100
AcDbEntity
  8
0
100
AcDbLine
 10
351.7881444900643
 20
400.9233388072763
 30
0.0
 11
359.8579434834692
 21
400.6415352167828
 31
0.0
  0
ARC
  5
48F6
330
1F
100
AcDbEntity
  8
0
100
AcDbCircle
 10
351.8579434834693
 20
402.9221204613145
 30
0.0
 40
2.0
100
AcDbArc
 50
180.0
 51
267.9999999999997
1001
GENIUS_GENODEF_13
1002
{
1000
HIER
1070
     0
1002
}
1002
{
1000
MANEDIT
1070
     0
1002
}
1002
{
1000
NOSEL
1070
     0
1002
}
1002
{
1000
BEHIND
1070
     0
1002
}
1002
{
1000
OTHER
1070
     0
1002
}
1002
{
1000
REACTOR
1002
}
1001
GENIUS_GENOBJ-N-FIL_13
1002
{
1000
OWNER
1000
GEN
1002
}
  0
LINE
  5
48F7
330
1F
100
AcDbEntity
  8
0
100
AcDbLine
 10
359.8579434834692
 20
513.6415352167828
 30
0.0
 11
359.8579434834692
 21
400.6415352167828
 31
0.0
  0
LINE
  5
48F8
330
1F
100
AcDbEntity
  8
0
100
AcDbLine
 10
355.8579434834692
 20
400.7812182947498
 30
0.0
 11
355.8579434834692
 21
400.6415352167828
 31
0.0
  0
LINE
  5
48F9
330
1F
100
AcDbEntity
  8
0
100
AcDbLine
 10
349.8579434834692
 20
511.3609499722512
 30
0.0
 11
349.8579434834693
 21
402.9221204613145
 31
0.0
  0
ARC
  5
48FA
330
1F
100
AcDbEntity
  8
0
100
AcDbCircle
 10
351.8579434834692
 20
511.3609499722512
 30
0.0
 40
2.0
100
AcDbArc
 50
92.00000000000034
 51
180.0
1001
GENIUS_GENOBJ-N-FIL_13
1002
{
1000
OWNER
1000
GEN
1002
}
1001
GENIUS_GENODEF_13
1002
{
1000
HIER
1070
     0
1002
}
1002
{
1000
MANEDIT
1070
     0
1002
}
1002
{
1000
NOSEL
1070
     0
1002
}
1002
{
1000
BEHIND
1070
     0
1002
}
1002
{
1000
OTHER
1070
     0
1002
}
1002
{
1000
REACTOR
1002
}
  0
ARC
  5
48FB
330
1F
100
AcDbEntity
  8
0
100
AcDbCircle
 10
344.8579434834678
 20
509.2125835286483
 30
0.0
 40
5.0
100
AcDbArc
 50
315.0
 51
0.0
1001
GENIUS_GENOBJ-N-FIL_13
1002
{
1000
OWNER
1000
GEN
1002
}
1001
GENIUS_GENODEF_13
1002
{
1000
HIER
1070
     0
1002
}
1002
{
1000
MANEDIT
1070
     0
1002
}
1002
{
1000
NOSEL
1070
     0
1002
}
1002
{
1000
BEHIND
1070
     0
1002
}
1002
{
1000
OTHER
1070
     0
1002
}
1002
{
1000
REACTOR
1002
}
  0
LINE
  5
48FC
330
1F
100
AcDbEntity
  8
0
100
AcDbLine
 10
332.4989870310674
 20
489.7825592643823
 30
0.0
 11
348.3934773894006
 21
505.6770496227157
 31
0.0
  0
ARC
  5
48FD
330
1F
100
AcDbEntity
  8
0
100
AcDbCircle
 10
328.9634531251346
 20
493.3180931703149
 30
0.0
 40
5.0
100
AcDbArc
 50
272.0000000000004
 51
315.0
1001
GENIUS_GENOBJ-N-FIL_13
1002
{
1000
OWNER
1000
GEN
1002
}
1001
GENIUS_GENODEF_13
1002
{
1000
HIER
1070
     0
1002
}
1002
{
1000
MANEDIT
1070
     0
1002
}
1002
{
1000
NOSEL
1070
     0
1002
}
1002
{
1000
BEHIND
1070
     0
1002
}
1002
{
1000
OTHER
1070
     0
1002
}
1002
{
1000
REACTOR
1002
}
  0
LINE
  5
48FE
330
1F
100
AcDbEntity
  8
0
100
AcDbLine
 10
295.3579584834679
 20
487.1415157167827
 30
0.0
 11
295.3579584834679
 21
427.1415157167828
 31
0.0
  0
LINE
  5
48FF
330
1F
100
AcDbEntity
  8
0
100
AcDbLine
 10
333.1784267812633
 20
488.4622355722804
 30
0.0
 11
295.3579584834679
 21
487.1415157167827
 31
0.0
  0
ARC
  5
4900
330
1F
100
AcDbEntity
  8
0
100
AcDbCircle
 10
344.8579434834678
 20
405.0704479049174
 30
0.0
 40
5.0
100
AcDbArc
 50
0.0
 51
45.0
1001
GENIUS_GENOBJ-N-FIL_13
1002
{
1000
OWNER
1000
GEN
1002
}
1001
GENIUS_GENODEF_13
1002
{
1000
HIER
1070
     0
1002
}
1002
{
1000
MANEDIT
1070
     0
1002
}
1002
{
1000
NOSEL
1070
     0
1002
}
1002
{
1000
BEHIND
1070
     0
1002
}
1002
{
1000
OTHER
1070
     0
1002
}
1002
{
1000
REACTOR
1002
}
  0
LINE
  5
4901
330
1F
100
AcDbEntity
  8
0
100
AcDbLine
 10
332.4989870310674
 20
424.5004721691834
 30
0.0
 11
348.3934773894006
 21
408.60598181085
 31
0.0
  0
ARC
  5
4902
330
1F
100
AcDbEntity
  8
0
100
AcDbCircle
 10
328.9634531251346
 20
420.9649382632506
 30
0.0
 40
5.0
100
AcDbArc
 50
45.0
 51
87.99999999999965
1001
GENIUS_GENOBJ-N-FIL_13
1002
{
1000
OWNER
1000
GEN
1002
}
1001
GENIUS_GENODEF_13
1002
{
1000
HIER
1070
     0
1002
}
1002
{
1000
MANEDIT
1070
     0
1002
}
1002
{
1000
NOSEL
1070
     0
1002
}
1002
{
1000
BEHIND
1070
     0
1002
}
1002
{
1000
OTHER
1070
     0
1002
}
1002
{
1000
REACTOR
1002
}
  0
LINE
  5
4903
330
1F
100
AcDbEntity
  8
0
100
AcDbLine
 10
333.1784267812633
 20
425.8207958612852
 30
0.0
 11
295.3579584834679
 21
427.1415157167829
 31
0.0
  0
ARC
  5
4904
330
1F
100
AcDbEntity
  8
図面枠-ｷｲﾛ
100
AcDbCircle
 10
409.4010648213584
 20
457.1415157167828
 30
0.0
 40
75.47521558726231
100
AcDbArc
 50
160.9069053726745
 51
199.0930946273255
  0
ARC
  5
4905
330
1F
100
AcDbEntity
  8
図面枠-ｷｲﾛ
100
AcDbCircle
 10
333.352924264776
 20
430.8177499963807
 30
0.0
 40
5.0
100
AcDbArc
 50
267.9999999999997
 51
19.09309462732549
1001
GENIUS_GENOBJ-N-FIL_13
1002
{
1000
OWNER
1000
GEN
1002
}
1001
GENIUS_GENODEF_13
1002
{
1000
HIER
1070
     0
1002
}
1002
{
1000
MANEDIT
1070
     0
1002
}
1002
{
1000
NOSEL
1070
     0
1002
}
1002
{
1000
BEHIND
1070
     0
1002
}
1002
{
1000
OTHER
1070
     0
1002
}
1002
{
1000
REACTOR
1002
}
  0
ARC
  5
4906
330
1F
100
AcDbEntity
  8
図面枠-ｷｲﾛ
100
AcDbCircle
 10
333.352924264776
 20
483.4652814371849
 30
0.0
 40
5.0
100
AcDbArc
 50
340.9069053726745
 51
92.00000000000034
1001
GENIUS_GENODEF_13
1002
{
1000
HIER
1070
     0
1002
}
1002
{
1000
MANEDIT
1070
     0
1002
}
1002
{
1000
NOSEL
1070
     0
1002
}
1002
{
1000
BEHIND
1070
     0
1002
}
1002
{
1000
OTHER
1070
     0
1002
}
1002
{
1000
REACTOR
1002
}
1001
GENIUS_GENOBJ-N-FIL_13
1002
{
1000
OWNER
1000
GEN
1002
}
  0
LINE
  5
4907
330
1F
100
AcDbEntity
  8
AM_0
100
AcDbLine
 10
359.8579434834692
 20
503.1415207167829
 30
0.0
 11
349.8579434834692
 21
503.1415207167829
 31
0.0
  0
LINE
  5
4908
330
1F
100
AcDbEntity
  8
AM_0
100
AcDbLine
 10
359.8579434834692
 20
489.0789547167829
 30
0.0
 11
349.8579434834692
 21
489.0789547167829
 31
0.0
  0
LINE
  5
4909
330
1F
100
AcDbEntity
  8
AM_0
100
AcDbLine
 10
359.8579434834692
 20
425.2040767167828
 30
0.0
 11
349.8579434834692
 21
425.2040767167829
 31
0.0
  0
LINE
  5
490A
330
1F
100
AcDbEntity
  8
AM_0
100
AcDbLine
 10
359.8579434834692
 20
411.1415137167829
 30
0.0
 11
349.8579434834692
 21
411.1415137167829
 31
0.0
  0
ENDSEC
  0
SECTION
  2
OBJECTS
  0
DICTIONARY
  5
C
330
0
100
AcDbDictionary
281
     1
  3
ACAD_COLOR
350
2196
  3
ACAD_GROUP
350
D
  3
ACAD_LAYOUT
350
1A
  3
ACAD_MATERIAL
350
2195
  3
ACAD_MLINESTYLE
350
17
  3
ACAD_PLOTSETTINGS
350
19
  3
ACAD_PLOTSTYLENAME
350
E
  3
ACAD_TABLESTYLE
350
2197
  3
AcadDim
350
14B1
  3
ACDBHEADERROUNDTRIPXREC
350
499C
  3
AcDbVariableDictionary
350
34
  3
AcmDictionary
350
47
  3
AMG
350
2B
  3
AMGSNAPSETTINGS
350
81
  3
ASE_INDEX_DICTIONARY
350
2D7B
  3
DWGPROPS
350
499B
  0
DICTIONARY
  5
2D9C
330
2
100
AcDbDictionary
280
     1
281
     1
  3
ACAD_LAYERSTATES
360
2D9D
  0
DICTIONARY
  5
CC
330
1F
100
AcDbDictionary
280
     1
281
     1
  3
ACAD_SORTENTS
360
2D4D
  0
DICTIONARY
  5
2196
102
{ACAD_REACTORS
330
C
102
}
330
C
100
AcDbDictionary
281
     1
  0
DICTIONARY
  5
D
102
{ACAD_REACTORS
330
C
102
}
330
C
100
AcDbDictionary
281
     1
  0
DICTIONARY
  5
1A
102
{ACAD_REACTORS
330
C
102
}
330
C
100
AcDbDictionary
281
     1
  3
Model
350
22
  3
ﾚｲｱｳﾄ1
350
1E
  3
ﾚｲｱｳﾄ2
350
26
  0
DICTIONARY
  5
2195
102
{ACAD_REACTORS
330
C
102
}
330
C
100
AcDbDictionary
281
     1
  0
DICTIONARY
  5
17
102
{ACAD_REACTORS
330
C
102
}
330
C
100
AcDbDictionary
281
     1
  3
Standard
350
18
  0
DICTIONARY
  5
19
102
{ACAD_REACTORS
330
C
102
}
330
C
100
AcDbDictionary
281
     1
  3
A1
350
7A0
  3
A2
350
7A1
  3
A3外形図
350
7A2
  3
A3部品図
350
7A3
  3
A4外形図
350
7A4
  3
A4製造仕様書
350
7A5
  3
A4部品図
350
7A6
  0
ACDBDICTIONARYWDFLT
  5
E
102
{ACAD_REACTORS
330
C
102
}
330
C
100
AcDbDictionary
281
     1
  3
Normal
350
F
100
AcDbDictionaryWithDefault
340
F
  0
DICTIONARY
  5
2197
102
{ACAD_REACTORS
330
C
102
}
330
C
100
AcDbDictionary
281
     1
  3
Standard
350
2198
  0
XRECORD
  5
14B1
102
{ACAD_REACTORS
330
C
102
}
330
C
100
AcDbXrecord
280
     1
 90
   990106
  3

 60
     0
 61
     0
 62
     4
 63
     4
 64
     1
 65
     0
 66
     0
 67
     3
 68
     1
 69
     0
 70
     0
 71
     0
 72
     0
 40
0.0
170
     0
  0
DICTIONARY
  5
499C
102
{ACAD_REACTORS
330
C
102
}
330
C
100
AcDbDictionary
281
     1
  0
DICTIONARY
  5
34
102
{ACAD_REACTORS
330
C
102
}
330
C
100
AcDbDictionary
281
     1
  3
CTABLESTYLE
350
22C6
  3
DIMASSOC
350
4549
  3
INDEXCTL
350
35
  3
PROJECTNAME
350
454A
  0
DICTIONARY
  5
47
102
{ACAD_REACTORS
330
C
102
}
330
C
100
AcDbDictionary
281
     1
  3
AcmStdDictionary
350
4C
  3
AMDTSECTSYM_ARROWCOLOR
350
21A4
  0
DICTIONARY
  5
2B
102
{ACAD_REACTORS
330
C
102
}
330
C
100
AcDbDictionary
281
     1
  0
DICTIONARY
  5
81
102
{ACAD_REACTORS
330
C
102
}
330
C
100
AcDbDictionary
281
     1
  0
DICTIONARY
  5
2D7B
102
{ACAD_REACTORS
330
C
102
}
330
C
100
AcDbDictionary
281
     1
  3
ASEBlockHierarchyIndexRecord
350
2D7C
1001
DCO15
1040
1618997489.555
  0
XRECORD
  5
499B
102
{ACAD_REACTORS
330
C
102
}
330
C
100
AcDbXrecord
280
     1
  1
DWGPROPS COOKIE
  2

  3

  4

  6

  7

  8
ISHIGURE
  9

300
AmdtFileType=84
301
=
302
=
303
=
304
=
305
=
306
=
307
=
308
=
309
=
 40
0.5327078587962964
 41
2452065.605619213
 42
2454770.740872084
  1

 90
        1
  0
DICTIONARY
  5
2D9D
102
{ACAD_REACTORS
330
2D9C
102
}
330
2D9C
100
AcDbDictionary
281
     1
  0
SORTENTSTABLE
  5
2D4D
102
{ACAD_REACTORS
330
CC
102
}
330
CC
100
AcDbSortentsTable
330
1F
331
3278
  5
3278
331
32E6
  5
32E6
331
32C1
  5
32C1
331
3327
  5
3327
331
3247
  5
3247
331
327D
  5
327D
331
3323
  5
3323
331
32C6
  5
32C6
331
324B
  5
324B
331
3243
  5
3243
331
3279
  5
3279
331
32E7
  5
32E7
331
32C2
  5
32C2
331
32BE
  5
32BE
331
3324
  5
3324
331
32C7
  5
32C7
331
3328
  5
3328
331
3244
  5
3244
331
327A
  5
327A
331
32C3
  5
32C3
331
3248
  5
3248
331
32BF
  5
32BF
331
3325
  5
3325
331
3245
  5
3245
331
32C4
  5
32C4
331
3249
  5
3249
331
3277
  5
3277
331
32E5
  5
32E5
331
32C0
  5
32C0
331
3326
  5
3326
331
3246
  5
3246
331
327C
  5
327C
331
32C5
  5
32C5
331
3267
  5
3267
  0
LAYOUT
  5
22
102
{ACAD_XDICTIONARY
360
499F
102
}
102
{ACAD_REACTORS
330
1A
102
}
330
1A
100
AcDbPlotSettings
  1

  2
\\XSERIES235\Canon LASER SHOT LBP-910
  4
A4
  6
AM_VIEW1
 40
5.873749732971191
 41
5.873747825622557
 42
5.873748779296875
 43
5.873748779296875
 44
209.9733276367186
 45
296.9259948730469
 46
0.0
 47
0.34
 48
0.0
 49
0.0
140
0.0
141
0.0
142
1.0
143
3.0
 70
 11936
 72
     1
 73
     1
 74
     2
  7
acad1.ctb
 75
     0
147
0.3341282932256912
148
0.0
149
0.0
100
AcDbLayout
  1
Model
 70
     1
 71
     0
 10
0.0
 20
0.0
 11
12.0
 21
9.0
 12
0.0
 22
0.0
 32
0.0
 14
0.0
 24
0.0
 34
0.0
 15
0.0
 25
0.0
 35
0.0
146
0.0
 13
0.0
 23
0.0
 33
0.0
 16
1.0
 26
0.0
 36
0.0
 17
0.0
 27
1.0
 37
0.0
 76
     0
330
1F
1001
ACAD_PSEXT
1000
\\XSERIES235\Canon LASER SHOT LBP-910
1000
Canon LASER SHOT LBP-910
1000
\\XSERIES235
1000

1070
     0
  0
LAYOUT
  5
1E
102
{ACAD_XDICTIONARY
360
499D
102
}
102
{ACAD_REACTORS
330
1A
102
}
330
1A
100
AcDbPlotSettings
  1

  2
\\FHKSV01\RICOH imagio MF2700(FAX)
  4

  6

 40
0.0
 41
0.0
 42
0.0
 43
0.0
 44
0.0
 45
0.0
 46
0.0
 47
0.0
 48
0.0
 49
0.0
140
0.0
141
0.0
142
1.0
143
1.0
 70
   688
 72
     0
 73
     0
 74
     5
  7
acad1.ctb
 75
    16
147
1.0
148
0.0
149
0.0
100
AcDbLayout
  1
ﾚｲｱｳﾄ1
 70
     1
 71
     1
 10
0.0
 20
0.0
 11
420.0
 21
297.0
 12
0.0
 22
0.0
 32
0.0
 14
1.000000000000000E+20
 24
1.000000000000000E+20
 34
1.000000000000000E+20
 15
-1.000000000000000E+20
 25
-1.000000000000000E+20
 35
-1.000000000000000E+20
146
0.0
 13
0.0
 23
0.0
 33
0.0
 16
1.0
 26
0.0
 36
0.0
 17
0.0
 27
1.0
 37
0.0
 76
     0
330
1B
  0
LAYOUT
  5
26
102
{ACAD_XDICTIONARY
360
49A1
102
}
102
{ACAD_REACTORS
330
1A
102
}
330
1A
100
AcDbPlotSettings
  1

  2
\\FHKSV01\RICOH imagio MF2700(FAX)
  4

  6

 40
0.0
 41
0.0
 42
0.0
 43
0.0
 44
0.0
 45
0.0
 46
0.0
 47
0.0
 48
0.0
 49
0.0
140
0.0
141
0.0
142
1.0
143
1.0
 70
   688
 72
     0
 73
     0
 74
     5
  7
acad1.ctb
 75
    16
147
1.0
148
0.0
149
0.0
100
AcDbLayout
  1
ﾚｲｱｳﾄ2
 70
     1
 71
     2
 10
0.0
 20
0.0
 11
12.0
 21
9.0
 12
0.0
 22
0.0
 32
0.0
 14
0.0
 24
0.0
 34
0.0
 15
0.0
 25
0.0
 35
0.0
146
0.0
 13
0.0
 23
0.0
 33
0.0
 16
1.0
 26
0.0
 36
0.0
 17
0.0
 27
1.0
 37
0.0
 76
     0
330
23
  0
MLINESTYLE
  5
18
102
{ACAD_REACTORS
330
17
102
}
330
17
100
AcDbMlineStyle
  2
STANDARD
 70
     0
  3

 62
   256
 51
90.0
 52
90.0
 71
     2
 49
0.5
 62
   256
  6
BYLAYER
 49
-0.5
 62
   256
  6
BYLAYER
  0
PLOTSETTINGS
  5
7A0
102
{ACAD_XDICTIONARY
360
49A3
102
}
102
{ACAD_REACTORS
330
19
102
}
330
19
100
AcDbPlotSettings
  1
A1
  2
\\NETFINITY_5500\HP DesignJet 750C+ (D/A1) by HP)
  4
User267
  6

 40
17.76941680908203
 41
5.789102554321289
 42
17.7694091796875
 43
5.7890625
 44
840.9093017578125
 45
593.97900390625
 46
2.0
 47
13.0
 48
0.0
 49
0.0
140
0.0
141
0.0
142
1.0
143
1.0
 70
  1712
 72
     1
 73
     0
 74
     1
  7
acad.ctb
 75
    16
147
1.0
148
0.0100416569983963
149
0.0078848243487073
  0
PLOTSETTINGS
  5
7A1
102
{ACAD_XDICTIONARY
360
49A5
102
}
102
{ACAD_REACTORS
330
19
102
}
330
19
100
AcDbPlotSettings
  1
A2
  2
\\NETFINITY_5500\HP DesignJet 750C+ (D/A1) by HP)
  4
User266
  6

 40
5.78908348083496
 41
17.76940155029297
 42
5.78912353515625
 43
17.7694091796875
 44
593.97900390625
 45
419.9466552734373
 46
12.0
 47
0.0
 48
0.0
 49
0.0
140
0.0
141
0.0
142
1.0
143
1.0
 70
  1712
 72
     1
 73
     0
 74
     1
  7
acad.ctb
 75
    16
147
1.0
148
0.0100416569983963
149
0.0078848243487073
  0
PLOTSETTINGS
  5
7A2
102
{ACAD_XDICTIONARY
360
49A7
102
}
102
{ACAD_REACTORS
330
19
102
}
330
19
100
AcDbPlotSettings
  1
A3外形図
  2
\\NETFINITY_5500\Canon LASER SHOT LBP-910
  4
A3
  6

 40
5.873749732971191
 41
5.873747825622557
 42
5.873748779296875
 43
5.873748779296875
 44
296.9259948730469
 45
419.9466552734373
 46
0.0
 47
15.0
 48
0.0
 49
0.0
140
0.0
141
0.0
142
1.0
143
1.0
 70
  1712
 72
     1
 73
     1
 74
     1
  7
acad1.ctb
 75
    16
147
1.0
148
0.0024839861629289
149
0.0093761313144114
  0
PLOTSETTINGS
  5
7A3
102
{ACAD_XDICTIONARY
360
49A9
102
}
102
{ACAD_REACTORS
330
19
102
}
330
19
100
AcDbPlotSettings
  1
A3部品図
  2
\\NETFINITY_5500\Canon LASER SHOT LBP-910
  4
A3
  6

 40
5.873749732971191
 41
5.873747825622557
 42
5.873748779296875
 43
5.873748779296875
 44
296.9259948730469
 45
419.9466552734373
 46
0.0
 47
0.0
 48
0.0
 49
0.0
140
0.0
141
0.0
142
1.0
143
1.0
 70
  1712
 72
     1
 73
     1
 74
     1
  7
acad1.ctb
 75
    16
147
1.0
148
0.0024839861629289
149
0.0093761313144114
  0
PLOTSETTINGS
  5
7A4
102
{ACAD_XDICTIONARY
360
49AB
102
}
102
{ACAD_REACTORS
330
19
102
}
330
19
100
AcDbPlotSettings
  1
A4外形図
  2
\\NETFINITY_5500\Canon LASER SHOT LBP-910
  4
A4
  6

 40
5.873749732971191
 41
5.873747825622557
 42
5.873748779296875
 43
5.873748779296875
 44
209.9733276367186
 45
296.9259948730469
 46
0.0
 47
0.0
 48
0.0
 49
0.0
140
0.0
141
0.0
142
1.0
143
1.0
 70
  1712
 72
     1
 73
     1
 74
     1
  7
acad1.ctb
 75
    16
147
1.0
148
0.0115486965655691
149
0.0124955963574962
  0
PLOTSETTINGS
  5
7A5
102
{ACAD_XDICTIONARY
360
49AD
102
}
102
{ACAD_REACTORS
330
19
102
}
330
19
100
AcDbPlotSettings
  1
A4製造仕様書
  2
\\NETFINITY_5500\Canon LASER SHOT LBP-910
  4
A4
  6

 40
5.873749732971191
 41
5.873747825622557
 42
5.873748779296875
 43
5.873748779296875
 44
209.9733276367186
 45
296.9259948730469
 46
15.0
 47
0.0
 48
0.0
 49
0.0
140
0.0
141
0.0
142
1.0
143
1.0
 70
  1712
 72
     1
 73
     0
 74
     1
  7
acad1.ctb
 75
    16
147
1.0
148
0.0115486965655691
149
7.86079562315183
  0
PLOTSETTINGS
  5
7A6
102
{ACAD_XDICTIONARY
360
49AF
102
}
102
{ACAD_REACTORS
330
19
102
}
330
19
100
AcDbPlotSettings
  1
A4部品図
  2
\\NETFINITY_5500\Canon LASER SHOT LBP-910
  4
A4
  6

 40
5.873749732971191
 41
5.873747825622557
 42
5.873748779296875
 43
5.873748779296875
 44
209.9733276367186
 45
296.9259948730469
 46
0.0
 47
0.0
 48
0.0
 49
0.0
140
0.0
141
0.0
142
1.0
143
1.0
 70
  1712
 72
     1
 73
     0
 74
     1
  7
acad1.ctb
 75
    16
147
1.0
148
0.0115486965655691
149
0.0124955963574962
  0
ACDBPLACEHOLDER
  5
F
102
{ACAD_REACTORS
330
E
102
}
330
E
  0
TABLESTYLE
  5
2198
102
{ACAD_REACTORS
330
2197
102
}
330
2197
100
AcDbTableStyle
  3
Standard
 70
     0
 71
     0
 40
1.5
 41
1.5
280
     0
281
     0
  7
STANDARD
140
4.5
170
     2
 62
     0
 63
     7
283
     0
274
    -2
284
     1
 64
     0
275
    -2
285
     1
 65
     0
276
    -2
286
     1
 66
     0
277
    -2
287
     1
 67
     0
278
    -2
288
     1
 68
     0
279
    -2
289
     1
 69
     0
  7
STANDARD
140
6.0
170
     5
 62
     0
 63
     7
283
     0
274
    -2
284
     1
 64
     0
275
    -2
285
     1
 65
     0
276
    -2
286
     1
 66
     0
277
    -2
287
     1
 67
     0
278
    -2
288
     1
 68
     0
279
    -2
289
     1
 69
     0
  7
STANDARD
140
4.5
170
     5
 62
     0
 63
     7
283
     0
274
    -2
284
     1
 64
     0
275
    -2
285
     1
 65
     0
276
    -2
286
     1
 66
     0
277
    -2
287
     1
 67
     0
278
    -2
288
     1
 68
     0
279
    -2
289
     1
 69
     0
  0
DICTIONARYVAR
  5
22C6
102
{ACAD_REACTORS
330
34
102
}
330
34
100
DictionaryVariables
280
     0
  1
STANDARD
  0
DICTIONARYVAR
  5
4549
102
{ACAD_REACTORS
330
34
102
}
330
34
100
DictionaryVariables
280
     0
  1
1
  0
DICTIONARYVAR
  5
35
102
{ACAD_REACTORS
330
34
102
}
330
34
100
DictionaryVariables
280
     0
  1
0
  0
DICTIONARYVAR
  5
454A
102
{ACAD_REACTORS
330
34
102
}
330
34
100
DictionaryVariables
280
     0
  1

  0
DICTIONARY
  5
4C
102
{ACAD_REACTORS
330
47
102
}
330
47
100
AcDbDictionary
281
     1
  0
XRECORD
  5
21A4
102
{ACAD_REACTORS
330
47
102
}
330
47
100
AcDbXrecord
280
     1
 90
-1023410169
  0
XRECORD
  5
2D7C
102
{ACAD_REACTORS
330
2D7B
102
}
330
2D7B
100
AcDbXrecord
280
     1
330
0
330
0
330
0
330
0
330
0
330
0
330
0
330
0
330
0
330
0
330
0
330
0
330
0
330
0
330
0
330
0
330
0
330
0
330
0
330
0
330
0
330
0
330
0
330
0
330
0
330
0
330
0
330
0
330
0
330
0
330
0
330
0
330
0
330
0
330
0
330
0
330
0
330
0
330
0
330
0
330
0
330
0
330
0
330
0
330
0
330
0
330
0
330
0
330
0
330
0
330
0
330
0
330
0
330
0
330
0
330
0
330
0
330
0
330
0
330
0
  0
DICTIONARY
  5
499F
330
22
100
AcDbDictionary
280
     1
281
     1
  3
ACAD_XREC_ROUNDTRIP
360
49A0
  0
DICTIONARY
  5
499D
330
1E
100
AcDbDictionary
280
     1
281
     1
  3
ACAD_XREC_ROUNDTRIP
360
499E
  0
DICTIONARY
  5
49A1
330
26
100
AcDbDictionary
280
     1
281
     1
  3
ACAD_XREC_ROUNDTRIP
360
49A2
  0
DICTIONARY
  5
49A3
330
7A0
100
AcDbDictionary
280
     1
281
     1
  3
ACAD_XREC_ROUNDTRIP
360
49A4
  0
DICTIONARY
  5
49A5
330
7A1
100
AcDbDictionary
280
     1
281
     1
  3
ACAD_XREC_ROUNDTRIP
360
49A6
  0
DICTIONARY
  5
49A7
330
7A2
100
AcDbDictionary
280
     1
281
     1
  3
ACAD_XREC_ROUNDTRIP
360
49A8
  0
DICTIONARY
  5
49A9
330
7A3
100
AcDbDictionary
280
     1
281
     1
  3
ACAD_XREC_ROUNDTRIP
360
49AA
  0
DICTIONARY
  5
49AB
330
7A4
100
AcDbDictionary
280
     1
281
     1
  3
ACAD_XREC_ROUNDTRIP
360
49AC
  0
DICTIONARY
  5
49AD
330
7A5
100
AcDbDictionary
280
     1
281
     1
  3
ACAD_XREC_ROUNDTRIP
360
49AE
  0
DICTIONARY
  5
49AF
330
7A6
100
AcDbDictionary
280
     1
281
     1
  3
ACAD_XREC_ROUNDTRIP
360
49B0
  0
XRECORD
  5
49A0
102
{ACAD_REACTORS
330
499F
102
}
330
499F
100
AcDbXrecord
280
     1
102
SHADEPLOT
 70
     0
102
SHADEPLOTRESLEVEL
 70
     2
102
SHADEPLOTCUSTOMDPI
 70
   300
  0
XRECORD
  5
499E
102
{ACAD_REACTORS
330
499D
102
}
330
499D
100
AcDbXrecord
280
     1
102
SHADEPLOT
 70
     0
102
SHADEPLOTRESLEVEL
 70
     2
102
SHADEPLOTCUSTOMDPI
 70
   300
  0
XRECORD
  5
49A2
102
{ACAD_REACTORS
330
49A1
102
}
330
49A1
100
AcDbXrecord
280
     1
102
SHADEPLOT
 70
     0
102
SHADEPLOTRESLEVEL
 70
     2
102
SHADEPLOTCUSTOMDPI
 70
   300
  0
XRECORD
  5
49A4
102
{ACAD_REACTORS
330
49A3
102
}
330
49A3
100
AcDbXrecord
280
     1
102
SHADEPLOT
 70
     0
102
SHADEPLOTRESLEVEL
 70
     2
102
SHADEPLOTCUSTOMDPI
 70
   300
  0
XRECORD
  5
49A6
102
{ACAD_REACTORS
330
49A5
102
}
330
49A5
100
AcDbXrecord
280
     1
102
SHADEPLOT
 70
     0
102
SHADEPLOTRESLEVEL
 70
     2
102
SHADEPLOTCUSTOMDPI
 70
   300
  0
XRECORD
  5
49A8
102
{ACAD_REACTORS
330
49A7
102
}
330
49A7
100
AcDbXrecord
280
     1
102
SHADEPLOT
 70
     0
102
SHADEPLOTRESLEVEL
 70
     2
102
SHADEPLOTCUSTOMDPI
 70
   300
  0
XRECORD
  5
49AA
102
{ACAD_REACTORS
330
49A9
102
}
330
49A9
100
AcDbXrecord
280
     1
102
SHADEPLOT
 70
     0
102
SHADEPLOTRESLEVEL
 70
     2
102
SHADEPLOTCUSTOMDPI
 70
   300
  0
XRECORD
  5
49AC
102
{ACAD_REACTORS
330
49AB
102
}
330
49AB
100
AcDbXrecord
280
     1
102
SHADEPLOT
 70
     0
102
SHADEPLOTRESLEVEL
 70
     2
102
SHADEPLOTCUSTOMDPI
 70
   300
  0
XRECORD
  5
49AE
102
{ACAD_REACTORS
330
49AD
102
}
330
49AD
100
AcDbXrecord
280
     1
102
SHADEPLOT
 70
     0
102
SHADEPLOTRESLEVEL
 70
     2
102
SHADEPLOTCUSTOMDPI
 70
   300
  0
XRECORD
  5
49B0
102
{ACAD_REACTORS
330
49AF
102
}
330
49AF
100
AcDbXrecord
280
     1
102
SHADEPLOT
 70
     0
102
SHADEPLOTRESLEVEL
 70
     2
102
SHADEPLOTCUSTOMDPI
 70
   300
  0
ENDSEC
  0
EOF
