  0
SECTION
  2
HEADER
  9
$ACADVER
  1
AC1015
  9
$ACADMAINTVER
 70
    20
  9
$DWGCODEPAGE
  3
ANSI_932
  9
$INSBASE
 10
0.0
 20
0.0
 30
0.0
  9
$EXTMIN
 10
320.2838997599713
 20
166.2222304896245
 30
-0.0000000000000129
  9
$EXTMAX
 10
756.3065433169327
 20
507.2115338293504
 30
0.0000000000000023
  9
$LIMMIN
 10
0.0
 20
0.0
  9
$LIMMAX
 10
853.5
 20
555.0000000000001
  9
$ORTHOMODE
 70
     1
  9
$REGENMODE
 70
     1
  9
$FILLMODE
 70
     1
  9
$QTEXTMODE
 70
     0
  9
$MIRRTEXT
 70
     1
  9
$LTSCALE
 40
3.0
  9
$ATTMODE
 70
     1
  9
$TEXTSIZE
 40
2.5
  9
$TRACEWID
 40
1.0
  9
$TEXTSTYLE
  7
STANDARD
  9
$CLAYER
  8
AM_0
  9
$CELTYPE
  6
ByLayer
  9
$CECOLOR
 62
   256
  9
$CELTSCALE
 40
1.0
  9
$DISPSILH
 70
     0
  9
$DIMSCALE
 40
3.0
  9
$DIMASZ
 40
2.5
  9
$DIMEXO
 40
1.0
  9
$DIMDLI
 40
8.0
  9
$DIMRND
 40
0.0
  9
$DIMDLE
 40
0.0
  9
$DIMEXE
 40
0.6
  9
$DIMTP
 40
0.1
  9
$DIMTM
 40
0.1
  9
$DIMTXT
 40
2.5
  9
$DIMCEN
 40
0.0
  9
$DIMTSZ
 40
0.0
  9
$DIMTOL
 70
     0
  9
$DIMLIM
 70
     0
  9
$DIMTIH
 70
     0
  9
$DIMTOH
 70
     0
  9
$DIMSE1
 70
     0
  9
$DIMSE2
 70
     0
  9
$DIMTAD
 70
     1
  9
$DIMZIN
 70
     8
  9
$DIMBLK
  1

  9
$DIMASO
 70
     1
  9
$DIMSHO
 70
     1
  9
$DIMPOST
  1

  9
$DIMAPOST
  1
"
  9
$DIMALT
 70
     0
  9
$DIMALTD
 70
     2
  9
$DIMALTF
 40
0.0393701
  9
$DIMLFAC
 40
1.0
  9
$DIMTOFL
 70
     1
  9
$DIMTVP
 40
0.0
  9
$DIMTIX
 70
     0
  9
$DIMSOXD
 70
     0
  9
$DIMSAH
 70
     0
  9
$DIMBLK1
  1

  9
$DIMBLK2
  1

  9
$DIMSTYLE
  2
AM_ISO
  9
$DIMCLRD
 70
   256
  9
$DIMCLRE
 70
   256
  9
$DIMCLRT
 70
     4
  9
$DIMTFAC
 40
0.71
  9
$DIMGAP
 40
0.8
  9
$DIMJUST
 70
     0
  9
$DIMSD1
 70
     0
  9
$DIMSD2
 70
     0
  9
$DIMTOLJ
 70
     0
  9
$DIMTZIN
 70
     8
  9
$DIMALTZ
 70
     0
  9
$DIMALTTZ
 70
     0
  9
$DIMUPT
 70
     0
  9
$DIMDEC
 70
     2
  9
$DIMTDEC
 70
     2
  9
$DIMALTU
 70
     2
  9
$DIMALTTD
 70
     2
  9
$DIMTXSTY
  7
STANDARD
  9
$DIMAUNIT
 70
     0
  9
$DIMADEC
 70
     0
  9
$DIMALTRND
 40
0.0
  9
$DIMAZIN
 70
     2
  9
$DIMDSEP
 70
    46
  9
$DIMATFIT
 70
     3
  9
$DIMFRAC
 70
     0
  9
$DIMLDRBLK
  1

  9
$DIMLUNIT
 70
     2
  9
$DIMLWD
 70
    -1
  9
$DIMLWE
 70
    -1
  9
$DIMTMOVE
 70
     0
  9
$LUNITS
 70
     2
  9
$LUPREC
 70
     2
  9
$SKETCHINC
 40
1.0
  9
$FILLETRAD
 40
2.0
  9
$AUNITS
 70
     0
  9
$AUPREC
 70
     0
  9
$MENU
  1
.
  9
$ELEVATION
 40
0.0
  9
$PELEVATION
 40
0.0
  9
$THICKNESS
 40
0.0
  9
$LIMCHECK
 70
     0
  9
$CHAMFERA
 40
6.0
  9
$CHAMFERB
 40
3.0
  9
$CHAMFERC
 40
20.0
  9
$CHAMFERD
 40
0.0
  9
$SKPOLY
 70
     0
  9
$TDCREATE
 40
2452065.605619213
  9
$TDUCREATE
 40
2452065.230619213
  9
$TDUPDATE
 40
2454770.749469919
  9
$TDUUPDATE
 40
2454770.374469919
  9
$TDINDWG
 40
0.5325608102
  9
$TDUSRTIMER
 40
0.5325602546
  9
$USRTIMER
 70
     1
  9
$ANGBASE
 50
0.0
  9
$ANGDIR
 70
     0
  9
$PDMODE
 70
     0
  9
$PDSIZE
 40
0.0
  9
$PLINEWID
 40
0.0
  9
$SPLFRAME
 70
     0
  9
$SPLINETYPE
 70
     6
  9
$SPLINESEGS
 70
     8
  9
$HANDSEED
  5
4693
  9
$SURFTAB1
 70
     6
  9
$SURFTAB2
 70
     6
  9
$SURFTYPE
 70
     6
  9
$SURFU
 70
     6
  9
$SURFV
 70
     6
  9
$UCSBASE
  2

  9
$UCSNAME
  2

  9
$UCSORG
 10
0.0
 20
0.0
 30
0.0
  9
$UCSXDIR
 10
1.0
 20
0.0
 30
0.0
  9
$UCSYDIR
 10
0.0
 20
1.0
 30
0.0
  9
$UCSORTHOREF
  2

  9
$UCSORTHOVIEW
 70
     0
  9
$UCSORGTOP
 10
0.0
 20
0.0
 30
0.0
  9
$UCSORGBOTTOM
 10
0.0
 20
0.0
 30
0.0
  9
$UCSORGLEFT
 10
0.0
 20
0.0
 30
0.0
  9
$UCSORGRIGHT
 10
0.0
 20
0.0
 30
0.0
  9
$UCSORGFRONT
 10
0.0
 20
0.0
 30
0.0
  9
$UCSORGBACK
 10
0.0
 20
0.0
 30
0.0
  9
$PUCSBASE
  2

  9
$PUCSNAME
  2

  9
$PUCSORG
 10
0.0
 20
0.0
 30
0.0
  9
$PUCSXDIR
 10
1.0
 20
0.0
 30
0.0
  9
$PUCSYDIR
 10
0.0
 20
1.0
 30
0.0
  9
$PUCSORTHOREF
  2

  9
$PUCSORTHOVIEW
 70
     0
  9
$PUCSORGTOP
 10
0.0
 20
0.0
 30
0.0
  9
$PUCSORGBOTTOM
 10
0.0
 20
0.0
 30
0.0
  9
$PUCSORGLEFT
 10
0.0
 20
0.0
 30
0.0
  9
$PUCSORGRIGHT
 10
0.0
 20
0.0
 30
0.0
  9
$PUCSORGFRONT
 10
0.0
 20
0.0
 30
0.0
  9
$PUCSORGBACK
 10
0.0
 20
0.0
 30
0.0
  9
$USERI1
 70
     0
  9
$USERI2
 70
     0
  9
$USERI3
 70
     0
  9
$USERI4
 70
     0
  9
$USERI5
 70
     0
  9
$USERR1
 40
0.0
  9
$USERR2
 40
0.0
  9
$USERR3
 40
0.0
  9
$USERR4
 40
0.0
  9
$USERR5
 40
0.0
  9
$WORLDVIEW
 70
     1
  9
$SHADEDGE
 70
     3
  9
$SHADEDIF
 70
    70
  9
$TILEMODE
 70
     1
  9
$MAXACTVP
 70
    64
  9
$PINSBASE
 10
0.0
 20
0.0
 30
0.0
  9
$PLIMCHECK
 70
     0
  9
$PEXTMIN
 10
1.000000000000000E+20
 20
1.000000000000000E+20
 30
1.000000000000000E+20
  9
$PEXTMAX
 10
-1.000000000000000E+20
 20
-1.000000000000000E+20
 30
-1.000000000000000E+20
  9
$PLIMMIN
 10
0.0
 20
0.0
  9
$PLIMMAX
 10
420.0
 20
297.0
  9
$UNITMODE
 70
     0
  9
$VISRETAIN
 70
     1
  9
$PLINEGEN
 70
     0
  9
$PSLTSCALE
 70
     1
  9
$TREEDEPTH
 70
  3020
  9
$CMLSTYLE
  2
Standard
  9
$CMLJUST
 70
     0
  9
$CMLSCALE
 40
20.0
  9
$PROXYGRAPHICS
 70
     1
  9
$MEASUREMENT
 70
     1
  9
$CELWEIGHT
370
    -1
  9
$ENDCAPS
280
     0
  9
$JOINSTYLE
280
     0
  9
$LWDISPLAY
290
     0
  9
$INSUNITS
 70
     4
  9
$HYPERLINKBASE
  1

  9
$STYLESHEET
  1
ACAD1.CTB
  9
$XEDIT
290
     1
  9
$CEPSNTYPE
380
     0
  9
$PSTYLEMODE
290
     1
  9
$FINGERPRINTGUID
  2
{91B11402-3528-11D5-BE34-000255C217F4}
  9
$VERSIONGUID
  2
{8FEB74F2-F59E-4E44-90C7-BB3C4D4855CF}
  9
$EXTNAMES
290
     1
  9
$PSVPSCALE
 40
0.0
  9
$OLESTARTUP
290
     0
  0
ENDSEC
  0
SECTION
  2
CLASSES
  0
CLASS
  1
ACDBDICTIONARYWDFLT
  2
AcDbDictionaryWithDefault
  3
ObjectDBX Classes
 90
        0
280
     0
281
     0
  0
CLASS
  1
ACDBPLACEHOLDER
  2
AcDbPlaceHolder
  3
ObjectDBX Classes
 90
        0
280
     0
281
     0
  0
CLASS
  1
LAYOUT
  2
AcDbLayout
  3
ObjectDBX Classes
 90
        0
280
     0
281
     0
  0
CLASS
  1
AMGSETTINGSOBJ
  2
AmgSettingsObj
  3
"AcadM|Product Description: AutoCAD Mechanical 2000|Company: Autodesk"
 90
        0
280
     0
281
     0
  0
CLASS
  1
ACME_DOCUMENT
  2
AcMeDbDoc
  3
AcMeServices
 90
        0
280
     0
281
     0
  0
CLASS
  1
ACMESCOPE
  2
AcMeScope
  3
AcMeServices
 90
        0
280
     0
281
     0
  0
CLASS
  1
ACMECOMMANDHISTORY
  2
AcMeCommandHistory
  3
AcMeServices
 90
        0
280
     0
281
     0
  0
CLASS
  1
DICTIONARYVAR
  2
AcDbDictionaryVar
  3
ObjectDBX Classes
 90
        0
280
     0
281
     0
  0
CLASS
  1
ACIMSYSVARMAN
  2
AcImSysVarManager
  3
AcMeServices
 90
        0
280
     0
281
     0
  0
CLASS
  1
ACIMREALSYSVAR
  2
AcImRealSysVar
  3
AcMeServices
 90
        0
280
     0
281
     0
  0
CLASS
  1
ACIMINTSYSVAR
  2
AcImIntSysVar
  3
AcMeServices
 90
        0
280
     0
281
     0
  0
CLASS
  1
ACMEDRAWINGMAN
  2
AcMeDrawingMan
  3
AcMeServices
 90
        0
280
     0
281
     0
  0
CLASS
  1
ACMEVIEW
  2
AcMeView
  3
AcMeServices
 90
        0
280
     0
281
     0
  0
CLASS
  1
ACDBENTITYCACHE
  2
AcMeEntityCache
  3
AcMeServices
 90
        0
280
     0
281
     0
  0
CLASS
  1
GSMANAGER
  2
AcMeGSManager
  3
AcMeServices
 90
        0
280
     0
281
     0
  0
CLASS
  1
AMDTINTERNALREACTOR
  2
AmdtInternalReactor
  3
AcMeServices
 90
        0
280
     0
281
     0
  0
CLASS
  1
ACMESTATEMGR
  2
AcMeStateMgr
  3
AcMeServices
 90
        0
280
     0
281
     0
  0
CLASS
  1
ACGREFMASTER
  2
AcGrefMaster
  3
AcAttribServices
 90
        0
280
     0
281
     0
  0
CLASS
  1
ACME_DATABASE
  2
AcMeDbDatabase
  3
AcMeServices
 90
        0
280
     0
281
     0
  0
CLASS
  1
ACRFINSADJUSTERMGR
  2
AcRfInsAdjusterMgr
  3
AcMeServices
 90
        0
280
     0
281
     0
  0
CLASS
  1
ACGREFACADMASTER
  2
AcGrefacadMaster
  3
AcGrefServices
 90
        0
280
     0
281
     0
  0
CLASS
  1
AMIMASTER
  2
AmiMaster
  3
AmiServices
 90
        0
280
     0
281
     0
  0
CLASS
  1
ACMDATADICTIONARY
  2
AcmDataDictionary
  3
"AcmSymBB|Product Description: AutoCAD Mechanical 2004 DX|Company: Autodesk"
 90
        0
280
     0
281
     0
  0
CLASS
  1
ACMDATAENTRYBLOCK
  2
AcmDataEntryBlock
  3
"AcmSymBB|Product Description: AutoCAD Mechanical 2004 DX|Company: Autodesk"
 90
    32768
280
     0
281
     0
  0
CLASS
  1
ACIMSTRSYSVAR
  2
AcImStrSysVar
  3
AcMeServices
 90
        0
280
     0
281
     0
  0
CLASS
  1
ACMSTANDARDISO
  2
AcmStandardISO
  3
"Amdt_StdImp|Product Description: AutoCAD Mechanical 2004 DX|Company: Autodesk"
 90
        0
280
     0
281
     0
  0
CLASS
  1
AMGOBJPROPCFG
  2
AmgObjPropCfg
  3
"AmgLay|Product Description: AutoCAD Mechanical 2000|Company: Autodesk"
 90
        1
280
     0
281
     0
  0
CLASS
  1
AMDTEDGESTANDARDISO
  2
AmdtEdgeStdISO
  3
"Amdt_StdImp|Product Description: AutoCAD Mechanical 2004 DX|Company: Autodesk"
 90
    32768
280
     0
281
     0
  0
CLASS
  1
ACMSURFSTANDARDISO
  2
AcmSurfTextStdISO
  3
"Amdt_StdImp|Product Description: AutoCAD Mechanical 2004 DX|Company: Autodesk"
 90
        0
280
     0
281
     0
  0
CLASS
  1
ACMFCFSTANDARDISO
  2
AcmFCFStdISO
  3
"Amdt_StdImp|Product Description: AutoCAD Mechanical 2004 DX|Company: Autodesk"
 90
        0
280
     0
281
     0
  0
CLASS
  1
ACMWELDSTANDARDISO
  2
AcmWeldingStdISO
  3
"Amdt_StdImp|Product Description: AutoCAD Mechanical 2004 DX|Company: Autodesk"
 90
        0
280
     0
281
     0
  0
CLASS
  1
ACMIDSTANDARDISO
  2
AcmIdStdISO
  3
"Amdt_StdImp|Product Description: AutoCAD Mechanical 2004 DX|Company: Autodesk"
 90
        0
280
     0
281
     0
  0
CLASS
  1
ACMDATUMSTANDARDISO
  2
AcmDatumStdISO
  3
"Amdt_StdImp|Product Description: AutoCAD Mechanical 2004 DX|Company: Autodesk"
 90
        0
280
     0
281
     0
  0
CLASS
  1
ACMBOMSTANDARDISO
  2
AcmBOMStdISO
  3
"Amdt_StdImp|Product Description: AutoCAD Mechanical 2004 DX|Company: Autodesk"
 90
        0
280
     0
281
     0
  0
CLASS
  1
ACMDETAILSTANDARDISO
  2
AmdtDetailSymStdISO
  3
"Amdt_StdImp|Product Description: AutoCAD Mechanical 2004 DX|Company: Autodesk"
 90
        0
280
     0
281
     0
  0
CLASS
  1
ACMSECTIONSTANDARDISO
  2
AmdtSectionSymStdISO
  3
"Amdt_StdImp|Product Description: AutoCAD Mechanical 2004 DX|Company: Autodesk"
 90
        0
280
     0
281
     0
  0
CLASS
  1
ACMCENTERLINESTANDARDISO
  2
AmdtCenterLineStdISO
  3
"Amdt_StdImp|Product Description: AutoCAD Mechanical 2004 DX|Company: Autodesk"
 90
        0
280
     0
281
     0
  0
CLASS
  1
ACAMGLAYSTD
  2
AcAmgLayStd
  3
"AcAmgLayStd|Product Description: AutoCAD Mechanical 2000|Company: Autodesk"
 90
        0
280
     0
281
     0
  0
CLASS
  1
ACAMGDIMSTD
  2
AcAmgDimStd
  3
"AcAmgDimStd|Product Description: AutoCAD Mechanical 2000|Company: Autodesk"
 90
        0
280
     0
281
     0
  0
CLASS
  1
ACAMGTITLESTD
  2
AcAmgTitleStd
  3
"TITLEAPP"
 90
        0
280
     0
281
     0
  0
CLASS
  1
ACAMGFILTERDAT
  2
AcAmgFilterDat
  3
"AcadM|Product Description: AutoCAD Mechanical 2000|Company: Autodesk"
 90
    32768
280
     0
281
     0
  0
CLASS
  1
AMDTFORMULAUPDATEDISPATCHER
  2
AmdtFormulaUpdateDispatcher
  3
AcMeServices
 90
    32768
280
     0
281
     0
  0
CLASS
  1
LAYER_INDEX
  2
AcDbLayerIndex
  3
ObjectDBX Classes
 90
    32768
280
     0
281
     0
  0
CLASS
  1
IDBUFFER
  2
AcDbIdBuffer
  3
ObjectDBX Classes
 90
    32768
280
     0
281
     0
  0
CLASS
  1
PLOTSETTINGS
  2
AcDbPlotSettings
  3
ObjectDBX Classes
 90
        0
280
     0
281
     0
  0
CLASS
  1
ACMSTANDARDANSI
  2
AcmStandardANSI
  3
"Amdt_StdImp|Product Description: AutoCAD Mechanical 2004 DX|Company: Autodesk"
 90
        0
280
     0
281
     0
  0
CLASS
  1
ACMSURFSTANDARDANSI
  2
AcmSurfTextStdANSI
  3
"Amdt_StdImp|Product Description: AutoCAD Mechanical 2004 DX|Company: Autodesk"
 90
        0
280
     0
281
     0
  0
CLASS
  1
ACMFCFSTANDARDANSI
  2
AcmFCFStdANSI
  3
"Amdt_StdImp|Product Description: AutoCAD Mechanical 2004 DX|Company: Autodesk"
 90
        0
280
     0
281
     0
  0
CLASS
  1
ACMWELDSTANDARDANSI
  2
AcmWeldingStdANSI
  3
"Amdt_StdImp|Product Description: AutoCAD Mechanical 2004 DX|Company: Autodesk"
 90
        0
280
     0
281
     0
  0
CLASS
  1
ACMIDSTANDARDANSI
  2
AcmIdStdANSI
  3
"Amdt_StdImp|Product Description: AutoCAD Mechanical 2004 DX|Company: Autodesk"
 90
        0
280
     0
281
     0
  0
CLASS
  1
ACMDATUMSTANDARDANSI
  2
AcmDatumStdANSI
  3
"Amdt_StdImp|Product Description: AutoCAD Mechanical 2004 DX|Company: Autodesk"
 90
        0
280
     0
281
     0
  0
CLASS
  1
ACMBOMSTANDARDANSI
  2
AcmBOMStdANSI
  3
"Amdt_StdImp|Product Description: AutoCAD Mechanical 2004 DX|Company: Autodesk"
 90
        0
280
     0
281
     0
  0
CLASS
  1
ACMDETAILSTANDARDANSI
  2
AmdtDetailSymStdANSI
  3
"Amdt_StdImp|Product Description: AutoCAD Mechanical 2004 DX|Company: Autodesk"
 90
        0
280
     0
281
     0
  0
CLASS
  1
ACMSECTIONSTANDARDANSI
  2
AmdtSectionSymStdANSI
  3
"Amdt_StdImp|Product Description: AutoCAD Mechanical 2004 DX|Company: Autodesk"
 90
        0
280
     0
281
     0
  0
CLASS
  1
ACMCENTERLINESTANDARDANSI
  2
AmdtCenterLineStdANSI
  3
"Amdt_StdImp|Product Description: AutoCAD Mechanical 2004 DX|Company: Autodesk"
 90
        0
280
     0
281
     0
  0
CLASS
  1
ACMSTANDARDJIS
  2
AcmStandardJIS
  3
"Amdt_StdImp|Product Description: AutoCAD Mechanical 2004 DX|Company: Autodesk"
 90
    32768
280
     0
281
     0
  0
CLASS
  1
ACMSURFSTANDARDJIS
  2
AcmSurfTextStdJIS
  3
"Amdt_StdImp|Product Description: AutoCAD Mechanical 2004 DX|Company: Autodesk"
 90
    32768
280
     0
281
     0
  0
CLASS
  1
ACMFCFSTANDARDJIS
  2
AcmFCFStdJIS
  3
"Amdt_StdImp|Product Description: AutoCAD Mechanical 2004 DX|Company: Autodesk"
 90
    32768
280
     0
281
     0
  0
CLASS
  1
ACMWELDSTANDARDJIS
  2
AcmWeldingStdJIS
  3
"Amdt_StdImp|Product Description: AutoCAD Mechanical 2004 DX|Company: Autodesk"
 90
    32768
280
     0
281
     0
  0
CLASS
  1
ACMIDSTANDARDJIS
  2
AcmIdStdJIS
  3
"Amdt_StdImp|Product Description: AutoCAD Mechanical 2004 DX|Company: Autodesk"
 90
    32768
280
     0
281
     0
  0
CLASS
  1
ACMDATUMSTANDARDJIS
  2
AcmDatumStdJIS
  3
"Amdt_StdImp|Product Description: AutoCAD Mechanical 2004 DX|Company: Autodesk"
 90
    32768
280
     0
281
     0
  0
CLASS
  1
ACMBOMSTANDARDJIS
  2
AcmBOMStdJIS
  3
"Amdt_StdImp|Product Description: AutoCAD Mechanical 2004 DX|Company: Autodesk"
 90
    32768
280
     0
281
     0
  0
CLASS
  1
ACMDETAILSTANDARDJIS
  2
AmdtDetailSymStdJIS
  3
"Amdt_StdImp|Product Description: AutoCAD Mechanical 2004 DX|Company: Autodesk"
 90
    32768
280
     0
281
     0
  0
CLASS
  1
ACMSECTIONSTANDARDJIS
  2
AmdtSectionSymStdJIS
  3
"Amdt_StdImp|Product Description: AutoCAD Mechanical 2004 DX|Company: Autodesk"
 90
    32768
280
     0
281
     0
  0
CLASS
  1
ACMCENTERLINESTANDARDJIS
  2
AmdtCenterLineStdJIS
  3
"Amdt_StdImp|Product Description: AutoCAD Mechanical 2004 DX|Company: Autodesk"
 90
    32768
280
     0
281
     0
  0
CLASS
  1
TABLESTYLE
  2
AcDbTableStyle
  3
ObjectDBX Classes
 90
     2047
280
     0
281
     0
  0
CLASS
  1
AM_DRAWING_MGR
  2
AcDmDwgMgr
  3
AcMechDwgViewMgmt
 90
        0
280
     0
281
     0
  0
CLASS
  1
AM_DWG_DOCUMENT
  2
AcDmDwgDocument
  3
AcMechDwgViewMgmt
 90
        0
280
     0
281
     0
  0
CLASS
  1
AM_DWG_SHEET
  2
AcDmSheet
  3
AcMechDwgViewMgmt
 90
        0
280
     0
281
     0
  0
CLASS
  1
AM_VIEWDIMPARMAP
  2
AcDmViewDimParMap
  3
AcMechDwgViewMgmt
 90
        0
280
     0
281
     0
  0
CLASS
  1
AM_DWGMGR_NAME
  2
AcDmDwgMgrName
  3
AcMechDwgViewMgmt
 90
        0
280
     0
281
     0
  0
CLASS
  1
AMDTMENUSTATEMGR
  2
AmdtMenuStateMgr
  3
McadcomServices
 90
        0
280
     0
281
     0
  0
CLASS
  1
AMDTMCOMMENUSTATE
  2
AmdtMcomMenuState
  3
McadcomServices
 90
        0
280
     0
281
     0
  0
CLASS
  1
MAPIAMMOUDLE
  2
MApiAmModule
  3
MApiAmServices
 90
        0
280
     0
281
     0
  0
CLASS
  1
AMDTADMENUSTATE
  2
AmdtAdMenuState
  3
DesignerServices
 90
        0
280
     0
281
     0
  0
CLASS
  1
ADAPPL
  2
AcAdAppl
  3
DesignerServices
 90
        0
280
     0
281
     0
  0
CLASS
  1
DEPMGR
  2
AcAdDepMgr
  3
DesignerServices
 90
        0
280
     0
281
     0
  0
CLASS
  1
PARAMMGR
  2
AcAdParamMgr
  3
DesignerServices
 90
        0
280
     0
281
     0
  0
CLASS
  1
PARAMSCOPE
  2
AcAdParamScope
  3
DesignerServices
 90
        0
280
     0
281
     0
  0
CLASS
  1
NAMEDAPPL
  2
AcAdNamedAppl
  3
DesignerServices
 90
        0
280
     0
281
     0
  0
CLASS
  1
AMDTDMMENUSTATE
  2
AmdtDmMenuState
  3
AcMechDwgViewMgmt
 90
        0
280
     0
281
     0
  0
CLASS
  1
AMDTAMMENUSTATE
  2
AmdtAmMenuState
  3
DesignerAssemblies
 90
        0
280
     0
281
     0
  0
CLASS
  1
ACAMPROJECT
  2
AcAmProject
  3
DesignerAssemblies
 90
        0
280
     0
281
     0
  0
CLASS
  1
ACAMGRCOMPDEF
  2
AcAmGrCompDef
  3
DesignerAssemblies
 90
        0
280
     0
281
     0
  0
CLASS
  1
ACCMCONTEXT
  2
AcCmContext
  3
DesignerAssemblies
 90
        0
280
     0
281
     0
  0
CLASS
  1
ACAMCOMPDEF
  2
AcAmCompDef
  3
DesignerAssemblies
 90
        0
280
     0
281
     0
  0
CLASS
  1
ACAMCOMPDEFMGR
  2
AcAmCompDefMgr
  3
DesignerAssemblies
 90
        0
280
     0
281
     0
  0
CLASS
  1
AMCONTEXTMGR
  2
AcAmContextMgr
  3
DesignerAssemblies
 90
        0
280
     0
281
     0
  0
CLASS
  1
ACAMCONTEXTMODELER
  2
AcAmContextModeler
  3
DesignerAssemblies
 90
        0
280
     0
281
     0
  0
CLASS
  1
ACMTHREADLINESTANDARDISO
  2
AmdtThreadLineStdISO
  3
"Amdt_StdImp|Product Description: AutoCAD Mechanical 2004 DX|Company: Autodesk"
 90
        0
280
     0
281
     0
  0
CLASS
  1
ACMNOTESTANDARDISO
  2
AmdtNoteStdISO
  3
"Amdt_StdImp|Product Description: AutoCAD Mechanical 2004 DX|Company: Autodesk"
 90
        0
280
     0
281
     0
  0
CLASS
  1
AMDTNOTETEMPLATEDB
  2
AmdtNoteTemplateDB
  3
AMDT_STDIMP_MODULE_NAME
 90
        0
280
     0
281
     0
  0
CLASS
  1
ACMTHREADLINESTANDARDANSI
  2
AmdtThreadLineStdANSI
  3
"Amdt_StdImp|Product Description: AutoCAD Mechanical 2004 DX|Company: Autodesk"
 90
        0
280
     0
281
     0
  0
CLASS
  1
ACMNOTESTANDARDANSI
  2
AmdtNoteStdANSI
  3
"Amdt_StdImp|Product Description: AutoCAD Mechanical 2004 DX|Company: Autodesk"
 90
        0
280
     0
281
     0
  0
CLASS
  1
ACMTHREADLINESTANDARDJIS
  2
AmdtThreadLineStdJIS
  3
"Amdt_StdImp|Product Description: AutoCAD Mechanical 2004 DX|Company: Autodesk"
 90
    32768
280
     0
281
     0
  0
CLASS
  1
ACMNOTESTANDARDJIS
  2
AmdtNoteStdJIS
  3
"Amdt_StdImp|Product Description: AutoCAD Mechanical 2004 DX|Company: Autodesk"
 90
    32768
280
     0
281
     0
  0
CLASS
  1
CATALOGSTATE
  2
AcAmCatalogState
  3
DesignerAssemblies
 90
        0
280
     0
281
     0
  0
CLASS
  1
ACAMGRCOMPDEFSET
  2
AcAmGrCompDefSet
  3
DesignerAssemblies
 90
        0
280
     0
281
     0
  0
CLASS
  1
AMDTBROWSERDBTAB
  2
AmdtBrowserDbTab
  3
McadcomServices
 90
        0
280
     0
281
     0
  0
CLASS
  1
CBROWSERAPPOBJECT
  2
CBrowserAppObject
  3
McadcomServices
 90
        0
280
     0
281
     0
  0
CLASS
  1
DM_PLACEHOLDER
  2
AcDmSelsetPlaceholder
  3
AcMechDwgViewMgmt
 90
        0
280
     0
281
     0
  0
CLASS
  1
DIMASSOC
  2
AcDbDimAssoc
  3
"AcDbDimAssoc|Product Desc:     AcDim ARX App For Dimension|Company:          Autodesk, Inc.|WEB Address:      www.autodesk.com"
 90
    32768
280
     0
281
     0
  0
CLASS
  1
SORTENTSTABLE
  2
AcDbSortentsTable
  3
ObjectDBX Classes
 90
        0
280
     0
281
     0
  0
CLASS
  1
STDPART2D
  2
AmgStdPart
  3
"AmgStdPart|Product Description: AutoCAD Mechanical 2000|Company: Autodesk"
 90
    33791
280
     0
281
     1
  0
CLASS
  1
AMDTNOTE
  2
AmdtNote
  3
"AcmSymBB|Product Description: AutoCAD Mechanical 2004 DX|Company: Autodesk"
 90
    33791
280
     0
281
     1
  0
CLASS
  1
ACAMSTDPCOMPDEF
  2
AcAmStdpCompDef
  3
DesignerAssemblies
 90
    32768
280
     0
281
     0
  0
CLASS
  1
ACRFATTGENMGR
  2
AcRfAttGeneralMgr
  3
AcAttribServices
 90
        0
280
     0
281
     0
  0
CLASS
  1
ACRFOBJATTMGR
  2
AcRfObjAttGroupMgr
  3
AcAttribServices
 90
    32768
280
     0
281
     0
  0
CLASS
  1
ACRFMCADAPIATTHOLDER
  2
AcRfMCADAPIAttHolder
  3
AcAttribServices
 90
    32768
280
     0
281
     0
  0
CLASS
  1
AMDTSYSATTR
  2
AmdtSystemAttribute
  3
AcAttribServices
 90
    32768
280
     0
281
     0
  0
CLASS
  1
ACAMCOMP
  2
AcAmComp
  3
DesignerAssemblies
 90
    32768
280
     0
281
     0
  0
CLASS
  1
AC_AM_STDP_VIEW_DEF
  2
AcAmStdpViewDef
  3
DesignerAssemblies
 90
    32768
280
     0
281
     0
  0
CLASS
  1
AC_AM_MVD_DEP_MGR
  2
AcAmMVDdepMgr
  3
DesignerAssemblies
 90
    32768
280
     0
281
     0
  0
CLASS
  1
AC_AM_MASTER_VIEW_DEF
  2
AcAmMasterViewDef
  3
DesignerAssemblies
 90
    32768
280
     0
281
     0
  0
CLASS
  1
AC_AM_DIRTY_NODES
  2
AcAmDirtyNodes
  3
DesignerAssemblies
 90
    32768
280
     0
281
     0
  0
CLASS
  1
AC_AM_MAPPER_CACHE
  2
AcAmMapperCache
  3
DesignerAssemblies
 90
    32768
280
     0
281
     0
  0
CLASS
  1
ACAMMVDBACKUPOBJECT
  2
AcAmMVDBackupObject
  3
DesignerAssemblies
 90
    32768
280
     0
281
     0
  0
CLASS
  1
AC_AM_COMP_VIEW_INST
  2
AcAmCompView
  3
DesignerAssemblies
 90
    32768
280
     0
281
     0
  0
CLASS
  1
AC_AM_2D_XREF_MGR
  2
AcAmXrefMgr2d
  3
DesignerAssemblies
 90
    32768
280
     0
281
     0
  0
CLASS
  1
AC_AM_HIDE_SITUATION
  2
AcAmHideSituation
  3
DesignerAssemblies
 90
    32768
280
     0
281
     0
  0
CLASS
  1
ACDBDIMENSIONRES
  2
AcDbDimensionRes
  3
"AcDbDimensionRes|Product Description: AutoCAD Mechanical 2000|Company: Autodesk"
 90
    32768
280
     0
281
     0
  0
CLASS
  1
ACMDATUMID
  2
AcmDatumId
  3
"AcmSymBB|Product Description: AutoCAD Mechanical 2004 DX|Company: Autodesk"
 90
    33791
280
     0
281
     1
  0
CLASS
  1
AMDTEDGESTANDARDISO13715
  2
AmdtEdgeStdISO13715
  3
"Amdt_StdImp|Product Description: AutoCAD Mechanical 2004 DX|Company: Autodesk"
 90
        0
280
     0
281
     0
  0
CLASS
  1
ACAMGHOLECHARTSTDISO
  2
AcAmgHoleChartStdISO
  3
ACMSYMBB_MODULE_NAME
 90
        0
280
     0
281
     0
  0
CLASS
  1
ACAMGHOLECHARTSTDANSI
  2
AcAmgHoleChartStdANSI
  3
ACMSYMBB_MODULE_NAME
 90
        0
280
     0
281
     0
  0
ENDSEC
  0
SECTION
  2
TABLES
  0
TABLE
  2
VPORT
  5
8
330
0
100
AcDbSymbolTable
 70
    37
  0
VPORT
  5
467C
330
8
100
AcDbSymbolTableRecord
100
AcDbViewportTableRecord
  2
*Active
 70
     0
 10
0.0
 20
0.0
 11
1.0
 21
1.0
 12
538.2952215384519
 22
336.7168821594875
 13
0.0
 23
0.0
 14
7.5
 24
7.5
 15
30.0
 25
30.0
 16
0.0
 26
0.0
 36
1.0
 17
0.0
 27
0.0
 37
0.0
 40
343.5023204678272
 41
1.475550122249388
 42
50.0
 43
0.0
 44
0.0
 50
0.0
 51
0.0
 71
     0
 72
   100
 73
     1
 74
     3
 75
     0
 76
     0
 77
     0
 78
     0
281
     0
 65
     0
110
0.0
120
0.0
130
0.0
111
1.0
121
0.0
131
0.0
112
0.0
122
1.0
132
0.0
 79
     0
146
0.0
  0
ENDTAB
  0
TABLE
  2
LTYPE
  5
5
330
0
100
AcDbSymbolTable
 70
    18
  0
LTYPE
  5
14
330
5
100
AcDbSymbolTableRecord
100
AcDbLinetypeTableRecord
  2
ByBlock
 70
     0
  3

 72
    65
 73
     0
 40
0.0
  0
LTYPE
  5
15
330
5
100
AcDbSymbolTableRecord
100
AcDbLinetypeTableRecord
  2
ByLayer
 70
     0
  3

 72
    65
 73
     0
 40
0.0
  0
LTYPE
  5
16
330
5
100
AcDbSymbolTableRecord
100
AcDbLinetypeTableRecord
  2
Continuous
 70
     0
  3
Solid line
 72
    65
 73
     0
 40
0.0
  0
LTYPE
  5
50
330
5
100
AcDbSymbolTableRecord
100
AcDbLinetypeTableRecord
  2
AM_ISO08W050
 70
     0
  3
____ . ____ . ____ . ____ . ____ . ____ . ____
 72
    65
 73
     4
 40
18.0
 49
12.0
 74
     0
 49
-1.5
 74
     0
 49
3.0
 74
     0
 49
-1.5
 74
     0
  0
LTYPE
  5
53
330
5
100
AcDbSymbolTableRecord
100
AcDbLinetypeTableRecord
  2
AM_ISO08W050x2
 70
     0
  3
__ . __ . __ . __ . __ . __
 72
    65
 73
     4
 40
9.0
 49
6.0
 74
     0
 49
-0.75
 74
     0
 49
1.5
 74
     0
 49
-0.75
 74
     0
  0
LTYPE
  5
6CA
330
5
100
AcDbSymbolTableRecord
100
AcDbLinetypeTableRecord
  2
GEN7
 70
     0
  3
____ . ____ . ____ . ____ . ____ . ____ . ____
 72
    65
 73
     4
 40
14.25
 49
9.75
 74
     0
 49
-1.5
 74
     0
 49
1.5
 74
     0
 49
-1.5
 74
     0
  0
LTYPE
  5
6D8
330
5
100
AcDbSymbolTableRecord
100
AcDbLinetypeTableRecord
  2
GEN7A
 70
     0
  3
__ . __ . __
 72
    65
 73
     4
 40
7.375
 49
4.75
 74
     0
 49
-0.875
 74
     0
 49
0.875
 74
     0
 49
-0.875
 74
     0
  0
ENDTAB
  0
TABLE
  2
LAYER
  5
2
102
{ACAD_XDICTIONARY
360
2D9C
102
}
330
0
100
AcDbSymbolTable
 70
     8
  0
LAYER
  5
10
330
2
100
AcDbSymbolTableRecord
100
AcDbLayerTableRecord
  2
0
 70
     0
 62
     7
  6
Continuous
370
    -3
390
F
  0
LAYER
  5
124
330
2
100
AcDbSymbolTableRecord
100
AcDbLayerTableRecord
  2
Defpoints
 70
     0
 62
     7
  6
Continuous
290
     0
370
    -3
390
F
  0
LAYER
  5
6FE
330
2
100
AcDbSymbolTableRecord
100
AcDbLayerTableRecord
  2
ﾁｭｳｼﾝｾﾝ
 70
     0
 62
     1
  6
GEN7
370
    -3
390
F
  0
LAYER
  5
6FF
330
2
100
AcDbSymbolTableRecord
100
AcDbLayerTableRecord
  2
ﾁｭｳｼﾝｾﾝ1
 70
     0
 62
     1
  6
GEN7A
370
    -3
390
F
  0
LAYER
  5
71A
330
2
100
AcDbSymbolTableRecord
100
AcDbLayerTableRecord
  2
AM_7
 70
     0
 62
     1
  6
AM_ISO08W050
370
    25
390
F
  0
LAYER
  5
71D
330
2
100
AcDbSymbolTableRecord
100
AcDbLayerTableRecord
  2
AM_0
 70
     0
 62
     7
  6
Continuous
370
    50
390
F
  0
LAYER
  5
1A93
330
2
100
AcDbSymbolTableRecord
100
AcDbLayerTableRecord
  2
図面枠-ｷｲﾛ
 70
     0
 62
     2
  6
Continuous
370
    -3
390
F
  0
ENDTAB
  0
TABLE
  2
STYLE
  5
3
330
0
100
AcDbSymbolTable
 70
     6
  0
STYLE
  5
11
330
3
100
AcDbSymbolTableRecord
100
AcDbTextStyleTableRecord
  2
STANDARD
 70
     0
 40
0.0
 41
0.8299999999999998
 50
0.0
 71
     0
 42
2.5
  3
t.shx
  4
bigfont.shx
  0
ENDTAB
  0
TABLE
  2
VIEW
  5
6
330
0
100
AcDbSymbolTable
 70
     6
  0
VIEW
  5
C2
330
6
100
AcDbSymbolTableRecord
100
AcDbViewTableRecord
  2
AM_VIEW1
 70
     0
 40
277.5000000000001
 10
249.6477900552487
 20
416.2500000000001
 41
499.2955801104971
 11
0.0
 21
0.0
 31
1.0
 12
0.0
 22
0.0
 32
0.0
 42
50.0
 43
0.0
 44
0.0
 50
0.0
 71
     0
281
     0
 72
     0
  0
VIEW
  5
C3
330
6
100
AcDbSymbolTableRecord
100
AcDbViewTableRecord
  2
AM_VIEW2
 70
     0
 40
277.5000000000001
 10
603.8522099447512
 20
416.2500000000001
 41
499.2955801104971
 11
0.0
 21
0.0
 31
1.0
 12
0.0
 22
0.0
 32
0.0
 42
50.0
 43
0.0
 44
0.0
 50
0.0
 71
     0
281
     0
 72
     0
  0
VIEW
  5
C4
330
6
100
AcDbSymbolTableRecord
100
AcDbViewTableRecord
  2
AM_VIEW3
 70
     0
 40
277.5000000000001
 10
249.6477900552487
 20
138.75
 41
499.2955801104971
 11
0.0
 21
0.0
 31
1.0
 12
0.0
 22
0.0
 32
0.0
 42
50.0
 43
0.0
 44
0.0
 50
0.0
 71
     0
281
     0
 72
     0
  0
VIEW
  5
C5
330
6
100
AcDbSymbolTableRecord
100
AcDbViewTableRecord
  2
AM_VIEW4
 70
     0
 40
277.5000000000001
 10
603.8522099447512
 20
138.75
 41
499.2955801104971
 11
0.0
 21
0.0
 31
1.0
 12
0.0
 22
0.0
 32
0.0
 42
50.0
 43
0.0
 44
0.0
 50
0.0
 71
     0
281
     0
 72
     0
  0
VIEW
  5
C6
330
6
100
AcDbSymbolTableRecord
100
AcDbViewTableRecord
  2
AM_VIEW5
 70
     0
 40
277.5000000000001
 10
426.75
 20
277.5000000000001
 41
499.2955801104971
 11
0.0
 21
0.0
 31
1.0
 12
0.0
 22
0.0
 32
0.0
 42
50.0
 43
0.0
 44
0.0
 50
0.0
 71
     0
281
     0
 72
     0
  0
VIEW
  5
C7
330
6
100
AcDbSymbolTableRecord
100
AcDbViewTableRecord
  2
AM_VIEW6
 70
     0
 40
554.9944500000001
 10
426.75
 20
277.5
 41
998.5811743093924
 11
0.0
 21
0.0
 31
1.0
 12
0.0
 22
0.0
 32
0.0
 42
50.0
 43
0.0
 44
0.0
 50
0.0
 71
     0
281
     0
 72
     0
  0
ENDTAB
  0
TABLE
  2
UCS
  5
7
330
0
100
AcDbSymbolTable
 70
     0
  0
ENDTAB
  0
TABLE
  2
APPID
  5
9
330
0
100
AcDbSymbolTable
 70
    99
  0
APPID
  5
12
330
9
100
AcDbSymbolTableRecord
100
AcDbRegAppTableRecord
  2
ACAD
 70
     0
  0
APPID
  5
30
330
9
100
AcDbSymbolTableRecord
100
AcDbRegAppTableRecord
  2
MCAD_NO_VIS
 70
     0
  0
APPID
  5
31
330
9
100
AcDbSymbolTableRecord
100
AcDbRegAppTableRecord
  2
ACAD_TEMP_GRAPHIC
 70
     0
  0
APPID
  5
44
330
9
100
AcDbSymbolTableRecord
100
AcDbRegAppTableRecord
  2
ACATTRIBSERVICES
 70
     0
  0
APPID
  5
8D
330
9
100
AcDbSymbolTableRecord
100
AcDbRegAppTableRecord
  2
GENIUS_GENREC_14
 70
     0
  0
APPID
  5
8E
330
9
100
AcDbSymbolTableRecord
100
AcDbRegAppTableRecord
  2
GENIUS_GENOBJ-N-REC_13
 70
     0
  0
APPID
  5
8F
330
9
100
AcDbSymbolTableRecord
100
AcDbRegAppTableRecord
  2
GENIUS_GENODEF_13
 70
     0
  0
APPID
  5
BD
330
9
100
AcDbSymbolTableRecord
100
AcDbRegAppTableRecord
  2
GENIUS_GENOLIS_13
 70
     0
  0
APPID
  5
BE
330
9
100
AcDbSymbolTableRecord
100
AcDbRegAppTableRecord
  2
GENIUS_GENOBJ-N-TIT_13
 70
     0
  0
APPID
  5
BF
330
9
100
AcDbSymbolTableRecord
100
AcDbRegAppTableRecord
  2
GENIUS_GENOENT_13
 70
     0
  0
APPID
  5
C0
330
9
100
AcDbSymbolTableRecord
100
AcDbRegAppTableRecord
  2
GENIUS_GENTITLE_13
 70
     0
  0
APPID
  5
C1
330
9
100
AcDbSymbolTableRecord
100
AcDbRegAppTableRecord
  2
GENIUS_GENOREF_13
 70
     0
  0
APPID
  5
C8
330
9
100
AcDbSymbolTableRecord
100
AcDbRegAppTableRecord
  2
GENIUS_GENSCREG_15
 70
     0
  0
APPID
  5
C9
330
9
100
AcDbSymbolTableRecord
100
AcDbRegAppTableRecord
  2
GENIUS_GENOBJ-N-SDF_13
 70
     0
  0
APPID
  5
103
330
9
100
AcDbSymbolTableRecord
100
AcDbRegAppTableRecord
  2
GENIUS_GENFIL_13
 70
     0
  0
APPID
  5
104
330
9
100
AcDbSymbolTableRecord
100
AcDbRegAppTableRecord
  2
GENIUS_GENOBJ-N-CHA_13
 70
     0
  0
APPID
  5
13E
330
9
100
AcDbSymbolTableRecord
100
AcDbRegAppTableRecord
  2
GENIUS_GENDTOL_13
 70
     0
  0
APPID
  5
187
330
9
100
AcDbSymbolTableRecord
100
AcDbRegAppTableRecord
  2
GENIUS_GENOBJ-N-FIL_13
 70
     0
  0
APPID
  5
75A
330
9
100
AcDbSymbolTableRecord
100
AcDbRegAppTableRecord
  2
AD_DRAW
 70
     0
  0
APPID
  5
75B
330
9
100
AcDbSymbolTableRecord
100
AcDbRegAppTableRecord
  2
DESIGNERASSEMBLIES
 70
     0
  0
APPID
  5
75C
330
9
100
AcDbSymbolTableRecord
100
AcDbRegAppTableRecord
  2
ASURF_PCURVE_APPNAME
 70
     0
  0
APPID
  5
75D
330
9
100
AcDbSymbolTableRecord
100
AcDbRegAppTableRecord
  2
GENIUS_GE3SECT_13
 70
     0
  0
APPID
  5
75E
330
9
100
AcDbSymbolTableRecord
100
AcDbRegAppTableRecord
  2
GENIUS_GENCFG_13
 70
     0
  0
APPID
  5
75F
330
9
100
AcDbSymbolTableRecord
100
AcDbRegAppTableRecord
  2
GENIUS_GE3CFG0_13
 70
     0
  0
APPID
  5
760
330
9
100
AcDbSymbolTableRecord
100
AcDbRegAppTableRecord
  2
GENIUS_GENCFG0_13
 70
     0
  0
APPID
  5
761
330
9
100
AcDbSymbolTableRecord
100
AcDbRegAppTableRecord
  2
GENIUS_GENCFG1_13
 70
     0
  0
APPID
  5
762
330
9
100
AcDbSymbolTableRecord
100
AcDbRegAppTableRecord
  2
GENIUS_GENCFG2_13
 70
     0
  0
APPID
  5
763
330
9
100
AcDbSymbolTableRecord
100
AcDbRegAppTableRecord
  2
GENIUS_GENCFG3_13
 70
     0
  0
APPID
  5
764
330
9
100
AcDbSymbolTableRecord
100
AcDbRegAppTableRecord
  2
GENIUS_GENCFG4_13
 70
     0
  0
APPID
  5
765
330
9
100
AcDbSymbolTableRecord
100
AcDbRegAppTableRecord
  2
GENIUS_GEVCFG0_13
 70
     0
  0
APPID
  5
766
330
9
100
AcDbSymbolTableRecord
100
AcDbRegAppTableRecord
  2
GENIUS_GENHINW_13
 70
     0
  0
APPID
  5
767
330
9
100
AcDbSymbolTableRecord
100
AcDbRegAppTableRecord
  2
GENIUS_FIRSTVISTXT_14
 70
     0
  0
APPID
  5
768
330
9
100
AcDbSymbolTableRecord
100
AcDbRegAppTableRecord
  2
GENIUS_GENOBJ-N-LEADER_13
 70
     0
  0
APPID
  5
769
330
9
100
AcDbSymbolTableRecord
100
AcDbRegAppTableRecord
  2
GEV_VCCNULL_SWITCH_OFF
 70
     0
  0
APPID
  5
76A
330
9
100
AcDbSymbolTableRecord
100
AcDbRegAppTableRecord
  2
GENIUS_GEFCFG0_13
 70
     0
  0
APPID
  5
76B
330
9
100
AcDbSymbolTableRecord
100
AcDbRegAppTableRecord
  2
GENIUS_GENZVEED_13
 70
     0
  0
APPID
  5
76C
330
9
100
AcDbSymbolTableRecord
100
AcDbRegAppTableRecord
  2
GENIUS_GENSCREG_13
 70
     0
  0
APPID
  5
76D
330
9
100
AcDbSymbolTableRecord
100
AcDbRegAppTableRecord
  2
GENIUS_DUMCFG0_13
 70
     0
  0
APPID
  5
76E
330
9
100
AcDbSymbolTableRecord
100
AcDbRegAppTableRecord
  2
GEVID936201362
 70
     0
  0
APPID
  5
76F
330
9
100
AcDbSymbolTableRecord
100
AcDbRegAppTableRecord
  2
GEVDC
 70
     0
  0
APPID
  5
770
330
9
100
AcDbSymbolTableRecord
100
AcDbRegAppTableRecord
  2
GEVCON
 70
     0
  0
APPID
  5
771
330
9
100
AcDbSymbolTableRecord
100
AcDbRegAppTableRecord
  2
VCC
 70
     0
  0
APPID
  5
772
330
9
100
AcDbSymbolTableRecord
100
AcDbRegAppTableRecord
  2
GEVPT
 70
     0
  0
APPID
  5
773
330
9
100
AcDbSymbolTableRecord
100
AcDbRegAppTableRecord
  2
GEVIT
 70
     0
  0
APPID
  5
774
330
9
100
AcDbSymbolTableRecord
100
AcDbRegAppTableRecord
  2
GENBH
 70
     0
  0
APPID
  5
775
330
9
100
AcDbSymbolTableRecord
100
AcDbRegAppTableRecord
  2
GEVMK
 70
     0
  0
APPID
  5
776
330
9
100
AcDbSymbolTableRecord
100
AcDbRegAppTableRecord
  2
GENIUS_GENBH_13
 70
     0
  0
APPID
  5
777
330
9
100
AcDbSymbolTableRecord
100
AcDbRegAppTableRecord
  2
GENIUS_GENOBJ-NBEHI-BHF_13
 70
     0
  0
APPID
  5
778
330
9
100
AcDbSymbolTableRecord
100
AcDbRegAppTableRecord
  2
GENIUS_GENOBJ-NBEHI-BHB_13
 70
     0
  0
APPID
  5
779
330
9
100
AcDbSymbolTableRecord
100
AcDbRegAppTableRecord
  2
GENIUS_GENOBJ-F-DESC_13
 70
     0
  0
APPID
  5
77A
330
9
100
AcDbSymbolTableRecord
100
AcDbRegAppTableRecord
  2
GENIUS_GEFDESC_14
 70
     0
  0
APPID
  5
77B
330
9
100
AcDbSymbolTableRecord
100
AcDbRegAppTableRecord
  2
GENIUS_GENOBJ-F-PART_13
 70
     0
  0
APPID
  5
77C
330
9
100
AcDbSymbolTableRecord
100
AcDbRegAppTableRecord
  2
GENIUS_GEFSTDP_13
 70
     0
  0
APPID
  5
77D
330
9
100
AcDbSymbolTableRecord
100
AcDbRegAppTableRecord
  2
GENIUS_GEFPARTINS_13
 70
     0
  0
APPID
  5
77E
330
9
100
AcDbSymbolTableRecord
100
AcDbRegAppTableRecord
  2
GENIUS_GENTRA_14
 70
     0
  0
APPID
  5
77F
330
9
100
AcDbSymbolTableRecord
100
AcDbRegAppTableRecord
  2
GENIUS_GENINF13_13
 70
     0
  0
APPID
  5
780
330
9
100
AcDbSymbolTableRecord
100
AcDbRegAppTableRecord
  2
GENIUS_GENOBJ-N-INFOPT_13
 70
     0
  0
APPID
  5
781
330
9
100
AcDbSymbolTableRecord
100
AcDbRegAppTableRecord
  2
GENIUS_GENOBJ-N-RSSYM_13
 70
     0
  0
APPID
  5
782
330
9
100
AcDbSymbolTableRecord
100
AcDbRegAppTableRecord
  2
GENIUS_GENSYMENT_13
 70
     0
  0
APPID
  5
783
330
9
100
AcDbSymbolTableRecord
100
AcDbRegAppTableRecord
  2
GENIUS_GENSCSYM_13
 70
     0
  0
APPID
  5
784
330
9
100
AcDbSymbolTableRecord
100
AcDbRegAppTableRecord
  2
GENIUS_GEFINFNAM_13
 70
     0
  0
APPID
  5
785
330
9
100
AcDbSymbolTableRecord
100
AcDbRegAppTableRecord
  2
GENIUS_GENOBJ-N-CEN_13
 70
     0
  0
APPID
  5
786
330
9
100
AcDbSymbolTableRecord
100
AcDbRegAppTableRecord
  2
GENIUS_GENOBJ-N-CRS_13
 70
     0
  0
APPID
  5
787
330
9
100
AcDbSymbolTableRecord
100
AcDbRegAppTableRecord
  2
GENIUS_GENOBJ-N-CRC_13
 70
     0
  0
APPID
  5
788
330
9
100
AcDbSymbolTableRecord
100
AcDbRegAppTableRecord
  2
GENIUS_GENCRC_14
 70
     0
  0
APPID
  5
789
330
9
100
AcDbSymbolTableRecord
100
AcDbRegAppTableRecord
  2
GEVID942827039
 70
     0
  0
APPID
  5
78A
330
9
100
AcDbSymbolTableRecord
100
AcDbRegAppTableRecord
  2
GEVID942827040
 70
     0
  0
APPID
  5
78B
330
9
100
AcDbSymbolTableRecord
100
AcDbRegAppTableRecord
  2
GEVID942827041
 70
     0
  0
APPID
  5
78C
330
9
100
AcDbSymbolTableRecord
100
AcDbRegAppTableRecord
  2
GENIUS_GENOBJ-F-SCPASSM_13
 70
     0
  0
APPID
  5
78D
330
9
100
AcDbSymbolTableRecord
100
AcDbRegAppTableRecord
  2
GENIUS_GENDIMSH_14
 70
     0
  0
APPID
  5
78E
330
9
100
AcDbSymbolTableRecord
100
AcDbRegAppTableRecord
  2
GEVID942827042
 70
     0
  0
APPID
  5
78F
330
9
100
AcDbSymbolTableRecord
100
AcDbRegAppTableRecord
  2
GEVID946020473
 70
     0
  0
APPID
  5
790
330
9
100
AcDbSymbolTableRecord
100
AcDbRegAppTableRecord
  2
GEVID946020474
 70
     0
  0
APPID
  5
791
330
9
100
AcDbSymbolTableRecord
100
AcDbRegAppTableRecord
  2
GEVID946020475
 70
     0
  0
APPID
  5
792
330
9
100
AcDbSymbolTableRecord
100
AcDbRegAppTableRecord
  2
GENIUS_GENOBJ-N-HTC_13
 70
     0
  0
APPID
  5
793
330
9
100
AcDbSymbolTableRecord
100
AcDbRegAppTableRecord
  2
GENIUS_GENHATCH_13
 70
     0
  0
APPID
  5
794
330
9
100
AcDbSymbolTableRecord
100
AcDbRegAppTableRecord
  2
GEVID948854295
 70
     0
  0
APPID
  5
795
330
9
100
AcDbSymbolTableRecord
100
AcDbRegAppTableRecord
  2
GEVID939402019
 70
     0
  0
APPID
  5
796
330
9
100
AcDbSymbolTableRecord
100
AcDbRegAppTableRecord
  2
GEVID952919491
 70
     0
  0
APPID
  5
797
330
9
100
AcDbSymbolTableRecord
100
AcDbRegAppTableRecord
  2
GEVID952919492
 70
     0
  0
APPID
  5
798
330
9
100
AcDbSymbolTableRecord
100
AcDbRegAppTableRecord
  2
GENIUS_GEFWELD_13
 70
     0
  0
APPID
  5
799
330
9
100
AcDbSymbolTableRecord
100
AcDbRegAppTableRecord
  2
GENIUS_GENOBJ-F-WELS_13
 70
     0
  0
APPID
  5
79A
330
9
100
AcDbSymbolTableRecord
100
AcDbRegAppTableRecord
  2
GEVID952919493
 70
     0
  0
APPID
  5
79B
330
9
100
AcDbSymbolTableRecord
100
AcDbRegAppTableRecord
  2
GENIUS_GENOBJ-N-RSBK_13
 70
     0
  0
APPID
  5
79C
330
9
100
AcDbSymbolTableRecord
100
AcDbRegAppTableRecord
  2
GENIUS_GENOBJ-N-LIB_13
 70
     0
  0
APPID
  5
79D
330
9
100
AcDbSymbolTableRecord
100
AcDbRegAppTableRecord
  2
GENIUS_GENSCALE_13
 70
     0
  0
APPID
  5
79E
330
9
100
AcDbSymbolTableRecord
100
AcDbRegAppTableRecord
  2
GEVID986376691
 70
     0
  0
APPID
  5
79F
330
9
100
AcDbSymbolTableRecord
100
AcDbRegAppTableRecord
  2
DCO15
 70
     0
  0
APPID
  5
1A97
330
9
100
AcDbSymbolTableRecord
100
AcDbRegAppTableRecord
  2
GEVID988070561
 70
     0
  0
APPID
  5
1A98
330
9
100
AcDbSymbolTableRecord
100
AcDbRegAppTableRecord
  2
GEVID988070562
 70
     0
  0
APPID
  5
1A99
330
9
100
AcDbSymbolTableRecord
100
AcDbRegAppTableRecord
  2
GEVID988070563
 70
     0
  0
APPID
  5
2201
330
9
100
AcDbSymbolTableRecord
100
AcDbRegAppTableRecord
  2
ACADM_DIM_EDIT
 70
     0
  0
APPID
  5
2202
330
9
100
AcDbSymbolTableRecord
100
AcDbRegAppTableRecord
  2
AMDT_DM_ADJ
 70
     0
  0
APPID
  5
222C
330
9
100
AcDbSymbolTableRecord
100
AcDbRegAppTableRecord
  2
ACAD_PSEXT
 70
     0
  0
APPID
  5
222D
330
9
100
AcDbSymbolTableRecord
100
AcDbRegAppTableRecord
  2
GENIUS_GENCEN_19
 70
     0
  0
APPID
  5
3147
330
9
100
AcDbSymbolTableRecord
100
AcDbRegAppTableRecord
  2
GEVID1205740043
 70
     0
  0
APPID
  5
3150
330
9
100
AcDbSymbolTableRecord
100
AcDbRegAppTableRecord
  2
AMG_2DHIDE
 70
     0
  0
APPID
  5
3151
330
9
100
AcDbSymbolTableRecord
100
AcDbRegAppTableRecord
  2
AMG_2DSTRUCT_BTR
 70
     0
  0
APPID
  5
3162
330
9
100
AcDbSymbolTableRecord
100
AcDbRegAppTableRecord
  2
ACADM_2DVIEW_IGN_NOTIFY
 70
     0
  0
ENDTAB
  0
TABLE
  2
DIMSTYLE
  5
A
330
0
100
AcDbSymbolTable
 70
    15
100
AcDbDimStyleTable
 71
     1
340
6C
  0
DIMSTYLE
105
6C
330
A
100
AcDbSymbolTableRecord
100
AcDbDimStyleTableRecord
  2
AM_ISO
 70
     0
  4
"
 41
2.5
 42
1.0
 43
8.0
 44
0.6
 47
0.1
 48
0.1
 73
     0
 74
     0
 77
     1
 78
     8
 79
     2
140
2.5
141
0.0
143
0.0393701
146
0.71
147
0.8
172
     1
176
   256
177
   256
178
     4
271
     2
272
     2
283
     0
284
     8
340
11
371
    -1
372
    -1
  0
DIMSTYLE
105
740
330
A
100
AcDbSymbolTableRecord
100
AcDbDimStyleTableRecord
  2
STANDARD
 70
     0
340
11
  0
ENDTAB
  0
TABLE
  2
BLOCK_RECORD
  5
1
330
0
100
AcDbSymbolTable
 70
     4
  0
BLOCK_RECORD
  5
1F
102
{ACAD_XDICTIONARY
360
CC
102
}
330
1
100
AcDbSymbolTableRecord
100
AcDbBlockTableRecord
  2
*Model_Space
340
22
  0
BLOCK_RECORD
  5
1B
330
1
100
AcDbSymbolTableRecord
100
AcDbBlockTableRecord
  2
*Paper_Space
340
1E
  0
BLOCK_RECORD
  5
23
330
1
100
AcDbSymbolTableRecord
100
AcDbBlockTableRecord
  2
*Paper_Space0
340
26
  0
ENDTAB
  0
ENDSEC
  0
SECTION
  2
BLOCKS
  0
BLOCK
  5
20
330
1F
100
AcDbEntity
  8
0
100
AcDbBlockBegin
  2
*Model_Space
 70
     0
 10
0.0
 20
0.0
 30
0.0
  3
*Model_Space
  1

  0
ENDBLK
  5
21
330
1F
100
AcDbEntity
  8
0
100
AcDbBlockEnd
  0
BLOCK
  5
1C
330
1B
100
AcDbEntity
 67
     1
  8
0
100
AcDbBlockBegin
  2
*Paper_Space
 70
     0
 10
0.0
 20
0.0
 30
0.0
  3
*Paper_Space
  1

  0
ENDBLK
  5
1D
330
1B
100
AcDbEntity
 67
     1
  8
0
100
AcDbBlockEnd
  0
BLOCK
  5
24
330
23
100
AcDbEntity
  8
0
100
AcDbBlockBegin
  2
*Paper_Space0
 70
     0
 10
0.0
 20
0.0
 30
0.0
  3
*Paper_Space0
  1

  0
ENDBLK
  5
25
330
23
100
AcDbEntity
  8
0
100
AcDbBlockEnd
  0
ENDSEC
  0
SECTION
  2
ENTITIES
  0
LINE
  5
1BE4
330
1F
100
AcDbEntity
  8
AM_0
100
AcDbLine
 10
397.0730577058846
 20
279.9254744901694
 30
0.0
 11
397.0730577058846
 21
261.7081934901693
 31
0.0
  0
LINE
  5
1BE5
330
1F
100
AcDbEntity
  8
AM_0
100
AcDbLine
 10
406.0730577058846
 20
275.7990944901693
 30
0.0
 11
406.0730577058846
 21
235.9254794901693
 31
0.0
  0
LINE
  5
1BF2
330
1F
100
AcDbEntity
  8
ﾁｭｳｼﾝｾﾝ1
100
AcDbLine
 10
400.7236377058846
 20
252.9254804901693
 30
0.0
 11
503.8065477058847
 21
252.9254804901693
 31
0.0
  0
LINE
  5
1BF5
330
1F
100
AcDbEntity
  8
AM_0
100
AcDbLine
 10
406.0730577058846
 20
177.9254774901693
 30
0.0
 11
406.0730577058846
 21
235.9254794901693
 31
0.0
  0
ARC
  5
1BFC
330
1F
100
AcDbEntity
  8
AM_0
100
AcDbCircle
 10
404.5730577058844
 20
177.9929054901693
 30
0.0
 40
1.500000029999999
100
AcDbArc
 50
0.0
 51
88.49999700000074
  0
LINE
  5
1C28
330
1F
100
AcDbEntity
  8
AM_0
100
AcDbLine
 10
388.0730577058847
 20
267.8629184901693
 30
0.0
 11
397.0730577058846
 21
267.8629184901693
 31
0.0
  0
LINE
  5
1C29
330
1F
100
AcDbEntity
  8
AM_0
100
AcDbLine
 10
397.0730577058846
 20
261.7081934901693
 30
0.0
 11
406.0730577058846
 21
261.7081934901693
 31
0.0
  0
LINE
  5
1C2F
330
1F
100
AcDbEntity
  8
AM_0
100
AcDbLine
 10
388.0730577058847
 20
203.9880404901693
 30
0.0
 11
406.0730577058846
 21
203.9880404901693
 31
0.0
  0
LINE
  5
1C30
330
1F
100
AcDbEntity
  8
AM_0
100
AcDbLine
 10
388.0730577058847
 20
189.9254774901693
 30
0.0
 11
406.0730577058846
 21
189.9254774901693
 31
0.0
  0
LINE
  5
1C3A
330
1F
100
AcDbEntity
  8
AM_0
100
AcDbLine
 10
472.0730577058843
 20
262.9254794901693
 30
0.0
 11
474.0730377058847
 21
262.9254794901693
 31
0.0
  0
LINE
  5
1C3B
330
1F
100
AcDbEntity
  8
AM_0
100
AcDbLine
 10
474.0730377058847
 20
262.9254794901693
 30
0.0
 11
474.0730377058847
 21
252.9254804901693
 31
0.0
  0
LINE
  5
1C3C
330
1F
100
AcDbEntity
  8
AM_0
100
AcDbLine
 10
480.0730377058846
 20
262.4254814901693
 30
0.0
 11
480.0730377058846
 21
265.9254794901693
 31
0.0
  0
LINE
  5
1C3D
330
1F
100
AcDbEntity
  8
AM_0
100
AcDbLine
 10
474.0730377058847
 20
262.4254814901693
 30
0.0
 11
502.0730577058846
 21
262.4254814901693
 31
0.0
  0
LINE
  5
1C3E
330
1F
100
AcDbEntity
  8
AM_0
100
AcDbLine
 10
480.0730377058846
 20
265.9254794901693
 30
0.0
 11
502.0730577058846
 21
265.9254794901693
 31
0.0
  0
LINE
  5
1C3F
330
1F
100
AcDbEntity
  8
AM_0
100
AcDbLine
 10
472.0730577058843
 20
242.9254784901693
 30
0.0
 11
474.0730377058847
 21
242.9254784901693
 31
0.0
  0
LINE
  5
1C43
330
1F
100
AcDbEntity
  8
AM_0
100
AcDbLine
 10
474.0730377058847
 20
243.4254794901693
 30
0.0
 11
502.0730577058846
 21
243.4254794901693
 31
0.0
  0
LINE
  5
1C44
330
1F
100
AcDbEntity
  8
AM_0
100
AcDbLine
 10
474.0730377058847
 20
242.9254784901693
 30
0.0
 11
474.0730377058847
 21
252.9254804901693
 31
0.0
  0
LINE
  5
1C45
330
1F
100
AcDbEntity
  8
AM_0
100
AcDbLine
 10
502.0730577058846
 20
243.4254794901693
 30
0.0
 11
502.0730577058846
 21
265.9254794901693
 31
0.0
  0
ARC
  5
1C51
330
1F
100
AcDbEntity
  8
AM_0
100
AcDbCircle
 10
404.5730577058844
 20
293.8580744901693
 30
0.0
 40
1.500000029999999
100
AcDbArc
 50
271.4999999999994
 51
0.0
  0
ARC
  5
1C52
330
1F
100
AcDbEntity
  8
AM_0
100
AcDbCircle
 10
407.5730577058847
 20
294.3071444901693
 30
0.0
 40
1.500000029999999
100
AcDbArc
 50
91.50000100000154
 51
180.00001
  0
LINE
  5
1C53
330
1F
100
AcDbEntity
  8
AM_0
100
AcDbLine
 10
407.5338177058847
 20
295.8066344901693
 30
0.0
 11
412.0730577058846
 21
295.9255244901693
 31
0.0
  0
LINE
  5
1C54
330
1F
100
AcDbEntity
  8
AM_0
100
AcDbLine
 10
388.0730577058847
 20
291.9254744901693
 30
0.0
 11
404.6122977058847
 21
292.3585844901693
 31
0.0
  0
LINE
  5
1C55
330
1F
100
AcDbEntity
  8
AM_0
100
AcDbLine
 10
388.0730577058847
 20
281.9254844901693
 30
0.0
 11
406.0730577058846
 21
281.9254844901693
 31
0.0
  0
LINE
  5
1C5C
330
1F
100
AcDbEntity
  8
AM_0
100
AcDbLine
 10
397.0730577058846
 20
279.9254744901694
 30
0.0
 11
406.0730577058846
 21
279.9254744901694
 31
0.0
  0
LINE
  5
1C5D
330
1F
100
AcDbEntity
  8
AM_0
100
AcDbLine
 10
397.0730577058846
 20
278.5323344901693
 30
0.0
 11
423.0730677058848
 21
278.5323344901693
 31
0.0
  0
LINE
  5
1C63
330
1F
100
AcDbEntity
  8
AM_0
100
AcDbLine
 10
406.0730577058846
 20
294.3071444901693
 30
0.0
 11
406.0730577058846
 21
279.9254744901694
 31
0.0
  0
LINE
  5
37AB
330
1F
100
AcDbEntity
  8
AM_0
100
AcDbLine
 10
680.5637216717412
 20
264.9254834901694
 30
0.0
 11
674.5637216717413
 21
264.9254834901694
 31
0.0
  0
LINE
  5
37AC
330
1F
100
AcDbEntity
  8
AM_0
100
AcDbLine
 10
680.5637216717412
 20
258.9254834901694
 30
0.0
 11
680.5637216717412
 21
264.9254834901694
 31
0.0
  0
LINE
  5
37AD
330
1F
100
AcDbEntity
  8
AM_0
100
AcDbLine
 10
674.5637216717413
 20
258.9254834901694
 30
0.0
 11
680.5637216717412
 21
258.9254834901694
 31
0.0
  0
LINE
  5
37AE
330
1F
100
AcDbEntity
  8
AM_0
100
AcDbLine
 10
674.5637216717413
 20
264.9254834901694
 30
0.0
 11
674.5637216717413
 21
258.9254834901694
 31
0.0
  0
LINE
  5
37B0
330
1F
100
AcDbEntity
  8
AM_0
100
AcDbLine
 10
732.5449856717412
 20
271.3906934901693
 30
0.0
 11
732.5449856717412
 21
277.1641904901694
 31
0.0
  0
LINE
  5
37B1
330
1F
100
AcDbEntity
  8
AM_0
100
AcDbLine
 10
727.5449876717411
 20
268.5039434901694
 30
0.0
 11
732.5449856717412
 21
271.3907234901694
 31
0.0
  0
LINE
  5
37B2
330
1F
100
AcDbEntity
  8
AM_0
100
AcDbLine
 10
653.4546536717413
 20
171.9475904901694
 30
0.0
 11
658.4546516717412
 21
174.8343374901693
 31
0.0
  0
LINE
  5
37B3
330
1F
100
AcDbEntity
  8
AM_0
100
AcDbLine
 10
658.4546516717412
 20
174.8342924901694
 30
0.0
 11
658.4546516717412
 21
180.6078224901694
 31
0.0
  0
LINE
  5
37B4
330
1F
100
AcDbEntity
  8
AM_0
100
AcDbLine
 10
658.4546516717412
 20
180.6078074901693
 30
0.0
 11
653.4546836717412
 21
183.4945574901694
 31
0.0
  0
LINE
  5
37B5
330
1F
100
AcDbEntity
  8
AM_0
100
AcDbLine
 10
653.4546536717413
 20
183.4945724901693
 30
0.0
 11
648.454652671741
 21
180.6078224901694
 31
0.0
  0
LINE
  5
37B6
330
1F
100
AcDbEntity
  8
AM_0
100
AcDbLine
 10
696.6727946717411
 20
174.8342924901694
 30
0.0
 11
701.6727776717411
 21
171.9475424901693
 31
0.0
  0
LINE
  5
37B7
330
1F
100
AcDbEntity
  8
AM_0
100
AcDbLine
 10
701.6727776717411
 20
171.9475754901693
 30
0.0
 11
706.6727786717412
 21
174.8343224901693
 31
0.0
  0
LINE
  5
37B8
330
1F
100
AcDbEntity
  8
AM_0
100
AcDbLine
 10
722.5449716717412
 20
277.1641904901694
 30
0.0
 11
722.5449716717412
 21
271.3906934901693
 31
0.0
  0
LINE
  5
37B9
330
1F
100
AcDbEntity
  8
AM_0
100
AcDbLine
 10
722.5449866717411
 20
271.3906934901693
 30
0.0
 11
727.5449726717412
 21
268.5039434901694
 31
0.0
  0
LINE
  5
37BA
330
1F
100
AcDbEntity
  8
AM_0
100
AcDbLine
 10
696.6727616717412
 20
180.6078224901694
 30
0.0
 11
696.6727616717412
 21
174.8342924901694
 31
0.0
  0
LINE
  5
37BB
330
1F
100
AcDbEntity
  8
AM_0
100
AcDbLine
 10
706.6727786717412
 20
174.8342924901694
 30
0.0
 11
706.6727786717412
 21
180.6078224901694
 31
0.0
  0
LINE
  5
37BC
330
1F
100
AcDbEntity
  8
AM_0
100
AcDbLine
 10
727.5449726717412
 20
280.0509704901695
 30
0.0
 11
722.5449716717412
 21
277.1642204901693
 31
0.0
  0
LINE
  5
37BD
330
1F
100
AcDbEntity
  8
AM_0
100
AcDbLine
 10
622.5824456717413
 20
271.3906934901693
 30
0.0
 11
627.5824556717412
 21
268.5039434901694
 31
0.0
  0
LINE
  5
37BE
330
1F
100
AcDbEntity
  8
AM_0
100
AcDbLine
 10
622.5824456717413
 20
277.1641904901694
 30
0.0
 11
622.5824456717413
 21
271.3906934901693
 31
0.0
  0
LINE
  5
37BF
330
1F
100
AcDbEntity
  8
AM_0
100
AcDbLine
 10
627.5824856717412
 20
280.0509404901693
 30
0.0
 11
622.5824456717413
 21
277.1641904901694
 31
0.0
  0
LINE
  5
37C0
330
1F
100
AcDbEntity
  8
AM_0
100
AcDbLine
 10
632.5824656717412
 20
277.1641904901694
 30
0.0
 11
627.5824556717412
 21
280.0509404901693
 31
0.0
  0
LINE
  5
37C1
330
1F
100
AcDbEntity
  8
AM_0
100
AcDbLine
 10
632.5824656717412
 20
271.3906934901693
 30
0.0
 11
632.5824656717412
 21
277.1641904901694
 31
0.0
  0
LINE
  5
37C2
330
1F
100
AcDbEntity
  8
AM_0
100
AcDbLine
 10
701.6727776717411
 20
183.4945874901693
 30
0.0
 11
696.6727616717412
 21
180.6078374901693
 31
0.0
  0
LINE
  5
37C3
330
1F
100
AcDbEntity
  8
AM_0
100
AcDbLine
 10
627.5824556717412
 20
268.5039434901694
 30
0.0
 11
632.5824656717412
 21
271.3906934901693
 31
0.0
  0
LINE
  5
37C4
330
1F
100
AcDbEntity
  8
AM_0
100
AcDbLine
 10
706.6727786717412
 20
180.6078074901693
 30
0.0
 11
701.6727926717411
 21
183.4945574901694
 31
0.0
  0
LINE
  5
37C5
330
1F
100
AcDbEntity
  8
AM_0
100
AcDbLine
 10
648.4546826717412
 20
174.8343074901693
 30
0.0
 11
653.4546836717412
 21
171.9475574901694
 31
0.0
  0
LINE
  5
37C6
330
1F
100
AcDbEntity
  8
AM_0
100
AcDbLine
 10
732.5449856717412
 20
277.1641904901694
 30
0.0
 11
727.5449876717411
 21
280.0509404901693
 31
0.0
  0
LINE
  5
37C7
330
1F
100
AcDbEntity
  8
AM_0
100
AcDbLine
 10
648.4546826717412
 20
180.6078224901694
 30
0.0
 11
648.4546826717412
 21
174.8342924901694
 31
0.0
  0
LINE
  5
3898
330
1F
100
AcDbEntity
  8
AM_0
100
AcDbLine
 10
639.064790671741
 20
181.9254644901693
 30
0.0
 11
642.2402036717413
 21
187.4254634901694
 31
0.0
  0
LINE
  5
38AA
330
1F
100
AcDbEntity
  8
AM_0
100
AcDbLine
 10
707.8717226717412
 20
200.0649764901693
 30
0.0
 11
708.8710676717412
 21
198.4474994901693
 31
0.0
  0
LINE
  5
38AB
330
1F
100
AcDbEntity
  8
AM_0
100
AcDbLine
 10
711.2746316717411
 20
202.1674094901694
 30
0.0
 11
712.2739736717411
 21
200.5499324901693
 31
0.0
  0
LINE
  5
38AC
330
1F
100
AcDbEntity
  8
AM_0
100
AcDbLine
 10
701.5168016717411
 20
191.4254654901693
 30
0.0
 11
653.6106596717412
 21
191.4254654901693
 31
0.0
  0
LINE
  5
38AD
330
1F
100
AcDbEntity
  8
AM_0
100
AcDbLine
 10
718.9101896717411
 20
267.9743414901693
 30
0.0
 11
723.1231256717411
 21
256.3994054901693
 31
0.0
  0
LINE
  5
38AE
330
1F
100
AcDbEntity
  8
AM_0
100
AcDbLine
 10
653.0843816717413
 20
231.2745554901694
 30
0.0
 11
631.7423156717413
 21
209.9324684901694
 31
0.0
  0
LINE
  5
38AF
330
1F
100
AcDbEntity
  8
AM_7
 48
0.3
100
AcDbLine
 10
625.2334256717412
 20
305.2557374901694
 30
0.0
 11
610.0852556717413
 21
320.4039374901695
 31
0.0
  0
LINE
  5
38B0
330
1F
100
AcDbEntity
  8
AM_0
100
AcDbLine
 10
655.6919576717413
 20
228.2252714901694
 30
0.0
 11
634.5707456717413
 21
207.1040384901694
 31
0.0
  0
LINE
  5
38B1
330
1F
100
AcDbEntity
  8
AM_0
100
AcDbLine
 10
655.9128116717412
 20
277.4048234901694
 30
0.0
 11
634.5707456717413
 21
298.7468624901694
 31
0.0
  0
LINE
  5
38B2
330
1F
100
AcDbEntity
  8
AM_0
100
AcDbLine
 10
653.0843816717413
 20
274.5763934901694
 30
0.0
 11
631.7423156717413
 21
295.9184324901694
 31
0.0
  0
LINE
  5
38B3
330
1F
100
AcDbEntity
  8
AM_0
100
AcDbLine
 10
702.0430646717411
 20
274.5763934901694
 30
0.0
 11
723.3851516717411
 21
295.9184654901694
 31
0.0
  0
LINE
  5
38B4
330
1F
100
AcDbEntity
  8
AM_0
100
AcDbLine
 10
699.2146316717414
 20
277.4048234901694
 30
0.0
 11
720.5567216717412
 21
298.7468954901694
 31
0.0
  0
LINE
  5
38B5
330
1F
100
AcDbEntity
  8
AM_0
100
AcDbLine
 10
647.8652366717414
 20
220.3985504901693
 30
0.0
 11
671.7170126717412
 21
196.5467864901693
 31
0.0
  0
LINE
  5
38B6
330
1F
100
AcDbEntity
  8
AM_0
100
AcDbLine
 10
642.2402036717413
 20
187.4254634901694
 30
0.0
 11
677.5637216717413
 21
187.4254634901694
 31
0.0
  0
LINE
  5
38B7
330
1F
100
AcDbEntity
  8
AM_0
100
AcDbLine
 10
752.5637246717411
 20
252.9254804901693
 30
0.0
 11
752.5637246717411
 21
272.9254514901693
 31
0.0
  0
LINE
  5
38B8
330
1F
100
AcDbEntity
  8
AM_0
100
AcDbLine
 10
712.8872396717412
 20
187.4254634901694
 30
0.0
 11
677.5637216717413
 21
187.4254634901694
 31
0.0
  0
LINE
  5
38B9
330
1F
100
AcDbEntity
  8
AM_0
100
AcDbLine
 10
677.5637216717413
 20
327.9254774901695
 30
0.0
 11
697.5637076717411
 21
327.9254774901695
 31
0.0
  0
LINE
  5
38BA
330
1F
100
AcDbEntity
  8
AM_0
100
AcDbLine
 10
726.3988676717412
 20
247.3994054901693
 30
0.0
 11
735.4230686717411
 21
222.6055964901693
 31
0.0
  0
LINE
  5
38BB
330
1F
100
AcDbEntity
  8
AM_0
100
AcDbLine
 10
676.0637216717412
 20
315.7645274901692
 30
0.0
 11
676.0637216717412
 21
299.7095414901694
 31
0.0
  0
LINE
  5
38BC
330
1F
100
AcDbEntity
  8
AM_0
100
AcDbLine
 10
679.0637216717413
 20
315.7645274901692
 30
0.0
 11
679.0637216717413
 21
299.7095414901694
 31
0.0
  0
LINE
  5
38BD
330
1F
100
AcDbEntity
  8
AM_0
100
AcDbLine
 10
614.7246356717412
 20
251.4254804901693
 30
0.0
 11
630.7796456717412
 21
251.4254804901693
 31
0.0
  0
LINE
  5
38BE
330
1F
100
AcDbEntity
  8
AM_0
100
AcDbLine
 10
614.7246356717412
 20
254.4254804901693
 30
0.0
 11
630.7796456717412
 21
254.4254804901693
 31
0.0
  0
LINE
  5
38BF
330
1F
100
AcDbEntity
  8
AM_0
100
AcDbLine
 10
740.4027896717411
 20
254.4254804901693
 30
0.0
 11
725.9422196717411
 21
254.4254804901693
 31
0.0
  0
LINE
  5
38C0
330
1F
100
AcDbEntity
  8
AM_0
100
AcDbLine
 10
740.4027896717411
 20
251.4254804901693
 30
0.0
 11
729.2179286717412
 21
251.4254804901693
 31
0.0
  0
LINE
  5
38C2
330
1F
100
AcDbEntity
  8
AM_0
100
AcDbLine
 10
685.1769446717412
 20
203.7009164901694
 30
0.0
 11
656.6585396717412
 21
231.4086494901694
 31
0.0
  0
LINE
  5
38C3
330
1F
100
AcDbEntity
  8
AM_0
100
AcDbLine
 10
718.1783486717412
 20
224.0902754901693
 30
0.0
 11
706.1606786717411
 21
261.9926804901694
 31
0.0
  0
LINE
  5
38C4
330
1F
100
AcDbEntity
  8
AM_0
100
AcDbLine
 10
716.0626556717411
 20
181.9254494901694
 30
0.0
 11
712.8872246717411
 21
187.4254484901694
 31
0.0
  0
LINE
  5
38C5
330
1F
100
AcDbEntity
  8
AM_0
100
AcDbLine
 10
677.5637216717413
 20
327.9254774901695
 30
0.0
 11
657.5637236717413
 21
327.9254774901695
 31
0.0
  0
LINE
  5
38C6
330
1F
100
AcDbEntity
  8
AM_0
100
AcDbLine
 10
697.5637226717411
 20
327.9254774901695
 30
0.0
 11
739.7798966717411
 21
324.2320274901695
 31
0.0
  0
LINE
  5
38C7
330
1F
100
AcDbEntity
  8
AM_0
100
AcDbLine
 10
657.5637236717413
 20
327.9254474901693
 30
0.0
 11
615.3475556717412
 21
324.2320274901695
 31
0.0
  0
LINE
  5
38C8
330
1F
100
AcDbEntity
  8
AM_0
100
AcDbLine
 10
602.5637156717412
 20
252.9254804901693
 30
0.0
 11
602.5637156717412
 21
272.9254514901693
 31
0.0
  0
LINE
  5
38C9
330
1F
100
AcDbEntity
  8
AM_0
100
AcDbLine
 10
752.5637246717411
 20
272.9254514901693
 30
0.0
 11
748.8702896717411
 21
315.1416374901694
 31
0.0
  0
LINE
  5
38CA
330
1F
100
AcDbEntity
  8
AM_0
100
AcDbLine
 10
716.0626556717411
 20
181.9254644901693
 30
0.0
 11
738.9384956717411
 21
181.9254644901693
 31
0.0
  0
LINE
  5
38CB
330
1F
100
AcDbEntity
  8
AM_0
100
AcDbLine
 10
602.5637156717412
 20
272.9254514901693
 30
0.0
 11
606.2571656717413
 21
315.1416374901694
 31
0.0
  0
LINE
  5
38CC
330
1F
100
AcDbEntity
  8
AM_0
100
AcDbLine
 10
602.5637156717412
 20
232.9254494901693
 30
0.0
 11
606.2270156717412
 21
191.0538974901693
 31
0.0
  0
LINE
  5
38CD
330
1F
100
AcDbEntity
  8
AM_0
100
AcDbLine
 10
752.5637246717411
 20
232.9254674901694
 30
0.0
 11
748.9004396717412
 21
191.0539124901694
 31
0.0
  0
LINE
  5
38CE
330
1F
100
AcDbEntity
  8
AM_0
100
AcDbLine
 10
602.5637156717412
 20
252.9254804901693
 30
0.0
 11
602.5637156717412
 21
232.9254674901694
 31
0.0
  0
LINE
  5
38CF
330
1F
100
AcDbEntity
  8
AM_0
100
AcDbLine
 10
639.064790671741
 20
181.9254644901693
 30
0.0
 11
616.1889356717412
 21
181.9254644901693
 31
0.0
  0
LINE
  5
38D0
330
1F
100
AcDbEntity
  8
AM_0
100
AcDbLine
 10
752.5637246717411
 20
252.9254804901693
 30
0.0
 11
752.5637246717411
 21
232.9254674901694
 31
0.0
  0
LINE
  5
38D1
330
1F
100
AcDbEntity
  8
AM_0
100
AcDbLine
 10
653.4546536717413
 20
170.7210584901693
 30
0.0
 11
701.6727776717411
 21
170.7210584901693
 31
0.0
  0
LINE
  5
38D2
330
1F
100
AcDbEntity
  8
AM_7
 48
0.3
100
AcDbLine
 10
625.2334556717412
 20
200.5951724901694
 30
0.0
 11
610.0852556717413
 21
185.4469784901693
 31
0.0
  0
LINE
  5
38D3
330
1F
100
AcDbEntity
  8
AM_7
 48
0.3
100
AcDbLine
 10
729.8940176717411
 20
200.5951724901694
 30
0.0
 11
745.0421936717411
 21
185.4469934901693
 31
0.0
  0
LINE
  5
38D4
330
1F
100
AcDbEntity
  8
AM_7
 48
0.3
100
AcDbLine
 10
729.8940176717411
 20
305.2557374901694
 30
0.0
 11
745.0422116717411
 21
320.4039374901695
 31
0.0
  0
CIRCLE
  5
38EB
330
1F
100
AcDbEntity
  8
AM_0
100
AcDbCircle
 10
677.5637216717413
 20
252.9254804901693
 30
0.0
 40
2.49999984
  0
CIRCLE
  5
38EC
330
1F
100
AcDbEntity
  8
AM_0
100
AcDbCircle
 10
677.5637216717413
 20
252.9254804901693
 30
0.0
 40
3.0
  0
ARC
  5
38ED
330
1F
100
AcDbEntity
  8
AM_0
100
AcDbCircle
 10
677.5637216717413
 20
252.9254804901693
 30
0.0
 40
9.500000399999999
100
AcDbArc
 50
108.40848
 51
71.59151199999924
  0
CIRCLE
  5
38EE
330
1F
100
AcDbEntity
  8
AM_0
100
AcDbCircle
 10
727.5449726717412
 20
274.2774404901694
 30
0.0
 40
4.9999998
  0
CIRCLE
  5
38EF
330
1F
100
AcDbEntity
  8
AM_0
100
AcDbCircle
 10
653.4546536717413
 20
177.7210724901693
 30
0.0
 40
4.9999998
  0
CIRCLE
  5
38F0
330
1F
100
AcDbEntity
  8
AM_0
100
AcDbCircle
 10
627.5824556717412
 20
274.2774404901694
 30
0.0
 40
4.9999998
  0
CIRCLE
  5
38F1
330
1F
100
AcDbEntity
  8
AM_0
100
AcDbCircle
 10
701.6727776717411
 20
177.7210724901693
 30
0.0
 40
4.9999998
  0
ARC
  5
3966
330
1F
100
AcDbEntity
  8
AM_0
100
AcDbCircle
 10
677.5637216717413
 20
252.9254804901693
 30
0.0
 40
20.0000007
100
AcDbArc
 50
270.0
 51
90.00000300000095
  0
ARC
  5
3967
330
1F
100
AcDbEntity
  8
AM_0
100
AcDbCircle
 10
677.5637216717413
 20
252.9254804901693
 30
0.0
 40
20.0000007
100
AcDbArc
 50
90.00000300000095
 51
270.0
  0
ARC
  5
3972
330
1F
100
AcDbEntity
  8
AM_0
100
AcDbCircle
 10
677.5637216717413
 20
252.9254804901693
 30
0.0
 40
44.00000099999998
100
AcDbArc
 50
137.5473200000011
 51
174.5058099999972
  0
ARC
  5
3973
330
1F
100
AcDbEntity
  8
AM_0
100
AcDbCircle
 10
677.5637216717413
 20
252.9254804901693
 30
0.0
 40
20.0000007
100
AcDbArc
 50
270.0
 51
90.00000300000095
  0
ARC
  5
3974
330
1F
100
AcDbEntity
  8
AM_0
100
AcDbCircle
 10
677.5637216717413
 20
252.9254804901693
 30
0.0
 40
20.0000007
100
AcDbArc
 50
90.00000300000095
 51
270.0
  0
ARC
  5
3975
330
1F
100
AcDbEntity
  8
AM_0
100
AcDbCircle
 10
697.0933106717411
 20
279.5261294901693
 30
0.0
 40
3.0
100
AcDbArc
 50
233.7147499999995
 51
315.0
  0
ARC
  5
3976
330
1F
100
AcDbEntity
  8
AM_7
 48
0.5
100
AcDbCircle
 10
677.5637216717413
 20
252.9254804901693
 30
0.0
 40
85.000002
100
AcDbArc
 50
125.6955299999989
 51
144.142579999999
  0
ARC
  5
3977
330
1F
100
AcDbEntity
  8
AM_0
100
AcDbCircle
 10
650.9630456717412
 20
233.3958794901694
 30
0.0
 40
3.0
100
AcDbArc
 50
315.0
 51
36.2852570000005
  0
ARC
  5
3978
330
1F
100
AcDbEntity
  8
AM_0
100
AcDbCircle
 10
725.5064576717411
 20
293.7971264901694
 30
0.0
 40
3.0
100
AcDbArc
 50
40.44792899999801
 51
135.0
  0
ARC
  5
3979
330
1F
100
AcDbEntity
  8
AM_0
100
AcDbCircle
 10
673.0637216717412
 20
315.7645274901692
 30
0.0
 40
3.0
100
AcDbArc
 50
0.0
 51
94.09604599999999
  0
ARC
  5
397A
330
1F
100
AcDbEntity
  8
AM_0
100
AcDbCircle
 10
636.6920486717413
 20
204.9827174901694
 30
0.0
 40
3.0
100
AcDbArc
 50
135.0
 51
229.552079999999
  0
ARC
  5
397B
330
1F
100
AcDbEntity
  8
AM_0
100
AcDbCircle
 10
636.6920486717413
 20
300.8682014901694
 30
0.0
 40
3.0
100
AcDbArc
 50
130.4479300000001
 51
225.0
  0
ARC
  5
397C
330
1F
100
AcDbEntity
  8
AM_0
100
AcDbCircle
 10
718.4353976717411
 20
300.8682014901694
 30
0.0
 40
3.0
100
AcDbArc
 50
315.0
 51
49.55207300000002
  0
ARC
  5
397D
330
1F
100
AcDbEntity
  8
AM_0
100
AcDbCircle
 10
629.6210156717412
 20
293.7971264901694
 30
0.0
 40
3.0
100
AcDbArc
 50
45.00000100000149
 51
139.5520800000001
  0
ARC
  5
397E
330
1F
100
AcDbEntity
  8
AM_0
100
AcDbCircle
 10
650.9630456717412
 20
272.4550544901693
 30
0.0
 40
3.0
100
AcDbArc
 50
323.7147400000013
 51
45.00000100000149
  0
ARC
  5
397F
330
1F
100
AcDbEntity
  8
AM_0
100
AcDbCircle
 10
657.8132966717411
 20
226.1039624901694
 30
0.0
 40
3.0
100
AcDbArc
 50
45.82603100000195
 51
135.0
  0
ARC
  5
3980
330
1F
100
AcDbEntity
  8
AM_0
100
AcDbCircle
 10
699.1137266717412
 20
218.0454614901694
 30
0.0
 40
20.0000007
100
AcDbArc
 50
225.8260299999991
 51
17.59221400000176
  0
ARC
  5
3981
330
1F
100
AcDbEntity
  8
AM_0
100
AcDbCircle
 10
677.5637216717413
 20
252.9254804901693
 30
0.0
 40
66.00000300000001
100
AcDbArc
 50
291.2799600000004
 51
248.7200299999986
  0
ARC
  5
3982
330
1F
100
AcDbEntity
  8
AM_0
100
AcDbCircle
 10
677.5637216717413
 20
252.9254804901693
 30
0.0
 40
70.00000199999999
100
AcDbArc
 50
290.6561500000015
 51
249.3438399999997
  0
CIRCLE
  5
3983
330
1F
100
AcDbEntity
  8
AM_0
100
AcDbCircle
 10
617.4596456717412
 20
313.0295474901693
 30
0.0
 40
5.000000099999998
  0
ARC
  5
3984
330
1F
100
AcDbEntity
  8
AM_0
100
AcDbCircle
 10
677.5637216717413
 20
235.9254674901694
 30
0.0
 40
60.00000299999999
100
AcDbArc
 50
233.9334099999984
 51
236.890849999999
  0
ARC
  5
3985
330
1F
100
AcDbEntity
  8
AM_0
100
AcDbCircle
 10
677.5637216717413
 20
235.9254674901694
 30
0.0
 40
60.00000299999999
100
AcDbArc
 50
303.1091400000009
 51
304.4115100000016
  0
ARC
  5
3986
330
1F
100
AcDbEntity
  8
AM_0
100
AcDbCircle
 10
629.6210156717412
 20
212.0537924901694
 30
0.0
 40
3.0
100
AcDbArc
 50
220.4479199999999
 51
315.0
  0
ARC
  5
3987
330
1F
100
AcDbEntity
  8
AM_0
100
AcDbCircle
 10
714.8261606717412
 20
202.1267294901694
 30
0.0
 40
3.0
100
AcDbArc
 50
211.7091199999987
 51
306.2611999999986
  0
ARC
  5
3988
330
1F
100
AcDbEntity
  8
AM_0
100
AcDbCircle
 10
706.3188806717412
 20
196.8706694901693
 30
0.0
 40
3.0
100
AcDbArc
 50
297.1570499999995
 51
31.70912200000135
  0
ARC
  5
3989
330
1F
100
AcDbEntity
  8
AM_0
100
AcDbCircle
 10
677.5637216717413
 20
252.9254804901693
 30
0.0
 40
44.00000099999998
100
AcDbArc
 50
19.99999899999905
 51
42.45268199999877
  0
ARC
  5
398A
330
1F
100
AcDbEntity
  8
AM_0
100
AcDbCircle
 10
677.5637216717413
 20
252.9254804901693
 30
0.0
 40
44.00000099999998
100
AcDbArc
 50
47.54731699999847
 51
84.50581900000043
  0
CIRCLE
  5
398B
330
1F
100
AcDbEntity
  8
AM_0
100
AcDbCircle
 10
737.6677886717411
 20
192.8213834901694
 30
0.0
 40
5.000000099999998
  0
ARC
  5
398C
330
1F
100
AcDbEntity
  8
AM_0
100
AcDbCircle
 10
642.0584126717414
 20
181.4794184901693
 30
0.0
 40
5.000000099999998
100
AcDbArc
 50
341.7480199999981
 51
56.89085900000034
  0
ARC
  5
398D
330
1F
100
AcDbEntity
  8
AM_0
100
AcDbCircle
 10
713.0690336717411
 20
181.4794184901693
 30
0.0
 40
5.000000099999998
100
AcDbArc
 50
123.1091300000018
 51
198.2519800000019
  0
CIRCLE
  5
398E
330
1F
100
AcDbEntity
  8
AM_0
100
AcDbCircle
 10
617.4596456717412
 20
192.8213834901694
 30
0.0
 40
5.000000099999998
  0
ARC
  5
398F
330
1F
100
AcDbEntity
  8
AM_0
100
AcDbCircle
 10
653.4546536717413
 20
177.7210424901693
 30
0.0
 40
7.0000008
100
AcDbArc
 50
161.748019999998
 51
270.0
  0
CIRCLE
  5
3990
330
1F
100
AcDbEntity
  8
AM_0
100
AcDbCircle
 10
737.6677886717411
 20
313.0295474901693
 30
0.0
 40
5.000000099999998
  0
ARC
  5
3991
330
1F
100
AcDbEntity
  8
AM_0
100
AcDbCircle
 10
682.0637246717414
 20
315.7645274901692
 30
0.0
 40
3.0
100
AcDbArc
 50
85.90395900000011
 51
180.0000100000009
  0
ARC
  5
3992
330
1F
100
AcDbEntity
  8
AM_0
100
AcDbCircle
 10
614.7246356717412
 20
248.4254804901693
 30
0.0
 40
3.0
100
AcDbArc
 50
90.00000300000095
 51
184.0960399999977
  0
ARC
  5
3993
330
1F
100
AcDbEntity
  8
AM_0
100
AcDbCircle
 10
677.5637216717413
 20
252.9254804901693
 30
0.0
 40
44.00000099999998
100
AcDbArc
 50
185.4941900000026
 51
222.4526799999989
  0
ARC
  5
3994
330
1F
100
AcDbEntity
  8
AM_0
100
AcDbCircle
 10
673.0637216717412
 20
299.7095414901694
 30
0.0
 40
3.0
100
AcDbArc
 50
275.4941799999995
 51
0.0
  0
ARC
  5
3995
330
1F
100
AcDbEntity
  8
AM_0
100
AcDbCircle
 10
682.0637246717414
 20
299.7095414901694
 30
0.0
 40
3.0
100
AcDbArc
 50
179.999989999999
 51
264.5058200000006
  0
ARC
  5
3996
330
1F
100
AcDbEntity
  8
AM_0
100
AcDbCircle
 10
614.7246356717412
 20
257.4254834901694
 30
0.0
 40
3.0
100
AcDbArc
 50
175.9039499999989
 51
270.0
  0
ARC
  5
3997
330
1F
100
AcDbEntity
  8
AM_0
100
AcDbCircle
 10
630.7796456717412
 20
248.4254804901693
 30
0.0
 40
3.0
100
AcDbArc
 50
5.494178999999299
 51
90.00000300000095
  0
ARC
  5
3998
330
1F
100
AcDbEntity
  8
AM_0
100
AcDbCircle
 10
630.7796456717412
 20
257.4254834901694
 30
0.0
 40
3.0
100
AcDbArc
 50
270.0
 51
354.5058199999973
  0
ARC
  5
3999
330
1F
100
AcDbEntity
  8
AM_0
100
AcDbCircle
 10
740.4027896717411
 20
257.4254834901694
 30
0.0
 40
3.0
100
AcDbArc
 50
270.0
 51
4.096044000000324
  0
ARC
  5
399A
330
1F
100
AcDbEntity
  8
AM_0
100
AcDbCircle
 10
740.4027896717411
 20
248.4254804901693
 30
0.0
 40
3.0
100
AcDbArc
 50
355.9039600000023
 51
90.00000300000095
  0
ARC
  5
399B
330
1F
100
AcDbEntity
  8
AM_0
100
AcDbCircle
 10
729.2179286717412
 20
248.4254804901693
 30
0.0
 40
3.0
100
AcDbArc
 50
90.00000300000095
 51
200.0000000000031
  0
ARC
  5
399C
330
1F
100
AcDbEntity
  8
AM_0
100
AcDbCircle
 10
725.9422196717411
 20
257.4254834901694
 30
0.0
 40
3.0
100
AcDbArc
 50
200.0000000000031
 51
270.0
  0
ARC
  5
39A0
330
1F
100
AcDbEntity
  8
AM_0
100
AcDbCircle
 10
677.5637216717413
 20
252.9254804901693
 30
0.0
 40
30.0
100
AcDbArc
 50
17.59221400000176
 51
225.8260299999991
  0
ARC
  5
39A1
330
1F
100
AcDbEntity
  8
AM_0
100
AcDbCircle
 10
704.1643856717412
 20
272.4550544901693
 30
0.0
 40
3.0
100
AcDbArc
 50
135.0
 51
216.2852599999987
  0
ARC
  5
39A2
330
1F
100
AcDbEntity
  8
AM_0
100
AcDbCircle
 10
658.0341206717412
 20
279.5261294901693
 30
0.0
 40
3.0
100
AcDbArc
 50
225.0
 51
306.285260000001
  0
ARC
  5
39A3
330
1F
100
AcDbEntity
  8
AM_0
100
AcDbCircle
 10
738.9083306717411
 20
314.2700774901693
 30
0.0
 40
10.0000002
100
AcDbArc
 50
4.999999899997543
 51
84.99999700000051
  0
ARC
  5
39A4
330
1F
100
AcDbEntity
  8
AM_0
100
AcDbCircle
 10
677.5637216717413
 20
235.9254674901694
 30
0.0
 40
60.00000299999999
100
AcDbArc
 50
303.1091400000009
 51
306.0665900000017
  0
ARC
  5
39A5
330
1F
100
AcDbEntity
  8
AM_0
100
AcDbCircle
 10
616.2191156717413
 20
314.2700774901693
 30
0.0
 40
10.0000002
100
AcDbArc
 50
95.00000200000021
 51
175.0000100000007
  0
ARC
  5
39A6
330
1F
100
AcDbEntity
  8
AM_0
100
AcDbCircle
 10
738.9384956717411
 20
191.9254634901693
 30
0.0
 40
10.0000002
100
AcDbArc
 50
270.0
 51
355.0000000000003
  0
ARC
  5
39A7
330
1F
100
AcDbEntity
  8
AM_0
100
AcDbCircle
 10
616.1889356717412
 20
191.9254634901693
 30
0.0
 40
10.0000002
100
AcDbArc
 50
184.9999899999992
 51
270.0
  0
ARC
  5
39A8
330
1F
100
AcDbEntity
  8
AM_0
100
AcDbCircle
 10
669.5956736717412
 20
194.4254804901693
 30
0.0
 40
3.0
100
AcDbArc
 50
270.0
 51
45.00000100000149
  0
ARC
  5
39A9
330
1F
100
AcDbEntity
  8
AM_0
100
AcDbCircle
 10
701.6727776717411
 20
177.7210424901693
 30
0.0
 40
7.0000008
100
AcDbArc
 50
270.0
 51
18.25197800000043
  0
ARC
  5
39AA
330
1F
100
AcDbEntity
  8
AM_7
 48
0.5
100
AcDbCircle
 10
677.5637216717413
 20
252.9254804901693
 30
0.0
 40
85.000002
100
AcDbArc
 50
215.6955299999982
 51
234.1425800000012
  0
ARC
  5
39AB
330
1F
100
AcDbEntity
  8
AM_7
 48
0.5
100
AcDbCircle
 10
677.5637216717413
 20
252.9254804901693
 30
0.0
 40
85.000002
100
AcDbArc
 50
305.6955299999989
 51
324.142579999999
  0
ARC
  5
39AC
330
1F
100
AcDbEntity
  8
AM_7
 48
0.5
100
AcDbCircle
 10
677.5637216717413
 20
252.9254804901693
 30
0.0
 40
85.000002
100
AcDbArc
 50
35.69552799999999
 51
54.14258199999853
  0
ARC
  5
39F1
330
1F
100
AcDbEntity
  8
AM_0
100
AcDbCircle
 10
677.5637216717413
 20
252.9254804901695
 30
0.0
 40
44.00000099999998
100
AcDbArc
 50
95.49417899999928
 51
132.4526800000012
  0
LINE
  5
39F5
330
1F
100
AcDbEntity
  8
ﾁｭｳｼﾝｾﾝ
 48
0.8
100
AcDbLine
 10
601.1256956717412
 20
252.9254804901693
 30
0.0
 11
756.2941525982745
 21
252.9254804901693
 31
0.0
  0
LINE
  5
39F6
330
1F
100
AcDbEntity
  8
ﾁｭｳｼﾝｾﾝ
 48
0.8
100
AcDbLine
 10
677.5637216717413
 20
166.2537104901694
 30
0.0
 11
677.5637216717413
 21
332.365869762635
 31
0.0
  0
LINE
  5
39F7
330
1F
100
AcDbEntity
  8
ﾁｭｳｼﾝｾﾝ
 48
0.8
100
AcDbLine
 10
695.4184286717411
 20
235.9254824901693
 30
0.0
 11
657.0676286717412
 21
235.9254824901693
 31
0.0
  0
LINE
  5
3B8A
330
1F
100
AcDbEntity
  8
AM_0
100
AcDbLine
 10
412.0730577058846
 20
295.9254794901693
 30
0.0
 11
412.0730577058846
 21
171.1115564901694
 31
0.0
  0
LINE
  5
3B8B
330
1F
100
AcDbEntity
  8
AM_0
100
AcDbLine
 10
459.0032877058844
 20
183.3034514901693
 30
0.0
 11
467.0730177058842
 21
183.0216524901693
 31
0.0
  0
LINE
  5
3B8C
330
1F
100
AcDbEntity
  8
AM_0
100
AcDbLine
 10
471.0730677058846
 20
231.8525864901693
 30
0.0
 11
471.4872777058846
 21
232.2668024901694
 31
0.0
  0
LINE
  5
3B8D
330
1F
100
AcDbEntity
  8
AM_0
100
AcDbLine
 10
471.0730677058846
 20
252.9254774901693
 30
0.0
 11
471.0730677058846
 21
187.4254604901691
 31
0.0
  0
LINE
  5
3B8E
330
1F
100
AcDbEntity
  8
AM_0
100
AcDbLine
 10
462.0730677058843
 20
312.4254944901694
 30
0.0
 11
462.0730677058843
 21
198.3101654901694
 31
0.0
  0
LINE
  5
3B8F
330
1F
100
AcDbEntity
  8
AM_0
100
AcDbLine
 10
467.0730177058842
 20
327.9254744901694
 30
0.0
 11
467.0730177058842
 21
183.0216524901693
 31
0.0
  0
LINE
  5
3B90
330
1F
100
AcDbEntity
  8
AM_0
100
AcDbLine
 10
467.0730477058846
 20
187.3207094901694
 30
0.0
 11
471.0730677058846
 21
187.4254604901691
 31
0.0
  0
LINE
  5
3B91
330
1F
100
AcDbEntity
  8
AM_0
100
AcDbLine
 10
457.0730577058846
 20
325.6449044901693
 30
0.0
 11
457.0730577058846
 21
293.3658494901694
 31
0.0
  0
LINE
  5
3B92
330
1F
100
AcDbEntity
  8
AM_0
100
AcDbLine
 10
472.0730577058843
 20
271.9513274901693
 30
0.0
 11
472.0730577058843
 21
233.6810474901694
 31
0.0
  0
LINE
  5
3B93
330
1F
100
AcDbEntity
  8
AM_0
100
AcDbLine
 10
467.0730177058842
 20
322.9254944901694
 30
0.0
 11
471.0730677058846
 21
322.9254944901694
 31
0.0
  0
LINE
  5
3B94
330
1F
100
AcDbEntity
  8
AM_0
100
AcDbLine
 10
448.8985977058844
 20
322.1535644901693
 30
0.0
 11
454.1777577058846
 21
322.3379144901693
 31
0.0
  0
LINE
  5
3B95
330
1F
100
AcDbEntity
  8
AM_0
100
AcDbLine
 10
459.0032577058845
 20
327.6436844901695
 30
0.0
 11
467.0730477058846
 21
327.9254744901694
 31
0.0
  0
LINE
  5
3B96
330
1F
100
AcDbEntity
  8
AM_0
100
AcDbLine
 10
448.0730577058846
 20
186.1242524901694
 30
0.0
 11
448.0730577058846
 21
169.9254614901694
 31
0.0
  0
LINE
  5
3B97
330
1F
100
AcDbEntity
  8
AM_0
100
AcDbLine
 10
471.0730677058846
 20
322.9254944901694
 30
0.0
 11
471.0730677058846
 21
252.9254774901693
 31
0.0
  0
LINE
  5
3B98
330
1F
100
AcDbEntity
  8
AM_0
100
AcDbLine
 10
471.0730677058846
 20
273.8526344901694
 30
0.0
 11
471.4872777058846
 21
273.4383884901693
 31
0.0
  0
LINE
  5
3B99
330
1F
100
AcDbEntity
  8
AM_0
100
AcDbLine
 10
412.0730577058846
 20
171.1115564901694
 30
0.0
 11
448.0730877058844
 21
169.8544004901694
 31
0.0
  0
LINE
  5
3B9A
330
1F
100
AcDbEntity
  8
AM_0
100
AcDbLine
 10
449.0468577058845
 20
186.8486804901694
 30
0.0
 11
457.0730577058846
 21
187.0588544901693
 31
0.0
  0
LINE
  5
3B9B
330
1F
100
AcDbEntity
  8
AM_0
100
AcDbLine
 10
412.0730577058846
 20
278.5323224901694
 30
0.0
 11
442.2690777058845
 21
278.5323224901694
 31
0.0
  0
LINE
  5
3B9C
330
1F
100
AcDbEntity
  8
AM_0
100
AcDbLine
 10
412.0730577058846
 20
183.1448384901694
 30
0.0
 11
448.0730577058846
 21
183.1448384901694
 31
0.0
  0
LINE
  5
3B9D
330
1F
100
AcDbEntity
  8
AM_0
100
AcDbLine
 10
449.0730177058845
 20
206.1901874901693
 30
0.0
 11
457.0730577058846
 21
206.1901874901693
 31
0.0
  0
LINE
  5
3B9E
330
1F
100
AcDbEntity
  8
AM_0
100
AcDbLine
 10
412.0730577058846
 20
295.9254794901693
 30
0.0
 11
441.1515777058844
 21
296.6869244901694
 31
0.0
  0
LINE
  5
3B9F
330
1F
100
AcDbEntity
  8
AM_0
100
AcDbLine
 10
444.0730677058843
 20
317.1565844901694
 30
0.0
 11
444.0730677058843
 21
211.1901704901694
 31
0.0
  0
LINE
  5
3BA0
330
1F
100
AcDbEntity
  8
AM_0
100
AcDbLine
 10
457.0730577058846
 20
185.3022464901694
 30
0.0
 11
457.0730577058846
 21
212.3904734901694
 31
0.0
  0
LINE
  5
3BA1
330
1F
100
AcDbEntity
  8
AM_0
100
AcDbLine
 10
452.0730177058846
 20
182.0335544901694
 30
0.0
 11
452.0730177058846
 21
173.4085394901693
 31
0.0
  0
LINE
  5
3BA2
330
1F
100
AcDbEntity
  8
AM_0
100
AcDbLine
 10
451.6282677058844
 20
183.4710554901693
 30
0.0
 11
448.0730577058846
 21
183.4710554901693
 31
0.0
  0
LINE
  5
3BA3
330
1F
100
AcDbEntity
  8
AM_0
100
AcDbLine
 10
451.6282677058844
 20
171.9710534901694
 30
0.0
 11
448.0730577058846
 21
171.9710534901694
 31
0.0
  0
LINE
  5
3BA4
330
1F
100
AcDbEntity
  8
AM_0
100
AcDbLine
 10
451.6282677058844
 20
180.5960714901694
 30
0.0
 11
448.0730577058846
 21
180.5960714901694
 31
0.0
  0
LINE
  5
3BA5
330
1F
100
AcDbEntity
  8
AM_0
100
AcDbLine
 10
451.6282677058844
 20
174.8460554901693
 30
0.0
 11
448.0730577058846
 21
174.8460554901693
 31
0.0
  0
ARC
  5
3BA6
330
1F
100
AcDbEntity
  8
AM_0
100
AcDbCircle
 10
449.0730177058845
 20
211.1901704901694
 30
0.0
 40
5.000000099999998
100
AcDbArc
 50
179.999989999999
 51
270.0
  0
ARC
  5
3BA7
330
1F
100
AcDbEntity
  8
AM_0
100
AcDbCircle
 10
470.0730177058844
 20
233.6810474901694
 30
0.0
 40
2.00000007
100
AcDbArc
 50
315.0
 51
0.0
  0
ARC
  5
3BA8
330
1F
100
AcDbEntity
  8
AM_0
100
AcDbCircle
 10
470.0730177058844
 20
272.0241734901693
 30
0.0
 40
2.00000007
100
AcDbArc
 50
0.0
 51
45.00000100000149
  0
ARC
  5
3BA9
330
1F
100
AcDbEntity
  8
AM_0
100
AcDbCircle
 10
449.0730177058845
 20
185.8490444901694
 30
0.0
 40
1.000000019999996
100
AcDbArc
 50
91.50000099999992
 51
180.0000100000009
  0
ARC
  5
3BAA
330
1F
100
AcDbEntity
  8
AM_0
100
AcDbCircle
 10
441.0730677058843
 20
299.6858864901693
 30
0.0
 40
3.0
100
AcDbArc
 50
271.4999999999994
 51
0.0
  0
ARC
  5
3BAB
330
1F
100
AcDbEntity
  8
AM_0
100
AcDbCircle
 10
459.0730677058846
 20
312.4254944901694
 30
0.0
 40
3.0
100
AcDbArc
 50
0.0
 51
90.00000300000095
  0
ARC
  5
3BAC
330
1F
100
AcDbEntity
  8
AM_0
100
AcDbCircle
 10
459.0730677058846
 20
325.6449044901693
 30
0.0
 40
2.00000007
100
AcDbArc
 50
91.99999799999892
 51
180.0000100000009
  0
ARC
  5
3BAD
330
1F
100
AcDbEntity
  8
AM_0
100
AcDbCircle
 10
449.0730177058845
 20
317.1565844901694
 30
0.0
 40
5.000000099999998
100
AcDbArc
 50
91.99999799999892
 51
180.0000100000009
  0
ARC
  5
3BAE
330
1F
100
AcDbEntity
  8
AM_0
100
AcDbCircle
 10
459.0730677058846
 20
293.3658494901694
 30
0.0
 40
2.00000007
100
AcDbArc
 50
179.999989999999
 51
271.5146399999991
  0
ARC
  5
3BAF
330
1F
100
AcDbEntity
  8
AM_0
100
AcDbCircle
 10
454.0730577058845
 20
325.3360844901694
 30
0.0
 40
3.0
100
AcDbArc
 50
272.0000000000005
 51
0.0
  0
ARC
  5
3BB0
330
1F
100
AcDbEntity
  8
AM_0
100
AcDbCircle
 10
459.0730677058846
 20
212.3904734901694
 30
0.0
 40
2.00000007
100
AcDbArc
 50
90.00000300000095
 51
180.0000100000009
  0
ARC
  5
3BB1
330
1F
100
AcDbEntity
  8
AM_0
100
AcDbCircle
 10
459.0730677058846
 20
185.3022464901694
 30
0.0
 40
2.00000007
100
AcDbArc
 50
179.999989999999
 51
268.0000100000003
  0
ARC
  5
3BB2
330
1F
100
AcDbEntity
  8
AM_0
100
AcDbCircle
 10
460.0730577058846
 20
198.3101654901694
 30
0.0
 40
2.00000007
100
AcDbArc
 50
267.9999999999995
 51
0.0
  0
ARC
  5
3BB3
330
1F
100
AcDbEntity
  8
AM_0
100
AcDbCircle
 10
449.5276377058845
 20
173.4085394901693
 30
0.0
 40
2.545406429999998
100
AcDbArc
 50
325.6155700000018
 51
34.38443900000047
  0
ARC
  5
3BB4
330
1F
100
AcDbEntity
  8
AM_0
100
AcDbCircle
 10
449.5276377058845
 20
182.0335544901694
 30
0.0
 40
2.545406429999998
100
AcDbArc
 50
325.6155700000018
 51
34.38443900000047
  0
ARC
  5
3BB5
330
1F
100
AcDbEntity
  8
AM_0
100
AcDbCircle
 10
442.5585477058846
 20
177.7210544901694
 30
0.0
 40
9.514492199999999
100
AcDbArc
 50
342.41196
 51
17.58803299999929
  0
LINE
  5
3F38
330
1F
100
AcDbEntity
  8
AM_0
100
AcDbLine
 10
388.0729977058846
 20
179.9254604901693
 30
0.0
 11
398.6122977058845
 21
179.6494904901694
 31
0.0
  0
LINE
  5
3F39
330
1F
100
AcDbEntity
  8
AM_0
100
AcDbLine
 10
388.0730577058847
 20
189.9254624901694
 30
0.0
 11
406.0730577058846
 21
189.9254624901694
 31
0.0
  0
LINE
  5
3F3A
330
1F
100
AcDbEntity
  8
AM_0
100
AcDbLine
 10
401.5338177058846
 20
171.3875444901693
 30
0.0
 11
412.0730577058846
 21
171.1115564901694
 31
0.0
  0
LINE
  5
3F3B
330
1F
100
AcDbEntity
  8
AM_0
100
AcDbLine
 10
400.0730577058845
 20
183.5550554901693
 30
0.0
 11
400.0730577058845
 21
172.8870254901694
 31
0.0
  0
LINE
  5
3F3C
330
1F
100
AcDbEntity
  8
AM_0
100
AcDbLine
 10
406.0730577058846
 20
183.1335914901694
 30
0.0
 11
412.0730577058846
 21
183.1335914901694
 31
0.0
  0
LINE
  5
3F3D
330
1F
100
AcDbEntity
  8
AM_0
100
AcDbLine
 10
400.0730577058845
 20
185.5550684901693
 30
0.0
 11
406.0730577058846
 21
185.5550684901693
 31
0.0
  0
ARC
  5
3F3E
330
1F
100
AcDbEntity
  8
AM_0
100
AcDbCircle
 10
398.5730577058847
 20
178.1500094901694
 30
0.0
 40
1.500000029999999
100
AcDbArc
 50
0.0
 51
88.49999700000074
  0
ARC
  5
3F3F
330
1F
100
AcDbEntity
  8
AM_0
100
AcDbCircle
 10
401.5730577058844
 20
172.8870254901694
 30
0.0
 40
1.500000029999999
100
AcDbArc
 50
179.9999900000006
 51
268.5000099999988
  0
ARC
  5
3F40
330
1F
100
AcDbEntity
  8
AM_0
100
AcDbCircle
 10
398.0730477058846
 20
183.5550554901693
 30
0.0
 40
2.00000007
100
AcDbArc
 50
0.0
 51
90.00000300000095
  0
LINE
  5
43B9
330
1F
100
AcDbEntity
  8
0
  6
Continuous
 62
     7
100
AcDbLine
 10
472.0730577058847
 20
422.0672252358118
 30
0.0
 11
474.0730577058847
 21
422.0672252358118
 31
0.0
  0
LINE
  5
43BA
330
1F
100
AcDbEntity
  8
0
  6
Continuous
 62
     7
100
AcDbLine
 10
472.0730577058847
 20
442.0672252358118
 30
0.0
 11
474.0730577058847
 21
442.0672252358118
 31
0.0
  0
LINE
  5
43BB
330
1F
100
AcDbEntity
  8
0
  6
Continuous
 62
     7
100
AcDbLine
 10
480.0730577058847
 20
429.0671952358119
 30
0.0
 11
480.0730577058847
 21
435.0671952358118
 31
0.0
  0
LINE
  5
43BC
330
1F
100
AcDbEntity
  8
0
  6
Continuous
 62
     7
100
AcDbLine
 10
474.0730577058847
 20
422.5672252358118
 30
0.0
 11
502.0730577058847
 21
422.5672252358118
 31
0.0
  0
LINE
  5
43BD
330
1F
100
AcDbEntity
  8
0
  6
Continuous
 62
     7
100
AcDbLine
 10
474.0730577058847
 20
441.5672252358119
 30
0.0
 11
502.0730577058847
 21
441.5672252358119
 31
0.0
  0
LINE
  5
43BE
330
1F
100
AcDbEntity
  8
0
  6
Continuous
 62
     7
100
AcDbLine
 10
502.0730577058847
 20
422.5672252358118
 30
0.0
 11
502.0730577058847
 21
441.5672252358119
 31
0.0
  0
LINE
  5
43BF
330
1F
100
AcDbEntity
  8
0
  6
Continuous
 62
     7
100
AcDbLine
 10
474.0730577058847
 20
422.0672252358118
 30
0.0
 11
474.0730577058847
 21
442.0672252358118
 31
0.0
  0
LINE
  5
43C0
330
1F
100
AcDbEntity
  8
0
  6
Continuous
 62
     7
100
AcDbLine
 10
480.0730577058847
 20
429.0671952358119
 30
0.0
 11
502.0730577058847
 21
429.0671952358119
 31
0.0
  0
LINE
  5
43C1
330
1F
100
AcDbEntity
  8
0
  6
Continuous
 62
     7
100
AcDbLine
 10
480.0730577058847
 20
435.0671952358118
 30
0.0
 11
502.0730577058847
 21
435.0671952358118
 31
0.0
  0
LINE
  5
43C2
330
1F
100
AcDbEntity
  8
0
  6
Continuous
 62
     7
100
AcDbLine
 10
412.0730577058849
 20
372.0671952358117
 30
0.0
 11
412.0730577058849
 21
492.0672252358119
 31
0.0
  0
LINE
  5
43C3
330
1F
100
AcDbEntity
  8
0
  6
Continuous
 62
     7
100
AcDbLine
 10
412.0730577058849
 20
487.5935552358119
 30
0.0
 11
444.0730877058848
 21
487.5935552358119
 31
0.0
  0
LINE
  5
43C4
330
1F
100
AcDbEntity
  8
0
  6
Continuous
 62
     7
100
AcDbLine
 10
412.0730577058849
 20
376.540885235812
 30
0.0
 11
444.0730877058848
 21
376.540885235812
 31
0.0
  0
LINE
  5
43C5
330
1F
100
AcDbEntity
  8
0
  6
Continuous
 62
     7
100
AcDbLine
 10
406.0730577058847
 20
374.172655235812
 30
0.0
 11
406.0730577058847
 21
489.9617852358119
 31
0.0
  0
LINE
  5
43C6
330
1F
100
AcDbEntity
  8
0
  6
Continuous
 62
     7
100
AcDbLine
 10
444.0730877058848
 20
371.2292352358119
 30
0.0
 11
408.0207477058848
 21
372.173335235812
 31
0.0
  0
LINE
  5
43C7
330
1F
100
AcDbEntity
  8
0
  6
Continuous
 62
     7
100
AcDbLine
 10
408.0207177058848
 20
491.9611152358118
 30
0.0
 11
444.0730877058848
 21
492.905175235812
 31
0.0
  0
LINE
  5
43C9
330
1F
100
AcDbEntity
  8
0
  6
Continuous
 62
     7
100
AcDbLine
 10
388.0730877058848
 20
488.5672252358119
 30
0.0
 11
398.0674177058848
 21
488.8289052358119
 31
0.0
  0
LINE
  5
43CA
330
1F
100
AcDbEntity
  8
0
  6
Continuous
 62
     7
100
AcDbLine
 10
397.0730577058847
 20
480.2515152358119
 30
0.0
 11
397.0730577058847
 21
487.1001452358115
 31
0.0
  0
LINE
  5
43CB
330
1F
100
AcDbEntity
  8
0
  6
Continuous
 62
     7
100
AcDbLine
 10
399.0207177058848
 20
489.0994752358119
 30
0.0
 11
404.7017477058849
 21
489.2482552358119
 31
0.0
  0
LINE
  5
43CC
330
1F
100
AcDbEntity
  8
0
  6
Continuous
 62
     7
100
AcDbLine
 10
388.0730577058847
 20
478.067525235812
 30
0.0
 11
404.1254277058848
 21
478.4878452358118
 31
0.0
  0
LINE
  5
43CD
330
1F
100
AcDbEntity
  8
0
  6
Continuous
 62
     7
100
AcDbLine
 10
399.0207177058848
 20
375.0349652358116
 30
0.0
 11
404.7017177058847
 21
374.886195235812
 31
0.0
  0
LINE
  5
43CE
330
1F
100
AcDbEntity
  8
0
  6
Continuous
 62
     7
100
AcDbLine
 10
388.0730877058848
 20
375.5672252358118
 30
0.0
 11
398.0674177058848
 21
375.3055052358118
 31
0.0
  0
LINE
  5
43CF
330
1F
100
AcDbEntity
  8
0
  6
Continuous
 62
     7
100
AcDbLine
 10
397.0730577058847
 20
383.882925235812
 30
0.0
 11
397.0730577058847
 21
377.0342652358116
 31
0.0
  0
LINE
  5
43D0
330
1F
100
AcDbEntity
  8
0
  6
Continuous
 62
     7
100
AcDbLine
 10
388.0730877058848
 20
386.0669152358119
 30
0.0
 11
404.1254277058848
 21
385.6465652358119
 31
0.0
  0
LINE
  5
43D1
330
1F
100
AcDbEntity
  8
0
  6
Continuous
 62
     7
100
AcDbLine
 10
388.0730577058847
 20
400.1272452358119
 30
0.0
 11
404.0730577058846
 21
400.1272452358119
 31
0.0
  0
LINE
  5
43D2
330
1F
100
AcDbEntity
  8
0
  6
Continuous
 62
     7
100
AcDbLine
 10
388.0730577058847
 20
464.0071352358119
 30
0.0
 11
404.0730577058846
 21
464.0071352358119
 31
0.0
  0
LINE
  5
43D3
330
1F
100
AcDbEntity
  8
0
  6
Continuous
 62
     7
100
AcDbLine
 10
444.0730877058848
 20
496.2983352358119
 30
0.0
 11
444.0730877058848
 21
367.853595235812
 31
0.0
  0
LINE
  5
43D5
330
1F
100
AcDbEntity
  8
0
  6
Continuous
 62
     7
100
AcDbLine
 10
471.0730877058848
 20
452.994345235812
 30
0.0
 11
471.487277705885
 21
452.5801652358119
 31
0.0
  0
LINE
  5
43D6
330
1F
100
AcDbEntity
  8
0
  6
Continuous
 62
     7
100
AcDbLine
 10
459.0032677058847
 20
506.7854252358118
 30
0.0
 11
467.0730577058846
 21
507.067225235812
 31
0.0
  0
LINE
  5
43D7
330
1F
100
AcDbEntity
  8
0
  6
Continuous
 62
     7
100
AcDbLine
 10
471.0730877058848
 20
502.0672252358119
 30
0.0
 11
471.0730877058848
 21
362.0671952358119
 31
0.0
  0
LINE
  5
43D8
330
1F
100
AcDbEntity
  8
0
  6
Continuous
 62
     7
100
AcDbLine
 10
467.0730577058846
 20
507.0671952358119
 30
0.0
 11
467.0730577058846
 21
357.0671952358118
 31
0.0
  0
LINE
  5
43D9
330
1F
100
AcDbEntity
  8
0
  6
Continuous
 62
     7
100
AcDbLine
 10
467.0730577058846
 20
502.0672252358119
 30
0.0
 11
471.0730877058848
 21
502.0672252358119
 31
0.0
  0
LINE
  5
43DA
330
1F
100
AcDbEntity
  8
0
  6
Continuous
 62
     7
100
AcDbLine
 10
462.0730877058847
 20
491.5672252358119
 30
0.0
 11
462.0730877058847
 21
372.567195235812
 31
0.0
  0
LINE
  5
43DB
330
1F
100
AcDbEntity
  8
0
  6
Continuous
 62
     7
100
AcDbLine
 10
448.8985877058847
 20
501.295305235812
 30
0.0
 11
454.1777677058847
 21
501.4796652358119
 31
0.0
  0
LINE
  5
43DC
330
1F
100
AcDbEntity
  8
0
  6
Continuous
 62
     7
100
AcDbLine
 10
472.0730577058847
 20
451.0930352358118
 30
0.0
 11
472.0730577058847
 21
412.8227752358119
 31
0.0
  0
LINE
  5
43DD
330
1F
100
AcDbEntity
  8
0
  6
Continuous
 62
     7
100
AcDbLine
 10
457.0730577058847
 20
504.7866152358118
 30
0.0
 11
457.0730577058847
 21
472.5075852358119
 31
0.0
  0
LINE
  5
43DE
330
1F
100
AcDbEntity
  8
0
  6
Continuous
 62
     7
100
AcDbLine
 10
457.0730577058847
 20
359.3477952358119
 30
0.0
 11
457.0730577058847
 21
391.626825235812
 31
0.0
  0
LINE
  5
43DF
330
1F
100
AcDbEntity
  8
0
  6
Continuous
 62
     7
100
AcDbLine
 10
448.8985877058847
 20
362.8391052358119
 30
0.0
 11
454.1777977058846
 21
362.6547752358117
 31
0.0
  0
LINE
  5
43E0
330
1F
100
AcDbEntity
  8
0
  6
Continuous
 62
     7
100
AcDbLine
 10
467.0730577058846
 20
362.0671952358119
 30
0.0
 11
471.0730877058848
 21
362.0671952358119
 31
0.0
  0
LINE
  5
43E1
330
1F
100
AcDbEntity
  8
0
  6
Continuous
 62
     7
100
AcDbLine
 10
459.0032977058847
 20
357.348995235812
 30
0.0
 11
467.0730577058846
 21
357.0671952358118
 31
0.0
  0
LINE
  5
43E2
330
1F
100
AcDbEntity
  8
0
  6
Continuous
 62
     7
100
AcDbLine
 10
471.0730877058848
 20
411.140035235812
 30
0.0
 11
471.4873077058848
 21
411.5542552358119
 31
0.0
  0
ARC
  5
43E4
330
1F
100
AcDbEntity
  8
0
  6
Continuous
 62
     7
100
AcDbCircle
 10
480.0730577058847
 20
432.0671952358118
 30
0.0
 40
3.0
100
AcDbArc
 50
89.98601399999925
 51
270.01399
  0
ARC
  5
43E5
330
1F
100
AcDbEntity
  8
0
  6
Continuous
 62
     7
100
AcDbCircle
 10
408.0730577058849
 20
489.9617852358119
 30
0.0
 40
2.0
100
AcDbArc
 50
91.50000100000154
 51
180.000010000001
  0
ARC
  5
43E6
330
1F
100
AcDbEntity
  8
0
  6
Continuous
 62
     7
100
AcDbCircle
 10
408.0730577058849
 20
374.172655235812
 30
0.0
 40
2.0
100
AcDbArc
 50
180.000010000001
 51
268.5000000000005
  0
ARC
  5
43E7
330
1F
100
AcDbEntity
  8
0
  6
Continuous
 62
     7
100
AcDbCircle
 10
404.6624777058847
 20
490.7477352358118
 30
0.0
 40
1.5
100
AcDbArc
 50
271.4999999999995
 51
347.0233499999992
  0
ARC
  5
43E8
330
1F
100
AcDbEntity
  8
0
  6
Continuous
 62
     7
100
AcDbCircle
 10
399.0730577058849
 20
487.1001452358115
 30
0.0
 40
2.0
100
AcDbArc
 50
91.50000100000154
 51
180.000010000001
  0
ARC
  5
43E9
330
1F
100
AcDbEntity
  8
0
  6
Continuous
 62
     7
100
AcDbCircle
 10
404.0730577058846
 20
480.487175235812
 30
0.0
 40
2.0
100
AcDbArc
 50
271.4999999999995
 51
0.0
  0
ARC
  5
43EA
330
1F
100
AcDbEntity
  8
0
  6
Continuous
 62
     7
100
AcDbCircle
 10
395.0730577058849
 20
480.2515152358119
 30
0.0
 40
2.0
100
AcDbArc
 50
271.4999999999995
 51
0.0
  0
ARC
  5
43EB
330
1F
100
AcDbEntity
  8
0
  6
Continuous
 62
     7
100
AcDbCircle
 10
395.0730577058849
 20
383.882925235812
 30
0.0
 40
2.0
100
AcDbArc
 50
0.0
 51
88.49999700000074
  0
ARC
  5
43EC
330
1F
100
AcDbEntity
  8
0
  6
Continuous
 62
     7
100
AcDbCircle
 10
399.0730577058849
 20
377.0342652358116
 30
0.0
 40
2.0
100
AcDbArc
 50
180.000010000001
 51
268.5000000000005
  0
ARC
  5
43ED
330
1F
100
AcDbEntity
  8
0
  6
Continuous
 62
     7
100
AcDbCircle
 10
404.6624777058847
 20
373.386705235812
 30
0.0
 40
1.5
100
AcDbArc
 50
12.97665300000153
 51
88.49999700000074
  0
ARC
  5
43EE
330
1F
100
AcDbEntity
  8
0
  6
Continuous
 62
     7
100
AcDbCircle
 10
404.0730577058846
 20
383.6472652358119
 30
0.0
 40
2.0
100
AcDbArc
 50
0.0
 51
88.49999700000074
  0
ARC
  5
43EF
330
1F
100
AcDbEntity
  8
0
  6
Continuous
 62
     7
100
AcDbCircle
 10
404.0730577058846
 20
398.1272452358119
 30
0.0
 40
2.0
100
AcDbArc
 50
0.0
 51
90.00000300000095
  0
ARC
  5
43F0
330
1F
100
AcDbEntity
  8
0
  6
Continuous
 62
     7
100
AcDbCircle
 10
404.0730577058846
 20
466.0071352358117
 30
0.0
 40
2.0
100
AcDbArc
 50
270.0
 51
0.0
  0
ARC
  5
43F1
330
1F
100
AcDbEntity
  8
0
  6
Continuous
 62
     7
100
AcDbCircle
 10
459.0730877058848
 20
472.5075852358119
 30
0.0
 40
2.0
100
AcDbArc
 50
179.999989999999
 51
271.5146399999991
  0
ARC
  5
43F2
330
1F
100
AcDbEntity
  8
0
  6
Continuous
 62
     7
100
AcDbCircle
 10
454.0730577058846
 20
504.4778052358119
 30
0.0
 40
3.0
100
AcDbArc
 50
272.0000000000004
 51
0.0
  0
ARC
  5
43F3
330
1F
100
AcDbEntity
  8
0
  6
Continuous
 62
     7
100
AcDbCircle
 10
449.0730577058847
 20
496.2983352358119
 30
0.0
 40
5.0
100
AcDbArc
 50
91.99999800000055
 51
180.000010000001
  0
ARC
  5
43F4
330
1F
100
AcDbEntity
  8
0
  6
Continuous
 62
     7
100
AcDbCircle
 10
470.0730577058847
 20
451.1659152358118
 30
0.0
 40
2.0
100
AcDbArc
 50
0.0
 51
45.00000099999919
  0
ARC
  5
43F5
330
1F
100
AcDbEntity
  8
0
  6
Continuous
 62
     7
100
AcDbCircle
 10
459.0730877058848
 20
491.5672252358119
 30
0.0
 40
3.0
100
AcDbArc
 50
0.0
 51
90.00000300000095
  0
ARC
  5
43F6
330
1F
100
AcDbEntity
  8
0
  6
Continuous
 62
     7
100
AcDbCircle
 10
459.0730877058848
 20
504.7866152358118
 30
0.0
 40
2.0
100
AcDbArc
 50
91.99999800000055
 51
180.000010000001
  0
ARC
  5
43F7
330
1F
100
AcDbEntity
  8
0
  6
Continuous
 62
     7
100
AcDbCircle
 10
459.0730877058848
 20
359.3477952358119
 30
0.0
 40
2.0
100
AcDbArc
 50
179.999989999999
 51
268.0000099999986
  0
ARC
  5
43F8
330
1F
100
AcDbEntity
  8
0
  6
Continuous
 62
     7
100
AcDbCircle
 10
459.0730877058848
 20
372.567195235812
 30
0.0
 40
3.0
100
AcDbArc
 50
270.0
 51
0.0
  0
ARC
  5
43F9
330
1F
100
AcDbEntity
  8
0
  6
Continuous
 62
     7
100
AcDbCircle
 10
470.0730577058847
 20
412.9684952358119
 30
0.0
 40
2.0
100
AcDbArc
 50
315.0
 51
0.0
  0
ARC
  5
43FA
330
1F
100
AcDbEntity
  8
0
  6
Continuous
 62
     7
100
AcDbCircle
 10
449.0730577058847
 20
367.8360852358119
 30
0.0
 40
5.0
100
AcDbArc
 50
179.999989999999
 51
268.0000099999986
  0
ARC
  5
43FB
330
1F
100
AcDbEntity
  8
0
  6
Continuous
 62
     7
100
AcDbCircle
 10
454.0730577058846
 20
359.6566052358119
 30
0.0
 40
3.0
100
AcDbArc
 50
0.0
 51
87.99999999999965
  0
ARC
  5
43FC
330
1F
100
AcDbEntity
  8
0
  6
Continuous
 62
     7
100
AcDbCircle
 10
459.0730877058848
 20
391.626825235812
 30
0.0
 40
2.0
100
AcDbArc
 50
88.48535300000099
 51
180.000010000001
  0
TEXT
  5
447A
330
1F
100
AcDbEntity
  8
AM_0
100
AcDbText
 10
582.8985885558084
 20
377.7625571245562
 30
0.0
 40
7.5
  1
ＶＸ０２－００５～０３０ＨＦ－Ｔ２（Ｔ４）
 41
0.8299999999999998
100
AcDbText
  0
LINE
  5
45B0
330
1F
100
AcDbEntity
  8
ﾁｭｳｼﾝｾﾝ1
100
AcDbLine
 10
320.3347428095104
 20
235.9254404901694
 30
0.0
 11
410.0366577058847
 21
235.9254404901694
 31
0.0
  0
CIRCLE
  5
45B1
330
1F
100
AcDbEntity
  8
0
100
AcDbCircle
 10
346.5731027058835
 20
445.0671907358118
 30
0.0
 40
10.0
  0
LINE
  5
45B2
330
1F
100
AcDbEntity
  8
ﾁｭｳｼﾝｾﾝ1
100
AcDbLine
 10
320.3347428095104
 20
432.0671907358118
 30
0.0
 11
505.0730877058847
 21
432.0671907358118
 31
0.0
1001
GENIUS_GENOBJ-N-CEN_13
1002
{
1000
OWNER
1000
GEN
1002
}
1001
GENIUS_GENODEF_13
1002
{
1000
HIER
1070
     0
1002
}
1002
{
1000
MANEDIT
1070
     0
1002
}
1002
{
1000
NOSEL
1070
     0
1002
}
1002
{
1000
BEHIND
1070
     0
1002
}
1002
{
1000
OTHER
1070
     0
1002
}
1002
{
1000
REACTOR
1002
}
1001
GENIUS_GENCEN_19
1002
{
1040
3.0
1002
}
  0
LINE
  5
45B3
330
1F
100
AcDbEntity
  8
ﾁｭｳｼﾝｾﾝ1
 48
0.7
100
AcDbLine
 10
346.5731027058835
 20
458.0671907358118
 30
0.0
 11
346.5731027058834
 21
432.0671907358118
 31
0.0
1001
GENIUS_GENODEF_13
1002
{
1000
HIER
1070
     0
1002
}
1002
{
1000
MANEDIT
1070
     0
1002
}
1002
{
1000
NOSEL
1070
     0
1002
}
1002
{
1000
BEHIND
1070
     0
1002
}
1002
{
1000
OTHER
1070
     0
1002
}
1002
{
1000
REACTOR
1002
}
1001
GENIUS_GENOBJ-N-CEN_13
1002
{
1000
OWNER
1000
GEN
1002
}
1001
GENIUS_GENCEN_19
1002
{
1040
3.0
1002
}
  0
LINE
  5
45B4
330
1F
100
AcDbEntity
  8
AM_0
100
AcDbLine
 10
345.5731027058835
 20
450.0671907358118
 30
0.0
 11
345.5731027058835
 21
440.0671907358118
 31
0.0
1001
GENIUS_GENODEF_13
1002
{
1000
HIER
1070
     0
1002
}
1002
{
1000
MANEDIT
1070
     0
1002
}
1002
{
1000
NOSEL
1070
     0
1002
}
1002
{
1000
BEHIND
1070
     0
1002
}
1002
{
1000
OTHER
1070
     0
1002
}
1002
{
1000
REACTOR
1002
}
1001
GENIUS_GENOBJ-N-CEN_13
1002
{
1000
OWNER
1000
GEN
1002
}
1001
GENIUS_GENCEN_19
1002
{
1040
3.0
1002
}
  0
LINE
  5
45B5
330
1F
100
AcDbEntity
  8
AM_0
100
AcDbLine
 10
347.5731027058835
 20
450.0671907358118
 30
0.0
 11
347.5731027058835
 21
440.0671907358118
 31
0.0
1001
GENIUS_GENODEF_13
1002
{
1000
HIER
1070
     0
1002
}
1002
{
1000
MANEDIT
1070
     0
1002
}
1002
{
1000
NOSEL
1070
     0
1002
}
1002
{
1000
BEHIND
1070
     0
1002
}
1002
{
1000
OTHER
1070
     0
1002
}
1002
{
1000
REACTOR
1002
}
1001
GENIUS_GENOBJ-N-CEN_13
1002
{
1000
OWNER
1000
GEN
1002
}
1001
GENIUS_GENCEN_19
1002
{
1040
3.0
1002
}
  0
CIRCLE
  5
45B6
330
1F
100
AcDbEntity
  8
AM_0
100
AcDbCircle
 10
346.5731027058835
 20
445.0671907358118
 30
0.0
 40
8.500000000000056
  0
CIRCLE
  5
45B7
330
1F
100
AcDbEntity
  8
AM_0
100
AcDbCircle
 10
346.5731027058835
 20
445.0671907358118
 30
0.0
 40
8.999999999999971
  0
ARC
  5
45B8
330
1F
100
AcDbEntity
  8
AM_0
100
AcDbCircle
 10
346.5731027058835
 20
450.0671907358118
 30
0.0
 40
1.0
100
AcDbArc
 50
0.0
 51
180.0
  0
ARC
  5
45B9
330
1F
100
AcDbEntity
  8
AM_0
100
AcDbCircle
 10
346.5731027058835
 20
440.0671907358118
 30
0.0
 40
1.0
100
AcDbArc
 50
180.0
 51
0.0
  0
LINE
  5
45BA
330
1F
100
AcDbEntity
  8
ﾁｭｳｼﾝｾﾝ1
 48
0.7
100
AcDbLine
 10
333.5731027058835
 20
445.0671907358118
 30
0.0
 11
359.5731027058834
 21
445.0671907358118
 31
0.0
1001
GENIUS_GENOBJ-N-CEN_13
1002
{
1000
OWNER
1000
GEN
1002
}
1001
GENIUS_GENODEF_13
1002
{
1000
HIER
1070
     0
1002
}
1002
{
1000
MANEDIT
1070
     0
1002
}
1002
{
1000
NOSEL
1070
     0
1002
}
1002
{
1000
BEHIND
1070
     0
1002
}
1002
{
1000
OTHER
1070
     0
1002
}
1002
{
1000
REACTOR
1002
}
1001
GENIUS_GENCEN_19
1002
{
1040
3.0
1002
}
  0
LINE
  5
45BB
330
1F
100
AcDbEntity
  8
AM_0
100
AcDbLine
 10
388.0730877058848
 20
291.9254654901694
 30
0.0
 11
388.0730877058848
 21
179.9254544901693
 31
0.0
  0
LINE
  5
45BC
330
1F
100
AcDbEntity
  8
0
100
AcDbLine
 10
380.0032887124796
 20
292.1436563996759
 30
0.0
 11
388.0730877058848
 21
292.4254599901693
 31
0.0
  0
LINE
  5
45BD
330
1F
100
AcDbEntity
  8
0
100
AcDbLine
 10
380.0032887124798
 20
179.7072635806627
 30
0.0
 11
388.0730877058848
 21
179.4254599901693
 31
0.0
  0
ARC
  5
45BE
330
1F
100
AcDbEntity
  8
0
100
AcDbCircle
 10
380.0730877058848
 20
181.706045234701
 30
0.0
 40
2.0
100
AcDbArc
 50
180.0
 51
267.9999999999996
1001
GENIUS_GENODEF_13
1002
{
1000
HIER
1070
     0
1002
}
1002
{
1000
MANEDIT
1070
     0
1002
}
1002
{
1000
NOSEL
1070
     0
1002
}
1002
{
1000
BEHIND
1070
     0
1002
}
1002
{
1000
OTHER
1070
     0
1002
}
1002
{
1000
REACTOR
1002
}
1001
GENIUS_GENOBJ-N-FIL_13
1002
{
1000
OWNER
1000
GEN
1002
}
  0
LINE
  5
45BF
330
1F
100
AcDbEntity
  8
0
100
AcDbLine
 10
388.0730877058848
 20
292.4254599901693
 30
0.0
 11
388.0730877058848
 21
179.4254599901693
 31
0.0
  0
LINE
  5
45C0
330
1F
100
AcDbEntity
  8
0
100
AcDbLine
 10
384.0730877058847
 20
179.5651430681363
 30
0.0
 11
384.0730877058847
 21
179.4254599901693
 31
0.0
  0
LINE
  5
45C1
330
1F
100
AcDbEntity
  8
0
100
AcDbLine
 10
378.0730877058847
 20
290.1448747456377
 30
0.0
 11
378.0730877058848
 21
181.706045234701
 31
0.0
  0
ARC
  5
45C2
330
1F
100
AcDbEntity
  8
0
100
AcDbCircle
 10
380.0730877058847
 20
290.1448747456377
 30
0.0
 40
2.0
100
AcDbArc
 50
92.00000000000041
 51
180.0
1001
GENIUS_GENOBJ-N-FIL_13
1002
{
1000
OWNER
1000
GEN
1002
}
1001
GENIUS_GENODEF_13
1002
{
1000
HIER
1070
     0
1002
}
1002
{
1000
MANEDIT
1070
     0
1002
}
1002
{
1000
NOSEL
1070
     0
1002
}
1002
{
1000
BEHIND
1070
     0
1002
}
1002
{
1000
OTHER
1070
     0
1002
}
1002
{
1000
REACTOR
1002
}
  0
ARC
  5
45C3
330
1F
100
AcDbEntity
  8
0
100
AcDbCircle
 10
373.0730877058834
 20
287.9965083020348
 30
0.0
 40
5.0
100
AcDbArc
 50
315.0
 51
0.0
1001
GENIUS_GENOBJ-N-FIL_13
1002
{
1000
OWNER
1000
GEN
1002
}
1001
GENIUS_GENODEF_13
1002
{
1000
HIER
1070
     0
1002
}
1002
{
1000
MANEDIT
1070
     0
1002
}
1002
{
1000
NOSEL
1070
     0
1002
}
1002
{
1000
BEHIND
1070
     0
1002
}
1002
{
1000
OTHER
1070
     0
1002
}
1002
{
1000
REACTOR
1002
}
  0
LINE
  5
45C4
330
1F
100
AcDbEntity
  8
0
100
AcDbLine
 10
360.7141312534829
 20
268.5664840377687
 30
0.0
 11
376.6086216118162
 21
284.4609743961022
 31
0.0
  0
ARC
  5
45C5
330
1F
100
AcDbEntity
  8
0
100
AcDbCircle
 10
357.1785973475501
 20
272.1020179437014
 30
0.0
 40
5.0
100
AcDbArc
 50
272.0000000000004
 51
315.0
1001
GENIUS_GENOBJ-N-FIL_13
1002
{
1000
OWNER
1000
GEN
1002
}
1001
GENIUS_GENODEF_13
1002
{
1000
HIER
1070
     0
1002
}
1002
{
1000
MANEDIT
1070
     0
1002
}
1002
{
1000
NOSEL
1070
     0
1002
}
1002
{
1000
BEHIND
1070
     0
1002
}
1002
{
1000
OTHER
1070
     0
1002
}
1002
{
1000
REACTOR
1002
}
  0
LINE
  5
45C6
330
1F
100
AcDbEntity
  8
0
100
AcDbLine
 10
361.3935710036789
 20
267.2461603456669
 30
0.0
 11
335.5731027058835
 21
266.3444897240704
 31
0.0
  0
ARC
  5
45C7
330
1F
100
AcDbEntity
  8
0
100
AcDbCircle
 10
373.0730877058834
 20
183.8543726783038
 30
0.0
 40
5.0
100
AcDbArc
 50
0.0
 51
45.0
1001
GENIUS_GENOBJ-N-FIL_13
1002
{
1000
OWNER
1000
GEN
1002
}
1001
GENIUS_GENODEF_13
1002
{
1000
HIER
1070
     0
1002
}
1002
{
1000
MANEDIT
1070
     0
1002
}
1002
{
1000
NOSEL
1070
     0
1002
}
1002
{
1000
BEHIND
1070
     0
1002
}
1002
{
1000
OTHER
1070
     0
1002
}
1002
{
1000
REACTOR
1002
}
  0
LINE
  5
45C8
330
1F
100
AcDbEntity
  8
0
100
AcDbLine
 10
360.7141312534829
 20
203.2843969425699
 30
0.0
 11
376.6086216118162
 21
187.3899065842365
 31
0.0
  0
ARC
  5
45C9
330
1F
100
AcDbEntity
  8
0
100
AcDbCircle
 10
357.1785973475501
 20
199.7488630366371
 30
0.0
 40
5.0
100
AcDbArc
 50
45.0
 51
87.99999999999959
1001
GENIUS_GENOBJ-N-FIL_13
1002
{
1000
OWNER
1000
GEN
1002
}
1001
GENIUS_GENODEF_13
1002
{
1000
HIER
1070
     0
1002
}
1002
{
1000
MANEDIT
1070
     0
1002
}
1002
{
1000
NOSEL
1070
     0
1002
}
1002
{
1000
BEHIND
1070
     0
1002
}
1002
{
1000
OTHER
1070
     0
1002
}
1002
{
1000
REACTOR
1002
}
  0
LINE
  5
45CA
330
1F
100
AcDbEntity
  8
0
100
AcDbLine
 10
361.3935710036789
 20
204.6047206346717
 30
0.0
 11
338.677801195991
 21
205.3979727959538
 31
0.0
  0
ARC
  5
45CB
330
1F
100
AcDbEntity
  8
図面枠-ｷｲﾛ
100
AcDbCircle
 10
437.6162090437739
 20
235.9254404901693
 30
0.0
 40
75.47521558726231
100
AcDbArc
 50
160.9069053726745
 51
199.0930946273255
  0
ARC
  5
45CC
330
1F
100
AcDbEntity
  8
図面枠-ｷｲﾛ
100
AcDbCircle
 10
361.5680684871914
 20
209.6016747697672
 30
0.0
 40
5.0
100
AcDbArc
 50
267.9999999999996
 51
19.09309462732549
1001
GENIUS_GENOBJ-N-FIL_13
1002
{
1000
OWNER
1000
GEN
1002
}
1001
GENIUS_GENODEF_13
1002
{
1000
HIER
1070
     0
1002
}
1002
{
1000
MANEDIT
1070
     0
1002
}
1002
{
1000
NOSEL
1070
     0
1002
}
1002
{
1000
BEHIND
1070
     0
1002
}
1002
{
1000
OTHER
1070
     0
1002
}
1002
{
1000
REACTOR
1002
}
  0
ARC
  5
45CD
330
1F
100
AcDbEntity
  8
図面枠-ｷｲﾛ
100
AcDbCircle
 10
361.5680684871914
 20
262.2492062105714
 30
0.0
 40
5.0
100
AcDbArc
 50
340.9069053726745
 51
92.00000000000041
1001
GENIUS_GENODEF_13
1002
{
1000
HIER
1070
     0
1002
}
1002
{
1000
MANEDIT
1070
     0
1002
}
1002
{
1000
NOSEL
1070
     0
1002
}
1002
{
1000
BEHIND
1070
     0
1002
}
1002
{
1000
OTHER
1070
     0
1002
}
1002
{
1000
REACTOR
1002
}
1001
GENIUS_GENOBJ-N-FIL_13
1002
{
1000
OWNER
1000
GEN
1002
}
  0
LINE
  5
45CE
330
1F
100
AcDbEntity
  8
AM_0
100
AcDbLine
 10
388.0730877058848
 20
281.9254454901694
 30
0.0
 11
378.0730877058847
 21
281.9254454901694
 31
0.0
  0
LINE
  5
45CF
330
1F
100
AcDbEntity
  8
AM_0
100
AcDbLine
 10
388.0730877058848
 20
267.8628794901694
 30
0.0
 11
378.0730877058847
 21
267.8628794901694
 31
0.0
  0
LINE
  5
45D0
330
1F
100
AcDbEntity
  8
AM_0
100
AcDbLine
 10
388.0730877058848
 20
203.9880014901693
 30
0.0
 11
378.0730877058847
 21
203.9880014901694
 31
0.0
  0
LINE
  5
45D1
330
1F
100
AcDbEntity
  8
AM_0
100
AcDbLine
 10
388.0730877058848
 20
189.9254384901693
 30
0.0
 11
378.0730877058847
 21
189.9254384901693
 31
0.0
  0
LINE
  5
45D2
330
1F
100
AcDbEntity
  8
AM_7
  6
AM_ISO08W050x2
 62
     1
370
    25
100
AcDbLine
 10
346.5731027058835
 20
257.2012820291529
 30
0.0
 11
346.5731027058835
 21
270.2075956734292
 31
0.0
1001
GENIUS_GENOBJ-N-CEN_13
1002
{
1000
OWNER
1000
GEN
1002
}
1001
GENIUS_GENODEF_13
1002
{
1000
HIER
1070
     0
1002
}
1002
{
1000
MANEDIT
1070
     0
1002
}
1002
{
1000
NOSEL
1070
     0
1002
}
1002
{
1000
BEHIND
1070
     0
1002
}
1002
{
1000
OTHER
1070
     0
1002
}
1002
{
1000
REACTOR
1002
}
1001
GENIUS_GENCEN_19
1002
{
1040
2.794
1002
}
  0
LINE
  5
45D3
330
1F
100
AcDbEntity
  8
0
100
AcDbLine
 10
355.0731027058835
 20
267.0254447291596
 30
0.0
 11
355.0731027058835
 21
267.395282029153
 31
0.0
1001
GENIUS_GENOBJ-N-CEN_13
1002
{
1000
OWNER
1000
GEN
1002
}
1001
GENIUS_GENODEF_13
1002
{
1000
HIER
1070
     0
1002
}
1002
{
1000
MANEDIT
1070
     0
1002
}
1002
{
1000
NOSEL
1070
     0
1002
}
1002
{
1000
BEHIND
1070
     0
1002
}
1002
{
1000
OTHER
1070
     0
1002
}
1002
{
1000
REACTOR
1002
}
1001
GENIUS_GENCEN_19
1002
{
1040
2.794
1002
}
  0
LINE
  5
45D4
330
1F
100
AcDbEntity
  8
図面枠-ｷｲﾛ
100
AcDbLine
 10
338.0731027058835
 20
267.3952820291529
 30
0.0
 11
355.0731027058835
 21
267.395282029153
 31
0.0
  0
ARC
  5
45D5
330
1F
100
AcDbEntity
  8
0
100
AcDbCircle
 10
346.5731027058836
 20
250.3327820291529
 30
0.0
 40
19.06249999999999
100
AcDbArc
 50
63.51896016962518
 51
116.4810398303748
  0
LINE
  5
45D6
330
1F
100
AcDbEntity
  8
AM_0
100
AcDbLine
 10
388.0730877058848
 20
488.0671962358118
 30
0.0
 11
388.0730877058848
 21
376.0671852358119
 31
0.0
  0
LINE
  5
45D7
330
1F
100
AcDbEntity
  8
0
100
AcDbLine
 10
380.0032887124796
 20
488.2853871453185
 30
0.0
 11
388.0730877058848
 21
488.5671907358118
 31
0.0
  0
LINE
  5
45D8
330
1F
100
AcDbEntity
  8
0
100
AcDbLine
 10
380.0032887124798
 20
375.8489943263053
 30
0.0
 11
388.0730877058848
 21
375.5671907358118
 31
0.0
  0
ARC
  5
45D9
330
1F
100
AcDbEntity
  8
0
100
AcDbCircle
 10
380.0730877058848
 20
377.8477759803435
 30
0.0
 40
2.0
100
AcDbArc
 50
180.0
 51
267.9999999999996
1001
GENIUS_GENODEF_13
1002
{
1000
HIER
1070
     0
1002
}
1002
{
1000
MANEDIT
1070
     0
1002
}
1002
{
1000
NOSEL
1070
     0
1002
}
1002
{
1000
BEHIND
1070
     0
1002
}
1002
{
1000
OTHER
1070
     0
1002
}
1002
{
1000
REACTOR
1002
}
1001
GENIUS_GENOBJ-N-FIL_13
1002
{
1000
OWNER
1000
GEN
1002
}
  0
LINE
  5
45DA
330
1F
100
AcDbEntity
  8
0
100
AcDbLine
 10
388.0730877058848
 20
488.5671907358118
 30
0.0
 11
388.0730877058848
 21
375.5671907358118
 31
0.0
  0
LINE
  5
45DB
330
1F
100
AcDbEntity
  8
0
100
AcDbLine
 10
384.0730877058847
 20
375.7068738137788
 30
0.0
 11
384.0730877058847
 21
375.5671907358118
 31
0.0
  0
LINE
  5
45DC
330
1F
100
AcDbEntity
  8
0
100
AcDbLine
 10
378.0730877058847
 20
486.2866054912802
 30
0.0
 11
378.0730877058848
 21
377.8477759803435
 31
0.0
  0
ARC
  5
45DD
330
1F
100
AcDbEntity
  8
0
100
AcDbCircle
 10
380.0730877058847
 20
486.2866054912802
 30
0.0
 40
2.0
100
AcDbArc
 50
92.00000000000041
 51
180.0
1001
GENIUS_GENOBJ-N-FIL_13
1002
{
1000
OWNER
1000
GEN
1002
}
1001
GENIUS_GENODEF_13
1002
{
1000
HIER
1070
     0
1002
}
1002
{
1000
MANEDIT
1070
     0
1002
}
1002
{
1000
NOSEL
1070
     0
1002
}
1002
{
1000
BEHIND
1070
     0
1002
}
1002
{
1000
OTHER
1070
     0
1002
}
1002
{
1000
REACTOR
1002
}
  0
ARC
  5
45DE
330
1F
100
AcDbEntity
  8
0
100
AcDbCircle
 10
373.0730877058834
 20
484.1382390476773
 30
0.0
 40
5.0
100
AcDbArc
 50
315.0
 51
0.0
1001
GENIUS_GENOBJ-N-FIL_13
1002
{
1000
OWNER
1000
GEN
1002
}
1001
GENIUS_GENODEF_13
1002
{
1000
HIER
1070
     0
1002
}
1002
{
1000
MANEDIT
1070
     0
1002
}
1002
{
1000
NOSEL
1070
     0
1002
}
1002
{
1000
BEHIND
1070
     0
1002
}
1002
{
1000
OTHER
1070
     0
1002
}
1002
{
1000
REACTOR
1002
}
  0
LINE
  5
45DF
330
1F
100
AcDbEntity
  8
0
100
AcDbLine
 10
360.7141312534829
 20
464.7082147834112
 30
0.0
 11
376.6086216118162
 21
480.6027051417447
 31
0.0
  0
ARC
  5
45E0
330
1F
100
AcDbEntity
  8
0
100
AcDbCircle
 10
357.1785973475501
 20
468.2437486893439
 30
0.0
 40
5.0
100
AcDbArc
 50
272.0000000000004
 51
315.0
1001
GENIUS_GENOBJ-N-FIL_13
1002
{
1000
OWNER
1000
GEN
1002
}
1001
GENIUS_GENODEF_13
1002
{
1000
HIER
1070
     0
1002
}
1002
{
1000
MANEDIT
1070
     0
1002
}
1002
{
1000
NOSEL
1070
     0
1002
}
1002
{
1000
BEHIND
1070
     0
1002
}
1002
{
1000
OTHER
1070
     0
1002
}
1002
{
1000
REACTOR
1002
}
  0
LINE
  5
45E1
330
1F
100
AcDbEntity
  8
0
100
AcDbLine
 10
361.3935710036789
 20
463.3878910913093
 30
0.0
 11
338.6778011959909
 21
462.5946389300273
 31
0.0
  0
ARC
  5
45E2
330
1F
100
AcDbEntity
  8
0
100
AcDbCircle
 10
338.5731027058834
 20
465.5928114110846
 30
0.0
 40
3.0
100
AcDbArc
 50
180.0
 51
272.0000000000004
1001
GENIUS_GENOBJ-N-FIL_13
1002
{
1000
OWNER
1000
GEN
1002
}
1001
GENIUS_GENODEF_13
1002
{
1000
HIER
1070
     0
1002
}
1002
{
1000
MANEDIT
1070
     0
1002
}
1002
{
1000
NOSEL
1070
     0
1002
}
1002
{
1000
BEHIND
1070
     0
1002
}
1002
{
1000
OTHER
1070
     0
1002
}
1002
{
1000
REACTOR
1002
}
  0
ARC
  5
45E3
330
1F
100
AcDbEntity
  8
0
100
AcDbCircle
 10
373.0730877058834
 20
379.9961034239463
 30
0.0
 40
5.0
100
AcDbArc
 50
0.0
 51
45.0
1001
GENIUS_GENOBJ-N-FIL_13
1002
{
1000
OWNER
1000
GEN
1002
}
1001
GENIUS_GENODEF_13
1002
{
1000
HIER
1070
     0
1002
}
1002
{
1000
MANEDIT
1070
     0
1002
}
1002
{
1000
NOSEL
1070
     0
1002
}
1002
{
1000
BEHIND
1070
     0
1002
}
1002
{
1000
OTHER
1070
     0
1002
}
1002
{
1000
REACTOR
1002
}
  0
LINE
  5
45E4
330
1F
100
AcDbEntity
  8
0
100
AcDbLine
 10
360.7141312534829
 20
399.4261276882124
 30
0.0
 11
376.6086216118162
 21
383.531637329879
 31
0.0
  0
ARC
  5
45E5
330
1F
100
AcDbEntity
  8
0
100
AcDbCircle
 10
357.1785973475501
 20
395.8905937822796
 30
0.0
 40
5.0
100
AcDbArc
 50
45.0
 51
87.99999999999959
1001
GENIUS_GENOBJ-N-FIL_13
1002
{
1000
OWNER
1000
GEN
1002
}
1001
GENIUS_GENODEF_13
1002
{
1000
HIER
1070
     0
1002
}
1002
{
1000
MANEDIT
1070
     0
1002
}
1002
{
1000
NOSEL
1070
     0
1002
}
1002
{
1000
BEHIND
1070
     0
1002
}
1002
{
1000
OTHER
1070
     0
1002
}
1002
{
1000
REACTOR
1002
}
  0
LINE
  5
45E6
330
1F
100
AcDbEntity
  8
0
100
AcDbLine
 10
361.3935710036789
 20
400.7464513803141
 30
0.0
 11
338.677801195991
 21
401.5397035415962
 31
0.0
  0
ARC
  5
45E7
330
1F
100
AcDbEntity
  8
図面枠-ｷｲﾛ
100
AcDbCircle
 10
437.6162090437739
 20
432.0671712358118
 30
0.0
 40
75.47521558726231
100
AcDbArc
 50
160.9069053726745
 51
199.0930946273255
  0
ARC
  5
45E8
330
1F
100
AcDbEntity
  8
図面枠-ｷｲﾛ
100
AcDbCircle
 10
361.5680684871914
 20
405.7434055154097
 30
0.0
 40
5.0
100
AcDbArc
 50
267.9999999999996
 51
19.09309462732549
1001
GENIUS_GENOBJ-N-FIL_13
1002
{
1000
OWNER
1000
GEN
1002
}
1001
GENIUS_GENODEF_13
1002
{
1000
HIER
1070
     0
1002
}
1002
{
1000
MANEDIT
1070
     0
1002
}
1002
{
1000
NOSEL
1070
     0
1002
}
1002
{
1000
BEHIND
1070
     0
1002
}
1002
{
1000
OTHER
1070
     0
1002
}
1002
{
1000
REACTOR
1002
}
  0
ARC
  5
45E9
330
1F
100
AcDbEntity
  8
図面枠-ｷｲﾛ
100
AcDbCircle
 10
361.5680684871914
 20
458.3909369562139
 30
0.0
 40
5.0
100
AcDbArc
 50
340.9069053726745
 51
92.00000000000041
1001
GENIUS_GENODEF_13
1002
{
1000
HIER
1070
     0
1002
}
1002
{
1000
MANEDIT
1070
     0
1002
}
1002
{
1000
NOSEL
1070
     0
1002
}
1002
{
1000
BEHIND
1070
     0
1002
}
1002
{
1000
OTHER
1070
     0
1002
}
1002
{
1000
REACTOR
1002
}
1001
GENIUS_GENOBJ-N-FIL_13
1002
{
1000
OWNER
1000
GEN
1002
}
  0
LINE
  5
45EA
330
1F
100
AcDbEntity
  8
AM_0
100
AcDbLine
 10
388.0730877058848
 20
478.0671762358118
 30
0.0
 11
378.0730877058847
 21
478.0671762358118
 31
0.0
  0
LINE
  5
45EB
330
1F
100
AcDbEntity
  8
AM_0
100
AcDbLine
 10
388.0730877058848
 20
464.0046102358119
 30
0.0
 11
378.0730877058847
 21
464.0046102358119
 31
0.0
  0
LINE
  5
45EC
330
1F
100
AcDbEntity
  8
AM_0
100
AcDbLine
 10
388.0730877058848
 20
400.1297322358118
 30
0.0
 11
378.0730877058847
 21
400.1297322358118
 31
0.0
  0
LINE
  5
45ED
330
1F
100
AcDbEntity
  8
AM_0
100
AcDbLine
 10
388.0730877058848
 20
386.0671692358118
 30
0.0
 11
378.0730877058847
 21
386.0671692358118
 31
0.0
  0
LINE
  5
45EE
330
1F
100
AcDbEntity
  8
0
100
AcDbLine
 10
323.5731027058835
 20
275.9254404901694
 30
0.0
 11
323.5731027058835
 21
195.9254404901694
 31
0.0
  0
LINE
  5
45EF
330
1F
100
AcDbEntity
  8
0
100
AcDbLine
 10
335.5731027058835
 20
272.9254404901694
 30
0.0
 11
335.5731027058835
 21
198.9254404901694
 31
0.0
  0
ARC
  5
45F0
330
1F
100
AcDbEntity
  8
0
100
AcDbCircle
 10
338.5731027058835
 20
269.4510806654422
 30
0.0
 40
3.0
100
AcDbArc
 50
180.0
 51
272.0000000000004
1001
GENIUS_GENOBJ-N-FIL_13
1002
{
1000
OWNER
1000
GEN
1002
}
1001
GENIUS_GENODEF_13
1002
{
1000
HIER
1070
     0
1002
}
1002
{
1000
MANEDIT
1070
     0
1002
}
1002
{
1000
NOSEL
1070
     0
1002
}
1002
{
1000
BEHIND
1070
     0
1002
}
1002
{
1000
OTHER
1070
     0
1002
}
1002
{
1000
REACTOR
1002
}
  0
ARC
  5
45F1
330
1F
100
AcDbEntity
  8
0
100
AcDbCircle
 10
338.5731027058835
 20
202.3998003148967
 30
0.0
 40
3.0
100
AcDbArc
 50
87.99999999999959
 51
180.0
1001
GENIUS_GENOBJ-N-FIL_13
1002
{
1000
OWNER
1000
GEN
1002
}
1001
GENIUS_GENODEF_13
1002
{
1000
HIER
1070
     0
1002
}
1002
{
1000
MANEDIT
1070
     0
1002
}
1002
{
1000
NOSEL
1070
     0
1002
}
1002
{
1000
BEHIND
1070
     0
1002
}
1002
{
1000
OTHER
1070
     0
1002
}
1002
{
1000
REACTOR
1002
}
  0
ARC
  5
45F2
330
1F
100
AcDbEntity
  8
AM_0
100
AcDbCircle
 10
332.5731027058835
 20
272.9254404901694
 30
0.0
 40
3.0
100
AcDbArc
 50
0.0
 51
90.0
1001
GENIUS_GENODEF_13
1002
{
1000
HIER
1070
     0
1002
}
1002
{
1000
MANEDIT
1070
     0
1002
}
1002
{
1000
NOSEL
1070
     0
1002
}
1002
{
1000
BEHIND
1070
     0
1002
}
1002
{
1000
OTHER
1070
     0
1002
}
1002
{
1000
REACTOR
1002
}
1001
GENIUS_GENOBJ-N-FIL_13
1002
{
1000
OWNER
1000
GEN
1002
}
  0
ARC
  5
45F3
330
1F
100
AcDbEntity
  8
AM_0
100
AcDbCircle
 10
332.5731027058834
 20
198.9254404901693
 30
0.0
 40
3.0
100
AcDbArc
 50
270.0
 51
0.0
1001
GENIUS_GENODEF_13
1002
{
1000
HIER
1070
     0
1002
}
1002
{
1000
MANEDIT
1070
     0
1002
}
1002
{
1000
NOSEL
1070
     0
1002
}
1002
{
1000
BEHIND
1070
     0
1002
}
1002
{
1000
OTHER
1070
     0
1002
}
1002
{
1000
REACTOR
1002
}
1001
GENIUS_GENOBJ-N-FIL_13
1002
{
1000
OWNER
1000
GEN
1002
}
  0
LINE
  5
45F4
330
1F
100
AcDbEntity
  8
AM_0
100
AcDbLine
 10
323.5731027058835
 20
275.9254404901694
 30
0.0
 11
332.5731027058834
 21
275.9254404901694
 31
0.0
  0
LINE
  5
45F5
330
1F
100
AcDbEntity
  8
AM_0
100
AcDbLine
 10
323.5731027058835
 20
195.9254404901694
 30
0.0
 11
332.5731027058834
 21
195.9254404901693
 31
0.0
  0
LINE
  5
45F6
330
1F
100
AcDbEntity
  8
0
100
AcDbLine
 10
323.5731027058835
 20
472.0671907358118
 30
0.0
 11
323.5731027058835
 21
392.0671907358118
 31
0.0
  0
LINE
  5
45F7
330
1F
100
AcDbEntity
  8
0
100
AcDbLine
 10
335.5731027058835
 20
469.0671907358118
 30
0.0
 11
335.5731027058835
 21
395.0671907358118
 31
0.0
  0
ARC
  5
45F8
330
1F
100
AcDbEntity
  8
0
100
AcDbCircle
 10
338.5731027058834
 20
398.541531060539
 30
0.0
 40
3.0
100
AcDbArc
 50
87.99999999999959
 51
180.0
1001
GENIUS_GENOBJ-N-FIL_13
1002
{
1000
OWNER
1000
GEN
1002
}
1001
GENIUS_GENODEF_13
1002
{
1000
HIER
1070
     0
1002
}
1002
{
1000
MANEDIT
1070
     0
1002
}
1002
{
1000
NOSEL
1070
     0
1002
}
1002
{
1000
BEHIND
1070
     0
1002
}
1002
{
1000
OTHER
1070
     0
1002
}
1002
{
1000
REACTOR
1002
}
  0
ARC
  5
45F9
330
1F
100
AcDbEntity
  8
AM_0
100
AcDbCircle
 10
332.5731027058835
 20
469.0671907358119
 30
0.0
 40
3.0
100
AcDbArc
 50
0.0
 51
90.0
1001
GENIUS_GENODEF_13
1002
{
1000
HIER
1070
     0
1002
}
1002
{
1000
MANEDIT
1070
     0
1002
}
1002
{
1000
NOSEL
1070
     0
1002
}
1002
{
1000
BEHIND
1070
     0
1002
}
1002
{
1000
OTHER
1070
     0
1002
}
1002
{
1000
REACTOR
1002
}
1001
GENIUS_GENOBJ-N-FIL_13
1002
{
1000
OWNER
1000
GEN
1002
}
  0
ARC
  5
45FA
330
1F
100
AcDbEntity
  8
AM_0
100
AcDbCircle
 10
332.5731027058834
 20
395.0671907358118
 30
0.0
 40
3.0
100
AcDbArc
 50
270.0
 51
0.0
1001
GENIUS_GENODEF_13
1002
{
1000
HIER
1070
     0
1002
}
1002
{
1000
MANEDIT
1070
     0
1002
}
1002
{
1000
NOSEL
1070
     0
1002
}
1002
{
1000
BEHIND
1070
     0
1002
}
1002
{
1000
OTHER
1070
     0
1002
}
1002
{
1000
REACTOR
1002
}
1001
GENIUS_GENOBJ-N-FIL_13
1002
{
1000
OWNER
1000
GEN
1002
}
  0
LINE
  5
45FB
330
1F
100
AcDbEntity
  8
AM_0
100
AcDbLine
 10
323.5731027058835
 20
472.0671907358118
 30
0.0
 11
332.5731027058834
 21
472.0671907358118
 31
0.0
  0
LINE
  5
45FC
330
1F
100
AcDbEntity
  8
AM_0
100
AcDbLine
 10
323.5731027058835
 20
392.0671907358118
 30
0.0
 11
332.5731027058834
 21
392.0671907358118
 31
0.0
  0
LINE
  5
45FD
330
1F
100
AcDbEntity
  8
0
100
AcDbLine
 10
338.0731027058835
 20
266.4317916477997
 30
0.0
 11
338.0731027058835
 21
267.395282029153
 31
0.0
1001
GENIUS_GENOBJ-N-CEN_13
1002
{
1000
OWNER
1000
GEN
1002
}
1001
GENIUS_GENODEF_13
1002
{
1000
HIER
1070
     0
1002
}
1002
{
1000
MANEDIT
1070
     0
1002
}
1002
{
1000
NOSEL
1070
     0
1002
}
1002
{
1000
BEHIND
1070
     0
1002
}
1002
{
1000
OTHER
1070
     0
1002
}
1002
{
1000
REACTOR
1002
}
1001
GENIUS_GENCEN_19
1002
{
1040
2.794
1002
}
  0
ENDSEC
  0
SECTION
  2
OBJECTS
  0
DICTIONARY
  5
C
330
0
100
AcDbDictionary
281
     1
  3
ACAD_COLOR
350
2196
  3
ACAD_GROUP
350
D
  3
ACAD_LAYOUT
350
1A
  3
ACAD_MATERIAL
350
2195
  3
ACAD_MLINESTYLE
350
17
  3
ACAD_PLOTSETTINGS
350
19
  3
ACAD_PLOTSTYLENAME
350
E
  3
ACAD_TABLESTYLE
350
2197
  3
AcadDim
350
14B1
  3
ACDBHEADERROUNDTRIPXREC
350
467E
  3
AcDbVariableDictionary
350
34
  3
AcmDictionary
350
47
  3
AMG
350
2B
  3
AMGSNAPSETTINGS
350
81
  3
ASE_INDEX_DICTIONARY
350
2D7B
  3
DWGPROPS
350
467D
  0
DICTIONARY
  5
2D9C
330
2
100
AcDbDictionary
280
     1
281
     1
  3
ACAD_LAYERSTATES
360
2D9D
  0
DICTIONARY
  5
CC
330
1F
100
AcDbDictionary
280
     1
281
     1
  3
ACAD_SORTENTS
360
2D4D
  0
DICTIONARY
  5
2196
102
{ACAD_REACTORS
330
C
102
}
330
C
100
AcDbDictionary
281
     1
  0
DICTIONARY
  5
D
102
{ACAD_REACTORS
330
C
102
}
330
C
100
AcDbDictionary
281
     1
  0
DICTIONARY
  5
1A
102
{ACAD_REACTORS
330
C
102
}
330
C
100
AcDbDictionary
281
     1
  3
Model
350
22
  3
ﾚｲｱｳﾄ1
350
1E
  3
ﾚｲｱｳﾄ2
350
26
  0
DICTIONARY
  5
2195
102
{ACAD_REACTORS
330
C
102
}
330
C
100
AcDbDictionary
281
     1
  0
DICTIONARY
  5
17
102
{ACAD_REACTORS
330
C
102
}
330
C
100
AcDbDictionary
281
     1
  3
Standard
350
18
  0
DICTIONARY
  5
19
102
{ACAD_REACTORS
330
C
102
}
330
C
100
AcDbDictionary
281
     1
  3
A1
350
7A0
  3
A2
350
7A1
  3
A3外形図
350
7A2
  3
A3部品図
350
7A3
  3
A4外形図
350
7A4
  3
A4製造仕様書
350
7A5
  3
A4部品図
350
7A6
  0
ACDBDICTIONARYWDFLT
  5
E
102
{ACAD_REACTORS
330
C
102
}
330
C
100
AcDbDictionary
281
     1
  3
Normal
350
F
100
AcDbDictionaryWithDefault
340
F
  0
DICTIONARY
  5
2197
102
{ACAD_REACTORS
330
C
102
}
330
C
100
AcDbDictionary
281
     1
  3
Standard
350
2198
  0
XRECORD
  5
14B1
102
{ACAD_REACTORS
330
C
102
}
330
C
100
AcDbXrecord
280
     1
 90
   990106
  3

 60
     0
 61
     0
 62
     4
 63
     4
 64
     1
 65
     0
 66
     0
 67
     3
 68
     1
 69
     0
 70
     0
 71
     0
 72
     0
 40
0.0
170
     0
  0
DICTIONARY
  5
467E
102
{ACAD_REACTORS
330
C
102
}
330
C
100
AcDbDictionary
281
     1
  0
DICTIONARY
  5
34
102
{ACAD_REACTORS
330
C
102
}
330
C
100
AcDbDictionary
281
     1
  3
CTABLESTYLE
350
22C6
  3
DIMASSOC
350
410E
  3
INDEXCTL
350
35
  3
PROJECTNAME
350
410F
  0
DICTIONARY
  5
47
102
{ACAD_REACTORS
330
C
102
}
330
C
100
AcDbDictionary
281
     1
  3
AcmStdDictionary
350
4C
  3
AMDTSECTSYM_ARROWCOLOR
350
21A4
  0
DICTIONARY
  5
2B
102
{ACAD_REACTORS
330
C
102
}
330
C
100
AcDbDictionary
281
     1
  0
DICTIONARY
  5
81
102
{ACAD_REACTORS
330
C
102
}
330
C
100
AcDbDictionary
281
     1
  0
DICTIONARY
  5
2D7B
102
{ACAD_REACTORS
330
C
102
}
330
C
100
AcDbDictionary
281
     1
  3
ASEBlockHierarchyIndexRecord
350
2D7C
1001
DCO15
1040
1618997497.712
  0
XRECORD
  5
467D
102
{ACAD_REACTORS
330
C
102
}
330
C
100
AcDbXrecord
280
     1
  1
DWGPROPS COOKIE
  2

  3

  4

  6

  7

  8
ISHIGURE
  9

300
AmdtFileType=84
301
=
302
=
303
=
304
=
305
=
306
=
307
=
308
=
309
=
 40
0.532560625
 41
2452065.605619213
 42
2454770.749469919
  1

 90
        1
  0
DICTIONARY
  5
2D9D
102
{ACAD_REACTORS
330
2D9C
102
}
330
2D9C
100
AcDbDictionary
281
     1
  0
SORTENTSTABLE
  5
2D4D
102
{ACAD_REACTORS
330
CC
102
}
330
CC
100
AcDbSortentsTable
330
1F
331
38BB
  5
38BB
331
37AC
  5
37AC
331
38C3
  5
38C3
331
38CB
  5
38CB
331
37B4
  5
37B4
331
3978
  5
3978
331
39F7
  5
39F7
331
37BC
  5
37BC
331
3980
  5
3980
331
3B8F
  5
3B8F
331
3B97
  5
3B97
331
3988
  5
3988
331
1C2F
  5
1C2F
331
37C4
  5
37C4
331
38D1
  5
38D1
331
3990
  5
3990
331
3B9F
  5
3B9F
331
1C3F
  5
1C3F
331
38AC
  5
38AC
331
3998
  5
3998
331
3BA7
  5
3BA7
331
38B4
  5
38B4
331
38F1
  5
38F1
331
39A0
  5
39A0
331
39A8
  5
39A8
331
3BAF
  5
3BAF
331
38BC
  5
38BC
331
37AD
  5
37AD
331
38C4
  5
38C4
331
38CC
  5
38CC
331
37B5
  5
37B5
331
3979
  5
3979
331
3B90
  5
3B90
331
37BD
  5
37BD
331
3981
  5
3981
331
3989
  5
3989
331
1C28
  5
1C28
331
1C30
  5
1C30
331
37C5
  5
37C5
331
38D2
  5
38D2
331
3991
  5
3991
331
3B98
  5
3B98
331
38AD
  5
38AD
331
3999
  5
3999
331
3BA0
  5
3BA0
331
3BA8
  5
3BA8
331
38B5
  5
38B5
331
39A1
  5
39A1
331
3BB0
  5
3BB0
331
39A9
  5
39A9
331
38BD
  5
38BD
331
39F1
  5
39F1
331
38C5
  5
38C5
331
37AE
  5
37AE
331
3972
  5
3972
331
38CD
  5
38CD
331
37B6
  5
37B6
331
397A
  5
397A
331
3B91
  5
3B91
331
37BE
  5
37BE
331
3982
  5
3982
331
398A
  5
398A
331
1C29
  5
1C29
331
37C6
  5
37C6
331
3B99
  5
3B99
331
3992
  5
3992
331
38D3
  5
38D3
331
3BA1
  5
3BA1
331
399A
  5
399A
331
38AE
  5
38AE
331
38EB
  5
38EB
331
3BA9
  5
3BA9
331
38B6
  5
38B6
331
39A2
  5
39A2
331
3BB1
  5
3BB1
331
39AA
  5
39AA
331
1C51
  5
1C51
331
38BE
  5
38BE
331
1BF2
  5
1BF2
331
38C6
  5
38C6
331
3973
  5
3973
331
3B8A
  5
3B8A
331
38CE
  5
38CE
331
37B7
  5
37B7
331
397B
  5
397B
331
3B92
  5
3B92
331
37BF
  5
37BF
331
3983
  5
3983
331
398B
  5
398B
331
37C7
  5
37C7
331
3B9A
  5
3B9A
331
1C3A
  5
1C3A
331
38D4
  5
38D4
331
3993
  5
3993
331
3BA2
  5
3BA2
331
399B
  5
399B
331
38AF
  5
38AF
331
38EC
  5
38EC
331
3BAA
  5
3BAA
331
38B7
  5
38B7
331
39A3
  5
39A3
331
3BB2
  5
3BB2
331
39AB
  5
39AB
331
1C52
  5
1C52
331
38BF
  5
38BF
331
38C7
  5
38C7
331
37B0
  5
37B0
331
3974
  5
3974
331
38CF
  5
38CF
331
37B8
  5
37B8
331
397C
  5
397C
331
3B8B
  5
3B8B
331
3B93
  5
3B93
331
3984
  5
3984
331
398C
  5
398C
331
37C0
  5
37C0
331
3898
  5
3898
331
1C3B
  5
1C3B
331
3994
  5
3994
331
3B9B
  5
3B9B
331
3BA3
  5
3BA3
331
1C43
  5
1C43
331
38B0
  5
38B0
331
38ED
  5
38ED
331
399C
  5
399C
331
3BAB
  5
3BAB
331
39A4
  5
39A4
331
3BB3
  5
3BB3
331
39AC
  5
39AC
331
38B8
  5
38B8
331
1BE4
  5
1BE4
331
1C53
  5
1C53
331
38C0
  5
38C0
331
38C8
  5
38C8
331
1BFC
  5
1BFC
331
1C63
  5
1C63
331
37B1
  5
37B1
331
3975
  5
3975
331
37B9
  5
37B9
331
397D
  5
397D
331
3B8C
  5
3B8C
331
3B94
  5
3B94
331
3985
  5
3985
331
398D
  5
398D
331
37C1
  5
37C1
331
1C3C
  5
1C3C
331
3995
  5
3995
331
3B9C
  5
3B9C
331
38EE
  5
38EE
331
3BA4
  5
3BA4
331
1C44
  5
1C44
331
38B1
  5
38B1
331
3BAC
  5
3BAC
331
39A5
  5
39A5
331
3966
  5
3966
331
3BB4
  5
3BB4
331
38B9
  5
38B9
331
1BE5
  5
1BE5
331
1C54
  5
1C54
331
1C5C
  5
1C5C
331
1BF5
  5
1BF5
331
3976
  5
3976
331
39F5
  5
39F5
331
38C9
  5
38C9
331
37B2
  5
37B2
331
397E
  5
397E
331
3B8D
  5
3B8D
331
37BA
  5
37BA
331
3B95
  5
3B95
331
3986
  5
3986
331
398E
  5
398E
331
37C2
  5
37C2
331
3996
  5
3996
331
3B9D
  5
3B9D
331
38AA
  5
38AA
331
1C3D
  5
1C3D
331
38EF
  5
38EF
331
3BA5
  5
3BA5
331
38B2
  5
38B2
331
1C45
  5
1C45
331
3BAD
  5
3BAD
331
39A6
  5
39A6
331
3967
  5
3967
331
3BB5
  5
3BB5
331
38BA
  5
38BA
331
1C55
  5
1C55
331
37AB
  5
37AB
331
1C5D
  5
1C5D
331
38C2
  5
38C2
331
3977
  5
3977
331
39F6
  5
39F6
331
38CA
  5
38CA
331
37B3
  5
37B3
331
397F
  5
397F
331
3B8E
  5
3B8E
331
37BB
  5
37BB
331
3B96
  5
3B96
331
3987
  5
3987
331
398F
  5
398F
331
37C3
  5
37C3
331
38D0
  5
38D0
331
3997
  5
3997
331
3B9E
  5
3B9E
331
38AB
  5
38AB
331
1C3E
  5
1C3E
331
38F0
  5
38F0
331
3BA6
  5
3BA6
331
38B3
  5
38B3
331
3BAE
  5
3BAE
331
39A7
  5
39A7
  0
LAYOUT
  5
22
102
{ACAD_XDICTIONARY
360
4681
102
}
102
{ACAD_REACTORS
330
1A
102
}
330
1A
100
AcDbPlotSettings
  1

  2
\\XSERIES235\Canon LASER SHOT LBP-910
  4
A4
  6
AM_VIEW1
 40
5.873749732971191
 41
5.873747825622557
 42
5.873748779296875
 43
5.873748779296875
 44
209.9733276367186
 45
296.9259948730469
 46
0.0
 47
0.34
 48
0.0
 49
0.0
140
0.0
141
0.0
142
1.0
143
3.0
 70
 11936
 72
     1
 73
     1
 74
     2
  7
acad1.ctb
 75
     0
147
0.3341282932256912
148
0.0
149
0.0
100
AcDbLayout
  1
Model
 70
     1
 71
     0
 10
0.0
 20
0.0
 11
12.0
 21
9.0
 12
0.0
 22
0.0
 32
0.0
 14
0.0
 24
0.0
 34
0.0
 15
0.0
 25
0.0
 35
0.0
146
0.0
 13
0.0
 23
0.0
 33
0.0
 16
1.0
 26
0.0
 36
0.0
 17
0.0
 27
1.0
 37
0.0
 76
     0
330
1F
1001
ACAD_PSEXT
1000
\\XSERIES235\Canon LASER SHOT LBP-910
1000
Canon LASER SHOT LBP-910
1000
\\XSERIES235
1000

1070
     0
  0
LAYOUT
  5
1E
102
{ACAD_XDICTIONARY
360
467F
102
}
102
{ACAD_REACTORS
330
1A
102
}
330
1A
100
AcDbPlotSettings
  1

  2
\\FHKSV01\RICOH imagio MF2700(FAX)
  4

  6

 40
0.0
 41
0.0
 42
0.0
 43
0.0
 44
0.0
 45
0.0
 46
0.0
 47
0.0
 48
0.0
 49
0.0
140
0.0
141
0.0
142
1.0
143
1.0
 70
   688
 72
     0
 73
     0
 74
     5
  7
acad1.ctb
 75
    16
147
1.0
148
0.0
149
0.0
100
AcDbLayout
  1
ﾚｲｱｳﾄ1
 70
     1
 71
     1
 10
0.0
 20
0.0
 11
420.0
 21
297.0
 12
0.0
 22
0.0
 32
0.0
 14
1.000000000000000E+20
 24
1.000000000000000E+20
 34
1.000000000000000E+20
 15
-1.000000000000000E+20
 25
-1.000000000000000E+20
 35
-1.000000000000000E+20
146
0.0
 13
0.0
 23
0.0
 33
0.0
 16
1.0
 26
0.0
 36
0.0
 17
0.0
 27
1.0
 37
0.0
 76
     0
330
1B
  0
LAYOUT
  5
26
102
{ACAD_XDICTIONARY
360
4683
102
}
102
{ACAD_REACTORS
330
1A
102
}
330
1A
100
AcDbPlotSettings
  1

  2
\\FHKSV01\RICOH imagio MF2700(FAX)
  4

  6

 40
0.0
 41
0.0
 42
0.0
 43
0.0
 44
0.0
 45
0.0
 46
0.0
 47
0.0
 48
0.0
 49
0.0
140
0.0
141
0.0
142
1.0
143
1.0
 70
   688
 72
     0
 73
     0
 74
     5
  7
acad1.ctb
 75
    16
147
1.0
148
0.0
149
0.0
100
AcDbLayout
  1
ﾚｲｱｳﾄ2
 70
     1
 71
     2
 10
0.0
 20
0.0
 11
12.0
 21
9.0
 12
0.0
 22
0.0
 32
0.0
 14
0.0
 24
0.0
 34
0.0
 15
0.0
 25
0.0
 35
0.0
146
0.0
 13
0.0
 23
0.0
 33
0.0
 16
1.0
 26
0.0
 36
0.0
 17
0.0
 27
1.0
 37
0.0
 76
     0
330
23
  0
MLINESTYLE
  5
18
102
{ACAD_REACTORS
330
17
102
}
330
17
100
AcDbMlineStyle
  2
STANDARD
 70
     0
  3

 62
   256
 51
90.0
 52
90.0
 71
     2
 49
0.5
 62
   256
  6
BYLAYER
 49
-0.5
 62
   256
  6
BYLAYER
  0
PLOTSETTINGS
  5
7A0
102
{ACAD_XDICTIONARY
360
4685
102
}
102
{ACAD_REACTORS
330
19
102
}
330
19
100
AcDbPlotSettings
  1
A1
  2
\\NETFINITY_5500\HP DesignJet 750C+ (D/A1) by HP)
  4
User267
  6

 40
17.76941680908203
 41
5.789102554321289
 42
17.7694091796875
 43
5.7890625
 44
840.9093017578125
 45
593.97900390625
 46
2.0
 47
13.0
 48
0.0
 49
0.0
140
0.0
141
0.0
142
1.0
143
1.0
 70
  1712
 72
     1
 73
     0
 74
     1
  7
acad.ctb
 75
    16
147
1.0
148
0.0100416569983963
149
0.0078848243487073
  0
PLOTSETTINGS
  5
7A1
102
{ACAD_XDICTIONARY
360
4687
102
}
102
{ACAD_REACTORS
330
19
102
}
330
19
100
AcDbPlotSettings
  1
A2
  2
\\NETFINITY_5500\HP DesignJet 750C+ (D/A1) by HP)
  4
User266
  6

 40
5.78908348083496
 41
17.76940155029297
 42
5.78912353515625
 43
17.7694091796875
 44
593.97900390625
 45
419.9466552734373
 46
12.0
 47
0.0
 48
0.0
 49
0.0
140
0.0
141
0.0
142
1.0
143
1.0
 70
  1712
 72
     1
 73
     0
 74
     1
  7
acad.ctb
 75
    16
147
1.0
148
0.0100416569983963
149
0.0078848243487073
  0
PLOTSETTINGS
  5
7A2
102
{ACAD_XDICTIONARY
360
4689
102
}
102
{ACAD_REACTORS
330
19
102
}
330
19
100
AcDbPlotSettings
  1
A3外形図
  2
\\NETFINITY_5500\Canon LASER SHOT LBP-910
  4
A3
  6

 40
5.873749732971191
 41
5.873747825622557
 42
5.873748779296875
 43
5.873748779296875
 44
296.9259948730469
 45
419.9466552734373
 46
0.0
 47
15.0
 48
0.0
 49
0.0
140
0.0
141
0.0
142
1.0
143
1.0
 70
  1712
 72
     1
 73
     1
 74
     1
  7
acad1.ctb
 75
    16
147
1.0
148
0.0024839861629289
149
0.0093761313144114
  0
PLOTSETTINGS
  5
7A3
102
{ACAD_XDICTIONARY
360
468B
102
}
102
{ACAD_REACTORS
330
19
102
}
330
19
100
AcDbPlotSettings
  1
A3部品図
  2
\\NETFINITY_5500\Canon LASER SHOT LBP-910
  4
A3
  6

 40
5.873749732971191
 41
5.873747825622557
 42
5.873748779296875
 43
5.873748779296875
 44
296.9259948730469
 45
419.9466552734373
 46
0.0
 47
0.0
 48
0.0
 49
0.0
140
0.0
141
0.0
142
1.0
143
1.0
 70
  1712
 72
     1
 73
     1
 74
     1
  7
acad1.ctb
 75
    16
147
1.0
148
0.0024839861629289
149
0.0093761313144114
  0
PLOTSETTINGS
  5
7A4
102
{ACAD_XDICTIONARY
360
468D
102
}
102
{ACAD_REACTORS
330
19
102
}
330
19
100
AcDbPlotSettings
  1
A4外形図
  2
\\NETFINITY_5500\Canon LASER SHOT LBP-910
  4
A4
  6

 40
5.873749732971191
 41
5.873747825622557
 42
5.873748779296875
 43
5.873748779296875
 44
209.9733276367186
 45
296.9259948730469
 46
0.0
 47
0.0
 48
0.0
 49
0.0
140
0.0
141
0.0
142
1.0
143
1.0
 70
  1712
 72
     1
 73
     1
 74
     1
  7
acad1.ctb
 75
    16
147
1.0
148
0.0115486965655691
149
0.0124955963574962
  0
PLOTSETTINGS
  5
7A5
102
{ACAD_XDICTIONARY
360
468F
102
}
102
{ACAD_REACTORS
330
19
102
}
330
19
100
AcDbPlotSettings
  1
A4製造仕様書
  2
\\NETFINITY_5500\Canon LASER SHOT LBP-910
  4
A4
  6

 40
5.873749732971191
 41
5.873747825622557
 42
5.873748779296875
 43
5.873748779296875
 44
209.9733276367186
 45
296.9259948730469
 46
15.0
 47
0.0
 48
0.0
 49
0.0
140
0.0
141
0.0
142
1.0
143
1.0
 70
  1712
 72
     1
 73
     0
 74
     1
  7
acad1.ctb
 75
    16
147
1.0
148
0.0115486965655691
149
7.86079562315183
  0
PLOTSETTINGS
  5
7A6
102
{ACAD_XDICTIONARY
360
4691
102
}
102
{ACAD_REACTORS
330
19
102
}
330
19
100
AcDbPlotSettings
  1
A4部品図
  2
\\NETFINITY_5500\Canon LASER SHOT LBP-910
  4
A4
  6

 40
5.873749732971191
 41
5.873747825622557
 42
5.873748779296875
 43
5.873748779296875
 44
209.9733276367186
 45
296.9259948730469
 46
0.0
 47
0.0
 48
0.0
 49
0.0
140
0.0
141
0.0
142
1.0
143
1.0
 70
  1712
 72
     1
 73
     0
 74
     1
  7
acad1.ctb
 75
    16
147
1.0
148
0.0115486965655691
149
0.0124955963574962
  0
ACDBPLACEHOLDER
  5
F
102
{ACAD_REACTORS
330
E
102
}
330
E
  0
TABLESTYLE
  5
2198
102
{ACAD_REACTORS
330
2197
102
}
330
2197
100
AcDbTableStyle
  3
Standard
 70
     0
 71
     0
 40
1.5
 41
1.5
280
     0
281
     0
  7
STANDARD
140
4.5
170
     2
 62
     0
 63
     7
283
     0
274
    -2
284
     1
 64
     0
275
    -2
285
     1
 65
     0
276
    -2
286
     1
 66
     0
277
    -2
287
     1
 67
     0
278
    -2
288
     1
 68
     0
279
    -2
289
     1
 69
     0
  7
STANDARD
140
6.0
170
     5
 62
     0
 63
     7
283
     0
274
    -2
284
     1
 64
     0
275
    -2
285
     1
 65
     0
276
    -2
286
     1
 66
     0
277
    -2
287
     1
 67
     0
278
    -2
288
     1
 68
     0
279
    -2
289
     1
 69
     0
  7
STANDARD
140
4.5
170
     5
 62
     0
 63
     7
283
     0
274
    -2
284
     1
 64
     0
275
    -2
285
     1
 65
     0
276
    -2
286
     1
 66
     0
277
    -2
287
     1
 67
     0
278
    -2
288
     1
 68
     0
279
    -2
289
     1
 69
     0
  0
DICTIONARYVAR
  5
22C6
102
{ACAD_REACTORS
330
34
102
}
330
34
100
DictionaryVariables
280
     0
  1
STANDARD
  0
DICTIONARYVAR
  5
410E
102
{ACAD_REACTORS
330
34
102
}
330
34
100
DictionaryVariables
280
     0
  1
1
  0
DICTIONARYVAR
  5
35
102
{ACAD_REACTORS
330
34
102
}
330
34
100
DictionaryVariables
280
     0
  1
0
  0
DICTIONARYVAR
  5
410F
102
{ACAD_REACTORS
330
34
102
}
330
34
100
DictionaryVariables
280
     0
  1

  0
DICTIONARY
  5
4C
102
{ACAD_REACTORS
330
47
102
}
330
47
100
AcDbDictionary
281
     1
  0
XRECORD
  5
21A4
102
{ACAD_REACTORS
330
47
102
}
330
47
100
AcDbXrecord
280
     1
 90
-1023410169
  0
XRECORD
  5
2D7C
102
{ACAD_REACTORS
330
2D7B
102
}
330
2D7B
100
AcDbXrecord
280
     1
330
0
330
0
330
0
330
0
330
0
330
0
330
0
330
0
330
0
330
0
330
0
330
0
330
0
330
0
330
0
330
0
330
0
330
0
330
0
330
0
330
0
330
0
330
0
330
0
330
0
330
0
330
0
330
0
330
0
330
0
330
0
330
0
330
0
330
0
330
0
330
0
330
0
330
0
330
0
330
0
330
0
330
0
330
0
330
0
330
0
330
0
330
0
330
0
330
0
330
0
330
0
330
0
330
0
330
0
330
0
330
0
330
0
330
0
330
0
330
0
  0
DICTIONARY
  5
4681
330
22
100
AcDbDictionary
280
     1
281
     1
  3
ACAD_XREC_ROUNDTRIP
360
4682
  0
DICTIONARY
  5
467F
330
1E
100
AcDbDictionary
280
     1
281
     1
  3
ACAD_XREC_ROUNDTRIP
360
4680
  0
DICTIONARY
  5
4683
330
26
100
AcDbDictionary
280
     1
281
     1
  3
ACAD_XREC_ROUNDTRIP
360
4684
  0
DICTIONARY
  5
4685
330
7A0
100
AcDbDictionary
280
     1
281
     1
  3
ACAD_XREC_ROUNDTRIP
360
4686
  0
DICTIONARY
  5
4687
330
7A1
100
AcDbDictionary
280
     1
281
     1
  3
ACAD_XREC_ROUNDTRIP
360
4688
  0
DICTIONARY
  5
4689
330
7A2
100
AcDbDictionary
280
     1
281
     1
  3
ACAD_XREC_ROUNDTRIP
360
468A
  0
DICTIONARY
  5
468B
330
7A3
100
AcDbDictionary
280
     1
281
     1
  3
ACAD_XREC_ROUNDTRIP
360
468C
  0
DICTIONARY
  5
468D
330
7A4
100
AcDbDictionary
280
     1
281
     1
  3
ACAD_XREC_ROUNDTRIP
360
468E
  0
DICTIONARY
  5
468F
330
7A5
100
AcDbDictionary
280
     1
281
     1
  3
ACAD_XREC_ROUNDTRIP
360
4690
  0
DICTIONARY
  5
4691
330
7A6
100
AcDbDictionary
280
     1
281
     1
  3
ACAD_XREC_ROUNDTRIP
360
4692
  0
XRECORD
  5
4682
102
{ACAD_REACTORS
330
4681
102
}
330
4681
100
AcDbXrecord
280
     1
102
SHADEPLOT
 70
     0
102
SHADEPLOTRESLEVEL
 70
     2
102
SHADEPLOTCUSTOMDPI
 70
   300
  0
XRECORD
  5
4680
102
{ACAD_REACTORS
330
467F
102
}
330
467F
100
AcDbXrecord
280
     1
102
SHADEPLOT
 70
     0
102
SHADEPLOTRESLEVEL
 70
     2
102
SHADEPLOTCUSTOMDPI
 70
   300
  0
XRECORD
  5
4684
102
{ACAD_REACTORS
330
4683
102
}
330
4683
100
AcDbXrecord
280
     1
102
SHADEPLOT
 70
     0
102
SHADEPLOTRESLEVEL
 70
     2
102
SHADEPLOTCUSTOMDPI
 70
   300
  0
XRECORD
  5
4686
102
{ACAD_REACTORS
330
4685
102
}
330
4685
100
AcDbXrecord
280
     1
102
SHADEPLOT
 70
     0
102
SHADEPLOTRESLEVEL
 70
     2
102
SHADEPLOTCUSTOMDPI
 70
   300
  0
XRECORD
  5
4688
102
{ACAD_REACTORS
330
4687
102
}
330
4687
100
AcDbXrecord
280
     1
102
SHADEPLOT
 70
     0
102
SHADEPLOTRESLEVEL
 70
     2
102
SHADEPLOTCUSTOMDPI
 70
   300
  0
XRECORD
  5
468A
102
{ACAD_REACTORS
330
4689
102
}
330
4689
100
AcDbXrecord
280
     1
102
SHADEPLOT
 70
     0
102
SHADEPLOTRESLEVEL
 70
     2
102
SHADEPLOTCUSTOMDPI
 70
   300
  0
XRECORD
  5
468C
102
{ACAD_REACTORS
330
468B
102
}
330
468B
100
AcDbXrecord
280
     1
102
SHADEPLOT
 70
     0
102
SHADEPLOTRESLEVEL
 70
     2
102
SHADEPLOTCUSTOMDPI
 70
   300
  0
XRECORD
  5
468E
102
{ACAD_REACTORS
330
468D
102
}
330
468D
100
AcDbXrecord
280
     1
102
SHADEPLOT
 70
     0
102
SHADEPLOTRESLEVEL
 70
     2
102
SHADEPLOTCUSTOMDPI
 70
   300
  0
XRECORD
  5
4690
102
{ACAD_REACTORS
330
468F
102
}
330
468F
100
AcDbXrecord
280
     1
102
SHADEPLOT
 70
     0
102
SHADEPLOTRESLEVEL
 70
     2
102
SHADEPLOTCUSTOMDPI
 70
   300
  0
XRECORD
  5
4692
102
{ACAD_REACTORS
330
4691
102
}
330
4691
100
AcDbXrecord
280
     1
102
SHADEPLOT
 70
     0
102
SHADEPLOTRESLEVEL
 70
     2
102
SHADEPLOTCUSTOMDPI
 70
   300
  0
ENDSEC
  0
EOF
