  0
SECTION
  2
HEADER
  9
$ACADVER
  1
AC1015
  9
$ACADMAINTVER
 70
    20
  9
$DWGCODEPAGE
  3
ANSI_932
  9
$INSBASE
 10
0.0
 20
0.0
 30
0.0
  9
$EXTMIN
 10
292.3381650614587
 20
176.2070799037529
 30
0.0
  9
$EXTMAX
 10
772.7037222965166
 20
539.8509730005371
 30
0.0
  9
$LIMMIN
 10
0.0
 20
0.0
  9
$LIMMAX
 10
853.5
 20
555.0000000000001
  9
$ORTHOMODE
 70
     1
  9
$REGENMODE
 70
     1
  9
$FILLMODE
 70
     1
  9
$QTEXTMODE
 70
     0
  9
$MIRRTEXT
 70
     1
  9
$LTSCALE
 40
3.0
  9
$ATTMODE
 70
     1
  9
$TEXTSIZE
 40
2.5
  9
$TRACEWID
 40
1.0
  9
$TEXTSTYLE
  7
STANDARD
  9
$CLAYER
  8
AM_0
  9
$CELTYPE
  6
ByLayer
  9
$CECOLOR
 62
   256
  9
$CELTSCALE
 40
1.0
  9
$DISPSILH
 70
     0
  9
$DIMSCALE
 40
1.0
  9
$DIMASZ
 40
2.5
  9
$DIMEXO
 40
1.0
  9
$DIMDLI
 40
8.0
  9
$DIMRND
 40
0.0
  9
$DIMDLE
 40
0.0
  9
$DIMEXE
 40
0.6
  9
$DIMTP
 40
0.1
  9
$DIMTM
 40
0.1
  9
$DIMTXT
 40
2.5
  9
$DIMCEN
 40
0.0
  9
$DIMTSZ
 40
0.0
  9
$DIMTOL
 70
     0
  9
$DIMLIM
 70
     0
  9
$DIMTIH
 70
     0
  9
$DIMTOH
 70
     0
  9
$DIMSE1
 70
     0
  9
$DIMSE2
 70
     0
  9
$DIMTAD
 70
     1
  9
$DIMZIN
 70
     8
  9
$DIMBLK
  1

  9
$DIMASO
 70
     1
  9
$DIMSHO
 70
     1
  9
$DIMPOST
  1

  9
$DIMAPOST
  1
"
  9
$DIMALT
 70
     0
  9
$DIMALTD
 70
     2
  9
$DIMALTF
 40
0.0393701
  9
$DIMLFAC
 40
1.0
  9
$DIMTOFL
 70
     1
  9
$DIMTVP
 40
0.0
  9
$DIMTIX
 70
     0
  9
$DIMSOXD
 70
     0
  9
$DIMSAH
 70
     0
  9
$DIMBLK1
  1

  9
$DIMBLK2
  1

  9
$DIMSTYLE
  2
AM_ISO
  9
$DIMCLRD
 70
   256
  9
$DIMCLRE
 70
   256
  9
$DIMCLRT
 70
     4
  9
$DIMTFAC
 40
0.71
  9
$DIMGAP
 40
0.8
  9
$DIMJUST
 70
     0
  9
$DIMSD1
 70
     0
  9
$DIMSD2
 70
     0
  9
$DIMTOLJ
 70
     0
  9
$DIMTZIN
 70
     8
  9
$DIMALTZ
 70
     0
  9
$DIMALTTZ
 70
     0
  9
$DIMUPT
 70
     0
  9
$DIMDEC
 70
     2
  9
$DIMTDEC
 70
     2
  9
$DIMALTU
 70
     2
  9
$DIMALTTD
 70
     2
  9
$DIMTXSTY
  7
STANDARD
  9
$DIMAUNIT
 70
     0
  9
$DIMADEC
 70
     0
  9
$DIMALTRND
 40
0.0
  9
$DIMAZIN
 70
     2
  9
$DIMDSEP
 70
    46
  9
$DIMATFIT
 70
     3
  9
$DIMFRAC
 70
     0
  9
$DIMLDRBLK
  1

  9
$DIMLUNIT
 70
     2
  9
$DIMLWD
 70
    -1
  9
$DIMLWE
 70
    -1
  9
$DIMTMOVE
 70
     0
  9
$LUNITS
 70
     2
  9
$LUPREC
 70
     2
  9
$SKETCHINC
 40
1.0
  9
$FILLETRAD
 40
5.0
  9
$AUNITS
 70
     0
  9
$AUPREC
 70
     0
  9
$MENU
  1
.
  9
$ELEVATION
 40
0.0
  9
$PELEVATION
 40
0.0
  9
$THICKNESS
 40
0.0
  9
$LIMCHECK
 70
     0
  9
$CHAMFERA
 40
6.0
  9
$CHAMFERB
 40
3.0
  9
$CHAMFERC
 40
20.0
  9
$CHAMFERD
 40
0.0
  9
$SKPOLY
 70
     0
  9
$TDCREATE
 40
2452065.605619213
  9
$TDUCREATE
 40
2452065.230619213
  9
$TDUPDATE
 40
2454770.842430475
  9
$TDUUPDATE
 40
2454770.467430475
  9
$TDINDWG
 40
0.5023628356
  9
$TDUSRTIMER
 40
0.5023624769
  9
$USRTIMER
 70
     1
  9
$ANGBASE
 50
0.0
  9
$ANGDIR
 70
     0
  9
$PDMODE
 70
     0
  9
$PDSIZE
 40
0.0
  9
$PLINEWID
 40
0.0
  9
$SPLFRAME
 70
     0
  9
$SPLINETYPE
 70
     6
  9
$SPLINESEGS
 70
     8
  9
$HANDSEED
  5
4E23
  9
$SURFTAB1
 70
     6
  9
$SURFTAB2
 70
     6
  9
$SURFTYPE
 70
     6
  9
$SURFU
 70
     6
  9
$SURFV
 70
     6
  9
$UCSBASE
  2

  9
$UCSNAME
  2

  9
$UCSORG
 10
0.0
 20
0.0
 30
0.0
  9
$UCSXDIR
 10
1.0
 20
0.0
 30
0.0
  9
$UCSYDIR
 10
0.0
 20
1.0
 30
0.0
  9
$UCSORTHOREF
  2

  9
$UCSORTHOVIEW
 70
     0
  9
$UCSORGTOP
 10
0.0
 20
0.0
 30
0.0
  9
$UCSORGBOTTOM
 10
0.0
 20
0.0
 30
0.0
  9
$UCSORGLEFT
 10
0.0
 20
0.0
 30
0.0
  9
$UCSORGRIGHT
 10
0.0
 20
0.0
 30
0.0
  9
$UCSORGFRONT
 10
0.0
 20
0.0
 30
0.0
  9
$UCSORGBACK
 10
0.0
 20
0.0
 30
0.0
  9
$PUCSBASE
  2

  9
$PUCSNAME
  2

  9
$PUCSORG
 10
0.0
 20
0.0
 30
0.0
  9
$PUCSXDIR
 10
1.0
 20
0.0
 30
0.0
  9
$PUCSYDIR
 10
0.0
 20
1.0
 30
0.0
  9
$PUCSORTHOREF
  2

  9
$PUCSORTHOVIEW
 70
     0
  9
$PUCSORGTOP
 10
0.0
 20
0.0
 30
0.0
  9
$PUCSORGBOTTOM
 10
0.0
 20
0.0
 30
0.0
  9
$PUCSORGLEFT
 10
0.0
 20
0.0
 30
0.0
  9
$PUCSORGRIGHT
 10
0.0
 20
0.0
 30
0.0
  9
$PUCSORGFRONT
 10
0.0
 20
0.0
 30
0.0
  9
$PUCSORGBACK
 10
0.0
 20
0.0
 30
0.0
  9
$USERI1
 70
     0
  9
$USERI2
 70
     0
  9
$USERI3
 70
     0
  9
$USERI4
 70
     0
  9
$USERI5
 70
     0
  9
$USERR1
 40
0.0
  9
$USERR2
 40
0.0
  9
$USERR3
 40
0.0
  9
$USERR4
 40
0.0
  9
$USERR5
 40
0.0
  9
$WORLDVIEW
 70
     1
  9
$SHADEDGE
 70
     3
  9
$SHADEDIF
 70
    70
  9
$TILEMODE
 70
     1
  9
$MAXACTVP
 70
    64
  9
$PINSBASE
 10
0.0
 20
0.0
 30
0.0
  9
$PLIMCHECK
 70
     0
  9
$PEXTMIN
 10
1.000000000000000E+20
 20
1.000000000000000E+20
 30
1.000000000000000E+20
  9
$PEXTMAX
 10
-1.000000000000000E+20
 20
-1.000000000000000E+20
 30
-1.000000000000000E+20
  9
$PLIMMIN
 10
0.0
 20
0.0
  9
$PLIMMAX
 10
420.0
 20
297.0
  9
$UNITMODE
 70
     0
  9
$VISRETAIN
 70
     1
  9
$PLINEGEN
 70
     0
  9
$PSLTSCALE
 70
     1
  9
$TREEDEPTH
 70
  3020
  9
$CMLSTYLE
  2
Standard
  9
$CMLJUST
 70
     0
  9
$CMLSCALE
 40
20.0
  9
$PROXYGRAPHICS
 70
     1
  9
$MEASUREMENT
 70
     1
  9
$CELWEIGHT
370
    -1
  9
$ENDCAPS
280
     0
  9
$JOINSTYLE
280
     0
  9
$LWDISPLAY
290
     0
  9
$INSUNITS
 70
     4
  9
$HYPERLINKBASE
  1

  9
$STYLESHEET
  1
ACAD1.CTB
  9
$XEDIT
290
     1
  9
$CEPSNTYPE
380
     0
  9
$PSTYLEMODE
290
     1
  9
$FINGERPRINTGUID
  2
{91B11402-3528-11D5-BE34-000255C217F4}
  9
$VERSIONGUID
  2
{4DFBD8A8-3648-4B05-A6A7-2DC425439B9F}
  9
$EXTNAMES
290
     1
  9
$PSVPSCALE
 40
0.0
  9
$OLESTARTUP
290
     0
  0
ENDSEC
  0
SECTION
  2
CLASSES
  0
CLASS
  1
ACDBDICTIONARYWDFLT
  2
AcDbDictionaryWithDefault
  3
ObjectDBX Classes
 90
        0
280
     0
281
     0
  0
CLASS
  1
ACDBPLACEHOLDER
  2
AcDbPlaceHolder
  3
ObjectDBX Classes
 90
        0
280
     0
281
     0
  0
CLASS
  1
LAYOUT
  2
AcDbLayout
  3
ObjectDBX Classes
 90
        0
280
     0
281
     0
  0
CLASS
  1
AMGSETTINGSOBJ
  2
AmgSettingsObj
  3
"AcadM|Product Description: AutoCAD Mechanical 2000|Company: Autodesk"
 90
        0
280
     0
281
     0
  0
CLASS
  1
ACME_DOCUMENT
  2
AcMeDbDoc
  3
AcMeServices
 90
        0
280
     0
281
     0
  0
CLASS
  1
ACMESCOPE
  2
AcMeScope
  3
AcMeServices
 90
        0
280
     0
281
     0
  0
CLASS
  1
ACMECOMMANDHISTORY
  2
AcMeCommandHistory
  3
AcMeServices
 90
        0
280
     0
281
     0
  0
CLASS
  1
DICTIONARYVAR
  2
AcDbDictionaryVar
  3
ObjectDBX Classes
 90
        0
280
     0
281
     0
  0
CLASS
  1
ACIMSYSVARMAN
  2
AcImSysVarManager
  3
AcMeServices
 90
        0
280
     0
281
     0
  0
CLASS
  1
ACIMREALSYSVAR
  2
AcImRealSysVar
  3
AcMeServices
 90
        0
280
     0
281
     0
  0
CLASS
  1
ACIMINTSYSVAR
  2
AcImIntSysVar
  3
AcMeServices
 90
        0
280
     0
281
     0
  0
CLASS
  1
ACMEDRAWINGMAN
  2
AcMeDrawingMan
  3
AcMeServices
 90
        0
280
     0
281
     0
  0
CLASS
  1
ACMEVIEW
  2
AcMeView
  3
AcMeServices
 90
        0
280
     0
281
     0
  0
CLASS
  1
ACDBENTITYCACHE
  2
AcMeEntityCache
  3
AcMeServices
 90
        0
280
     0
281
     0
  0
CLASS
  1
GSMANAGER
  2
AcMeGSManager
  3
AcMeServices
 90
        0
280
     0
281
     0
  0
CLASS
  1
AMDTINTERNALREACTOR
  2
AmdtInternalReactor
  3
AcMeServices
 90
        0
280
     0
281
     0
  0
CLASS
  1
ACMESTATEMGR
  2
AcMeStateMgr
  3
AcMeServices
 90
        0
280
     0
281
     0
  0
CLASS
  1
ACGREFMASTER
  2
AcGrefMaster
  3
AcAttribServices
 90
        0
280
     0
281
     0
  0
CLASS
  1
ACME_DATABASE
  2
AcMeDbDatabase
  3
AcMeServices
 90
        0
280
     0
281
     0
  0
CLASS
  1
ACRFINSADJUSTERMGR
  2
AcRfInsAdjusterMgr
  3
AcMeServices
 90
        0
280
     0
281
     0
  0
CLASS
  1
ACGREFACADMASTER
  2
AcGrefacadMaster
  3
AcGrefServices
 90
        0
280
     0
281
     0
  0
CLASS
  1
AMIMASTER
  2
AmiMaster
  3
AmiServices
 90
        0
280
     0
281
     0
  0
CLASS
  1
ACMDATADICTIONARY
  2
AcmDataDictionary
  3
"AcmSymBB|Product Description: AutoCAD Mechanical 2004 DX|Company: Autodesk"
 90
        0
280
     0
281
     0
  0
CLASS
  1
ACMDATAENTRYBLOCK
  2
AcmDataEntryBlock
  3
"AcmSymBB|Product Description: AutoCAD Mechanical 2004 DX|Company: Autodesk"
 90
    32768
280
     0
281
     0
  0
CLASS
  1
ACIMSTRSYSVAR
  2
AcImStrSysVar
  3
AcMeServices
 90
        0
280
     0
281
     0
  0
CLASS
  1
ACMSTANDARDISO
  2
AcmStandardISO
  3
"Amdt_StdImp|Product Description: AutoCAD Mechanical 2004 DX|Company: Autodesk"
 90
        0
280
     0
281
     0
  0
CLASS
  1
AMGOBJPROPCFG
  2
AmgObjPropCfg
  3
"AmgLay|Product Description: AutoCAD Mechanical 2000|Company: Autodesk"
 90
        1
280
     0
281
     0
  0
CLASS
  1
AMDTEDGESTANDARDISO
  2
AmdtEdgeStdISO
  3
"Amdt_StdImp|Product Description: AutoCAD Mechanical 2004 DX|Company: Autodesk"
 90
    32768
280
     0
281
     0
  0
CLASS
  1
ACMSURFSTANDARDISO
  2
AcmSurfTextStdISO
  3
"Amdt_StdImp|Product Description: AutoCAD Mechanical 2004 DX|Company: Autodesk"
 90
        0
280
     0
281
     0
  0
CLASS
  1
ACMFCFSTANDARDISO
  2
AcmFCFStdISO
  3
"Amdt_StdImp|Product Description: AutoCAD Mechanical 2004 DX|Company: Autodesk"
 90
        0
280
     0
281
     0
  0
CLASS
  1
ACMWELDSTANDARDISO
  2
AcmWeldingStdISO
  3
"Amdt_StdImp|Product Description: AutoCAD Mechanical 2004 DX|Company: Autodesk"
 90
        0
280
     0
281
     0
  0
CLASS
  1
ACMIDSTANDARDISO
  2
AcmIdStdISO
  3
"Amdt_StdImp|Product Description: AutoCAD Mechanical 2004 DX|Company: Autodesk"
 90
        0
280
     0
281
     0
  0
CLASS
  1
ACMDATUMSTANDARDISO
  2
AcmDatumStdISO
  3
"Amdt_StdImp|Product Description: AutoCAD Mechanical 2004 DX|Company: Autodesk"
 90
        0
280
     0
281
     0
  0
CLASS
  1
ACMBOMSTANDARDISO
  2
AcmBOMStdISO
  3
"Amdt_StdImp|Product Description: AutoCAD Mechanical 2004 DX|Company: Autodesk"
 90
        0
280
     0
281
     0
  0
CLASS
  1
ACMDETAILSTANDARDISO
  2
AmdtDetailSymStdISO
  3
"Amdt_StdImp|Product Description: AutoCAD Mechanical 2004 DX|Company: Autodesk"
 90
        0
280
     0
281
     0
  0
CLASS
  1
ACMSECTIONSTANDARDISO
  2
AmdtSectionSymStdISO
  3
"Amdt_StdImp|Product Description: AutoCAD Mechanical 2004 DX|Company: Autodesk"
 90
        0
280
     0
281
     0
  0
CLASS
  1
ACMCENTERLINESTANDARDISO
  2
AmdtCenterLineStdISO
  3
"Amdt_StdImp|Product Description: AutoCAD Mechanical 2004 DX|Company: Autodesk"
 90
        0
280
     0
281
     0
  0
CLASS
  1
ACAMGLAYSTD
  2
AcAmgLayStd
  3
"AcAmgLayStd|Product Description: AutoCAD Mechanical 2000|Company: Autodesk"
 90
        0
280
     0
281
     0
  0
CLASS
  1
ACAMGDIMSTD
  2
AcAmgDimStd
  3
"AcAmgDimStd|Product Description: AutoCAD Mechanical 2000|Company: Autodesk"
 90
        0
280
     0
281
     0
  0
CLASS
  1
ACAMGTITLESTD
  2
AcAmgTitleStd
  3
"TITLEAPP"
 90
        0
280
     0
281
     0
  0
CLASS
  1
ACAMGFILTERDAT
  2
AcAmgFilterDat
  3
"AcadM|Product Description: AutoCAD Mechanical 2000|Company: Autodesk"
 90
    32768
280
     0
281
     0
  0
CLASS
  1
AMDTFORMULAUPDATEDISPATCHER
  2
AmdtFormulaUpdateDispatcher
  3
AcMeServices
 90
    32768
280
     0
281
     0
  0
CLASS
  1
LAYER_INDEX
  2
AcDbLayerIndex
  3
ObjectDBX Classes
 90
    32768
280
     0
281
     0
  0
CLASS
  1
IDBUFFER
  2
AcDbIdBuffer
  3
ObjectDBX Classes
 90
    32768
280
     0
281
     0
  0
CLASS
  1
PLOTSETTINGS
  2
AcDbPlotSettings
  3
ObjectDBX Classes
 90
        0
280
     0
281
     0
  0
CLASS
  1
ACMSTANDARDANSI
  2
AcmStandardANSI
  3
"Amdt_StdImp|Product Description: AutoCAD Mechanical 2004 DX|Company: Autodesk"
 90
    32768
280
     0
281
     0
  0
CLASS
  1
ACMSURFSTANDARDANSI
  2
AcmSurfTextStdANSI
  3
"Amdt_StdImp|Product Description: AutoCAD Mechanical 2004 DX|Company: Autodesk"
 90
    32768
280
     0
281
     0
  0
CLASS
  1
ACMFCFSTANDARDANSI
  2
AcmFCFStdANSI
  3
"Amdt_StdImp|Product Description: AutoCAD Mechanical 2004 DX|Company: Autodesk"
 90
    32768
280
     0
281
     0
  0
CLASS
  1
ACMWELDSTANDARDANSI
  2
AcmWeldingStdANSI
  3
"Amdt_StdImp|Product Description: AutoCAD Mechanical 2004 DX|Company: Autodesk"
 90
    32768
280
     0
281
     0
  0
CLASS
  1
ACMIDSTANDARDANSI
  2
AcmIdStdANSI
  3
"Amdt_StdImp|Product Description: AutoCAD Mechanical 2004 DX|Company: Autodesk"
 90
    32768
280
     0
281
     0
  0
CLASS
  1
ACMDATUMSTANDARDANSI
  2
AcmDatumStdANSI
  3
"Amdt_StdImp|Product Description: AutoCAD Mechanical 2004 DX|Company: Autodesk"
 90
    32768
280
     0
281
     0
  0
CLASS
  1
ACMBOMSTANDARDANSI
  2
AcmBOMStdANSI
  3
"Amdt_StdImp|Product Description: AutoCAD Mechanical 2004 DX|Company: Autodesk"
 90
    32768
280
     0
281
     0
  0
CLASS
  1
ACMDETAILSTANDARDANSI
  2
AmdtDetailSymStdANSI
  3
"Amdt_StdImp|Product Description: AutoCAD Mechanical 2004 DX|Company: Autodesk"
 90
    32768
280
     0
281
     0
  0
CLASS
  1
ACMSECTIONSTANDARDANSI
  2
AmdtSectionSymStdANSI
  3
"Amdt_StdImp|Product Description: AutoCAD Mechanical 2004 DX|Company: Autodesk"
 90
    32768
280
     0
281
     0
  0
CLASS
  1
ACMCENTERLINESTANDARDANSI
  2
AmdtCenterLineStdANSI
  3
"Amdt_StdImp|Product Description: AutoCAD Mechanical 2004 DX|Company: Autodesk"
 90
    32768
280
     0
281
     0
  0
CLASS
  1
ACMSTANDARDJIS
  2
AcmStandardJIS
  3
"Amdt_StdImp|Product Description: AutoCAD Mechanical 2004 DX|Company: Autodesk"
 90
    32768
280
     0
281
     0
  0
CLASS
  1
ACMSURFSTANDARDJIS
  2
AcmSurfTextStdJIS
  3
"Amdt_StdImp|Product Description: AutoCAD Mechanical 2004 DX|Company: Autodesk"
 90
    32768
280
     0
281
     0
  0
CLASS
  1
ACMFCFSTANDARDJIS
  2
AcmFCFStdJIS
  3
"Amdt_StdImp|Product Description: AutoCAD Mechanical 2004 DX|Company: Autodesk"
 90
    32768
280
     0
281
     0
  0
CLASS
  1
ACMWELDSTANDARDJIS
  2
AcmWeldingStdJIS
  3
"Amdt_StdImp|Product Description: AutoCAD Mechanical 2004 DX|Company: Autodesk"
 90
    32768
280
     0
281
     0
  0
CLASS
  1
ACMIDSTANDARDJIS
  2
AcmIdStdJIS
  3
"Amdt_StdImp|Product Description: AutoCAD Mechanical 2004 DX|Company: Autodesk"
 90
    32768
280
     0
281
     0
  0
CLASS
  1
ACMDATUMSTANDARDJIS
  2
AcmDatumStdJIS
  3
"Amdt_StdImp|Product Description: AutoCAD Mechanical 2004 DX|Company: Autodesk"
 90
    32768
280
     0
281
     0
  0
CLASS
  1
ACMBOMSTANDARDJIS
  2
AcmBOMStdJIS
  3
"Amdt_StdImp|Product Description: AutoCAD Mechanical 2004 DX|Company: Autodesk"
 90
    32768
280
     0
281
     0
  0
CLASS
  1
ACMDETAILSTANDARDJIS
  2
AmdtDetailSymStdJIS
  3
"Amdt_StdImp|Product Description: AutoCAD Mechanical 2004 DX|Company: Autodesk"
 90
    32768
280
     0
281
     0
  0
CLASS
  1
ACMSECTIONSTANDARDJIS
  2
AmdtSectionSymStdJIS
  3
"Amdt_StdImp|Product Description: AutoCAD Mechanical 2004 DX|Company: Autodesk"
 90
    32768
280
     0
281
     0
  0
CLASS
  1
ACMCENTERLINESTANDARDJIS
  2
AmdtCenterLineStdJIS
  3
"Amdt_StdImp|Product Description: AutoCAD Mechanical 2004 DX|Company: Autodesk"
 90
    32768
280
     0
281
     0
  0
CLASS
  1
TABLESTYLE
  2
AcDbTableStyle
  3
ObjectDBX Classes
 90
     2047
280
     0
281
     0
  0
CLASS
  1
AM_DRAWING_MGR
  2
AcDmDwgMgr
  3
AcMechDwgViewMgmt
 90
        0
280
     0
281
     0
  0
CLASS
  1
AM_DWG_DOCUMENT
  2
AcDmDwgDocument
  3
AcMechDwgViewMgmt
 90
        0
280
     0
281
     0
  0
CLASS
  1
AM_DWG_SHEET
  2
AcDmSheet
  3
AcMechDwgViewMgmt
 90
        0
280
     0
281
     0
  0
CLASS
  1
AM_VIEWDIMPARMAP
  2
AcDmViewDimParMap
  3
AcMechDwgViewMgmt
 90
        0
280
     0
281
     0
  0
CLASS
  1
AM_DWGMGR_NAME
  2
AcDmDwgMgrName
  3
AcMechDwgViewMgmt
 90
        0
280
     0
281
     0
  0
CLASS
  1
AMDTMENUSTATEMGR
  2
AmdtMenuStateMgr
  3
McadcomServices
 90
        0
280
     0
281
     0
  0
CLASS
  1
AMDTMCOMMENUSTATE
  2
AmdtMcomMenuState
  3
McadcomServices
 90
        0
280
     0
281
     0
  0
CLASS
  1
MAPIAMMOUDLE
  2
MApiAmModule
  3
MApiAmServices
 90
        0
280
     0
281
     0
  0
CLASS
  1
AMDTADMENUSTATE
  2
AmdtAdMenuState
  3
DesignerServices
 90
        0
280
     0
281
     0
  0
CLASS
  1
ADAPPL
  2
AcAdAppl
  3
DesignerServices
 90
        0
280
     0
281
     0
  0
CLASS
  1
DEPMGR
  2
AcAdDepMgr
  3
DesignerServices
 90
        0
280
     0
281
     0
  0
CLASS
  1
PARAMMGR
  2
AcAdParamMgr
  3
DesignerServices
 90
        0
280
     0
281
     0
  0
CLASS
  1
PARAMSCOPE
  2
AcAdParamScope
  3
DesignerServices
 90
        0
280
     0
281
     0
  0
CLASS
  1
NAMEDAPPL
  2
AcAdNamedAppl
  3
DesignerServices
 90
        0
280
     0
281
     0
  0
CLASS
  1
AMDTDMMENUSTATE
  2
AmdtDmMenuState
  3
AcMechDwgViewMgmt
 90
        0
280
     0
281
     0
  0
CLASS
  1
AMDTAMMENUSTATE
  2
AmdtAmMenuState
  3
DesignerAssemblies
 90
        0
280
     0
281
     0
  0
CLASS
  1
ACAMPROJECT
  2
AcAmProject
  3
DesignerAssemblies
 90
        0
280
     0
281
     0
  0
CLASS
  1
ACAMGRCOMPDEF
  2
AcAmGrCompDef
  3
DesignerAssemblies
 90
        0
280
     0
281
     0
  0
CLASS
  1
ACCMCONTEXT
  2
AcCmContext
  3
DesignerAssemblies
 90
        0
280
     0
281
     0
  0
CLASS
  1
ACAMCOMPDEF
  2
AcAmCompDef
  3
DesignerAssemblies
 90
        0
280
     0
281
     0
  0
CLASS
  1
ACAMCOMPDEFMGR
  2
AcAmCompDefMgr
  3
DesignerAssemblies
 90
        0
280
     0
281
     0
  0
CLASS
  1
AMCONTEXTMGR
  2
AcAmContextMgr
  3
DesignerAssemblies
 90
        0
280
     0
281
     0
  0
CLASS
  1
ACAMCONTEXTMODELER
  2
AcAmContextModeler
  3
DesignerAssemblies
 90
        0
280
     0
281
     0
  0
CLASS
  1
ACMTHREADLINESTANDARDISO
  2
AmdtThreadLineStdISO
  3
"Amdt_StdImp|Product Description: AutoCAD Mechanical 2004 DX|Company: Autodesk"
 90
        0
280
     0
281
     0
  0
CLASS
  1
ACMNOTESTANDARDISO
  2
AmdtNoteStdISO
  3
"Amdt_StdImp|Product Description: AutoCAD Mechanical 2004 DX|Company: Autodesk"
 90
        0
280
     0
281
     0
  0
CLASS
  1
AMDTNOTETEMPLATEDB
  2
AmdtNoteTemplateDB
  3
AMDT_STDIMP_MODULE_NAME
 90
        0
280
     0
281
     0
  0
CLASS
  1
ACMTHREADLINESTANDARDANSI
  2
AmdtThreadLineStdANSI
  3
"Amdt_StdImp|Product Description: AutoCAD Mechanical 2004 DX|Company: Autodesk"
 90
    32768
280
     0
281
     0
  0
CLASS
  1
ACMNOTESTANDARDANSI
  2
AmdtNoteStdANSI
  3
"Amdt_StdImp|Product Description: AutoCAD Mechanical 2004 DX|Company: Autodesk"
 90
    32768
280
     0
281
     0
  0
CLASS
  1
ACMTHREADLINESTANDARDJIS
  2
AmdtThreadLineStdJIS
  3
"Amdt_StdImp|Product Description: AutoCAD Mechanical 2004 DX|Company: Autodesk"
 90
    32768
280
     0
281
     0
  0
CLASS
  1
ACMNOTESTANDARDJIS
  2
AmdtNoteStdJIS
  3
"Amdt_StdImp|Product Description: AutoCAD Mechanical 2004 DX|Company: Autodesk"
 90
    32768
280
     0
281
     0
  0
CLASS
  1
CATALOGSTATE
  2
AcAmCatalogState
  3
DesignerAssemblies
 90
        0
280
     0
281
     0
  0
CLASS
  1
ACAMGRCOMPDEFSET
  2
AcAmGrCompDefSet
  3
DesignerAssemblies
 90
        0
280
     0
281
     0
  0
CLASS
  1
AMDTBROWSERDBTAB
  2
AmdtBrowserDbTab
  3
McadcomServices
 90
        0
280
     0
281
     0
  0
CLASS
  1
CBROWSERAPPOBJECT
  2
CBrowserAppObject
  3
McadcomServices
 90
        0
280
     0
281
     0
  0
CLASS
  1
DM_PLACEHOLDER
  2
AcDmSelsetPlaceholder
  3
AcMechDwgViewMgmt
 90
        0
280
     0
281
     0
  0
CLASS
  1
DIMASSOC
  2
AcDbDimAssoc
  3
"AcDbDimAssoc|Product Desc:     AcDim ARX App For Dimension|Company:          Autodesk, Inc.|WEB Address:      www.autodesk.com"
 90
    32768
280
     0
281
     0
  0
CLASS
  1
SORTENTSTABLE
  2
AcDbSortentsTable
  3
ObjectDBX Classes
 90
        0
280
     0
281
     0
  0
CLASS
  1
STDPART2D
  2
AmgStdPart
  3
"AmgStdPart|Product Description: AutoCAD Mechanical 2000|Company: Autodesk"
 90
    33791
280
     0
281
     1
  0
CLASS
  1
AMDTNOTE
  2
AmdtNote
  3
"AcmSymBB|Product Description: AutoCAD Mechanical 2004 DX|Company: Autodesk"
 90
    33791
280
     0
281
     1
  0
CLASS
  1
MATERIAL
  2
AcDbMaterial
  3
ObjectDBX Classes
 90
        0
280
     0
281
     0
  0
CLASS
  1
ACMDATUMID
  2
AcmDatumId
  3
"AcmSymBB|Product Description: AutoCAD Mechanical 2004 DX|Company: Autodesk"
 90
    33791
280
     0
281
     1
  0
CLASS
  1
ACRFATTGENMGR
  2
AcRfAttGeneralMgr
  3
AcAttribServices
 90
    32768
280
     0
281
     0
  0
CLASS
  1
AMDTEDGESTANDARDISO13715
  2
AmdtEdgeStdISO13715
  3
"Amdt_StdImp|Product Description: AutoCAD Mechanical 2004 DX|Company: Autodesk"
 90
        0
280
     0
281
     0
  0
CLASS
  1
ACAMGHOLECHARTSTDISO
  2
AcAmgHoleChartStdISO
  3
ACMSYMBB_MODULE_NAME
 90
        0
280
     0
281
     0
  0
ENDSEC
  0
SECTION
  2
TABLES
  0
TABLE
  2
VPORT
  5
8
330
0
100
AcDbSymbolTable
 70
     3
  0
VPORT
  5
4E0C
330
8
100
AcDbSymbolTableRecord
100
AcDbViewportTableRecord
  2
*Active
 70
     0
 10
0.0
 20
0.0
 11
1.0
 21
1.0
 12
532.5030599854327
 22
358.0112780537402
 13
0.0
 23
0.0
 14
7.5
 24
7.5
 15
30.0
 25
30.0
 16
0.0
 26
0.0
 36
1.0
 17
0.0
 27
0.0
 37
0.0
 40
366.3756669870232
 41
1.475550122249388
 42
50.0
 43
0.0
 44
0.0
 50
0.0
 51
0.0
 71
     0
 72
   100
 73
     1
 74
     3
 75
     0
 76
     0
 77
     0
 78
     0
281
     0
 65
     0
110
0.0
120
0.0
130
0.0
111
1.0
121
0.0
131
0.0
112
0.0
122
1.0
132
0.0
 79
     0
146
0.0
  0
ENDTAB
  0
TABLE
  2
LTYPE
  5
5
330
0
100
AcDbSymbolTable
 70
    16
  0
LTYPE
  5
14
330
5
100
AcDbSymbolTableRecord
100
AcDbLinetypeTableRecord
  2
ByBlock
 70
     0
  3

 72
    65
 73
     0
 40
0.0
  0
LTYPE
  5
15
330
5
100
AcDbSymbolTableRecord
100
AcDbLinetypeTableRecord
  2
ByLayer
 70
     0
  3

 72
    65
 73
     0
 40
0.0
  0
LTYPE
  5
16
330
5
100
AcDbSymbolTableRecord
100
AcDbLinetypeTableRecord
  2
Continuous
 70
     0
  3
Solid line
 72
    65
 73
     0
 40
0.0
  0
LTYPE
  5
50
330
5
100
AcDbSymbolTableRecord
100
AcDbLinetypeTableRecord
  2
AM_ISO08W050
 70
     0
  3
____ . ____ . ____ . ____ . ____ . ____ . ____
 72
    65
 73
     4
 40
18.0
 49
12.0
 74
     0
 49
-1.5
 74
     0
 49
3.0
 74
     0
 49
-1.5
 74
     0
  0
LTYPE
  5
53
330
5
100
AcDbSymbolTableRecord
100
AcDbLinetypeTableRecord
  2
AM_ISO08W050x2
 70
     0
  3
__ . __ . __ . __ . __ . __
 72
    65
 73
     4
 40
9.0
 49
6.0
 74
     0
 49
-0.75
 74
     0
 49
1.5
 74
     0
 49
-0.75
 74
     0
  0
LTYPE
  5
6CA
330
5
100
AcDbSymbolTableRecord
100
AcDbLinetypeTableRecord
  2
GEN7
 70
     0
  3
____ . ____ . ____ . ____ . ____ . ____ . ____
 72
    65
 73
     4
 40
14.25
 49
9.75
 74
     0
 49
-1.5
 74
     0
 49
1.5
 74
     0
 49
-1.5
 74
     0
  0
LTYPE
  5
6D8
330
5
100
AcDbSymbolTableRecord
100
AcDbLinetypeTableRecord
  2
GEN7A
 70
     0
  3
__ . __ . __
 72
    65
 73
     4
 40
7.375
 49
4.75
 74
     0
 49
-0.875
 74
     0
 49
0.875
 74
     0
 49
-0.875
 74
     0
  0
LTYPE
  5
4DAF
330
5
100
AcDbSymbolTableRecord
100
AcDbLinetypeTableRecord
  2
HIDDEN
 70
     0
  3
Hidden __ __ __ __ __ __ __ __ __ __ __ __ __ _
 72
    65
 73
     2
 40
9.524999999999998
 49
6.349999999999999
 74
     0
 49
-3.174999999999999
 74
     0
  0
LTYPE
  5
4DB0
330
5
100
AcDbSymbolTableRecord
100
AcDbLinetypeTableRecord
  2
PHANTOM2
 70
     0
  3
Phantom (.5x) ___ _ _ ___ _ _ ___ _ _ ___ _ _
 72
    65
 73
     6
 40
31.75
 49
15.875
 74
     0
 49
-3.174999999999999
 74
     0
 49
3.174999999999999
 74
     0
 49
-3.174999999999999
 74
     0
 49
3.174999999999999
 74
     0
 49
-3.174999999999999
 74
     0
  0
LTYPE
  5
4DB1
330
5
100
AcDbSymbolTableRecord
100
AcDbLinetypeTableRecord
  2
CENTER
 70
     0
  3
Center ____ _ ____ _ ____ _ ____ _ ____ _ ____
 72
    65
 73
     4
 40
50.8
 49
31.75
 74
     0
 49
-6.349999999999999
 74
     0
 49
6.349999999999999
 74
     0
 49
-6.349999999999999
 74
     0
  0
LTYPE
  5
4DDE
330
5
100
AcDbSymbolTableRecord
100
AcDbLinetypeTableRecord
  2
AM_ISO02W050
 70
     0
  3
__ __ __ __ __ __ __ __ __ __ __ __ __ __ __
 72
    65
 73
     2
 40
7.5
 49
6.0
 74
     0
 49
-1.5
 74
     0
  0
LTYPE
  5
4DDF
330
5
100
AcDbSymbolTableRecord
100
AcDbLinetypeTableRecord
  2
AM_ISO09W050
 70
     0
  3
_____ . . _____ . . _____ . . ____ .. ____
 72
    65
 73
     6
 40
22.5
 49
12.0
 74
     0
 49
-1.5
 74
     0
 49
3.0
 74
     0
 49
-1.5
 74
     0
 49
3.0
 74
     0
 49
-1.5
 74
     0
  0
LTYPE
  5
4DE0
330
5
100
AcDbSymbolTableRecord
100
AcDbLinetypeTableRecord
  2
Amconstr
 70
     0
  3
_______________________
 72
    65
 73
     2
 40
9999.0
 49
9999.0
 74
     0
 49
0.0
 74
     0
  0
LTYPE
  5
4DE1
330
5
100
AcDbSymbolTableRecord
100
AcDbLinetypeTableRecord
  2
AM_ISO02W050x2
 70
     0
  3
 _ _ _ _ _ _ _ _ _ _ _ _
 72
    65
 73
     2
 40
3.75
 49
3.0
 74
     0
 49
-0.75
 74
     0
  0
LTYPE
  5
4DE4
330
5
100
AcDbSymbolTableRecord
100
AcDbLinetypeTableRecord
  2
Amzigzag
 70
     0
  3
/\/-/\/-/\/-/\/-/\/-/\/
 72
    65
 73
     2
 40
11.0001
 49
0.0001
 74
     4
 75
   135
340
4DE3
 46
0.04
 50
0.0
 44
0.0
 45
0.0
 49
-11.0
 74
     0
  0
LTYPE
  5
4DF3
330
5
100
AcDbSymbolTableRecord
100
AcDbLinetypeTableRecord
  2
ACISOWELD
 70
     0
  3
_ _ _ _ _
 72
    65
 73
     2
 40
2.0
 49
2.0
 74
     0
 49
-1.0
 74
     0
  0
LTYPE
  5
4DF4
330
5
100
AcDbSymbolTableRecord
100
AcDbLinetypeTableRecord
  2
ACISOTGB
 70
     0
  3
__ . . __ . .
 72
    65
 73
     6
 40
9.0
 49
4.0
 74
     0
 49
-1.0
 74
     0
 49
1.0
 74
     0
 49
-1.0
 74
     0
 49
1.0
 74
     0
 49
-1.0
 74
     0
  0
LTYPE
  5
4DF5
330
5
100
AcDbSymbolTableRecord
100
AcDbLinetypeTableRecord
  2
ACISOTGL
 70
     0
  3
_ _ _ _ _
 72
    65
 73
     2
 40
3.0
 49
2.0
 74
     0
 49
-1.0
 74
     0
  0
ENDTAB
  0
TABLE
  2
LAYER
  5
2
102
{ACAD_XDICTIONARY
360
2D9C
102
}
330
0
100
AcDbSymbolTable
 70
     8
  0
LAYER
  5
10
330
2
100
AcDbSymbolTableRecord
100
AcDbLayerTableRecord
  2
0
 70
     0
 62
     7
  6
Continuous
370
    -3
390
F
  0
LAYER
  5
106
330
2
100
AcDbSymbolTableRecord
100
AcDbLayerTableRecord
  2
AM_5
 70
     0
 62
     2
  6
Continuous
370
    35
390
F
  0
LAYER
  5
124
330
2
100
AcDbSymbolTableRecord
100
AcDbLayerTableRecord
  2
Defpoints
 70
     0
 62
     7
  6
Continuous
290
     0
370
    -3
390
F
  0
LAYER
  5
6FE
330
2
100
AcDbSymbolTableRecord
100
AcDbLayerTableRecord
  2
ﾁｭｳｼﾝｾﾝ
 70
     0
 62
     1
  6
GEN7
370
    -3
390
F
  0
LAYER
  5
6FF
330
2
100
AcDbSymbolTableRecord
100
AcDbLayerTableRecord
  2
ﾁｭｳｼﾝｾﾝ1
 70
     0
 62
     1
  6
GEN7A
370
    -3
390
F
  0
LAYER
  5
71A
330
2
100
AcDbSymbolTableRecord
100
AcDbLayerTableRecord
  2
AM_7
 70
     0
 62
     1
  6
AM_ISO08W050
370
    25
390
F
  0
LAYER
  5
71D
330
2
100
AcDbSymbolTableRecord
100
AcDbLayerTableRecord
  2
AM_0
 70
     0
 62
     7
  6
Continuous
370
    50
390
F
  0
LAYER
  5
1A93
330
2
100
AcDbSymbolTableRecord
100
AcDbLayerTableRecord
  2
図面枠-ｷｲﾛ
 70
     0
 62
     2
  6
Continuous
370
    -3
390
F
  0
ENDTAB
  0
TABLE
  2
STYLE
  5
3
330
0
100
AcDbSymbolTable
 70
     4
  0
STYLE
  5
11
330
3
100
AcDbSymbolTableRecord
100
AcDbTextStyleTableRecord
  2
STANDARD
 70
     0
 40
0.0
 41
0.8299999999999998
 50
0.0
 71
     0
 42
2.5
  3
t.shx
  4
bigfont.shx
  0
STYLE
  5
4DE3
330
3
100
AcDbSymbolTableRecord
100
AcDbTextStyleTableRecord
  2

 70
     1
 40
0.0
 41
1.0
 50
0.0
 71
     0
 42
2.5
  3
ltypeshp.shx
  4

  0
STYLE
  5
4DE5
330
3
100
AcDbSymbolTableRecord
100
AcDbTextStyleTableRecord
  2
ACISOTS
 70
     0
 40
1.0
 41
1.0
 50
0.0
 71
     0
 42
2.5
  3
isocp.shx
  4
extfont.shx
  0
STYLE
  5
4DF2
330
3
100
AcDbSymbolTableRecord
100
AcDbTextStyleTableRecord
  2
ACISOGDT
 70
     0
 40
0.0
 41
1.0
 50
0.0
 71
     0
 42
2.5
  3
amgdt.shx
  4

  0
ENDTAB
  0
TABLE
  2
VIEW
  5
6
330
0
100
AcDbSymbolTable
 70
     6
  0
VIEW
  5
C2
330
6
100
AcDbSymbolTableRecord
100
AcDbViewTableRecord
  2
AM_VIEW1
 70
     0
 40
277.5000000000001
 10
249.6477900552487
 20
416.2500000000001
 41
499.2955801104972
 11
0.0
 21
0.0
 31
1.0
 12
0.0
 22
0.0
 32
0.0
 42
50.0
 43
0.0
 44
0.0
 50
0.0
 71
     0
281
     0
 72
     0
  0
VIEW
  5
C3
330
6
100
AcDbSymbolTableRecord
100
AcDbViewTableRecord
  2
AM_VIEW2
 70
     0
 40
277.5000000000001
 10
603.8522099447512
 20
416.2500000000001
 41
499.2955801104972
 11
0.0
 21
0.0
 31
1.0
 12
0.0
 22
0.0
 32
0.0
 42
50.0
 43
0.0
 44
0.0
 50
0.0
 71
     0
281
     0
 72
     0
  0
VIEW
  5
C4
330
6
100
AcDbSymbolTableRecord
100
AcDbViewTableRecord
  2
AM_VIEW3
 70
     0
 40
277.5000000000001
 10
249.6477900552487
 20
138.75
 41
499.2955801104972
 11
0.0
 21
0.0
 31
1.0
 12
0.0
 22
0.0
 32
0.0
 42
50.0
 43
0.0
 44
0.0
 50
0.0
 71
     0
281
     0
 72
     0
  0
VIEW
  5
C5
330
6
100
AcDbSymbolTableRecord
100
AcDbViewTableRecord
  2
AM_VIEW4
 70
     0
 40
277.5000000000001
 10
603.8522099447512
 20
138.75
 41
499.2955801104972
 11
0.0
 21
0.0
 31
1.0
 12
0.0
 22
0.0
 32
0.0
 42
50.0
 43
0.0
 44
0.0
 50
0.0
 71
     0
281
     0
 72
     0
  0
VIEW
  5
C6
330
6
100
AcDbSymbolTableRecord
100
AcDbViewTableRecord
  2
AM_VIEW5
 70
     0
 40
277.5000000000001
 10
426.75
 20
277.5000000000001
 41
499.2955801104971
 11
0.0
 21
0.0
 31
1.0
 12
0.0
 22
0.0
 32
0.0
 42
50.0
 43
0.0
 44
0.0
 50
0.0
 71
     0
281
     0
 72
     0
  0
VIEW
  5
C7
330
6
100
AcDbSymbolTableRecord
100
AcDbViewTableRecord
  2
AM_VIEW6
 70
     0
 40
554.9944500000001
 10
426.75
 20
277.5
 41
998.5811743093924
 11
0.0
 21
0.0
 31
1.0
 12
0.0
 22
0.0
 32
0.0
 42
50.0
 43
0.0
 44
0.0
 50
0.0
 71
     0
281
     0
 72
     0
  0
ENDTAB
  0
TABLE
  2
UCS
  5
7
330
0
100
AcDbSymbolTable
 70
     0
  0
ENDTAB
  0
TABLE
  2
APPID
  5
9
330
0
100
AcDbSymbolTable
 70
    95
  0
APPID
  5
12
330
9
100
AcDbSymbolTableRecord
100
AcDbRegAppTableRecord
  2
ACAD
 70
     0
  0
APPID
  5
30
330
9
100
AcDbSymbolTableRecord
100
AcDbRegAppTableRecord
  2
MCAD_NO_VIS
 70
     0
  0
APPID
  5
31
330
9
100
AcDbSymbolTableRecord
100
AcDbRegAppTableRecord
  2
ACAD_TEMP_GRAPHIC
 70
     0
  0
APPID
  5
44
330
9
100
AcDbSymbolTableRecord
100
AcDbRegAppTableRecord
  2
ACATTRIBSERVICES
 70
     0
  0
APPID
  5
8D
330
9
100
AcDbSymbolTableRecord
100
AcDbRegAppTableRecord
  2
GENIUS_GENREC_14
 70
     0
  0
APPID
  5
8E
330
9
100
AcDbSymbolTableRecord
100
AcDbRegAppTableRecord
  2
GENIUS_GENOBJ-N-REC_13
 70
     0
  0
APPID
  5
8F
330
9
100
AcDbSymbolTableRecord
100
AcDbRegAppTableRecord
  2
GENIUS_GENODEF_13
 70
     0
  0
APPID
  5
BD
330
9
100
AcDbSymbolTableRecord
100
AcDbRegAppTableRecord
  2
GENIUS_GENOLIS_13
 70
     0
  0
APPID
  5
BE
330
9
100
AcDbSymbolTableRecord
100
AcDbRegAppTableRecord
  2
GENIUS_GENOBJ-N-TIT_13
 70
     0
  0
APPID
  5
BF
330
9
100
AcDbSymbolTableRecord
100
AcDbRegAppTableRecord
  2
GENIUS_GENOENT_13
 70
     0
  0
APPID
  5
C0
330
9
100
AcDbSymbolTableRecord
100
AcDbRegAppTableRecord
  2
GENIUS_GENTITLE_13
 70
     0
  0
APPID
  5
C1
330
9
100
AcDbSymbolTableRecord
100
AcDbRegAppTableRecord
  2
GENIUS_GENOREF_13
 70
     0
  0
APPID
  5
C8
330
9
100
AcDbSymbolTableRecord
100
AcDbRegAppTableRecord
  2
GENIUS_GENSCREG_15
 70
     0
  0
APPID
  5
C9
330
9
100
AcDbSymbolTableRecord
100
AcDbRegAppTableRecord
  2
GENIUS_GENOBJ-N-SDF_13
 70
     0
  0
APPID
  5
103
330
9
100
AcDbSymbolTableRecord
100
AcDbRegAppTableRecord
  2
GENIUS_GENFIL_13
 70
     0
  0
APPID
  5
104
330
9
100
AcDbSymbolTableRecord
100
AcDbRegAppTableRecord
  2
GENIUS_GENOBJ-N-CHA_13
 70
     0
  0
APPID
  5
13E
330
9
100
AcDbSymbolTableRecord
100
AcDbRegAppTableRecord
  2
GENIUS_GENDTOL_13
 70
     0
  0
APPID
  5
187
330
9
100
AcDbSymbolTableRecord
100
AcDbRegAppTableRecord
  2
GENIUS_GENOBJ-N-FIL_13
 70
     0
  0
APPID
  5
75A
330
9
100
AcDbSymbolTableRecord
100
AcDbRegAppTableRecord
  2
AD_DRAW
 70
     0
  0
APPID
  5
75B
330
9
100
AcDbSymbolTableRecord
100
AcDbRegAppTableRecord
  2
DESIGNERASSEMBLIES
 70
     0
  0
APPID
  5
75C
330
9
100
AcDbSymbolTableRecord
100
AcDbRegAppTableRecord
  2
ASURF_PCURVE_APPNAME
 70
     0
  0
APPID
  5
75D
330
9
100
AcDbSymbolTableRecord
100
AcDbRegAppTableRecord
  2
GENIUS_GE3SECT_13
 70
     0
  0
APPID
  5
75E
330
9
100
AcDbSymbolTableRecord
100
AcDbRegAppTableRecord
  2
GENIUS_GENCFG_13
 70
     0
  0
APPID
  5
75F
330
9
100
AcDbSymbolTableRecord
100
AcDbRegAppTableRecord
  2
GENIUS_GE3CFG0_13
 70
     0
  0
APPID
  5
760
330
9
100
AcDbSymbolTableRecord
100
AcDbRegAppTableRecord
  2
GENIUS_GENCFG0_13
 70
     0
  0
APPID
  5
761
330
9
100
AcDbSymbolTableRecord
100
AcDbRegAppTableRecord
  2
GENIUS_GENCFG1_13
 70
     0
  0
APPID
  5
762
330
9
100
AcDbSymbolTableRecord
100
AcDbRegAppTableRecord
  2
GENIUS_GENCFG2_13
 70
     0
  0
APPID
  5
763
330
9
100
AcDbSymbolTableRecord
100
AcDbRegAppTableRecord
  2
GENIUS_GENCFG3_13
 70
     0
  0
APPID
  5
764
330
9
100
AcDbSymbolTableRecord
100
AcDbRegAppTableRecord
  2
GENIUS_GENCFG4_13
 70
     0
  0
APPID
  5
765
330
9
100
AcDbSymbolTableRecord
100
AcDbRegAppTableRecord
  2
GENIUS_GEVCFG0_13
 70
     0
  0
APPID
  5
766
330
9
100
AcDbSymbolTableRecord
100
AcDbRegAppTableRecord
  2
GENIUS_GENHINW_13
 70
     0
  0
APPID
  5
767
330
9
100
AcDbSymbolTableRecord
100
AcDbRegAppTableRecord
  2
GENIUS_FIRSTVISTXT_14
 70
     0
  0
APPID
  5
768
330
9
100
AcDbSymbolTableRecord
100
AcDbRegAppTableRecord
  2
GENIUS_GENOBJ-N-LEADER_13
 70
     0
  0
APPID
  5
769
330
9
100
AcDbSymbolTableRecord
100
AcDbRegAppTableRecord
  2
GEV_VCCNULL_SWITCH_OFF
 70
     0
  0
APPID
  5
76A
330
9
100
AcDbSymbolTableRecord
100
AcDbRegAppTableRecord
  2
GENIUS_GEFCFG0_13
 70
     0
  0
APPID
  5
76B
330
9
100
AcDbSymbolTableRecord
100
AcDbRegAppTableRecord
  2
GENIUS_GENZVEED_13
 70
     0
  0
APPID
  5
76C
330
9
100
AcDbSymbolTableRecord
100
AcDbRegAppTableRecord
  2
GENIUS_GENSCREG_13
 70
     0
  0
APPID
  5
76D
330
9
100
AcDbSymbolTableRecord
100
AcDbRegAppTableRecord
  2
GENIUS_DUMCFG0_13
 70
     0
  0
APPID
  5
76E
330
9
100
AcDbSymbolTableRecord
100
AcDbRegAppTableRecord
  2
GEVID936201362
 70
     0
  0
APPID
  5
76F
330
9
100
AcDbSymbolTableRecord
100
AcDbRegAppTableRecord
  2
GEVDC
 70
     0
  0
APPID
  5
770
330
9
100
AcDbSymbolTableRecord
100
AcDbRegAppTableRecord
  2
GEVCON
 70
     0
  0
APPID
  5
771
330
9
100
AcDbSymbolTableRecord
100
AcDbRegAppTableRecord
  2
VCC
 70
     0
  0
APPID
  5
772
330
9
100
AcDbSymbolTableRecord
100
AcDbRegAppTableRecord
  2
GEVPT
 70
     0
  0
APPID
  5
773
330
9
100
AcDbSymbolTableRecord
100
AcDbRegAppTableRecord
  2
GEVIT
 70
     0
  0
APPID
  5
774
330
9
100
AcDbSymbolTableRecord
100
AcDbRegAppTableRecord
  2
GENBH
 70
     0
  0
APPID
  5
775
330
9
100
AcDbSymbolTableRecord
100
AcDbRegAppTableRecord
  2
GEVMK
 70
     0
  0
APPID
  5
776
330
9
100
AcDbSymbolTableRecord
100
AcDbRegAppTableRecord
  2
GENIUS_GENBH_13
 70
     0
  0
APPID
  5
777
330
9
100
AcDbSymbolTableRecord
100
AcDbRegAppTableRecord
  2
GENIUS_GENOBJ-NBEHI-BHF_13
 70
     0
  0
APPID
  5
778
330
9
100
AcDbSymbolTableRecord
100
AcDbRegAppTableRecord
  2
GENIUS_GENOBJ-NBEHI-BHB_13
 70
     0
  0
APPID
  5
779
330
9
100
AcDbSymbolTableRecord
100
AcDbRegAppTableRecord
  2
GENIUS_GENOBJ-F-DESC_13
 70
     0
  0
APPID
  5
77A
330
9
100
AcDbSymbolTableRecord
100
AcDbRegAppTableRecord
  2
GENIUS_GEFDESC_14
 70
     0
  0
APPID
  5
77B
330
9
100
AcDbSymbolTableRecord
100
AcDbRegAppTableRecord
  2
GENIUS_GENOBJ-F-PART_13
 70
     0
  0
APPID
  5
77C
330
9
100
AcDbSymbolTableRecord
100
AcDbRegAppTableRecord
  2
GENIUS_GEFSTDP_13
 70
     0
  0
APPID
  5
77D
330
9
100
AcDbSymbolTableRecord
100
AcDbRegAppTableRecord
  2
GENIUS_GEFPARTINS_13
 70
     0
  0
APPID
  5
77E
330
9
100
AcDbSymbolTableRecord
100
AcDbRegAppTableRecord
  2
GENIUS_GENTRA_14
 70
     0
  0
APPID
  5
77F
330
9
100
AcDbSymbolTableRecord
100
AcDbRegAppTableRecord
  2
GENIUS_GENINF13_13
 70
     0
  0
APPID
  5
780
330
9
100
AcDbSymbolTableRecord
100
AcDbRegAppTableRecord
  2
GENIUS_GENOBJ-N-INFOPT_13
 70
     0
  0
APPID
  5
781
330
9
100
AcDbSymbolTableRecord
100
AcDbRegAppTableRecord
  2
GENIUS_GENOBJ-N-RSSYM_13
 70
     0
  0
APPID
  5
782
330
9
100
AcDbSymbolTableRecord
100
AcDbRegAppTableRecord
  2
GENIUS_GENSYMENT_13
 70
     0
  0
APPID
  5
783
330
9
100
AcDbSymbolTableRecord
100
AcDbRegAppTableRecord
  2
GENIUS_GENSCSYM_13
 70
     0
  0
APPID
  5
784
330
9
100
AcDbSymbolTableRecord
100
AcDbRegAppTableRecord
  2
GENIUS_GEFINFNAM_13
 70
     0
  0
APPID
  5
785
330
9
100
AcDbSymbolTableRecord
100
AcDbRegAppTableRecord
  2
GENIUS_GENOBJ-N-CEN_13
 70
     0
  0
APPID
  5
786
330
9
100
AcDbSymbolTableRecord
100
AcDbRegAppTableRecord
  2
GENIUS_GENOBJ-N-CRS_13
 70
     0
  0
APPID
  5
787
330
9
100
AcDbSymbolTableRecord
100
AcDbRegAppTableRecord
  2
GENIUS_GENOBJ-N-CRC_13
 70
     0
  0
APPID
  5
788
330
9
100
AcDbSymbolTableRecord
100
AcDbRegAppTableRecord
  2
GENIUS_GENCRC_14
 70
     0
  0
APPID
  5
789
330
9
100
AcDbSymbolTableRecord
100
AcDbRegAppTableRecord
  2
GEVID942827039
 70
     0
  0
APPID
  5
78A
330
9
100
AcDbSymbolTableRecord
100
AcDbRegAppTableRecord
  2
GEVID942827040
 70
     0
  0
APPID
  5
78B
330
9
100
AcDbSymbolTableRecord
100
AcDbRegAppTableRecord
  2
GEVID942827041
 70
     0
  0
APPID
  5
78C
330
9
100
AcDbSymbolTableRecord
100
AcDbRegAppTableRecord
  2
GENIUS_GENOBJ-F-SCPASSM_13
 70
     0
  0
APPID
  5
78D
330
9
100
AcDbSymbolTableRecord
100
AcDbRegAppTableRecord
  2
GENIUS_GENDIMSH_14
 70
     0
  0
APPID
  5
78E
330
9
100
AcDbSymbolTableRecord
100
AcDbRegAppTableRecord
  2
GEVID942827042
 70
     0
  0
APPID
  5
78F
330
9
100
AcDbSymbolTableRecord
100
AcDbRegAppTableRecord
  2
GEVID946020473
 70
     0
  0
APPID
  5
790
330
9
100
AcDbSymbolTableRecord
100
AcDbRegAppTableRecord
  2
GEVID946020474
 70
     0
  0
APPID
  5
791
330
9
100
AcDbSymbolTableRecord
100
AcDbRegAppTableRecord
  2
GEVID946020475
 70
     0
  0
APPID
  5
792
330
9
100
AcDbSymbolTableRecord
100
AcDbRegAppTableRecord
  2
GENIUS_GENOBJ-N-HTC_13
 70
     0
  0
APPID
  5
793
330
9
100
AcDbSymbolTableRecord
100
AcDbRegAppTableRecord
  2
GENIUS_GENHATCH_13
 70
     0
  0
APPID
  5
794
330
9
100
AcDbSymbolTableRecord
100
AcDbRegAppTableRecord
  2
GEVID948854295
 70
     0
  0
APPID
  5
795
330
9
100
AcDbSymbolTableRecord
100
AcDbRegAppTableRecord
  2
GEVID939402019
 70
     0
  0
APPID
  5
796
330
9
100
AcDbSymbolTableRecord
100
AcDbRegAppTableRecord
  2
GEVID952919491
 70
     0
  0
APPID
  5
797
330
9
100
AcDbSymbolTableRecord
100
AcDbRegAppTableRecord
  2
GEVID952919492
 70
     0
  0
APPID
  5
798
330
9
100
AcDbSymbolTableRecord
100
AcDbRegAppTableRecord
  2
GENIUS_GEFWELD_13
 70
     0
  0
APPID
  5
799
330
9
100
AcDbSymbolTableRecord
100
AcDbRegAppTableRecord
  2
GENIUS_GENOBJ-F-WELS_13
 70
     0
  0
APPID
  5
79A
330
9
100
AcDbSymbolTableRecord
100
AcDbRegAppTableRecord
  2
GEVID952919493
 70
     0
  0
APPID
  5
79B
330
9
100
AcDbSymbolTableRecord
100
AcDbRegAppTableRecord
  2
GENIUS_GENOBJ-N-RSBK_13
 70
     0
  0
APPID
  5
79C
330
9
100
AcDbSymbolTableRecord
100
AcDbRegAppTableRecord
  2
GENIUS_GENOBJ-N-LIB_13
 70
     0
  0
APPID
  5
79D
330
9
100
AcDbSymbolTableRecord
100
AcDbRegAppTableRecord
  2
GENIUS_GENSCALE_13
 70
     0
  0
APPID
  5
79E
330
9
100
AcDbSymbolTableRecord
100
AcDbRegAppTableRecord
  2
GEVID986376691
 70
     0
  0
APPID
  5
79F
330
9
100
AcDbSymbolTableRecord
100
AcDbRegAppTableRecord
  2
DCO15
 70
     0
  0
APPID
  5
1A97
330
9
100
AcDbSymbolTableRecord
100
AcDbRegAppTableRecord
  2
GEVID988070561
 70
     0
  0
APPID
  5
1A98
330
9
100
AcDbSymbolTableRecord
100
AcDbRegAppTableRecord
  2
GEVID988070562
 70
     0
  0
APPID
  5
1A99
330
9
100
AcDbSymbolTableRecord
100
AcDbRegAppTableRecord
  2
GEVID988070563
 70
     0
  0
APPID
  5
2201
330
9
100
AcDbSymbolTableRecord
100
AcDbRegAppTableRecord
  2
ACADM_DIM_EDIT
 70
     0
  0
APPID
  5
2202
330
9
100
AcDbSymbolTableRecord
100
AcDbRegAppTableRecord
  2
AMDT_DM_ADJ
 70
     0
  0
APPID
  5
222C
330
9
100
AcDbSymbolTableRecord
100
AcDbRegAppTableRecord
  2
ACAD_PSEXT
 70
     0
  0
APPID
  5
222D
330
9
100
AcDbSymbolTableRecord
100
AcDbRegAppTableRecord
  2
GENIUS_GENCEN_19
 70
     0
  0
ENDTAB
  0
TABLE
  2
DIMSTYLE
  5
A
330
0
100
AcDbSymbolTable
 70
     8
100
AcDbDimStyleTable
 71
     1
340
6C
  0
DIMSTYLE
105
6C
330
A
100
AcDbSymbolTableRecord
100
AcDbDimStyleTableRecord
  2
AM_ISO
 70
     0
  4
"
 41
2.5
 42
1.0
 43
8.0
 44
0.6
 47
0.1
 48
0.1
 73
     0
 74
     0
 77
     1
 78
     8
 79
     2
140
2.5
141
0.0
143
0.0393701
146
0.71
147
0.8
172
     1
176
   256
177
   256
178
     4
271
     2
272
     2
283
     0
284
     8
340
11
371
    -1
372
    -1
  0
DIMSTYLE
105
740
330
A
100
AcDbSymbolTableRecord
100
AcDbDimStyleTableRecord
  2
STANDARD
 70
     0
340
11
  0
DIMSTYLE
105
4DFF
330
A
100
AcDbSymbolTableRecord
100
AcDbDimStyleTableRecord
  2
AM_ISO$3
 70
     0
  4
"
 41
2.5
 42
1.0
 43
8.0
 44
0.6
 47
0.1
 48
0.1
 73
     0
 77
     1
 78
     8
 79
     2
140
2.5
141
0.0
143
0.0393701
146
0.71
147
0.8
176
   256
177
   256
178
     4
271
     2
272
     2
283
     0
284
     8
288
     1
289
     0
340
11
371
    -1
372
    -1
  0
DIMSTYLE
105
4E00
330
A
100
AcDbSymbolTableRecord
100
AcDbDimStyleTableRecord
  2
AM_ISO$4
 70
     0
  4
"
 41
2.5
 42
1.0
 43
8.0
 44
0.6
 47
0.1
 48
0.1
 73
     0
 77
     1
 78
     8
 79
     2
140
2.5
141
0.0
143
0.0393701
146
0.71
147
0.8
176
   256
177
   256
178
     4
271
     2
272
     2
283
     0
284
     8
288
     1
289
     0
340
11
371
    -1
372
    -1
  0
DIMSTYLE
105
4E01
330
A
100
AcDbSymbolTableRecord
100
AcDbDimStyleTableRecord
  2
AM_ISO$6
 70
     0
  4
"
 41
2.5
 42
1.0
 43
8.0
 44
0.6
 47
0.1
 48
0.1
 73
     0
 74
     0
 78
     8
 79
     2
140
2.5
141
0.0
143
0.0393701
146
0.71
147
0.8
172
     1
176
   256
177
   256
178
     4
271
     2
272
     2
283
     0
284
     8
340
11
371
    -1
372
    -1
  0
DIMSTYLE
105
4E02
330
A
100
AcDbSymbolTableRecord
100
AcDbDimStyleTableRecord
  2
AM_ISO$7
 70
     0
  4
"
 41
2.5
 42
1.0
 43
8.0
 44
0.6
 47
0.1
 48
0.1
 73
     0
 74
     0
 77
     1
 78
     8
 79
     2
140
5.0
141
0.0
143
0.0393701
146
0.71
147
1.5
172
     1
176
   256
177
   256
178
     4
271
     2
272
     2
283
     0
284
     8
340
11
371
    -1
372
    -1
  0
DIMSTYLE
105
4E03
330
A
100
AcDbSymbolTableRecord
100
AcDbDimStyleTableRecord
  2
AM_ISO$SF
 70
     0
  4
"
 41
2.5
 42
1.0
 43
8.0
 44
0.6
 47
0.1
 48
0.1
 73
     0
 74
     0
 75
     1
 76
     1
 77
     1
 78
     8
 79
     2
140
2.5
141
0.0
143
0.0393701
146
0.71
147
0.8
172
     1
176
   256
177
   256
178
     4
271
     2
272
     2
283
     0
284
     8
340
11
371
    -1
372
    -1
  0
DIMSTYLE
105
4E08
330
A
100
AcDbSymbolTableRecord
100
AcDbDimStyleTableRecord
  2
AM_ISO$SH
 70
     0
  4
"
 41
2.5
 42
1.0
 43
8.0
 44
0.6
 47
0.1
 48
0.1
 73
     0
 74
     0
 75
     1
 76
     1
 77
     1
 78
     8
 79
     2
140
2.5
141
0.0
143
0.0393701
144
2.0
146
0.71
147
0.8
172
     1
173
     1
176
   256
177
   256
178
     4
271
     2
272
     2
283
     0
284
     8
340
11
343
4E04
371
    -1
372
    -1
  0
ENDTAB
  0
TABLE
  2
BLOCK_RECORD
  5
1
330
0
100
AcDbSymbolTable
 70
     3
  0
BLOCK_RECORD
  5
1F
102
{ACAD_XDICTIONARY
360
CC
102
}
330
1
100
AcDbSymbolTableRecord
100
AcDbBlockTableRecord
  2
*Model_Space
340
22
  0
BLOCK_RECORD
  5
1B
330
1
100
AcDbSymbolTableRecord
100
AcDbBlockTableRecord
  2
*Paper_Space
340
1E
  0
BLOCK_RECORD
  5
23
330
1
100
AcDbSymbolTableRecord
100
AcDbBlockTableRecord
  2
*Paper_Space0
340
26
  0
BLOCK_RECORD
  5
4E04
330
1
100
AcDbSymbolTableRecord
100
AcDbBlockTableRecord
  2
GENAXEH
340
0
  0
ENDTAB
  0
ENDSEC
  0
SECTION
  2
BLOCKS
  0
BLOCK
  5
20
330
1F
100
AcDbEntity
  8
0
100
AcDbBlockBegin
  2
*Model_Space
 70
     0
 10
0.0
 20
0.0
 30
0.0
  3
*Model_Space
  1

  0
ENDBLK
  5
21
330
1F
100
AcDbEntity
  8
0
100
AcDbBlockEnd
  0
BLOCK
  5
1C
330
1B
100
AcDbEntity
 67
     1
  8
0
100
AcDbBlockBegin
  2
*Paper_Space
 70
     0
 10
0.0
 20
0.0
 30
0.0
  3
*Paper_Space
  1

  0
ENDBLK
  5
1D
330
1B
100
AcDbEntity
 67
     1
  8
0
100
AcDbBlockEnd
  0
BLOCK
  5
24
330
23
100
AcDbEntity
  8
0
100
AcDbBlockBegin
  2
*Paper_Space0
 70
     0
 10
0.0
 20
0.0
 30
0.0
  3
*Paper_Space0
  1

  0
ENDBLK
  5
25
330
23
100
AcDbEntity
  8
0
100
AcDbBlockEnd
  0
BLOCK
  5
4E06
330
4E04
100
AcDbEntity
  8
0
100
AcDbBlockBegin
  2
GENAXEH
 70
     0
 10
0.0
 20
0.0
 30
0.0
  3
GENAXEH
  1

  0
LINE
  5
4E05
330
4E04
100
AcDbEntity
  8
0
100
AcDbLine
 10
-1.0
 20
0.0
 30
0.0
 11
1.0
 21
0.0
 31
0.0
  0
ENDBLK
  5
4E07
330
4E04
100
AcDbEntity
  8
0
100
AcDbBlockEnd
  0
ENDSEC
  0
SECTION
  2
ENTITIES
  0
LINE
  5
2E88
330
1F
100
AcDbEntity
  8
0
  6
Continuous
 62
     7
100
AcDbLine
 10
376.8381477963556
 20
309.8788489037529
 30
0.0
 11
376.8381477963556
 21
181.8788489037529
 31
0.0
  0
LINE
  5
2E8A
330
1F
100
AcDbEntity
  8
0
  6
Continuous
 62
     7
100
AcDbLine
 10
301.3381688760293
 20
275.8573109037529
 30
0.0
 11
301.3381688760293
 21
215.8573109037529
 31
0.0
  0
LINE
  5
2E8B
330
1F
100
AcDbEntity
  8
0
100
AcDbLine
 10
344.1292869843217
 20
277.3731476755068
 30
0.0
 11
301.3381688760293
 21
275.8788489037529
 31
0.0
  0
LINE
  5
2E8C
330
1F
100
AcDbEntity
  8
0
100
AcDbLine
 10
368.7683488029504
 20
309.5970453132594
 30
0.0
 11
376.8381477963556
 21
309.8788489037529
 31
0.0
  0
LINE
  5
2E8D
330
1F
100
AcDbEntity
  8
0
100
AcDbLine
 10
366.8381477963555
 20
307.5982636592212
 30
0.0
 11
366.8381477963587
 21
184.1594341482845
 31
0.0
  0
ARC
  5
2E8E
330
1F
100
AcDbEntity
  8
0
100
AcDbCircle
 10
368.8381477963555
 20
307.5982636592212
 30
0.0
 40
2.0
100
AcDbArc
 50
92.00000000000049
 51
180.0
1001
GENIUS_GENOBJ-N-FIL_13
1002
{
1000
OWNER
1000
GEN
1002
}
1001
GENIUS_GENODEF_13
1002
{
1000
HIER
1070
     0
1002
}
1002
{
1000
MANEDIT
1070
     0
1002
}
1002
{
1000
NOSEL
1070
     0
1002
}
1002
{
1000
BEHIND
1070
     0
1002
}
1002
{
1000
OTHER
1070
     0
1002
}
1002
{
1000
REACTOR
1002
}
  0
ARC
  5
2E8F
330
1F
100
AcDbEntity
  8
0
100
AcDbCircle
 10
361.8381477963556
 20
305.4499167156183
 30
0.0
 40
5.0
100
AcDbArc
 50
315.0
 51
0.0
1001
GENIUS_GENOBJ-N-FIL_13
1002
{
1000
OWNER
1000
GEN
1002
}
1001
GENIUS_GENODEF_13
1002
{
1000
HIER
1070
     0
1002
}
1002
{
1000
MANEDIT
1070
     0
1002
}
1002
{
1000
NOSEL
1070
     0
1002
}
1002
{
1000
BEHIND
1070
     0
1002
}
1002
{
1000
OTHER
1070
     0
1002
}
1002
{
1000
REACTOR
1002
}
  0
LINE
  5
2E90
330
1F
100
AcDbEntity
  8
0
100
AcDbLine
 10
342.1058363665095
 20
278.6465374739065
 30
0.0
 11
365.3736817022883
 21
301.9143828096856
 31
0.0
  0
ARC
  5
2E91
330
1F
100
AcDbEntity
  8
0
100
AcDbCircle
 10
338.5703024605767
 20
282.1820713798392
 30
0.0
 40
5.0
100
AcDbArc
 50
272.0000000000005
 51
315.0
1001
GENIUS_GENOBJ-N-FIL_13
1002
{
1000
OWNER
1000
GEN
1002
}
1001
GENIUS_GENODEF_13
1002
{
1000
HIER
1070
     0
1002
}
1002
{
1000
MANEDIT
1070
     0
1002
}
1002
{
1000
NOSEL
1070
     0
1002
}
1002
{
1000
BEHIND
1070
     0
1002
}
1002
{
1000
OTHER
1070
     0
1002
}
1002
{
1000
REACTOR
1002
}
  0
LINE
  5
2E93
330
1F
100
AcDbEntity
  8
0
100
AcDbLine
 10
344.1292869843218
 20
214.3845501319987
 30
0.0
 11
301.3381688760293
 21
215.8788489037528
 31
0.0
  0
LINE
  5
2E94
330
1F
100
AcDbEntity
  8
0
100
AcDbLine
 10
368.7683488029504
 20
182.1606524942463
 30
0.0
 11
376.8381477963556
 21
181.8788489037529
 31
0.0
  0
ARC
  5
2E96
330
1F
100
AcDbEntity
  8
0
100
AcDbCircle
 10
368.8381477963555
 20
184.1594341482845
 30
0.0
 40
2.0
100
AcDbArc
 50
180.0
 51
267.9999999999995
1001
GENIUS_GENOBJ-N-FIL_13
1002
{
1000
OWNER
1000
GEN
1002
}
1001
GENIUS_GENODEF_13
1002
{
1000
HIER
1070
     0
1002
}
1002
{
1000
MANEDIT
1070
     0
1002
}
1002
{
1000
NOSEL
1070
     0
1002
}
1002
{
1000
BEHIND
1070
     0
1002
}
1002
{
1000
OTHER
1070
     0
1002
}
1002
{
1000
REACTOR
1002
}
  0
ARC
  5
2E97
330
1F
100
AcDbEntity
  8
0
100
AcDbCircle
 10
361.8381477963556
 20
186.3077810918873
 30
0.0
 40
5.0
100
AcDbArc
 50
0.0
 51
45.0
1001
GENIUS_GENOBJ-N-FIL_13
1002
{
1000
OWNER
1000
GEN
1002
}
1001
GENIUS_GENODEF_13
1002
{
1000
HIER
1070
     0
1002
}
1002
{
1000
MANEDIT
1070
     0
1002
}
1002
{
1000
NOSEL
1070
     0
1002
}
1002
{
1000
BEHIND
1070
     0
1002
}
1002
{
1000
OTHER
1070
     0
1002
}
1002
{
1000
REACTOR
1002
}
  0
LINE
  5
2E98
330
1F
100
AcDbEntity
  8
0
100
AcDbLine
 10
342.1058363665095
 20
213.1111603335992
 30
0.0
 11
365.3736817022883
 21
189.8433149978201
 31
0.0
  0
ARC
  5
2E99
330
1F
100
AcDbEntity
  8
0
100
AcDbCircle
 10
338.5703024605767
 20
209.5756264276665
 30
0.0
 40
5.0
100
AcDbArc
 50
45.0
 51
87.99999999999952
1001
GENIUS_GENOBJ-N-FIL_13
1002
{
1000
OWNER
1000
GEN
1002
}
1001
GENIUS_GENODEF_13
1002
{
1000
HIER
1070
     0
1002
}
1002
{
1000
MANEDIT
1070
     0
1002
}
1002
{
1000
NOSEL
1070
     0
1002
}
1002
{
1000
BEHIND
1070
     0
1002
}
1002
{
1000
OTHER
1070
     0
1002
}
1002
{
1000
REACTOR
1002
}
  0
ARC
  5
2E9C
330
1F
100
AcDbEntity
  8
図面枠-ｷｲﾛ
100
AcDbCircle
 10
426.7398201596368
 20
245.8788489037529
 30
0.0
 40
81.58989117312719
100
AcDbArc
 50
162.1810811943905
 51
197.8189188056095
  0
ARC
  5
2E9F
330
1F
100
AcDbEntity
  8
図面枠-ｷｲﾛ
100
AcDbCircle
 10
344.3037844678343
 20
272.3761935404115
 30
0.0
 40
5.0
100
AcDbArc
 50
342.1810811943907
 51
92.00000000000045
1001
GENIUS_GENODEF_13
1002
{
1000
HIER
1070
     0
1002
}
1002
{
1000
MANEDIT
1070
     0
1002
}
1002
{
1000
NOSEL
1070
     0
1002
}
1002
{
1000
BEHIND
1070
     0
1002
}
1002
{
1000
OTHER
1070
     0
1002
}
1002
{
1000
REACTOR
1002
}
1001
GENIUS_GENOBJ-N-FIL_13
1002
{
1000
OWNER
1000
GEN
1002
}
  0
ARC
  5
2EA1
330
1F
100
AcDbEntity
  8
図面枠-ｷｲﾛ
100
AcDbCircle
 10
344.3037844678343
 20
219.3815042670942
 30
0.0
 40
5.0
100
AcDbArc
 50
267.9999999999996
 51
17.81891880560928
1001
GENIUS_GENOBJ-N-FIL_13
1002
{
1000
OWNER
1000
GEN
1002
}
1001
GENIUS_GENODEF_13
1002
{
1000
HIER
1070
     0
1002
}
1002
{
1000
MANEDIT
1070
     0
1002
}
1002
{
1000
NOSEL
1070
     0
1002
}
1002
{
1000
BEHIND
1070
     0
1002
}
1002
{
1000
OTHER
1070
     0
1002
}
1002
{
1000
REACTOR
1002
}
  0
LINE
  5
329A
330
1F
100
AcDbEntity
  8
AM_0
100
AcDbLine
 10
482.3380977963556
 20
275.8788489037528
 30
0.0
 11
504.3381477963555
 21
275.8788489037528
 31
0.0
  0
LINE
  5
329B
330
1F
100
AcDbEntity
  8
AM_0
100
AcDbLine
 10
474.3381477963555
 20
252.8788479037528
 30
0.0
 11
476.3380977963556
 21
252.8788479037528
 31
0.0
  0
LINE
  5
329C
330
1F
100
AcDbEntity
  8
AM_0
100
AcDbLine
 10
474.3381477963555
 20
272.8788489037528
 30
0.0
 11
476.3380977963556
 21
272.8788489037528
 31
0.0
  0
LINE
  5
329D
330
1F
100
AcDbEntity
  8
AM_0
100
AcDbLine
 10
476.3380977963556
 20
272.8788489037528
 30
0.0
 11
476.3380977963556
 21
262.8788499037528
 31
0.0
  0
LINE
  5
32A1
330
1F
100
AcDbEntity
  8
ﾁｭｳｼﾝｾﾝ
100
AcDbLine
 10
293.8198745066263
 20
245.8788489037529
 30
0.0
 11
407.4596888145364
 21
245.8788489037529
 31
0.0
  0
LINE
  5
32A2
330
1F
100
AcDbEntity
  8
AM_0
100
AcDbLine
 10
476.3380977963556
 20
252.8788479037528
 30
0.0
 11
476.3380977963556
 21
262.8788499037528
 31
0.0
  0
LINE
  5
32A5
330
1F
100
AcDbEntity
  8
ﾁｭｳｼﾝｾﾝ
100
AcDbLine
 10
402.9887277963555
 20
262.8788499037528
 30
0.0
 11
506.0716677963555
 21
262.8788499037528
 31
0.0
  0
LINE
  5
32A6
330
1F
100
AcDbEntity
  8
AM_0
100
AcDbLine
 10
504.3381477963555
 20
253.3788489037529
 30
0.0
 11
504.3381477963555
 21
275.8788489037528
 31
0.0
  0
LINE
  5
32A7
330
1F
100
AcDbEntity
  8
AM_0
100
AcDbLine
 10
476.3380977963556
 20
253.3788489037529
 30
0.0
 11
504.3381477963555
 21
253.3788489037529
 31
0.0
  0
LINE
  5
32A8
330
1F
100
AcDbEntity
  8
AM_0
100
AcDbLine
 10
476.3380977963556
 20
272.3788479037529
 30
0.0
 11
504.3381477963555
 21
272.3788479037529
 31
0.0
  0
LINE
  5
32AD
330
1F
100
AcDbEntity
  8
AM_0
100
AcDbLine
 10
414.3381477963555
 20
305.8788639037528
 30
0.0
 11
414.3381477963555
 21
195.8788629037529
 31
0.0
  0
LINE
  5
32CC
330
1F
100
AcDbEntity
  8
AM_0
100
AcDbLine
 10
482.3380977963556
 20
272.3788479037529
 30
0.0
 11
482.3380977963556
 21
275.8788489037528
 31
0.0
  0
LINE
  5
32EB
330
1F
100
AcDbEntity
  8
AM_0
100
AcDbLine
 10
386.2905177963558
 20
288.4857039037528
 30
0.0
 11
425.3381577963556
 21
288.4857039037528
 31
0.0
  0
LINE
  5
3309
330
1F
100
AcDbEntity
  8
AM_0
100
AcDbLine
 10
376.8380877963556
 20
309.3788439037528
 30
0.0
 11
380.8642677963557
 21
309.2734539037528
 31
0.0
  0
LINE
  5
330A
330
1F
100
AcDbEntity
  8
AM_0
100
AcDbLine
 10
384.8381877963557
 20
196.3788459037528
 30
0.0
 11
384.8381877963557
 21
205.8825549037528
 31
0.0
  0
LINE
  5
330B
330
1F
100
AcDbEntity
  8
AM_0
100
AcDbLine
 10
382.8119577963556
 20
185.0533149037529
 30
0.0
 11
386.7857577963556
 21
185.1573789037528
 31
0.0
  0
LINE
  5
330C
330
1F
100
AcDbEntity
  8
AM_0
100
AcDbLine
 10
381.8381877963556
 20
183.4839489037528
 30
0.0
 11
381.8381877963556
 21
194.3788629037529
 31
0.0
  0
LINE
  5
330D
330
1F
100
AcDbEntity
  8
AM_0
100
AcDbLine
 10
376.8381477963556
 20
182.3788779037528
 30
0.0
 11
380.8643277963556
 21
182.4843009037528
 31
0.0
  0
LINE
  5
330E
330
1F
100
AcDbEntity
  8
AM_0
100
AcDbLine
 10
382.8119577963556
 20
306.7044039037528
 30
0.0
 11
414.3381177963556
 21
305.8788939037528
 31
0.0
  0
LINE
  5
330F
330
1F
100
AcDbEntity
  8
AM_0
100
AcDbLine
 10
386.7857577963556
 20
185.1573789037528
 30
0.0
 11
391.3381377963557
 21
185.2765809037528
 31
0.0
  0
LINE
  5
3310
330
1F
100
AcDbEntity
  8
AM_0
100
AcDbLine
 10
376.8381477963556
 20
194.3788629037529
 30
0.0
 11
382.8381477963556
 21
194.3788629037529
 31
0.0
  0
LINE
  5
3311
330
1F
100
AcDbEntity
  8
AM_0
100
AcDbLine
 10
376.8381477963556
 20
297.3788439037528
 30
0.0
 11
382.8381477963556
 21
297.3788439037528
 31
0.0
  0
LINE
  5
3312
330
1F
100
AcDbEntity
  8
AM_0
100
AcDbLine
 10
376.8381477963556
 20
283.8751569037528
 30
0.0
 11
382.8381477963556
 21
283.8751569037528
 31
0.0
  0
LINE
  5
3313
330
1F
100
AcDbEntity
  8
AM_0
100
AcDbLine
 10
376.8381477963556
 20
207.8825409037528
 30
0.0
 11
382.8381477963556
 21
207.8825409037528
 31
0.0
  0
LINE
  5
3314
330
1F
100
AcDbEntity
  8
AM_0
100
AcDbLine
 10
384.8381877963557
 20
285.8751579037528
 30
0.0
 11
384.8381877963557
 21
295.3788639037528
 31
0.0
  0
LINE
  5
3315
330
1F
100
AcDbEntity
  8
AM_0
100
AcDbLine
 10
381.8381877963556
 20
207.8825409037528
 30
0.0
 11
381.8381877963556
 21
283.8751569037528
 31
0.0
  0
LINE
  5
3316
330
1F
100
AcDbEntity
  8
AM_0
100
AcDbLine
 10
381.8381877963556
 20
297.3788439037528
 30
0.0
 11
381.8381877963556
 21
308.2737339037529
 31
0.0
  0
LINE
  5
3323
330
1F
100
AcDbEntity
  8
AM_0
100
AcDbLine
 10
376.8381477963556
 20
309.3788439037528
 30
0.0
 11
376.8381477963556
 21
182.3787849037528
 31
0.0
  0
ARC
  5
3459
330
1F
100
AcDbEntity
  8
AM_0
100
AcDbCircle
 10
382.8381477963556
 20
307.7040639037528
 30
0.0
 40
1.000000019999998
100
AcDbArc
 50
179.999989999999
 51
268.5000100000004
  0
ARC
  5
345A
330
1F
100
AcDbEntity
  8
AM_0
100
AcDbCircle
 10
380.8381377963557
 20
308.2737339037529
 30
0.0
 40
1.000000019999998
100
AcDbArc
 50
0.0
 51
88.49999699999992
  0
ARC
  5
345B
330
1F
100
AcDbEntity
  8
AM_0
100
AcDbCircle
 10
380.8381377963557
 20
183.4839489037528
 30
0.0
 40
1.000000019999998
100
AcDbArc
 50
271.5000000000003
 51
0.0
  0
ARC
  5
345C
330
1F
100
AcDbEntity
  8
AM_0
100
AcDbCircle
 10
382.8381477963556
 20
184.0536369037528
 30
0.0
 40
1.000000019999998
100
AcDbArc
 50
91.50000099999992
 51
180.0000099999994
  0
ARC
  5
345D
330
1F
100
AcDbEntity
  8
AM_0
100
AcDbCircle
 10
382.8381477963556
 20
205.8825549037528
 30
0.0
 40
2.00000007
100
AcDbArc
 50
0.0
 51
90.00000300000015
  0
ARC
  5
345E
330
1F
100
AcDbEntity
  8
AM_0
100
AcDbCircle
 10
382.8381477963556
 20
196.3788459037528
 30
0.0
 40
2.00000007
100
AcDbArc
 50
270.0
 51
0.0
  0
ARC
  5
345F
330
1F
100
AcDbEntity
  8
AM_0
100
AcDbCircle
 10
382.8381477963556
 20
285.8751579037528
 30
0.0
 40
2.00000007
100
AcDbArc
 50
270.0
 51
0.0
  0
ARC
  5
3460
330
1F
100
AcDbEntity
  8
AM_0
100
AcDbCircle
 10
382.8381477963556
 20
295.3788639037528
 30
0.0
 40
2.00000007
100
AcDbArc
 50
0.0
 51
90.00000300000015
  0
LINE
  5
4084
330
1F
100
AcDbEntity
  8
AM_0
100
AcDbLine
 10
376.8381477963556
 20
297.3788439037528
 30
0.0
 11
366.8381477963558
 21
297.3788439037526
 31
0.0
  0
LINE
  5
4085
330
1F
100
AcDbEntity
  8
AM_0
100
AcDbLine
 10
376.8381477963556
 20
283.8751569037528
 30
0.0
 11
366.8381477963561
 21
283.8751569037526
 31
0.0
  0
LINE
  5
4086
330
1F
100
AcDbEntity
  8
AM_0
100
AcDbLine
 10
376.8381477963556
 20
207.8825409037528
 30
0.0
 11
366.838147796358
 21
207.8825409037526
 31
0.0
  0
LINE
  5
4087
330
1F
100
AcDbEntity
  8
AM_0
100
AcDbLine
 10
376.8381477963556
 20
194.3788629037529
 30
0.0
 11
366.8381477963585
 21
194.3788629037526
 31
0.0
  0
LINE
  5
4806
330
1F
100
AcDbEntity
  8
AM_0
100
AcDbLine
 10
382.8119577963555
 20
185.0532384037529
 30
0.0
 11
414.3381477963555
 21
185.8787694037529
 31
0.0
  0
LINE
  5
4807
330
1F
100
AcDbEntity
  8
AM_0
100
AcDbLine
 10
376.8381477963556
 20
182.3787984037529
 30
0.0
 11
381.7975077963555
 21
182.5086654037529
 31
0.0
  0
LINE
  5
4808
330
1F
100
AcDbEntity
  8
AM_0
100
AcDbLine
 10
414.3381477963555
 20
181.0648944037529
 30
0.0
 11
414.3381477963555
 21
305.8788174037529
 31
0.0
  0
LINE
  5
4809
330
1F
100
AcDbEntity
  8
AM_0
100
AcDbLine
 10
384.2927277963555
 20
180.2781204037529
 30
0.0
 11
414.3381477963555
 21
181.0648794037528
 31
0.0
  0
LINE
  5
480A
330
1F
100
AcDbEntity
  8
AM_0
100
AcDbLine
 10
414.3381477963555
 20
288.4856604037529
 30
0.0
 11
444.5341677963555
 21
288.4856604037529
 31
0.0
  0
LINE
  5
480B
330
1F
100
AcDbEntity
  8
AM_0
100
AcDbLine
 10
446.3381577963555
 20
327.1099224037529
 30
0.0
 11
446.3381577963555
 21
221.143508403753
 31
0.0
  0
LINE
  5
480C
330
1F
100
AcDbEntity
  8
AM_0
100
AcDbLine
 10
414.3381477963555
 20
305.8788174037529
 30
0.0
 11
443.4166677963553
 21
306.640262403753
 31
0.0
  0
LINE
  5
480D
330
1F
100
AcDbEntity
  8
AM_0
100
AcDbLine
 10
451.3381077963555
 20
216.1435104037529
 30
0.0
 11
459.3381477963555
 21
216.1435104037529
 31
0.0
  0
LINE
  5
480E
330
1F
100
AcDbEntity
  8
AM_0
100
AcDbLine
 10
414.3381477963555
 20
193.0981734037529
 30
0.0
 11
450.3381477963555
 21
193.0981734037529
 31
0.0
  0
LINE
  5
480F
330
1F
100
AcDbEntity
  8
AM_0
100
AcDbLine
 10
451.3119477963555
 20
196.8020334037529
 30
0.0
 11
459.3381777963553
 21
197.0121924037528
 31
0.0
  0
LINE
  5
4810
330
1F
100
AcDbEntity
  8
AM_0
100
AcDbLine
 10
450.3381477963555
 20
196.0775904037529
 30
0.0
 11
450.3381477963555
 21
179.8787994037529
 31
0.0
  0
LINE
  5
4811
330
1F
100
AcDbEntity
  8
AM_0
100
AcDbLine
 10
473.3381577963553
 20
283.8059424037528
 30
0.0
 11
473.7523977963554
 21
283.3917264037528
 31
0.0
  0
LINE
  5
4812
330
1F
100
AcDbEntity
  8
AM_0
100
AcDbLine
 10
414.3381477963555
 20
181.0648944037529
 30
0.0
 11
450.3381777963553
 21
179.8077534037529
 31
0.0
  0
LINE
  5
4813
330
1F
100
AcDbEntity
  8
AM_0
100
AcDbLine
 10
461.2683477963555
 20
337.5969924037528
 30
0.0
 11
469.3381377963556
 21
337.8787824037528
 31
0.0
  0
LINE
  5
4814
330
1F
100
AcDbEntity
  8
AM_0
100
AcDbLine
 10
473.3381577963553
 20
332.8788324037529
 30
0.0
 11
473.3381577963553
 21
262.8788154037529
 31
0.0
  0
LINE
  5
4815
330
1F
100
AcDbEntity
  8
AM_0
100
AcDbLine
 10
473.3381577963553
 20
262.8788154037529
 30
0.0
 11
473.3381577963553
 21
197.3787984037529
 31
0.0
  0
LINE
  5
4816
330
1F
100
AcDbEntity
  8
AM_0
100
AcDbLine
 10
473.3381877963554
 20
241.8059094037529
 30
0.0
 11
473.7523977963554
 21
242.2201254037529
 31
0.0
  0
LINE
  5
4817
330
1F
100
AcDbEntity
  8
AM_0
100
AcDbLine
 10
469.3381077963555
 20
337.878812403753
 30
0.0
 11
469.3381077963555
 21
192.9749904037528
 31
0.0
  0
LINE
  5
4818
330
1F
100
AcDbEntity
  8
AM_0
100
AcDbLine
 10
461.2683777963553
 20
193.2567894037528
 30
0.0
 11
469.3381377963556
 21
192.9749904037528
 31
0.0
  0
LINE
  5
4819
330
1F
100
AcDbEntity
  8
AM_0
100
AcDbLine
 10
469.3381077963555
 20
332.8788324037529
 30
0.0
 11
473.3381577963553
 21
332.8788324037529
 31
0.0
  0
LINE
  5
481A
330
1F
100
AcDbEntity
  8
AM_0
100
AcDbLine
 10
469.3381377963556
 20
197.2740624037529
 30
0.0
 11
473.3381577963553
 21
197.3787984037529
 31
0.0
  0
LINE
  5
481B
330
1F
100
AcDbEntity
  8
AM_0
100
AcDbLine
 10
464.3381577963553
 20
322.3788174037529
 30
0.0
 11
464.3381577963553
 21
208.2634884037529
 31
0.0
  0
LINE
  5
481C
330
1F
100
AcDbEntity
  8
AM_0
100
AcDbLine
 10
451.1636277963555
 20
332.1068724037528
 30
0.0
 11
456.4428777963555
 21
332.2912224037529
 31
0.0
  0
LINE
  5
481D
330
1F
100
AcDbEntity
  8
AM_0
100
AcDbLine
 10
474.3381477963555
 20
281.9046654037529
 30
0.0
 11
474.3381477963555
 21
243.6343854037529
 31
0.0
  0
LINE
  5
481E
330
1F
100
AcDbEntity
  8
AM_0
100
AcDbLine
 10
459.3381477963555
 20
335.5982424037529
 30
0.0
 11
459.3381477963555
 21
303.3191874037528
 31
0.0
  0
LINE
  5
481F
330
1F
100
AcDbEntity
  8
AM_0
100
AcDbLine
 10
459.3381477963555
 20
195.2555694037529
 30
0.0
 11
459.3381477963555
 21
222.3438114037529
 31
0.0
  0
LINE
  5
4820
330
1F
100
AcDbEntity
  8
AM_0
100
AcDbLine
 10
454.3381077963555
 20
191.9868924037528
 30
0.0
 11
454.3381077963555
 21
183.3618774037529
 31
0.0
  0
LINE
  5
4821
330
1F
100
AcDbEntity
  8
AM_0
100
AcDbLine
 10
453.8933577963555
 20
193.4243934037528
 30
0.0
 11
450.3381477963555
 21
193.4243934037528
 31
0.0
  0
LINE
  5
4822
330
1F
100
AcDbEntity
  8
AM_0
100
AcDbLine
 10
453.8933577963555
 20
181.9243914037528
 30
0.0
 11
450.3381477963555
 21
181.9243914037528
 31
0.0
  0
LINE
  5
4823
330
1F
100
AcDbEntity
  8
AM_0
100
AcDbLine
 10
453.8933577963555
 20
190.5493914037528
 30
0.0
 11
450.3381477963555
 21
190.5493914037528
 31
0.0
  0
LINE
  5
4824
330
1F
100
AcDbEntity
  8
AM_0
100
AcDbLine
 10
453.8933577963555
 20
184.7993934037528
 30
0.0
 11
450.3381477963555
 21
184.7993934037528
 31
0.0
  0
LINE
  5
4825
330
1F
100
AcDbEntity
  8
AM_0
100
AcDbLine
 10
382.6896477963556
 20
182.0090334037528
 30
0.0
 11
383.4005277963555
 21
180.7777854037528
 31
0.0
  0
ARC
  5
4826
330
1F
100
AcDbEntity
  8
AM_0
100
AcDbCircle
 10
461.3381577963555
 20
303.3191874037528
 30
0.0
 40
2.00000007
100
AcDbArc
 50
179.999989999999
 51
271.5146399999999
  0
ARC
  5
4827
330
1F
100
AcDbEntity
  8
AM_0
100
AcDbCircle
 10
456.3381477963555
 20
335.2894224037529
 30
0.0
 40
3.0
100
AcDbArc
 50
272.0000000000005
 51
0.0
  0
ARC
  5
4828
330
1F
100
AcDbEntity
  8
AM_0
100
AcDbCircle
 10
451.3381077963555
 20
327.1099224037529
 30
0.0
 40
5.000000099999999
100
AcDbArc
 50
91.99999799999977
 51
180.0000100000009
  0
ARC
  5
4829
330
1F
100
AcDbEntity
  8
AM_0
100
AcDbCircle
 10
451.3381077963555
 20
221.143508403753
 30
0.0
 40
5.000000099999999
100
AcDbArc
 50
179.999989999999
 51
270.0
  0
ARC
  5
482A
330
1F
100
AcDbEntity
  8
AM_0
100
AcDbCircle
 10
472.3381077963555
 20
281.9775414037528
 30
0.0
 40
2.00000007
100
AcDbArc
 50
0.0
 51
45.0000010000038
  0
ARC
  5
482B
330
1F
100
AcDbEntity
  8
AM_0
100
AcDbCircle
 10
451.3381077963555
 20
195.8023674037528
 30
0.0
 40
1.000000019999998
100
AcDbArc
 50
91.50000099999992
 51
180.0000100000009
  0
ARC
  5
482C
330
1F
100
AcDbEntity
  8
AM_0
100
AcDbCircle
 10
461.3381577963555
 20
322.3788174037529
 30
0.0
 40
3.0
100
AcDbArc
 50
0.0
 51
90.00000300000015
  0
ARC
  5
482D
330
1F
100
AcDbEntity
  8
AM_0
100
AcDbCircle
 10
472.3381077963555
 20
243.6343854037529
 30
0.0
 40
2.00000007
100
AcDbArc
 50
315.0
 51
0.0
  0
ARC
  5
482E
330
1F
100
AcDbEntity
  8
AM_0
100
AcDbCircle
 10
443.3381577963555
 20
309.6392544037528
 30
0.0
 40
3.0
100
AcDbArc
 50
271.5000000000002
 51
0.0
  0
ARC
  5
482F
330
1F
100
AcDbEntity
  8
AM_0
100
AcDbCircle
 10
461.3381577963555
 20
335.5982424037529
 30
0.0
 40
2.00000007
100
AcDbArc
 50
91.99999799999977
 51
180.0000100000009
  0
ARC
  5
4830
330
1F
100
AcDbEntity
  8
AM_0
100
AcDbCircle
 10
461.3381577963555
 20
222.3438114037529
 30
0.0
 40
2.00000007
100
AcDbArc
 50
90.00000300000015
 51
180.0000100000009
  0
ARC
  5
4831
330
1F
100
AcDbEntity
  8
AM_0
100
AcDbCircle
 10
461.3381577963555
 20
195.2555694037529
 30
0.0
 40
2.00000007
100
AcDbArc
 50
179.999989999999
 51
268.0000100000003
  0
ARC
  5
4832
330
1F
100
AcDbEntity
  8
AM_0
100
AcDbCircle
 10
462.3381477963555
 20
208.2634884037529
 30
0.0
 40
2.00000007
100
AcDbArc
 50
267.9999999999995
 51
0.0
  0
ARC
  5
4833
330
1F
100
AcDbEntity
  8
AM_0
100
AcDbCircle
 10
451.7927277963555
 20
183.3618774037529
 30
0.0
 40
2.545406429999998
100
AcDbArc
 50
325.6155700000022
 51
34.38443900000001
  0
ARC
  5
4834
330
1F
100
AcDbEntity
  8
AM_0
100
AcDbCircle
 10
451.7927277963555
 20
191.9868924037528
 30
0.0
 40
2.545406429999998
100
AcDbArc
 50
325.6155700000022
 51
34.38443900000001
  0
ARC
  5
4835
330
1F
100
AcDbEntity
  8
AM_0
100
AcDbCircle
 10
444.8236377963556
 20
187.6743924037528
 30
0.0
 40
9.514492199999999
100
AcDbArc
 50
342.41196
 51
17.58803299999929
  0
ARC
  5
4836
330
1F
100
AcDbEntity
  8
AM_0
100
AcDbCircle
 10
381.8236677963555
 20
181.5090024037528
 30
0.0
 40
1.000000019999998
100
AcDbArc
 50
30.00000100000065
 51
91.50000099999992
  0
ARC
  5
4837
330
1F
100
AcDbEntity
  8
AM_0
100
AcDbCircle
 10
384.2665377963556
 20
181.2777714037529
 30
0.0
 40
1.000000019999998
100
AcDbArc
 50
210.0000000000001
 51
271.5000000000002
  0
LINE
  5
49DE
330
1F
100
AcDbEntity
  8
AM_0
100
AcDbLine
 10
674.2220251791064
 20
184.7876619037528
 30
0.0
 11
674.2220251791064
 21
190.5611919037529
 31
0.0
  0
LINE
  5
49DF
330
1F
100
AcDbEntity
  8
AM_0
100
AcDbLine
 10
748.3123771791063
 20
281.3440779037529
 30
0.0
 11
748.3123771791063
 21
287.1175599037528
 31
0.0
  0
LINE
  5
49E0
330
1F
100
AcDbEntity
  8
AM_0
100
AcDbLine
 10
669.2220571791061
 20
193.4479239037528
 30
0.0
 11
664.2220711791062
 21
190.5611769037528
 31
0.0
  0
LINE
  5
49E1
330
1F
100
AcDbEntity
  8
AM_0
100
AcDbLine
 10
712.4401831791062
 20
184.7876619037528
 30
0.0
 11
717.4401811791063
 21
181.9009119037528
 31
0.0
  0
LINE
  5
49E2
330
1F
100
AcDbEntity
  8
AM_0
100
AcDbLine
 10
669.2220571791061
 20
181.9009269037529
 30
0.0
 11
674.2220581791062
 21
184.7876769037528
 31
0.0
  0
LINE
  5
49E3
330
1F
100
AcDbEntity
  8
AM_0
100
AcDbLine
 10
717.4401661791063
 20
181.9009269037529
 30
0.0
 11
722.4401671791063
 21
184.7876769037528
 31
0.0
  0
LINE
  5
49E4
330
1F
100
AcDbEntity
  8
AM_0
100
AcDbLine
 10
738.3123751791063
 20
287.1175599037528
 30
0.0
 11
738.3123751791063
 21
281.3440779037529
 31
0.0
  0
LINE
  5
49E5
330
1F
100
AcDbEntity
  8
AM_0
100
AcDbLine
 10
674.2220581791062
 20
190.5611619037529
 30
0.0
 11
669.2220721791064
 21
193.4479089037528
 31
0.0
  0
LINE
  5
49E6
330
1F
100
AcDbEntity
  8
AM_0
100
AcDbLine
 10
743.3123761791063
 20
278.4572979037528
 30
0.0
 11
748.3123771791063
 21
281.3440629037529
 31
0.0
  0
LINE
  5
49E7
330
1F
100
AcDbEntity
  8
AM_0
100
AcDbLine
 10
690.3310981791063
 20
274.8788499037528
 30
0.0
 11
690.3310981791063
 21
268.8788499037528
 31
0.0
  0
LINE
  5
49E8
330
1F
100
AcDbEntity
  8
AM_0
100
AcDbLine
 10
690.3310981791063
 20
268.8788499037528
 30
0.0
 11
696.3310981791063
 21
268.8788499037528
 31
0.0
  0
LINE
  5
49E9
330
1F
100
AcDbEntity
  8
AM_0
100
AcDbLine
 10
696.3310981791063
 20
268.8788499037528
 30
0.0
 11
696.3310981791063
 21
274.8788499037528
 31
0.0
  0
LINE
  5
49EA
330
1F
100
AcDbEntity
  8
AM_0
100
AcDbLine
 10
696.3310981791063
 20
274.8788499037528
 30
0.0
 11
690.3310981791063
 21
274.8788499037528
 31
0.0
  0
LINE
  5
49EB
330
1F
100
AcDbEntity
  8
AM_0
100
AcDbLine
 10
663.6326101791062
 20
230.3519349037529
 30
0.0
 11
687.4843861791063
 21
206.5001559037528
 31
0.0
  0
LINE
  5
49EC
330
1F
100
AcDbEntity
  8
AM_0
100
AcDbLine
 10
668.8517551791062
 20
284.5297599037528
 30
0.0
 11
647.5096831791062
 21
305.8718319037528
 31
0.0
  0
LINE
  5
49ED
330
1F
100
AcDbEntity
  8
ﾁｭｳｼﾝｾﾝ1
 48
0.5
100
AcDbLine
 10
639.7332601208062
 20
209.2809968454529
 30
0.0
 11
627.2105640988652
 21
196.7583008235119
 31
0.0
  0
LINE
  5
49EE
330
1F
100
AcDbEntity
  8
ﾁｭｳｼﾝｾﾝ1
100
AcDbLine
 10
616.8930901791062
 20
262.8788499037528
 30
0.0
 11
772.7037222965166
 21
262.8788499037528
 31
0.0
  0
LINE
  5
49EF
330
1F
100
AcDbEntity
  8
AM_0
100
AcDbLine
 10
693.3310981791063
 20
337.878846903753
 30
0.0
 11
713.3311111791063
 21
337.878846903753
 31
0.0
  0
LINE
  5
49F0
330
1F
100
AcDbEntity
  8
AM_0
100
AcDbLine
 10
728.6546161791062
 20
197.3788179037529
 30
0.0
 11
693.3310981791063
 21
197.3788179037529
 31
0.0
  0
LINE
  5
49F1
330
1F
100
AcDbEntity
  8
AM_0
100
AcDbLine
 10
658.0075801791061
 20
197.3788179037529
 30
0.0
 11
693.3310981791063
 21
197.3788179037529
 31
0.0
  0
LINE
  5
49F2
330
1F
100
AcDbEntity
  8
AM_0
100
AcDbLine
 10
768.3311131791063
 20
262.8788499037528
 30
0.0
 11
768.3311131791063
 21
282.8788209037528
 31
0.0
  0
LINE
  5
49F3
330
1F
100
AcDbEntity
  8
AM_0
100
AcDbLine
 10
738.3123751791063
 20
281.3440299037528
 30
0.0
 11
743.3123761791063
 21
278.4572979037528
 31
0.0
  0
LINE
  5
49F4
330
1F
100
AcDbEntity
  8
AM_0
100
AcDbLine
 10
664.2220411791062
 20
190.5611919037529
 30
0.0
 11
664.2220411791062
 21
184.7876619037528
 31
0.0
  0
LINE
  5
49F5
330
1F
100
AcDbEntity
  8
AM_0
100
AcDbLine
 10
748.3123771791063
 20
287.1175599037528
 30
0.0
 11
743.3123761791063
 21
290.0043099037528
 31
0.0
  0
LINE
  5
49F6
330
1F
100
AcDbEntity
  8
AM_0
100
AcDbLine
 10
643.3498471791061
 20
278.4572979037528
 30
0.0
 11
648.3498631791063
 21
281.3440449037528
 31
0.0
  0
LINE
  5
49F7
330
1F
100
AcDbEntity
  8
AM_0
100
AcDbLine
 10
664.2220711791062
 20
184.7876619037528
 30
0.0
 11
669.2220721791064
 21
181.9009119037528
 31
0.0
  0
LINE
  5
49F8
330
1F
100
AcDbEntity
  8
AM_0
100
AcDbLine
 10
722.4401821791063
 20
190.5611619037529
 30
0.0
 11
717.4401811791063
 21
193.4479089037528
 31
0.0
  0
LINE
  5
49F9
330
1F
100
AcDbEntity
  8
AM_0
100
AcDbLine
 10
717.4401661791063
 20
193.4479419037529
 30
0.0
 11
712.4401681791063
 21
190.5611769037528
 31
0.0
  0
LINE
  5
49FA
330
1F
100
AcDbEntity
  8
AM_0
100
AcDbLine
 10
648.3498481791062
 20
281.3440779037529
 30
0.0
 11
648.3498481791062
 21
287.1175599037528
 31
0.0
  0
LINE
  5
49FB
330
1F
100
AcDbEntity
  8
AM_0
100
AcDbLine
 10
648.3498631791063
 20
287.1175299037528
 30
0.0
 11
643.3498801791062
 21
290.0042799037529
 31
0.0
  0
LINE
  5
49FC
330
1F
100
AcDbEntity
  8
AM_0
100
AcDbLine
 10
643.3498801791062
 20
290.0042799037529
 30
0.0
 11
638.3498791791062
 21
287.1175299037528
 31
0.0
  0
LINE
  5
49FD
330
1F
100
AcDbEntity
  8
AM_0
100
AcDbLine
 10
638.3498491791061
 20
287.1175599037528
 30
0.0
 11
638.3498491791061
 21
281.3440779037529
 31
0.0
  0
LINE
  5
49FE
330
1F
100
AcDbEntity
  8
AM_0
100
AcDbLine
 10
638.3498791791062
 20
281.3440299037528
 30
0.0
 11
643.3498801791062
 21
278.4572829037527
 31
0.0
  0
LINE
  5
49FF
330
1F
100
AcDbEntity
  8
AM_0
100
AcDbLine
 10
743.3123761791063
 20
290.0043099037528
 30
0.0
 11
738.3123751791063
 21
287.1175599037528
 31
0.0
  0
LINE
  5
4A00
330
1F
100
AcDbEntity
  8
AM_0
100
AcDbLine
 10
722.4401671791063
 20
184.7876619037528
 30
0.0
 11
722.4401671791063
 21
190.5611919037529
 31
0.0
  0
LINE
  5
4A01
330
1F
100
AcDbEntity
  8
AM_0
100
AcDbLine
 10
712.4401681791063
 20
190.5611919037529
 30
0.0
 11
712.4401681791063
 21
184.7876619037528
 31
0.0
  0
LINE
  5
4A02
330
1F
100
AcDbEntity
  8
AM_0
100
AcDbLine
 10
668.8517551791062
 20
241.2279399037529
 30
0.0
 11
647.5096681791062
 21
219.8858529037529
 31
0.0
  0
LINE
  5
4A03
330
1F
100
AcDbEntity
  8
AM_0
100
AcDbLine
 10
671.4593311791063
 20
238.1786559037528
 30
0.0
 11
650.3380981791061
 21
217.0574229037529
 31
0.0
  0
LINE
  5
4A04
330
1F
100
AcDbEntity
  8
ﾁｭｳｼﾝｾﾝ1
 48
0.5
100
AcDbLine
 10
747.1417295044353
 20
316.6894647632121
 30
0.0
 11
759.5134956922604
 21
329.0612187003158
 31
0.0
  0
LINE
  5
4A05
330
1F
100
AcDbEntity
  8
AM_0
100
AcDbLine
 10
734.6775931791063
 20
277.9277109037528
 30
0.0
 11
738.8905321791063
 21
266.352759903753
 31
0.0
  0
LINE
  5
4A06
330
1F
100
AcDbEntity
  8
AM_0
100
AcDbLine
 10
723.6391111791062
 20
210.0183459037528
 30
0.0
 11
724.6384561791062
 21
208.4008359037528
 31
0.0
  0
LINE
  5
4A07
330
1F
100
AcDbEntity
  8
AM_0
100
AcDbLine
 10
717.2841931791062
 20
201.3788349037529
 30
0.0
 11
669.3780181791062
 21
201.3788349037529
 31
0.0
  0
LINE
  5
4A08
330
1F
100
AcDbEntity
  8
AM_0
100
AcDbLine
 10
727.0420201791063
 20
212.1207789037529
 30
0.0
 11
728.0413651791064
 21
210.5032689037528
 31
0.0
  0
LINE
  5
4A09
330
1F
100
AcDbEntity
  8
ﾁｭｳｼﾝｾﾝ1
 48
0.5
100
AcDbLine
 10
747.0462301635325
 20
209.1637176450681
 30
0.0
 11
759.5589930281619
 21
196.6509523023655
 31
0.0
  0
LINE
  5
4A0A
330
1F
100
AcDbEntity
  8
AM_0
100
AcDbLine
 10
714.9820081791062
 20
287.358189903753
 30
0.0
 11
736.3240801791063
 21
308.7002619037528
 31
0.0
  0
LINE
  5
4A0B
330
1F
100
AcDbEntity
  8
AM_0
100
AcDbLine
 10
671.6801881791062
 20
287.358189903753
 30
0.0
 11
650.3381131791062
 21
308.7002619037528
 31
0.0
  0
LINE
  5
4A0C
330
1F
100
AcDbEntity
  8
ﾁｭｳｼﾝｾﾝ1
 48
0.5
100
AcDbLine
 10
639.4550199265211
 20
316.7549131563382
 30
0.0
 11
627.2760684007985
 21
328.9338646820607
 31
0.0
  0
LINE
  5
4A0D
330
1F
100
AcDbEntity
  8
AM_0
100
AcDbLine
 10
654.8321941791061
 20
191.8788339037529
 30
0.0
 11
658.0076101791062
 21
197.3788329037529
 31
0.0
  0
LINE
  5
4A0E
330
1F
100
AcDbEntity
  8
AM_0
100
AcDbLine
 10
717.8104381791063
 20
284.5297599037528
 30
0.0
 11
739.1525251791063
 21
305.8718319037528
 31
0.0
  0
LINE
  5
4A0F
330
1F
100
AcDbEntity
  8
ﾁｭｳｼﾝｾﾝ1
100
AcDbLine
 10
693.3310981791063
 20
176.2070799037529
 30
0.0
 11
693.3310981791063
 21
342.1902187010865
 31
0.0
  0
LINE
  5
4A10
330
1F
100
AcDbEntity
  8
ﾁｭｳｼﾝｾﾝ1
100
AcDbLine
 10
713.3310988791063
 20
245.8788489037528
 30
0.0
 11
673.3310974791062
 21
245.878848903753
 31
0.0
  0
LINE
  5
4A11
330
1F
100
AcDbEntity
  8
AM_0
100
AcDbLine
 10
742.1662741791062
 20
257.3527569037529
 30
0.0
 11
751.1904721791063
 21
232.5589509037529
 31
0.0
  0
LINE
  5
4A12
330
1F
100
AcDbEntity
  8
AM_0
100
AcDbLine
 10
691.8310981791063
 20
325.7179029037528
 30
0.0
 11
691.8310981791063
 21
309.6629409037528
 31
0.0
  0
LINE
  5
4A13
330
1F
100
AcDbEntity
  8
AM_0
100
AcDbLine
 10
694.8310981791061
 20
325.7179029037528
 30
0.0
 11
694.8310981791061
 21
309.6629409037528
 31
0.0
  0
LINE
  5
4A14
330
1F
100
AcDbEntity
  8
AM_0
100
AcDbLine
 10
630.4920001791061
 20
261.3788499037529
 30
0.0
 11
646.5470071791062
 21
261.3788499037529
 31
0.0
  0
LINE
  5
4A15
330
1F
100
AcDbEntity
  8
AM_0
100
AcDbLine
 10
630.4920001791061
 20
264.3788499037528
 30
0.0
 11
646.5470071791062
 21
264.3788499037528
 31
0.0
  0
LINE
  5
4A16
330
1F
100
AcDbEntity
  8
AM_0
100
AcDbLine
 10
756.1701961791063
 20
264.3788499037528
 30
0.0
 11
741.7095931791062
 21
264.3788499037528
 31
0.0
  0
LINE
  5
4A17
330
1F
100
AcDbEntity
  8
AM_0
100
AcDbLine
 10
756.1701961791063
 20
261.3788499037529
 30
0.0
 11
744.9853351791063
 21
261.3788499037529
 31
0.0
  0
LINE
  5
4A18
330
1F
100
AcDbEntity
  8
AM_0
100
AcDbLine
 10
700.9443331791062
 20
213.6542709037529
 30
0.0
 11
672.4259281791062
 21
241.3620189037528
 31
0.0
  0
LINE
  5
4A19
330
1F
100
AcDbEntity
  8
AM_0
100
AcDbLine
 10
733.9457521791063
 20
234.0436299037529
 30
0.0
 11
721.9280671791064
 21
271.9460499037528
 31
0.0
  0
LINE
  5
4A1A
330
1F
100
AcDbEntity
  8
AM_0
100
AcDbLine
 10
731.8300591791063
 20
191.8788039037528
 30
0.0
 11
728.6546311791063
 21
197.3788029037528
 31
0.0
  0
LINE
  5
4A1B
330
1F
100
AcDbEntity
  8
AM_0
100
AcDbLine
 10
693.3310981791063
 20
337.878846903753
 30
0.0
 11
673.3311121791062
 21
337.878846903753
 31
0.0
  0
LINE
  5
4A1C
330
1F
100
AcDbEntity
  8
AM_0
100
AcDbLine
 10
713.3310961791063
 20
337.878846903753
 30
0.0
 11
755.5472851791063
 21
334.1854269037528
 31
0.0
  0
LINE
  5
4A1D
330
1F
100
AcDbEntity
  8
AM_0
100
AcDbLine
 10
673.3310971791062
 20
337.878846903753
 30
0.0
 11
631.1149231791062
 21
334.185396903753
 31
0.0
  0
LINE
  5
4A1E
330
1F
100
AcDbEntity
  8
AM_0
100
AcDbLine
 10
618.3311101791062
 20
262.8788499037528
 30
0.0
 11
618.3311101791062
 21
282.8788209037528
 31
0.0
  0
LINE
  5
4A1F
330
1F
100
AcDbEntity
  8
AM_0
100
AcDbLine
 10
768.3310981791063
 20
282.8788209037528
 30
0.0
 11
764.6376631791063
 21
325.0950099037528
 31
0.0
  0
LINE
  5
4A20
330
1F
100
AcDbEntity
  8
AM_0
100
AcDbLine
 10
731.8300441791063
 20
191.8788339037529
 30
0.0
 11
754.7058691791063
 21
191.8788339037529
 31
0.0
  0
LINE
  5
4A21
330
1F
100
AcDbEntity
  8
AM_0
100
AcDbLine
 10
618.3310801791062
 20
282.8788509037528
 30
0.0
 11
622.0245301791062
 21
325.0950399037529
 31
0.0
  0
LINE
  5
4A22
330
1F
100
AcDbEntity
  8
AM_0
100
AcDbLine
 10
618.3311101791062
 20
242.8788339037529
 30
0.0
 11
621.9944101791062
 21
201.0072669037529
 31
0.0
  0
LINE
  5
4A23
330
1F
100
AcDbEntity
  8
AM_0
100
AcDbLine
 10
768.3311131791063
 20
242.8788489037529
 30
0.0
 11
764.6678311791063
 21
201.0072819037528
 31
0.0
  0
LINE
  5
4A24
330
1F
100
AcDbEntity
  8
AM_0
100
AcDbLine
 10
618.3311101791062
 20
262.8788499037528
 30
0.0
 11
618.3311101791062
 21
242.8788489037529
 31
0.0
  0
LINE
  5
4A25
330
1F
100
AcDbEntity
  8
AM_0
100
AcDbLine
 10
654.8321641791062
 20
191.8788339037529
 30
0.0
 11
631.9563241791062
 21
191.8788339037529
 31
0.0
  0
LINE
  5
4A26
330
1F
100
AcDbEntity
  8
AM_0
100
AcDbLine
 10
768.3311131791063
 20
262.8788499037528
 30
0.0
 11
768.3311131791063
 21
242.8788489037529
 31
0.0
  0
LINE
  5
4A27
330
1F
100
AcDbEntity
  8
AM_0
100
AcDbLine
 10
669.2220421791062
 20
180.6744279037528
 30
0.0
 11
717.4401811791063
 21
180.6744279037528
 31
0.0
  0
ARC
  5
4A2C
330
1F
100
AcDbEntity
  8
AM_0
100
AcDbCircle
 10
693.3310981791063
 20
262.8788499037528
 30
0.0
 40
44.00000099999999
100
AcDbArc
 50
47.54731699999785
 51
84.50581899999964
  0
CIRCLE
  5
4A2D
330
1F
100
AcDbEntity
  8
AM_0
100
AcDbCircle
 10
743.3123611791063
 20
284.2308099037528
 30
0.0
 40
4.9999998
  0
CIRCLE
  5
4A2E
330
1F
100
AcDbEntity
  8
AM_0
100
AcDbCircle
 10
669.2220421791062
 20
187.6744419037528
 30
0.0
 40
4.9999998
  0
ARC
  5
4A2F
330
1F
100
AcDbEntity
  8
AM_0
100
AcDbCircle
 10
693.3310981791063
 20
262.8788499037528
 30
0.0
 40
9.500000399999999
100
AcDbArc
 50
108.40848
 51
71.59151200000002
  0
CIRCLE
  5
4A30
330
1F
100
AcDbEntity
  8
AM_5
100
AcDbCircle
 10
693.3310981791063
 20
262.8788499037528
 30
0.0
 40
3.0
  0
CIRCLE
  5
4A31
330
1F
100
AcDbEntity
  8
AM_0
100
AcDbCircle
 10
693.3310981791063
 20
262.8788499037528
 30
0.0
 40
2.49999984
  0
ARC
  5
4A32
330
1F
100
AcDbEntity
  8
AM_0
100
AcDbCircle
 10
673.5806551791061
 20
236.0573319037529
 30
0.0
 40
3.0
100
AcDbArc
 50
45.82603100000372
 51
135.0
  0
ARC
  5
4A33
330
1F
100
AcDbEntity
  8
AM_0
100
AcDbCircle
 10
693.3310981791063
 20
262.8788499037528
 30
0.0
 40
44.00000099999999
100
AcDbArc
 50
19.99999899999905
 51
42.45268199999877
  0
CIRCLE
  5
4A34
330
1F
100
AcDbEntity
  8
AM_0
100
AcDbCircle
 10
753.4351951791062
 20
202.7747529037528
 30
0.0
 40
5.000000099999999
  0
ARC
  5
4A35
330
1F
100
AcDbEntity
  8
AM_0
100
AcDbCircle
 10
693.3310981791063
 20
262.8788499037528
 30
0.0
 40
44.00000099999999
100
AcDbArc
 50
95.4941790000001
 51
132.4526800000012
  0
ARC
  5
4A36
330
1F
100
AcDbEntity
  8
AM_0
100
AcDbCircle
 10
728.8364371791062
 20
191.4327729037529
 30
0.0
 40
5.000000099999999
100
AcDbArc
 50
123.1091300000024
 51
198.2519800000019
  0
ARC
  5
4A37
330
1F
100
AcDbEntity
  8
AM_0
100
AcDbCircle
 10
657.8257861791062
 20
191.4327729037529
 30
0.0
 40
5.000000099999999
100
AcDbArc
 50
341.7480199999981
 51
56.8908590000017
  0
ARC
  5
4A38
330
1F
100
AcDbEntity
  8
AM_0
100
AcDbCircle
 10
645.3883621791062
 20
222.0071619037529
 30
0.0
 40
3.0
100
AcDbArc
 50
220.4479199999993
 51
315.0
  0
ARC
  5
4A39
330
1F
100
AcDbEntity
  8
AM_0
100
AcDbCircle
 10
722.0862691791062
 20
206.8240239037528
 30
0.0
 40
3.0
100
AcDbArc
 50
297.1570499999995
 51
31.70912200000093
  0
ARC
  5
4A3A
330
1F
100
AcDbEntity
  8
AM_0
100
AcDbCircle
 10
730.5935341791062
 20
212.0800809037528
 30
0.0
 40
3.0
100
AcDbArc
 50
211.7091199999987
 51
306.2611999999961
  0
ARC
  5
4A3B
330
1F
100
AcDbEntity
  8
AM_0
100
AcDbCircle
 10
693.3310981791063
 20
262.8788499037528
 30
0.0
 40
70.00000199999999
100
AcDbArc
 50
290.6561500000023
 51
249.3438399999997
  0
ARC
  5
4A3C
330
1F
100
AcDbEntity
  8
AM_0
100
AcDbCircle
 10
693.3310981791063
 20
262.8788499037528
 30
0.0
 40
66.00000300000001
100
AcDbArc
 50
291.2799600000026
 51
248.7200299999971
  0
ARC
  5
4A3D
330
1F
100
AcDbEntity
  8
AM_0
100
AcDbCircle
 10
714.8811151791062
 20
227.9988309037529
 30
0.0
 40
20.0000007
100
AcDbArc
 50
225.8260299999979
 51
17.59221400000201
  0
CIRCLE
  5
4A3E
330
1F
100
AcDbEntity
  8
AM_0
100
AcDbCircle
 10
753.4351951791062
 20
322.9829169037528
 30
0.0
 40
5.000000099999999
  0
CIRCLE
  5
4A3F
330
1F
100
AcDbEntity
  8
AM_0
100
AcDbCircle
 10
633.2270461791061
 20
202.7747529037528
 30
0.0
 40
5.000000099999999
  0
ARC
  5
4A40
330
1F
100
AcDbEntity
  8
AM_0
100
AcDbCircle
 10
669.2220421791062
 20
187.6744119037528
 30
0.0
 40
7.0000008
100
AcDbArc
 50
161.748019999998
 51
270.0
  0
ARC
  5
4A41
330
1F
100
AcDbEntity
  8
AM_0
100
AcDbCircle
 10
693.3310981791063
 20
245.8788489037528
 30
0.0
 40
60.00000299999999
100
AcDbArc
 50
233.9334099999964
 51
236.8908499999996
  0
ARC
  5
4A42
330
1F
100
AcDbEntity
  8
AM_0
100
AcDbCircle
 10
693.3310981791063
 20
245.8788489037528
 30
0.0
 40
60.00000299999999
100
AcDbArc
 50
303.1091400000028
 51
304.4115100000023
  0
CIRCLE
  5
4A43
330
1F
100
AcDbEntity
  8
AM_0
100
AcDbCircle
 10
633.2270461791061
 20
322.9829169037528
 30
0.0
 40
5.000000099999999
  0
ARC
  5
4A44
330
1F
100
AcDbEntity
  8
ﾁｭｳｼﾝｾﾝ1
 48
0.5
100
AcDbCircle
 10
693.3310981791058
 20
262.8788499037528
 30
0.0
 40
85.00000199999981
100
AcDbArc
 50
217.5299731358302
 51
232.5366254851914
  0
CIRCLE
  5
4A45
330
1F
100
AcDbEntity
  8
AM_0
100
AcDbCircle
 10
717.4401811791063
 20
187.6744419037528
 30
0.0
 40
4.9999998
  0
CIRCLE
  5
4A46
330
1F
100
AcDbEntity
  8
AM_0
100
AcDbCircle
 10
643.3498471791061
 20
284.2308099037528
 30
0.0
 40
4.9999998
  0
ARC
  5
4A47
330
1F
100
AcDbEntity
  8
AM_0
100
AcDbCircle
 10
666.7304341791061
 20
282.4084389037528
 30
0.0
 40
3.0
100
AcDbArc
 50
323.7147400000023
 51
45.0000010000038
  0
ARC
  5
4A48
330
1F
100
AcDbEntity
  8
AM_0
100
AcDbCircle
 10
693.3310981791063
 20
262.8788499037528
 30
0.0
 40
44.00000099999999
100
AcDbArc
 50
137.5473200000011
 51
174.5058099999972
  0
ARC
  5
4A49
330
1F
100
AcDbEntity
  8
AM_0
100
AcDbCircle
 10
693.3310981791063
 20
262.8788499037528
 30
0.0
 40
20.0000007
100
AcDbArc
 50
270.0
 51
90.00000300000015
  0
ARC
  5
4A4A
330
1F
100
AcDbEntity
  8
AM_0
100
AcDbCircle
 10
652.4594221791062
 20
214.9361019037529
 30
0.0
 40
3.0
100
AcDbArc
 50
135.0
 51
229.5520799999971
  0
ARC
  5
4A4B
330
1F
100
AcDbEntity
  8
AM_0
100
AcDbCircle
 10
652.4594221791062
 20
310.8215709037529
 30
0.0
 40
3.0
100
AcDbArc
 50
130.4479300000001
 51
225.0
  0
ARC
  5
4A4C
330
1F
100
AcDbEntity
  8
AM_0
100
AcDbCircle
 10
712.8607141791063
 20
289.4794989037528
 30
0.0
 40
3.0
100
AcDbArc
 50
233.7147499999989
 51
315.0
  0
ARC
  5
4A4D
330
1F
100
AcDbEntity
  8
AM_0
100
AcDbCircle
 10
688.8310951791063
 20
325.7179029037528
 30
0.0
 40
3.0
100
AcDbArc
 50
0.0
 51
94.09604599999999
  0
ARC
  5
4A4E
330
1F
100
AcDbEntity
  8
AM_0
100
AcDbCircle
 10
666.7304341791061
 20
243.3492489037529
 30
0.0
 40
3.0
100
AcDbArc
 50
315.0
 51
36.2852570000005
  0
ARC
  5
4A4F
330
1F
100
AcDbEntity
  8
ﾁｭｳｼﾝｾﾝ1
 48
0.5
100
AcDbCircle
 10
693.3310981791064
 20
262.8788499037526
 30
0.0
 40
85.0000020000002
100
AcDbArc
 50
125.0226344075552
 51
142.2977612055357
  0
ARC
  5
4A50
330
1F
100
AcDbEntity
  8
AM_0
100
AcDbCircle
 10
741.2738461791063
 20
303.7505259037528
 30
0.0
 40
3.0
100
AcDbArc
 50
40.4479289999975
 51
135.0
  0
ARC
  5
4A51
330
1F
100
AcDbEntity
  8
ﾁｭｳｼﾝｾﾝ1
 48
0.5
100
AcDbCircle
 10
693.3310981791058
 20
262.8788499037533
 30
0.0
 40
85.00000200000043
100
AcDbArc
 50
305.0226344075552
 51
322.4141662999883
  0
ARC
  5
4A52
330
1F
100
AcDbEntity
  8
AM_0
100
AcDbCircle
 10
693.3310981791063
 20
262.8788499037528
 30
0.0
 40
20.0000007
100
AcDbArc
 50
90.00000300000015
 51
270.0
  0
ARC
  5
4A53
330
1F
100
AcDbEntity
  8
AM_0
100
AcDbCircle
 10
693.3310981791063
 20
262.8788499037528
 30
0.0
 40
20.0000007
100
AcDbArc
 50
270.0
 51
90.00000300000015
  0
ARC
  5
4A54
330
1F
100
AcDbEntity
  8
AM_0
100
AcDbCircle
 10
645.3883621791062
 20
303.7505259037528
 30
0.0
 40
3.0
100
AcDbArc
 50
45.0000010000038
 51
139.5520800000006
  0
ARC
  5
4A55
330
1F
100
AcDbEntity
  8
AM_0
100
AcDbCircle
 10
734.2028011791062
 20
310.8215709037529
 30
0.0
 40
3.0
100
AcDbArc
 50
315.0
 51
49.55207300000002
  0
ARC
  5
4A56
330
1F
100
AcDbEntity
  8
AM_0
100
AcDbCircle
 10
693.3310981791063
 20
262.8788499037528
 30
0.0
 40
20.0000007
100
AcDbArc
 50
90.00000300000015
 51
270.0
  0
ARC
  5
4A57
330
1F
100
AcDbEntity
  8
AM_0
100
AcDbCircle
 10
697.8310981791063
 20
325.7179029037528
 30
0.0
 40
3.0
100
AcDbArc
 50
85.90395900000011
 51
180.0000100000009
  0
ARC
  5
4A58
330
1F
100
AcDbEntity
  8
AM_0
100
AcDbCircle
 10
630.4920001791061
 20
258.3788499037528
 30
0.0
 40
3.0
100
AcDbArc
 50
90.00000300000015
 51
184.0960399999977
  0
ARC
  5
4A59
330
1F
100
AcDbEntity
  8
AM_0
100
AcDbCircle
 10
693.3310981791063
 20
262.8788499037528
 30
0.0
 40
44.00000099999999
100
AcDbArc
 50
185.4941900000026
 51
222.4526799999989
  0
ARC
  5
4A5A
330
1F
100
AcDbEntity
  8
AM_0
100
AcDbCircle
 10
688.8310951791063
 20
309.6629409037528
 30
0.0
 40
3.0
100
AcDbArc
 50
275.4941800000003
 51
0.0
  0
ARC
  5
4A5B
330
1F
100
AcDbEntity
  8
AM_0
100
AcDbCircle
 10
697.8310981791063
 20
309.6629409037528
 30
0.0
 40
3.0
100
AcDbArc
 50
179.999989999999
 51
264.5058199999998
  0
ARC
  5
4A5C
330
1F
100
AcDbEntity
  8
AM_0
100
AcDbCircle
 10
630.4920001791061
 20
267.3788499037528
 30
0.0
 40
3.0
100
AcDbArc
 50
175.9039499999989
 51
270.0
  0
ARC
  5
4A5D
330
1F
100
AcDbEntity
  8
AM_0
100
AcDbCircle
 10
646.5470071791062
 20
258.3788499037528
 30
0.0
 40
3.0
100
AcDbArc
 50
5.494178999999376
 51
90.00000300000015
  0
ARC
  5
4A5E
330
1F
100
AcDbEntity
  8
AM_0
100
AcDbCircle
 10
646.5470071791062
 20
267.3788499037528
 30
0.0
 40
3.0
100
AcDbArc
 50
270.0
 51
354.5058199999974
  0
ARC
  5
4A5F
330
1F
100
AcDbEntity
  8
AM_0
100
AcDbCircle
 10
756.1701961791063
 20
267.3788499037528
 30
0.0
 40
3.0
100
AcDbArc
 50
270.0
 51
4.096044000000324
  0
ARC
  5
4A60
330
1F
100
AcDbEntity
  8
AM_0
100
AcDbCircle
 10
756.1701961791063
 20
258.3788499037528
 30
0.0
 40
3.0
100
AcDbArc
 50
355.9039600000023
 51
90.00000300000015
  0
ARC
  5
4A61
330
1F
100
AcDbEntity
  8
AM_0
100
AcDbCircle
 10
744.9853351791063
 20
258.3788499037528
 30
0.0
 40
3.0
100
AcDbArc
 50
90.00000300000015
 51
200.0000000000035
  0
ARC
  5
4A62
330
1F
100
AcDbEntity
  8
AM_0
100
AcDbCircle
 10
741.7095931791062
 20
267.3788499037528
 30
0.0
 40
3.0
100
AcDbArc
 50
200.0000000000035
 51
270.0
  0
ARC
  5
4A63
330
1F
100
AcDbEntity
  8
ﾁｭｳｼﾝｾﾝ1
 48
0.5
100
AcDbCircle
 10
693.3310981791082
 20
262.8788499037554
 30
0.0
 40
85.0000019999968
100
AcDbArc
 50
37.91907594469975
 51
52.21585502334281
  0
ARC
  5
4A64
330
1F
100
AcDbEntity
  8
AM_0
100
AcDbCircle
 10
693.3310981791063
 20
262.8788499037528
 30
0.0
 40
30.0
100
AcDbArc
 50
17.59221400000201
 51
225.8260299999979
  0
ARC
  5
4A65
330
1F
100
AcDbEntity
  8
AM_0
100
AcDbCircle
 10
719.9317591791063
 20
282.4084389037528
 30
0.0
 40
3.0
100
AcDbArc
 50
135.0
 51
216.2852599999977
  0
ARC
  5
4A66
330
1F
100
AcDbEntity
  8
AM_0
100
AcDbCircle
 10
673.8015091791062
 20
289.4794989037528
 30
0.0
 40
3.0
100
AcDbArc
 50
225.0
 51
306.2852600000023
  0
ARC
  5
4A67
330
1F
100
AcDbEntity
  8
AM_0
100
AcDbCircle
 10
754.6757341791062
 20
324.2234559037528
 30
0.0
 40
10.0000002
100
AcDbArc
 50
4.999999899997543
 51
84.99999700000051
  0
ARC
  5
4A68
330
1F
100
AcDbEntity
  8
AM_0
100
AcDbCircle
 10
693.3310981791063
 20
245.8788489037528
 30
0.0
 40
60.00000299999999
100
AcDbArc
 50
303.1091400000028
 51
306.0665900000036
  0
ARC
  5
4A69
330
1F
100
AcDbEntity
  8
AM_0
100
AcDbCircle
 10
631.9865071791062
 20
324.2234559037528
 30
0.0
 40
10.0000002
100
AcDbArc
 50
95.00000200000021
 51
175.0000100000007
  0
ARC
  5
4A6A
330
1F
100
AcDbEntity
  8
AM_0
100
AcDbCircle
 10
754.7058691791063
 20
201.8788179037529
 30
0.0
 40
10.0000002
100
AcDbArc
 50
270.0
 51
355.0000000000002
  0
ARC
  5
4A6B
330
1F
100
AcDbEntity
  8
AM_0
100
AcDbCircle
 10
631.9563241791062
 20
201.8788179037529
 30
0.0
 40
10.0000002
100
AcDbArc
 50
184.9999899999992
 51
270.0
  0
ARC
  5
4A6C
330
1F
100
AcDbEntity
  8
AM_0
100
AcDbCircle
 10
685.3630651791062
 20
204.3788349037529
 30
0.0
 40
3.0
100
AcDbArc
 50
270.0
 51
45.0000010000038
  0
ARC
  5
4A6D
330
1F
100
AcDbEntity
  8
AM_0
100
AcDbCircle
 10
717.4401811791063
 20
187.6744119037528
 30
0.0
 40
7.0000008
100
AcDbArc
 50
270.0
 51
18.25197800000043
  0
LINE
  5
4C44
330
1F
100
AcDbEntity
  8
AM_0
100
AcDbLine
 10
376.8381477963556
 20
400.7429053572876
 30
0.0
 11
376.8381477963556
 21
528.7429053572878
 31
0.0
  0
LINE
  5
4C45
330
1F
100
AcDbEntity
  8
0
  6
Continuous
 62
     7
100
AcDbLine
 10
301.3381650614588
 20
494.7429008572876
 30
0.0
 11
301.3381650614588
 21
434.7429008572874
 31
0.0
  0
LINE
  5
4C46
330
1F
100
AcDbEntity
  8
0
100
AcDbLine
 10
352.0869067618258
 20
496.5150904682025
 30
0.0
 11
301.3381650614588
 21
494.7429053572874
 31
0.0
  0
LINE
  5
4C47
330
1F
100
AcDbEntity
  8
0
100
AcDbLine
 10
352.0868977834078
 20
432.9707205599055
 30
0.0
 11
301.3381650614587
 21
434.7429053572875
 31
0.0
  0
LINE
  5
4C48
330
1F
100
AcDbEntity
  8
0
100
AcDbLine
 10
368.7683449883798
 20
528.4611017667939
 30
0.0
 11
376.838143981785
 21
528.7429053572873
 31
0.0
  0
LINE
  5
4C49
330
1F
100
AcDbEntity
  8
0
100
AcDbLine
 10
366.8381439817849
 20
526.4623201127558
 30
0.0
 11
366.8381439817882
 21
403.0234895268602
 31
0.0
  0
ARC
  5
4C4A
330
1F
100
AcDbEntity
  8
0
100
AcDbCircle
 10
368.838143981785
 20
526.4623201127558
 30
0.0
 40
2.0
100
AcDbArc
 50
92.0000000000004
 51
180.0
1001
GENIUS_GENOBJ-N-FIL_13
1002
{
1000
OWNER
1000
GEN
1002
}
1001
GENIUS_GENODEF_13
1002
{
1000
HIER
1070
     0
1002
}
1002
{
1000
MANEDIT
1070
     0
1002
}
1002
{
1000
NOSEL
1070
     0
1002
}
1002
{
1000
BEHIND
1070
     0
1002
}
1002
{
1000
OTHER
1070
     0
1002
}
1002
{
1000
REACTOR
1002
}
  0
ARC
  5
4C4B
330
1F
100
AcDbEntity
  8
0
100
AcDbCircle
 10
361.838143981785
 20
524.3139731691528
 30
0.0
 40
5.0
100
AcDbArc
 50
315.0
 51
0.0
1001
GENIUS_GENOBJ-N-FIL_13
1002
{
1000
OWNER
1000
GEN
1002
}
1001
GENIUS_GENODEF_13
1002
{
1000
HIER
1070
     0
1002
}
1002
{
1000
MANEDIT
1070
     0
1002
}
1002
{
1000
NOSEL
1070
     0
1002
}
1002
{
1000
BEHIND
1070
     0
1002
}
1002
{
1000
OTHER
1070
     0
1002
}
1002
{
1000
REACTOR
1002
}
  0
LINE
  5
4C4C
330
1F
100
AcDbEntity
  8
0
100
AcDbLine
 10
342.105832551939
 20
497.5105939274412
 30
0.0
 11
365.3736778877178
 21
520.7784392632202
 31
0.0
  0
ARC
  5
4C4D
330
1F
100
AcDbEntity
  8
0
100
AcDbCircle
 10
338.5702986460062
 20
501.0461278333738
 30
0.0
 40
5.0
100
AcDbArc
 50
272.0000000000004
 51
315.0
1001
GENIUS_GENOBJ-N-FIL_13
1002
{
1000
OWNER
1000
GEN
1002
}
1001
GENIUS_GENODEF_13
1002
{
1000
HIER
1070
     0
1002
}
1002
{
1000
MANEDIT
1070
     0
1002
}
1002
{
1000
NOSEL
1070
     0
1002
}
1002
{
1000
BEHIND
1070
     0
1002
}
1002
{
1000
OTHER
1070
     0
1002
}
1002
{
1000
REACTOR
1002
}
  0
LINE
  5
4C4E
330
1F
100
AcDbEntity
  8
0
100
AcDbLine
 10
342.105832551939
 20
431.9752167871339
 30
0.0
 11
365.3736778877178
 21
408.7073714513548
 31
0.0
  0
ARC
  5
4C4F
330
1F
100
AcDbEntity
  8
0
100
AcDbCircle
 10
338.5702986460062
 20
428.4396828812012
 30
0.0
 40
5.0
100
AcDbArc
 50
45.0
 51
87.99999999999959
1001
GENIUS_GENOBJ-N-FIL_13
1002
{
1000
OWNER
1000
GEN
1002
}
1001
GENIUS_GENODEF_13
1002
{
1000
HIER
1070
     0
1002
}
1002
{
1000
MANEDIT
1070
     0
1002
}
1002
{
1000
NOSEL
1070
     0
1002
}
1002
{
1000
BEHIND
1070
     0
1002
}
1002
{
1000
OTHER
1070
     0
1002
}
1002
{
1000
REACTOR
1002
}
  0
LINE
  5
4C50
330
1F
100
AcDbEntity
  8
AM_5
 62
     2
100
AcDbLine
 10
366.8381439817857
 20
502.8429047612609
 30
0.0
 11
376.838145525494
 21
502.8429053572875
 31
0.0
1001
GENIUS_GENODEF_13
1002
{
1000
HIER
1070
     0
1002
}
1002
{
1000
MANEDIT
1070
     0
1002
}
1002
{
1000
NOSEL
1070
     0
1002
}
1002
{
1000
BEHIND
1070
     0
1002
}
1002
{
1000
OTHER
1070
     0
1002
}
1002
{
1000
REACTOR
1002
}
1001
GENIUS_GENOBJ-N-CEN_13
1002
{
1000
OWNER
1000
GEN
1002
}
1001
GENIUS_GENCEN_19
1002
{
1040
2.793999999999999
1002
}
  0
LINE
  5
4C51
330
1F
100
AcDbEntity
  8
AM_5
 62
     2
100
AcDbLine
 10
366.8381439817876
 20
426.6429047612609
 30
0.0
 11
376.8381500672171
 21
426.6429053572879
 31
0.0
1001
GENIUS_GENODEF_13
1002
{
1000
HIER
1070
     0
1002
}
1002
{
1000
MANEDIT
1070
     0
1002
}
1002
{
1000
NOSEL
1070
     0
1002
}
1002
{
1000
BEHIND
1070
     0
1002
}
1002
{
1000
OTHER
1070
     0
1002
}
1002
{
1000
REACTOR
1002
}
1001
GENIUS_GENOBJ-N-CEN_13
1002
{
1000
OWNER
1000
GEN
1002
}
1001
GENIUS_GENCEN_19
1002
{
1040
2.793999999999999
1002
}
  0
LINE
  5
4C52
330
1F
100
AcDbEntity
  8
0
100
AcDbLine
 10
366.8381439817879
 20
413.2429047612608
 30
0.0
 11
376.8381508658928
 21
413.2429053572878
 31
0.0
1001
GENIUS_GENODEF_13
1002
{
1000
HIER
1070
     0
1002
}
1002
{
1000
MANEDIT
1070
     0
1002
}
1002
{
1000
NOSEL
1070
     0
1002
}
1002
{
1000
BEHIND
1070
     0
1002
}
1002
{
1000
OTHER
1070
     0
1002
}
1002
{
1000
REACTOR
1002
}
1001
GENIUS_GENOBJ-N-CEN_13
1002
{
1000
OWNER
1000
GEN
1002
}
1001
GENIUS_GENCEN_19
1002
{
1040
2.793999999999999
1002
}
  0
LINE
  5
4C53
330
1F
100
AcDbEntity
  8
0
100
AcDbLine
 10
366.8381439817852
 20
516.2429047612609
 30
0.0
 11
376.8381447268183
 21
516.2429053572875
 31
0.0
1001
GENIUS_GENODEF_13
1002
{
1000
HIER
1070
     0
1002
}
1002
{
1000
MANEDIT
1070
     0
1002
}
1002
{
1000
NOSEL
1070
     0
1002
}
1002
{
1000
BEHIND
1070
     0
1002
}
1002
{
1000
OTHER
1070
     0
1002
}
1002
{
1000
REACTOR
1002
}
1001
GENIUS_GENOBJ-N-CEN_13
1002
{
1000
OWNER
1000
GEN
1002
}
1001
GENIUS_GENCEN_19
1002
{
1040
2.793999999999999
1002
}
  0
LINE
  5
4C54
330
1F
100
AcDbEntity
  8
0
100
AcDbLine
 10
368.7683525839286
 20
401.0247079858183
 30
0.0
 11
376.8381516109261
 21
400.7429053572881
 31
0.0
  0
ARC
  5
4C55
330
1F
100
AcDbEntity
  8
0
100
AcDbCircle
 10
368.8381513390682
 20
403.023489648177
 30
0.0
 40
2.0
100
AcDbArc
 50
180.0000068299612
 51
268.0000068299623
1001
GENIUS_GENOBJ-N-FIL_13
1002
{
1000
OWNER
1000
GEN
1002
}
1001
GENIUS_GENODEF_13
1002
{
1000
HIER
1070
     0
1002
}
1002
{
1000
MANEDIT
1070
     0
1002
}
1002
{
1000
NOSEL
1070
     0
1002
}
1002
{
1000
BEHIND
1070
     0
1002
}
1002
{
1000
OTHER
1070
     0
1002
}
1002
{
1000
REACTOR
1002
}
  0
ARC
  5
4C56
330
1F
100
AcDbEntity
  8
0
100
AcDbCircle
 10
361.8381510829739
 20
405.1718357573426
 30
0.0
 40
5.0
100
AcDbArc
 50
0.0000068299611879
 51
45.00000682996163
1001
GENIUS_GENOBJ-N-FIL_13
1002
{
1000
OWNER
1000
GEN
1002
}
1001
GENIUS_GENODEF_13
1002
{
1000
HIER
1070
     0
1002
}
1002
{
1000
MANEDIT
1070
     0
1002
}
1002
{
1000
NOSEL
1070
     0
1002
}
1002
{
1000
BEHIND
1070
     0
1002
}
1002
{
1000
OTHER
1070
     0
1002
}
1002
{
1000
REACTOR
1002
}
  0
LINE
  5
4C57
330
1F
100
AcDbEntity
  8
0
100
AcDbLine
 10
376.838143981785
 20
528.7429053572873
 30
0.0
 11
376.8381516109261
 21
400.7429053572881
 31
0.0
  0
ARC
  5
4C58
330
1F
100
AcDbEntity
  8
AM_5
 62
     2
100
AcDbCircle
 10
380.1028187280037
 20
464.7429013003617
 30
0.0
 40
38.83431186232895
100
AcDbArc
 50
133.1867259405558
 51
226.813256781428
  0
ARC
  5
4C59
330
1F
100
AcDbEntity
  8
AM_5
 62
     2
100
AcDbCircle
 10
352.1566967768129
 20
434.9695022139437
 30
0.0
 40
2.0
100
AcDbArc
 50
267.9999999999996
 51
46.81325678142335
1001
GENIUS_GENODEF_13
1002
{
1000
HIER
1070
     0
1002
}
1002
{
1000
MANEDIT
1070
     0
1002
}
1002
{
1000
NOSEL
1070
     0
1002
}
1002
{
1000
BEHIND
1070
     0
1002
}
1002
{
1000
OTHER
1070
     0
1002
}
1002
{
1000
REACTOR
1002
}
1001
GENIUS_GENOBJ-N-FIL_13
1002
{
1000
OWNER
1000
GEN
1002
}
  0
ARC
  5
4C5A
330
1F
100
AcDbEntity
  8
AM_5
 62
     2
100
AcDbCircle
 10
352.1567057552309
 20
494.5163088141645
 30
0.0
 40
2.0
100
AcDbArc
 50
313.186725940556
 51
92.0000000000004
1001
GENIUS_GENODEF_13
1002
{
1000
HIER
1070
     0
1002
}
1002
{
1000
MANEDIT
1070
     0
1002
}
1002
{
1000
NOSEL
1070
     0
1002
}
1002
{
1000
BEHIND
1070
     0
1002
}
1002
{
1000
OTHER
1070
     0
1002
}
1002
{
1000
REACTOR
1002
}
1001
GENIUS_GENOBJ-N-FIL_13
1002
{
1000
OWNER
1000
GEN
1002
}
  0
LINE
  5
4C5B
330
1F
100
AcDbEntity
  8
0
100
AcDbLine
 10
329.8381650614588
 20
276.87409070106
 30
0.0
 11
329.8381650614589
 21
277.2788534037529
 31
0.0
1001
GENIUS_GENOBJ-N-CEN_13
1002
{
1000
OWNER
1000
GEN
1002
}
1001
GENIUS_GENODEF_13
1002
{
1000
HIER
1070
     0
1002
}
1002
{
1000
MANEDIT
1070
     0
1002
}
1002
{
1000
NOSEL
1070
     0
1002
}
1002
{
1000
BEHIND
1070
     0
1002
}
1002
{
1000
OTHER
1070
     0
1002
}
1002
{
1000
REACTOR
1002
}
1001
GENIUS_GENCEN_19
1002
{
1040
2.793999999999999
1002
}
  0
LINE
  5
4C5C
330
1F
100
AcDbEntity
  8
0
100
AcDbLine
 10
312.8381650614589
 20
276.2788534037529
 30
0.0
 11
312.8381650614589
 21
277.2788534037528
 31
0.0
1001
GENIUS_GENOBJ-N-CEN_13
1002
{
1000
OWNER
1000
GEN
1002
}
1001
GENIUS_GENODEF_13
1002
{
1000
HIER
1070
     0
1002
}
1002
{
1000
MANEDIT
1070
     0
1002
}
1002
{
1000
NOSEL
1070
     0
1002
}
1002
{
1000
BEHIND
1070
     0
1002
}
1002
{
1000
OTHER
1070
     0
1002
}
1002
{
1000
REACTOR
1002
}
1001
GENIUS_GENCEN_19
1002
{
1040
2.793999999999999
1002
}
  0
LINE
  5
4C5D
330
1F
100
AcDbEntity
  8
0
100
AcDbLine
 10
312.3381650614589
 20
276.2629772349545
 30
0.0
 11
312.3381650614589
 21
276.2788534037529
 31
0.0
1001
GENIUS_GENOBJ-N-CEN_13
1002
{
1000
OWNER
1000
GEN
1002
}
1001
GENIUS_GENODEF_13
1002
{
1000
HIER
1070
     0
1002
}
1002
{
1000
MANEDIT
1070
     0
1002
}
1002
{
1000
NOSEL
1070
     0
1002
}
1002
{
1000
BEHIND
1070
     0
1002
}
1002
{
1000
OTHER
1070
     0
1002
}
1002
{
1000
REACTOR
1002
}
1001
GENIUS_GENCEN_19
1002
{
1040
2.793999999999999
1002
}
  0
LINE
  5
4C5E
330
1F
100
AcDbEntity
  8
0
100
AcDbLine
 10
312.3381650614589
 20
276.2788534037528
 30
0.0
 11
312.7927990523305
 21
276.2788534037528
 31
0.0
  0
LINE
  5
4C5F
330
1F
100
AcDbEntity
  8
図面枠-ｷｲﾛ
100
AcDbLine
 10
312.8381650614589
 20
277.2788534037527
 30
0.0
 11
329.8381650614589
 21
277.2788534037529
 31
0.0
  0
ARC
  5
4C60
330
1F
100
AcDbEntity
  8
0
100
AcDbCircle
 10
321.338165061459
 20
260.2163534037528
 30
0.0
 40
19.06249999999999
100
AcDbArc
 50
63.51896016962665
 51
116.4810398303733
  0
LINE
  5
4C61
330
1F
100
AcDbEntity
  8
AM_7
  6
AM_ISO08W050x2
 62
     1
370
    25
100
AcDbLine
 10
321.3381650614589
 20
282.0728534037528
 30
0.0
 11
321.3381650614589
 21
267.0150118647693
 31
0.0
1001
GENIUS_GENODEF_13
1002
{
1000
HIER
1070
     0
1002
}
1002
{
1000
MANEDIT
1070
     0
1002
}
1002
{
1000
NOSEL
1070
     0
1002
}
1002
{
1000
BEHIND
1070
     0
1002
}
1002
{
1000
OTHER
1070
     0
1002
}
1002
{
1000
REACTOR
1002
}
1001
GENIUS_GENOBJ-N-CEN_13
1002
{
1000
OWNER
1000
GEN
1002
}
1001
GENIUS_GENCEN_19
1002
{
1040
2.793999999999999
1002
}
  0
CIRCLE
  5
4C62
330
1F
100
AcDbEntity
  8
0
100
AcDbCircle
 10
321.3381650614589
 20
478.742902049341
 30
0.0
 40
10.0
  0
LINE
  5
4C63
330
1F
100
AcDbEntity
  8
ﾁｭｳｼﾝｾﾝ1
 48
0.7
100
AcDbLine
 10
321.3381650614589
 20
491.7429020493409
 30
0.0
 11
321.3381650614588
 21
465.7429020493409
 31
0.0
1001
GENIUS_GENODEF_13
1002
{
1000
HIER
1070
     0
1002
}
1002
{
1000
MANEDIT
1070
     0
1002
}
1002
{
1000
NOSEL
1070
     0
1002
}
1002
{
1000
BEHIND
1070
     0
1002
}
1002
{
1000
OTHER
1070
     0
1002
}
1002
{
1000
REACTOR
1002
}
1001
GENIUS_GENOBJ-N-CEN_13
1002
{
1000
OWNER
1000
GEN
1002
}
1001
GENIUS_GENCEN_19
1002
{
1040
3.0
1002
}
  0
LINE
  5
4C64
330
1F
100
AcDbEntity
  8
AM_0
100
AcDbLine
 10
320.3381650614589
 20
483.7429020493408
 30
0.0
 11
320.3381650614589
 21
473.7429020493409
 31
0.0
1001
GENIUS_GENODEF_13
1002
{
1000
HIER
1070
     0
1002
}
1002
{
1000
MANEDIT
1070
     0
1002
}
1002
{
1000
NOSEL
1070
     0
1002
}
1002
{
1000
BEHIND
1070
     0
1002
}
1002
{
1000
OTHER
1070
     0
1002
}
1002
{
1000
REACTOR
1002
}
1001
GENIUS_GENOBJ-N-CEN_13
1002
{
1000
OWNER
1000
GEN
1002
}
1001
GENIUS_GENCEN_19
1002
{
1040
3.0
1002
}
  0
LINE
  5
4C65
330
1F
100
AcDbEntity
  8
AM_0
100
AcDbLine
 10
322.3381650614589
 20
483.7429020493408
 30
0.0
 11
322.3381650614589
 21
473.7429020493409
 31
0.0
1001
GENIUS_GENODEF_13
1002
{
1000
HIER
1070
     0
1002
}
1002
{
1000
MANEDIT
1070
     0
1002
}
1002
{
1000
NOSEL
1070
     0
1002
}
1002
{
1000
BEHIND
1070
     0
1002
}
1002
{
1000
OTHER
1070
     0
1002
}
1002
{
1000
REACTOR
1002
}
1001
GENIUS_GENOBJ-N-CEN_13
1002
{
1000
OWNER
1000
GEN
1002
}
1001
GENIUS_GENCEN_19
1002
{
1040
3.0
1002
}
  0
CIRCLE
  5
4C66
330
1F
100
AcDbEntity
  8
AM_0
100
AcDbCircle
 10
321.3381650614589
 20
478.742902049341
 30
0.0
 40
8.500000000000056
  0
CIRCLE
  5
4C67
330
1F
100
AcDbEntity
  8
AM_0
100
AcDbCircle
 10
321.3381650614589
 20
478.742902049341
 30
0.0
 40
8.999999999999969
  0
ARC
  5
4C68
330
1F
100
AcDbEntity
  8
AM_0
100
AcDbCircle
 10
321.3381650614589
 20
483.7429020493408
 30
0.0
 40
1.0
100
AcDbArc
 50
0.0
 51
180.0
  0
ARC
  5
4C69
330
1F
100
AcDbEntity
  8
AM_0
100
AcDbCircle
 10
321.3381650614589
 20
473.7429020493409
 30
0.0
 40
1.0
100
AcDbArc
 50
180.0
 51
0.0
  0
LINE
  5
4C6A
330
1F
100
AcDbEntity
  8
ﾁｭｳｼﾝｾﾝ1
 48
0.7
100
AcDbLine
 10
308.3381650614589
 20
478.742902049341
 30
0.0
 11
334.3381650614589
 21
478.742902049341
 31
0.0
1001
GENIUS_GENOBJ-N-CEN_13
1002
{
1000
OWNER
1000
GEN
1002
}
1001
GENIUS_GENODEF_13
1002
{
1000
HIER
1070
     0
1002
}
1002
{
1000
MANEDIT
1070
     0
1002
}
1002
{
1000
NOSEL
1070
     0
1002
}
1002
{
1000
BEHIND
1070
     0
1002
}
1002
{
1000
OTHER
1070
     0
1002
}
1002
{
1000
REACTOR
1002
}
1001
GENIUS_GENCEN_19
1002
{
1040
3.0
1002
}
  0
LINE
  5
4C6B
330
1F
100
AcDbEntity
  8
ﾁｭｳｼﾝｾﾝ
100
AcDbLine
 10
292.3381650614587
 20
464.7429006577801
 30
0.0
 11
513.3381177963554
 21
464.7429055567952
 31
0.0
1001
GENIUS_GENOBJ-N-CEN_13
1002
{
1000
OWNER
1000
GEN
1002
}
1001
GENIUS_GENODEF_13
1002
{
1000
HIER
1070
     0
1002
}
1002
{
1000
MANEDIT
1070
     0
1002
}
1002
{
1000
NOSEL
1070
     0
1002
}
1002
{
1000
BEHIND
1070
     0
1002
}
1002
{
1000
OTHER
1070
     0
1002
}
1002
{
1000
REACTOR
1002
}
1001
GENIUS_GENCEN_19
1002
{
1040
9.0
1002
}
  0
LINE
  5
4CC1
330
1F
100
AcDbEntity
  8
0
  6
Continuous
 62
     7
100
AcDbLine
 10
414.3381477963555
 20
404.7429053572876
 30
0.0
 11
414.3381477963555
 21
524.7429053572878
 31
0.0
  0
LINE
  5
4CC2
330
1F
100
AcDbEntity
  8
0
  6
Continuous
 62
     7
100
AcDbLine
 10
381.8381477963555
 20
403.8918553572877
 30
0.0
 11
414.3381477963555
 21
404.7429053572876
 31
0.0
  0
LINE
  5
4CC3
330
1F
100
AcDbEntity
  8
0
  6
Continuous
 62
     7
100
AcDbLine
 10
381.8381477963555
 20
525.5939153572878
 30
0.0
 11
414.3381477963555
 21
524.7428753572876
 31
0.0
  0
LINE
  5
4CC4
330
1F
100
AcDbEntity
  8
0
  6
Continuous
 62
     7
100
AcDbLine
 10
381.8381477963555
 20
520.2692353572878
 30
0.0
 11
414.3381477963555
 21
520.2692353572878
 31
0.0
  0
LINE
  5
4CC5
330
1F
100
AcDbEntity
  8
0
  6
Continuous
 62
     7
100
AcDbLine
 10
381.8381477963555
 20
409.2165353572875
 30
0.0
 11
414.3381477963555
 21
409.2165353572875
 31
0.0
  0
LINE
  5
4CC6
330
1F
100
AcDbEntity
  8
0
  6
Continuous
 62
     7
100
AcDbLine
 10
381.8381477963555
 20
401.8479753572878
 30
0.0
 11
381.8381477963555
 21
413.2425953572876
 31
0.0
  0
LINE
  5
4CC7
330
1F
100
AcDbEntity
  8
0
  6
Continuous
 62
     7
100
AcDbLine
 10
376.8381477963556
 20
400.7429053572876
 30
0.0
 11
376.8381477963556
 21
528.7429053572878
 31
0.0
  0
LINE
  5
4CC8
330
1F
100
AcDbEntity
  8
0
  6
Continuous
 62
     7
100
AcDbLine
 10
380.8643077963556
 20
528.6374653572876
 30
0.0
 11
376.8381477963556
 21
528.7428753572876
 31
0.0
  0
LINE
  5
4CC9
330
1F
100
AcDbEntity
  8
0
  6
Continuous
 62
     7
100
AcDbLine
 10
380.8643077963556
 20
400.8483053572878
 30
0.0
 11
376.8381477963556
 21
400.7428753572876
 31
0.0
  0
LINE
  5
4CCA
330
1F
100
AcDbEntity
  8
0
  6
Continuous
 62
     7
100
AcDbLine
 10
376.8381477963556
 20
413.2425953572876
 30
0.0
 11
388.9632677963556
 21
413.2425953572876
 31
0.0
  0
LINE
  5
4CCB
330
1F
100
AcDbEntity
  8
0
  6
Continuous
 62
     7
100
AcDbLine
 10
376.8381477963556
 20
426.6880353572876
 30
0.0
 11
381.8381477963555
 21
426.6880353572876
 31
0.0
  0
LINE
  5
4CCC
330
1F
100
AcDbEntity
  8
0
  6
Continuous
 62
     7
100
AcDbLine
 10
389.8381477963555
 20
415.4545753572874
 30
0.0
 11
389.8381477963555
 21
425.3678053572878
 31
0.0
  0
LINE
  5
4CCD
330
1F
100
AcDbEntity
  8
0
  6
Continuous
 62
     7
100
AcDbLine
 10
399.8381477963556
 20
416.4231053572875
 30
0.0
 11
399.8381477963556
 21
426.3932953572878
 31
0.0
  0
LINE
  5
4CCE
330
1F
100
AcDbEntity
  8
0
  6
Continuous
 62
     7
100
AcDbLine
 10
381.8381477963555
 20
426.6880353572876
 30
0.0
 11
381.8381477963555
 21
502.7977753572876
 31
0.0
  0
LINE
  5
4CCF
330
1F
100
AcDbEntity
  8
0
  6
Continuous
 62
     7
100
AcDbLine
 10
381.8381477963555
 20
516.2429053572878
 30
0.0
 11
381.8381477963555
 21
527.6377953572878
 31
0.0
  0
LINE
  5
4CD0
330
1F
100
AcDbEntity
  8
0
  6
Continuous
 62
     7
100
AcDbLine
 10
399.8381177963557
 20
415.0058453572878
 30
0.0
 11
390.6997577963558
 21
413.3945153572875
 31
0.0
  0
LINE
  5
4CD1
330
1F
100
AcDbEntity
  8
0
  6
Continuous
 62
     7
100
AcDbLine
 10
381.8381477963555
 20
427.5629053572877
 30
0.0
 11
399.8381477963556
 21
427.5629053572877
 31
0.0
  0
LINE
  5
4CD2
330
1F
100
AcDbEntity
  8
0
  6
Continuous
 62
     7
100
AcDbLine
 10
389.8381477963555
 20
514.0312053572877
 30
0.0
 11
389.8381477963555
 21
504.1179653572877
 31
0.0
  0
LINE
  5
4CD3
330
1F
100
AcDbEntity
  8
0
  6
Continuous
 62
     7
100
AcDbLine
 10
399.8381177963557
 20
514.4799353572876
 30
0.0
 11
390.6997177963556
 21
516.0912553572877
 31
0.0
  0
LINE
  5
4CD4
330
1F
100
AcDbEntity
  8
0
  6
Continuous
 62
     7
100
AcDbLine
 10
376.8381477963556
 20
502.7977753572876
 30
0.0
 11
381.8381477963555
 21
502.7977753572876
 31
0.0
  0
LINE
  5
4CD5
330
1F
100
AcDbEntity
  8
0
  6
Continuous
 62
     7
100
AcDbLine
 10
381.8381477963555
 20
501.9228653572876
 30
0.0
 11
399.8381477963556
 21
501.9228653572876
 31
0.0
  0
LINE
  5
4CD6
330
1F
100
AcDbEntity
  8
0
  6
Continuous
 62
     7
100
AcDbLine
 10
376.8381477963556
 20
516.2431753572876
 30
0.0
 11
388.9632677963556
 21
516.2431753572876
 31
0.0
  0
LINE
  5
4CD7
330
1F
100
AcDbEntity
  8
0
  6
Continuous
 62
     7
100
AcDbLine
 10
399.8381477963556
 20
513.0626653572878
 30
0.0
 11
399.8381477963556
 21
503.0924453572876
 31
0.0
  0
LINE
  5
4CD8
330
1F
100
AcDbEntity
  8
0
  6
Continuous
 62
     7
100
AcDbLine
 10
414.3381477963555
 20
409.2165353572875
 30
0.0
 11
446.3381477963555
 21
409.2165353572875
 31
0.0
  0
LINE
  5
4CD9
330
1F
100
AcDbEntity
  8
0
  6
Continuous
 62
     7
100
AcDbLine
 10
414.3381477963555
 20
520.2692053572876
 30
0.0
 11
446.3381477963555
 21
520.2692053572876
 31
0.0
  0
LINE
  5
4CDA
330
1F
100
AcDbEntity
  8
0
  6
Continuous
 62
     7
100
AcDbLine
 10
474.3381477963557
 20
454.7429053572876
 30
0.0
 11
476.3380877963554
 21
454.7429053572876
 31
0.0
  0
LINE
  5
4CDB
330
1F
100
AcDbEntity
  8
0
  6
Continuous
 62
     7
100
AcDbLine
 10
474.3381477963557
 20
474.7429053572877
 30
0.0
 11
476.3380877963554
 21
474.7429053572877
 31
0.0
  0
LINE
  5
4CDC
330
1F
100
AcDbEntity
  8
0
  6
Continuous
 62
     7
100
AcDbLine
 10
469.3380877963555
 20
394.7428353572878
 30
0.0
 11
473.3381477963556
 21
394.7428353572878
 31
0.0
  0
LINE
  5
4CDD
330
1F
100
AcDbEntity
  8
0
  6
Continuous
 62
     7
100
AcDbLine
 10
461.2682977963555
 20
390.0246653572878
 30
0.0
 11
469.3381177963557
 21
389.7428753572878
 31
0.0
  0
LINE
  5
4CDE
330
1F
100
AcDbEntity
  8
0
  6
Continuous
 62
     7
100
AcDbLine
 10
482.3380877963556
 20
461.7429053572876
 30
0.0
 11
482.3380877963556
 21
467.7429053572876
 31
0.0
  0
LINE
  5
4CDF
330
1F
100
AcDbEntity
  8
0
  6
Continuous
 62
     7
100
AcDbLine
 10
459.3380877963554
 20
392.0234753572876
 30
0.0
 11
459.3380877963554
 21
424.3024753572878
 31
0.0
  0
LINE
  5
4CE0
330
1F
100
AcDbEntity
  8
0
  6
Continuous
 62
     7
100
AcDbLine
 10
451.1636177963556
 20
395.5147853572879
 30
0.0
 11
456.4428277963555
 21
395.3304253572877
 31
0.0
  0
LINE
  5
4CE1
330
1F
100
AcDbEntity
  8
0
  6
Continuous
 62
     7
100
AcDbLine
 10
476.3380877963554
 20
455.2429053572875
 30
0.0
 11
504.3380877963556
 21
455.2429053572875
 31
0.0
  0
LINE
  5
4CE2
330
1F
100
AcDbEntity
  8
0
  6
Continuous
 62
     7
100
AcDbLine
 10
476.3380877963554
 20
474.2429053572876
 30
0.0
 11
504.3380877963556
 21
474.2429053572876
 31
0.0
  0
LINE
  5
4CE3
330
1F
100
AcDbEntity
  8
0
  6
Continuous
 62
     7
100
AcDbLine
 10
504.3380877963556
 20
455.2429053572875
 30
0.0
 11
504.3380877963556
 21
474.2429053572876
 31
0.0
  0
LINE
  5
4CE4
330
1F
100
AcDbEntity
  8
0
  6
Continuous
 62
     7
100
AcDbLine
 10
482.3380877963556
 20
461.7429053572876
 30
0.0
 11
504.3380877963556
 21
461.7429053572876
 31
0.0
  0
LINE
  5
4CE5
330
1F
100
AcDbEntity
  8
0
  6
Continuous
 62
     7
100
AcDbLine
 10
476.3380877963554
 20
454.7429053572876
 30
0.0
 11
476.3380877963554
 21
474.7429053572877
 31
0.0
  0
LINE
  5
4CE6
330
1F
100
AcDbEntity
  8
0
  6
Continuous
 62
     7
100
AcDbLine
 10
482.3380877963556
 20
467.7429053572876
 30
0.0
 11
504.3380877963556
 21
467.7429053572876
 31
0.0
  0
LINE
  5
4CE7
330
1F
100
AcDbEntity
  8
0
  6
Continuous
 62
     7
100
AcDbLine
 10
414.3381477963555
 20
524.7429053572878
 30
0.0
 11
446.3381477963555
 21
525.5808553572876
 31
0.0
  0
LINE
  5
4CE8
330
1F
100
AcDbEntity
  8
0
  6
Continuous
 62
     7
100
AcDbLine
 10
473.3381177963557
 20
443.8157153572878
 30
0.0
 11
473.7523677963555
 21
444.2299353572876
 31
0.0
  0
LINE
  5
4CEA
330
1F
100
AcDbEntity
  8
0
  6
Continuous
 62
     7
100
AcDbLine
 10
446.3381177963555
 20
403.9049153572878
 30
0.0
 11
414.3381477963555
 21
404.7428753572877
 31
0.0
  0
LINE
  5
4CEB
330
1F
100
AcDbEntity
  8
0
  6
Continuous
 62
     7
100
AcDbLine
 10
459.3380877963554
 20
537.4622653572877
 30
0.0
 11
459.3380877963554
 21
505.1832653572876
 31
0.0
  0
LINE
  5
4CEC
330
1F
100
AcDbEntity
  8
0
  6
Continuous
 62
     7
100
AcDbLine
 10
474.3380877963556
 20
483.7687153572878
 30
0.0
 11
474.3380877963556
 21
445.4984553572876
 31
0.0
  0
LINE
  5
4CED
330
1F
100
AcDbEntity
  8
0
  6
Continuous
 62
     7
100
AcDbLine
 10
451.1636777963555
 20
533.9709253572878
 30
0.0
 11
456.4428577963556
 21
534.1552853572876
 31
0.0
  0
LINE
  5
4CEE
330
1F
100
AcDbEntity
  8
0
  6
Continuous
 62
     7
100
AcDbLine
 10
464.3381477963556
 20
524.2429053572875
 30
0.0
 11
464.3381477963556
 21
405.2428353572876
 31
0.0
  0
LINE
  5
4CEF
330
1F
100
AcDbEntity
  8
0
  6
Continuous
 62
     7
100
AcDbLine
 10
469.3380877963555
 20
534.7429053572876
 30
0.0
 11
473.3381477963556
 21
534.7429053572876
 31
0.0
  0
LINE
  5
4CF0
330
1F
100
AcDbEntity
  8
0
  6
Continuous
 62
     7
100
AcDbLine
 10
469.3380877963555
 20
539.7428353572876
 30
0.0
 11
469.3380877963555
 21
389.7428353572877
 31
0.0
  0
LINE
  5
4CF1
330
1F
100
AcDbEntity
  8
0
  6
Continuous
 62
     7
100
AcDbLine
 10
473.3381477963556
 20
534.7429053572876
 30
0.0
 11
473.3381477963556
 21
394.7428353572878
 31
0.0
  0
LINE
  5
4CF2
330
1F
100
AcDbEntity
  8
0
  6
Continuous
 62
     7
100
AcDbLine
 10
461.2683277963555
 20
539.4610753572875
 30
0.0
 11
469.3381477963556
 21
539.7428753572878
 31
0.0
  0
LINE
  5
4CF3
330
1F
100
AcDbEntity
  8
0
  6
Continuous
 62
     7
100
AcDbLine
 10
473.3381177963557
 20
485.6700253572876
 30
0.0
 11
473.7523377963555
 21
485.2557753572876
 31
0.0
  0
LINE
  5
4CF5
330
1F
100
AcDbEntity
  8
0
  6
Continuous
 62
     7
100
AcDbLine
 10
446.3381477963555
 20
528.9739753572876
 30
0.0
 11
446.3381477963555
 21
400.5292753572875
 31
0.0
  0
ARC
  5
4CF6
330
1F
100
AcDbEntity
  8
0
  6
Continuous
 62
     7
100
AcDbCircle
 10
380.8381477963555
 20
527.6377953572878
 30
0.0
 40
1.0
100
AcDbArc
 50
0.0
 51
88.49999700000074
  0
ARC
  5
4CF7
330
1F
100
AcDbEntity
  8
0
  6
Continuous
 62
     7
100
AcDbCircle
 10
380.8381477963555
 20
401.8479753572878
 30
0.0
 40
1.0
100
AcDbArc
 50
271.4999999999995
 51
0.0
  0
ARC
  5
4CF8
330
1F
100
AcDbEntity
  8
0
  6
Continuous
 62
     7
100
AcDbCircle
 10
388.9632677963556
 20
423.2425953572875
 30
0.0
 40
10.0
100
AcDbArc
 50
270.0
 51
280.0000100000012
  0
ARC
  5
4CF9
330
1F
100
AcDbEntity
  8
0
  6
Continuous
 62
     7
100
AcDbCircle
 10
388.9632677963556
 20
506.2431753572877
 30
0.0
 40
10.0
100
AcDbArc
 50
79.9999980000011
 51
90.00000300000095
  0
ARC
  5
4CFA
330
1F
100
AcDbEntity
  8
0
  6
Continuous
 62
     7
100
AcDbCircle
 10
461.3381477963556
 20
392.0234753572876
 30
0.0
 40
2.0
100
AcDbArc
 50
179.999989999999
 51
268.0000099999986
  0
ARC
  5
4CFB
330
1F
100
AcDbEntity
  8
0
  6
Continuous
 62
     7
100
AcDbCircle
 10
482.3380877963556
 20
464.7429053572876
 30
0.0
 40
3.0
100
AcDbArc
 50
89.98601399999925
 51
270.01399
  0
ARC
  5
4CFC
330
1F
100
AcDbEntity
  8
0
  6
Continuous
 62
     7
100
AcDbCircle
 10
461.3381477963556
 20
424.3024753572878
 30
0.0
 40
2.0
100
AcDbArc
 50
88.48535300000101
 51
180.000010000001
  0
ARC
  5
4CFD
330
1F
100
AcDbEntity
  8
0
  6
Continuous
 62
     7
100
AcDbCircle
 10
472.3380877963555
 20
445.6441453572876
 30
0.0
 40
2.0
100
AcDbArc
 50
315.0
 51
0.0
  0
ARC
  5
4CFE
330
1F
100
AcDbEntity
  8
0
  6
Continuous
 62
     7
100
AcDbCircle
 10
461.3381477963556
 20
405.2428353572876
 30
0.0
 40
3.0
100
AcDbArc
 50
270.0
 51
0.0
  0
ARC
  5
4CFF
330
1F
100
AcDbEntity
  8
0
  6
Continuous
 62
     7
100
AcDbCircle
 10
456.3380877963555
 20
392.3322553572878
 30
0.0
 40
3.0
100
AcDbArc
 50
0.0
 51
87.99999999999966
  0
ARC
  5
4D00
330
1F
100
AcDbEntity
  8
0
  6
Continuous
 62
     7
100
AcDbCircle
 10
451.3380877963554
 20
400.5117653572876
 30
0.0
 40
5.0
100
AcDbArc
 50
179.999989999999
 51
268.0000099999986
  0
ARC
  5
4D01
330
1F
100
AcDbEntity
  8
0
  6
Continuous
 62
     7
100
AcDbCircle
 10
461.3381477963556
 20
537.4622653572877
 30
0.0
 40
2.0
100
AcDbArc
 50
91.99999800000057
 51
180.000010000001
  0
ARC
  5
4D02
330
1F
100
AcDbEntity
  8
0
  6
Continuous
 62
     7
100
AcDbCircle
 10
461.3381477963556
 20
524.2429053572875
 30
0.0
 40
3.0
100
AcDbArc
 50
0.0
 51
90.00000300000095
  0
ARC
  5
4D03
330
1F
100
AcDbEntity
  8
0
  6
Continuous
 62
     7
100
AcDbCircle
 10
472.3380877963555
 20
483.8415953572875
 30
0.0
 40
2.0
100
AcDbArc
 50
0.0
 51
45.00000099999918
  0
ARC
  5
4D04
330
1F
100
AcDbEntity
  8
0
  6
Continuous
 62
     7
100
AcDbCircle
 10
451.3380877963554
 20
528.9739753572876
 30
0.0
 40
5.0
100
AcDbArc
 50
91.99999800000057
 51
180.000010000001
  0
ARC
  5
4D05
330
1F
100
AcDbEntity
  8
0
  6
Continuous
 62
     7
100
AcDbCircle
 10
456.3380877963555
 20
537.1534853572876
 30
0.0
 40
3.0
100
AcDbArc
 50
272.0000000000004
 51
0.0
  0
ARC
  5
4D06
330
1F
100
AcDbEntity
  8
0
  6
Continuous
 62
     7
100
AcDbCircle
 10
461.3381477963556
 20
505.1832653572876
 30
0.0
 40
2.0
100
AcDbArc
 50
179.999989999999
 51
271.5146399999991
  0
TEXT
  5
4D10
330
1F
100
AcDbEntity
  8
AM_0
100
AcDbText
 10
602.5665300836203
 20
386.6388781059213
 30
0.0
 40
7.5
  1
ＶＸ０４－００５～０１０ＨＦ－Ｔ１（Ｔ３）
 41
0.8299999999999998
100
AcDbText
  0
ENDSEC
  0
SECTION
  2
OBJECTS
  0
DICTIONARY
  5
C
330
0
100
AcDbDictionary
281
     1
  3
ACAD_COLOR
350
2196
  3
ACAD_GROUP
350
D
  3
ACAD_LAYOUT
350
1A
  3
ACAD_MATERIAL
350
2195
  3
ACAD_MLINESTYLE
350
17
  3
ACAD_PLOTSETTINGS
350
19
  3
ACAD_PLOTSTYLENAME
350
E
  3
ACAD_TABLESTYLE
350
2197
  3
AcadDim
350
14B1
  3
ACDBHEADERROUNDTRIPXREC
350
4E0E
  3
AcDbVariableDictionary
350
34
  3
AcmDictionary
350
47
  3
AMG
350
2B
  3
AMGSNAPSETTINGS
350
81
  3
ASE_INDEX_DICTIONARY
350
2D7B
  3
DWGPROPS
350
4E0D
  0
DICTIONARY
  5
2D9C
330
2
100
AcDbDictionary
280
     1
281
     1
  3
ACAD_LAYERSTATES
360
2D9D
  0
DICTIONARY
  5
CC
330
1F
100
AcDbDictionary
280
     1
281
     1
  3
ACAD_SORTENTS
360
2D4D
  0
DICTIONARY
  5
2196
102
{ACAD_REACTORS
330
C
102
}
330
C
100
AcDbDictionary
281
     1
  0
DICTIONARY
  5
D
102
{ACAD_REACTORS
330
C
102
}
330
C
100
AcDbDictionary
281
     1
  0
DICTIONARY
  5
1A
102
{ACAD_REACTORS
330
C
102
}
330
C
100
AcDbDictionary
281
     1
  3
Model
350
22
  3
ﾚｲｱｳﾄ1
350
1E
  3
ﾚｲｱｳﾄ2
350
26
  0
DICTIONARY
  5
2195
102
{ACAD_REACTORS
330
C
102
}
330
C
100
AcDbDictionary
281
     1
  3
Global
350
2E75
  0
DICTIONARY
  5
17
102
{ACAD_REACTORS
330
C
102
}
330
C
100
AcDbDictionary
281
     1
  3
Standard
350
18
  0
DICTIONARY
  5
19
102
{ACAD_REACTORS
330
C
102
}
330
C
100
AcDbDictionary
281
     1
  3
A1
350
7A0
  3
A2
350
7A1
  3
A3外形図
350
7A2
  3
A3部品図
350
7A3
  3
A4外形図
350
7A4
  3
A4製造仕様書
350
7A5
  3
A4部品図
350
7A6
  0
ACDBDICTIONARYWDFLT
  5
E
102
{ACAD_REACTORS
330
C
102
}
330
C
100
AcDbDictionary
281
     1
  3
Normal
350
F
100
AcDbDictionaryWithDefault
340
F
  0
DICTIONARY
  5
2197
102
{ACAD_REACTORS
330
C
102
}
330
C
100
AcDbDictionary
281
     1
  3
Standard
350
2198
  0
XRECORD
  5
14B1
102
{ACAD_REACTORS
330
C
102
}
330
C
100
AcDbXrecord
280
     1
 90
   990106
  3

 60
     0
 61
     0
 62
     4
 63
     4
 64
     1
 65
     0
 66
     0
 67
     3
 68
     1
 69
     0
 70
     0
 71
     0
 72
     0
 40
0.0
170
     0
  0
DICTIONARY
  5
4E0E
102
{ACAD_REACTORS
330
C
102
}
330
C
100
AcDbDictionary
281
     1
  0
DICTIONARY
  5
34
102
{ACAD_REACTORS
330
C
102
}
330
C
100
AcDbDictionary
281
     1
  3
CTABLESTYLE
350
22C6
  3
DIMASSOC
350
4D1B
  3
INDEXCTL
350
35
  3
PROJECTNAME
350
4D1C
  0
DICTIONARY
  5
47
102
{ACAD_REACTORS
330
C
102
}
330
C
100
AcDbDictionary
281
     1
  3
AcmStdDictionary
350
4C
  3
AMDTSECTSYM_ARROWCOLOR
350
21A4
  0
DICTIONARY
  5
2B
102
{ACAD_REACTORS
330
C
102
}
330
C
100
AcDbDictionary
281
     1
  0
DICTIONARY
  5
81
102
{ACAD_REACTORS
330
C
102
}
330
C
100
AcDbDictionary
281
     1
  0
DICTIONARY
  5
2D7B
102
{ACAD_REACTORS
330
C
102
}
330
C
100
AcDbDictionary
281
     1
  3
ASEBlockHierarchyIndexRecord
350
2D7C
1001
DCO15
1040
1618997528.246
  0
XRECORD
  5
4E0D
102
{ACAD_REACTORS
330
C
102
}
330
C
100
AcDbXrecord
280
     1
  1
DWGPROPS COOKIE
  2

  3

  4

  6

  7

  8
ISHIGURE
  9

300
AmdtFileType=84
301
=
302
=
303
=
304
=
305
=
306
=
307
=
308
=
309
=
 40
0.5023624768518519
 41
2452065.605619213
 42
2454770.842430475
  1

 90
        1
  0
DICTIONARY
  5
2D9D
102
{ACAD_REACTORS
330
2D9C
102
}
330
2D9C
100
AcDbDictionary
281
     1
  0
SORTENTSTABLE
  5
2D4D
102
{ACAD_REACTORS
330
CC
102
}
330
CC
100
AcDbSortentsTable
330
1F
331
4834
  5
4834
331
2E8B
  5
2E8B
331
4085
  5
4085
331
49E4
  5
49E4
331
2E93
  5
2E93
331
330A
  5
330A
331
4A3C
  5
4A3C
331
3312
  5
3312
331
480D
  5
480D
331
49EC
  5
49EC
331
4A44
  5
4A44
331
4A0D
  5
4A0D
331
4A4C
  5
4A4C
331
4A15
  5
4A15
331
4A54
  5
4A54
331
4815
  5
4815
331
49F4
  5
49F4
331
329B
  5
329B
331
345A
  5
345A
331
481D
  5
481D
331
49FC
  5
49FC
331
4A04
  5
4A04
331
4825
  5
4825
331
4A5C
  5
4A5C
331
482D
  5
482D
331
4A1D
  5
4A1D
331
4A64
  5
4A64
331
4A25
  5
4A25
331
4A2D
  5
4A2D
331
4A6C
  5
4A6C
331
4A35
  5
4A35
331
4835
  5
4835
331
32EB
  5
32EB
331
4086
  5
4086
331
2E8C
  5
2E8C
331
2E94
  5
2E94
331
330B
  5
330B
331
4806
  5
4806
331
49E5
  5
49E5
331
4A3D
  5
4A3D
331
2E9C
  5
2E9C
331
3313
  5
3313
331
480E
  5
480E
331
49ED
  5
49ED
331
4A45
  5
4A45
331
4A4D
  5
4A4D
331
4A0E
  5
4A0E
331
4A55
  5
4A55
331
4A16
  5
4A16
331
49F5
  5
49F5
331
4816
  5
4816
331
3323
  5
3323
331
345B
  5
345B
331
481E
  5
481E
331
49FD
  5
49FD
331
329C
  5
329C
331
4826
  5
4826
331
4A05
  5
4A05
331
4A1E
  5
4A1E
331
482E
  5
482E
331
4A5D
  5
4A5D
331
4A26
  5
4A26
331
4A65
  5
4A65
331
4A6D
  5
4A6D
331
4A2E
  5
4A2E
331
4A36
  5
4A36
331
32CC
  5
32CC
331
4836
  5
4836
331
49DE
  5
49DE
331
2E8D
  5
2E8D
331
4087
  5
4087
331
49E6
  5
49E6
331
4807
  5
4807
331
330C
  5
330C
331
4A3E
  5
4A3E
331
3314
  5
3314
331
480F
  5
480F
331
49EE
  5
49EE
331
4A46
  5
4A46
331
4A0F
  5
4A0F
331
4A4E
  5
4A4E
331
4A17
  5
4A17
331
4A56
  5
4A56
331
4817
  5
4817
331
49F6
  5
49F6
331
329D
  5
329D
331
345C
  5
345C
331
481F
  5
481F
331
49FE
  5
49FE
331
4A06
  5
4A06
331
32A5
  5
32A5
331
4827
  5
4827
331
4A5E
  5
4A5E
331
4A1F
  5
4A1F
331
482F
  5
482F
331
32AD
  5
32AD
331
4A66
  5
4A66
331
4A27
  5
4A27
331
4A2F
  5
4A2F
331
4A37
  5
4A37
331
4837
  5
4837
331
49DF
  5
49DF
331
2E8E
  5
2E8E
331
2E96
  5
2E96
331
330D
  5
330D
331
4808
  5
4808
331
49E7
  5
49E7
331
4A3F
  5
4A3F
331
49EF
  5
49EF
331
3315
  5
3315
331
4A08
  5
4A08
331
4A47
  5
4A47
331
4A4F
  5
4A4F
331
4A10
  5
4A10
331
4A57
  5
4A57
331
4810
  5
4810
331
49F7
  5
49F7
331
4818
  5
4818
331
345D
  5
345D
331
4820
  5
4820
331
49FF
  5
49FF
331
4A18
  5
4A18
331
32A6
  5
32A6
331
4828
  5
4828
331
4A07
  5
4A07
331
4A20
  5
4A20
331
4A5F
  5
4A5F
331
4A67
  5
4A67
331
4A30
  5
4A30
331
4830
  5
4830
331
49E0
  5
49E0
331
2E8F
  5
2E8F
331
330E
  5
330E
331
49E8
  5
49E8
331
2E97
  5
2E97
331
4809
  5
4809
331
4A38
  5
4A38
331
4A40
  5
4A40
331
3316
  5
3316
331
2E9F
  5
2EA1
331
4A09
  5
4A09
331
4A48
  5
4A48
331
4A11
  5
4A11
331
4A50
  5
4A50
331
4811
  5
4811
331
49F0
  5
49F0
331
4819
  5
4819
331
49F8
  5
49F8
331
4A00
  5
4A00
331
4821
  5
4821
331
345E
  5
345E
331
4A19
  5
4A19
331
32A7
  5
32A7
331
4829
  5
4829
331
4A58
  5
4A58
331
4A60
  5
4A60
331
4A21
  5
4A21
331
4A68
  5
4A68
331
4A31
  5
4A31
331
4831
  5
4831
331
2E88
  5
2E88
331
49E1
  5
49E1
331
2E90
  5
2E90
331
4A39
  5
4A39
331
2E98
  5
2E98
331
330F
  5
330F
331
480A
  5
480A
331
49E9
  5
49E9
331
4A41
  5
4A41
331
4A0A
  5
4A0A
331
4A49
  5
4A49
331
4A51
  5
4A51
331
4A12
  5
4A12
331
49F1
  5
49F1
331
4812
  5
4812
331
49F9
  5
49F9
331
481A
  5
481A
331
345F
  5
345F
331
4822
  5
4822
331
4A01
  5
4A01
331
4A1A
  5
4A1A
331
32A8
  5
32A8
331
482A
  5
482A
331
4A59
  5
4A59
331
4A22
  5
4A22
331
4A61
  5
4A61
331
4A69
  5
4A69
331
4A32
  5
4A32
331
4832
  5
4832
331
49E2
  5
49E2
331
2E91
  5
2E91
331
4A3A
  5
4A3A
331
3310
  5
3310
331
480B
  5
480B
331
49EA
  5
49EA
331
2E99
  5
2E99
331
4A42
  5
4A42
331
4A0B
  5
4A0B
331
4A4A
  5
4A4A
331
4A13
  5
4A13
331
4A52
  5
4A52
331
4813
  5
4813
331
49F2
  5
49F2
331
2EA1
  5
2E9F
331
481B
  5
481B
331
49FA
  5
49FA
331
4A02
  5
4A02
331
32A1
  5
32A1
331
4823
  5
4823
331
3460
  5
3460
331
4A1B
  5
4A1B
331
482B
  5
482B
331
4A5A
  5
4A5A
331
4A62
  5
4A62
331
4A23
  5
4A23
331
4A6A
  5
4A6A
331
4A33
  5
4A33
331
4833
  5
4833
331
4084
  5
4084
331
2E8A
  5
2E8A
331
3309
  5
3309
331
49E3
  5
49E3
331
4A3B
  5
4A3B
331
3311
  5
3311
331
480C
  5
480C
331
49EB
  5
49EB
331
4A43
  5
4A43
331
4A4B
  5
4A4B
331
4A0C
  5
4A0C
331
4A53
  5
4A53
331
4A14
  5
4A14
331
49F3
  5
49F3
331
4814
  5
4814
331
3459
  5
3459
331
481C
  5
481C
331
49FB
  5
49FB
331
329A
  5
329A
331
4824
  5
4824
331
4A03
  5
4A03
331
32A2
  5
32A2
331
4A1C
  5
4A1C
331
482C
  5
482C
331
4A5B
  5
4A5B
331
4A24
  5
4A24
331
4A63
  5
4A63
331
4A2C
  5
4A2C
331
4A6B
  5
4A6B
331
4A34
  5
4A34
  0
LAYOUT
  5
22
102
{ACAD_XDICTIONARY
360
4E11
102
}
102
{ACAD_REACTORS
330
1A
102
}
330
1A
100
AcDbPlotSettings
  1

  2
\\XSERIES235\Canon LASER SHOT LBP-910
  4
A4
  6
AM_VIEW1
 40
5.873749732971191
 41
5.873747825622557
 42
5.873748779296875
 43
5.873748779296875
 44
209.9733276367186
 45
296.9259948730469
 46
0.0
 47
0.34
 48
0.0
 49
0.0
140
0.0
141
0.0
142
1.0
143
3.0
 70
 11936
 72
     1
 73
     1
 74
     2
  7
acad1.ctb
 75
     0
147
0.3341282932256912
148
0.0
149
0.0
100
AcDbLayout
  1
Model
 70
     1
 71
     0
 10
0.0
 20
0.0
 11
12.0
 21
9.0
 12
0.0
 22
0.0
 32
0.0
 14
0.0
 24
0.0
 34
0.0
 15
0.0
 25
0.0
 35
0.0
146
0.0
 13
0.0
 23
0.0
 33
0.0
 16
1.0
 26
0.0
 36
0.0
 17
0.0
 27
1.0
 37
0.0
 76
     0
330
1F
1001
ACAD_PSEXT
1000
\\XSERIES235\Canon LASER SHOT LBP-910
1000
Canon LASER SHOT LBP-910
1000
\\XSERIES235
1000

1070
     0
  0
LAYOUT
  5
1E
102
{ACAD_XDICTIONARY
360
4E0F
102
}
102
{ACAD_REACTORS
330
1A
102
}
330
1A
100
AcDbPlotSettings
  1

  2
\\FHKSV01\RICOH imagio MF2700(FAX)
  4

  6

 40
0.0
 41
0.0
 42
0.0
 43
0.0
 44
0.0
 45
0.0
 46
0.0
 47
0.0
 48
0.0
 49
0.0
140
0.0
141
0.0
142
1.0
143
1.0
 70
   688
 72
     0
 73
     0
 74
     5
  7
acad1.ctb
 75
    16
147
1.0
148
0.0
149
0.0
100
AcDbLayout
  1
ﾚｲｱｳﾄ1
 70
     1
 71
     1
 10
0.0
 20
0.0
 11
420.0
 21
297.0
 12
0.0
 22
0.0
 32
0.0
 14
1.000000000000000E+20
 24
1.000000000000000E+20
 34
1.000000000000000E+20
 15
-1.000000000000000E+20
 25
-1.000000000000000E+20
 35
-1.000000000000000E+20
146
0.0
 13
0.0
 23
0.0
 33
0.0
 16
1.0
 26
0.0
 36
0.0
 17
0.0
 27
1.0
 37
0.0
 76
     0
330
1B
  0
LAYOUT
  5
26
102
{ACAD_XDICTIONARY
360
4E13
102
}
102
{ACAD_REACTORS
330
1A
102
}
330
1A
100
AcDbPlotSettings
  1

  2
\\FHKSV01\RICOH imagio MF2700(FAX)
  4

  6

 40
0.0
 41
0.0
 42
0.0
 43
0.0
 44
0.0
 45
0.0
 46
0.0
 47
0.0
 48
0.0
 49
0.0
140
0.0
141
0.0
142
1.0
143
1.0
 70
   688
 72
     0
 73
     0
 74
     5
  7
acad1.ctb
 75
    16
147
1.0
148
0.0
149
0.0
100
AcDbLayout
  1
ﾚｲｱｳﾄ2
 70
     1
 71
     2
 10
0.0
 20
0.0
 11
12.0
 21
9.0
 12
0.0
 22
0.0
 32
0.0
 14
0.0
 24
0.0
 34
0.0
 15
0.0
 25
0.0
 35
0.0
146
0.0
 13
0.0
 23
0.0
 33
0.0
 16
1.0
 26
0.0
 36
0.0
 17
0.0
 27
1.0
 37
0.0
 76
     0
330
23
  0
MATERIAL
  5
2E75
102
{ACAD_XDICTIONARY
360
2E76
102
}
102
{ACAD_REACTORS
330
2195
102
}
330
2195
100
AcDbMaterial
  1
Global
 73
     2
 78
     2
172
     2
176
     2
270
     2
274
     2
  0
MLINESTYLE
  5
18
102
{ACAD_REACTORS
330
17
102
}
330
17
100
AcDbMlineStyle
  2
STANDARD
 70
     0
  3

 62
   256
 51
90.0
 52
90.0
 71
     2
 49
0.5
 62
   256
  6
BYLAYER
 49
-0.5
 62
   256
  6
BYLAYER
  0
PLOTSETTINGS
  5
7A0
102
{ACAD_XDICTIONARY
360
4E15
102
}
102
{ACAD_REACTORS
330
19
102
}
330
19
100
AcDbPlotSettings
  1
A1
  2
\\NETFINITY_5500\HP DesignJet 750C+ (D/A1) by HP)
  4
User267
  6

 40
17.76941680908203
 41
5.789102554321289
 42
17.7694091796875
 43
5.7890625
 44
840.9093017578125
 45
593.97900390625
 46
2.0
 47
13.0
 48
0.0
 49
0.0
140
0.0
141
0.0
142
1.0
143
1.0
 70
  1712
 72
     1
 73
     0
 74
     1
  7
acad.ctb
 75
    16
147
1.0
148
0.0100416569983963
149
0.0078848243487073
  0
PLOTSETTINGS
  5
7A1
102
{ACAD_XDICTIONARY
360
4E17
102
}
102
{ACAD_REACTORS
330
19
102
}
330
19
100
AcDbPlotSettings
  1
A2
  2
\\NETFINITY_5500\HP DesignJet 750C+ (D/A1) by HP)
  4
User266
  6

 40
5.78908348083496
 41
17.76940155029297
 42
5.78912353515625
 43
17.7694091796875
 44
593.97900390625
 45
419.9466552734373
 46
12.0
 47
0.0
 48
0.0
 49
0.0
140
0.0
141
0.0
142
1.0
143
1.0
 70
  1712
 72
     1
 73
     0
 74
     1
  7
acad.ctb
 75
    16
147
1.0
148
0.0100416569983963
149
0.0078848243487073
  0
PLOTSETTINGS
  5
7A2
102
{ACAD_XDICTIONARY
360
4E19
102
}
102
{ACAD_REACTORS
330
19
102
}
330
19
100
AcDbPlotSettings
  1
A3外形図
  2
\\NETFINITY_5500\Canon LASER SHOT LBP-910
  4
A3
  6

 40
5.873749732971191
 41
5.873747825622557
 42
5.873748779296875
 43
5.873748779296875
 44
296.9259948730469
 45
419.9466552734373
 46
0.0
 47
15.0
 48
0.0
 49
0.0
140
0.0
141
0.0
142
1.0
143
1.0
 70
  1712
 72
     1
 73
     1
 74
     1
  7
acad1.ctb
 75
    16
147
1.0
148
0.0024839861629289
149
0.0093761313144114
  0
PLOTSETTINGS
  5
7A3
102
{ACAD_XDICTIONARY
360
4E1B
102
}
102
{ACAD_REACTORS
330
19
102
}
330
19
100
AcDbPlotSettings
  1
A3部品図
  2
\\NETFINITY_5500\Canon LASER SHOT LBP-910
  4
A3
  6

 40
5.873749732971191
 41
5.873747825622557
 42
5.873748779296875
 43
5.873748779296875
 44
296.9259948730469
 45
419.9466552734373
 46
0.0
 47
0.0
 48
0.0
 49
0.0
140
0.0
141
0.0
142
1.0
143
1.0
 70
  1712
 72
     1
 73
     1
 74
     1
  7
acad1.ctb
 75
    16
147
1.0
148
0.0024839861629289
149
0.0093761313144114
  0
PLOTSETTINGS
  5
7A4
102
{ACAD_XDICTIONARY
360
4E1D
102
}
102
{ACAD_REACTORS
330
19
102
}
330
19
100
AcDbPlotSettings
  1
A4外形図
  2
\\NETFINITY_5500\Canon LASER SHOT LBP-910
  4
A4
  6

 40
5.873749732971191
 41
5.873747825622557
 42
5.873748779296875
 43
5.873748779296875
 44
209.9733276367186
 45
296.9259948730469
 46
0.0
 47
0.0
 48
0.0
 49
0.0
140
0.0
141
0.0
142
1.0
143
1.0
 70
  1712
 72
     1
 73
     1
 74
     1
  7
acad1.ctb
 75
    16
147
1.0
148
0.0115486965655691
149
0.0124955963574962
  0
PLOTSETTINGS
  5
7A5
102
{ACAD_XDICTIONARY
360
4E1F
102
}
102
{ACAD_REACTORS
330
19
102
}
330
19
100
AcDbPlotSettings
  1
A4製造仕様書
  2
\\NETFINITY_5500\Canon LASER SHOT LBP-910
  4
A4
  6

 40
5.873749732971191
 41
5.873747825622557
 42
5.873748779296875
 43
5.873748779296875
 44
209.9733276367186
 45
296.9259948730469
 46
15.0
 47
0.0
 48
0.0
 49
0.0
140
0.0
141
0.0
142
1.0
143
1.0
 70
  1712
 72
     1
 73
     0
 74
     1
  7
acad1.ctb
 75
    16
147
1.0
148
0.0115486965655691
149
7.86079562315183
  0
PLOTSETTINGS
  5
7A6
102
{ACAD_XDICTIONARY
360
4E21
102
}
102
{ACAD_REACTORS
330
19
102
}
330
19
100
AcDbPlotSettings
  1
A4部品図
  2
\\NETFINITY_5500\Canon LASER SHOT LBP-910
  4
A4
  6

 40
5.873749732971191
 41
5.873747825622557
 42
5.873748779296875
 43
5.873748779296875
 44
209.9733276367186
 45
296.9259948730469
 46
0.0
 47
0.0
 48
0.0
 49
0.0
140
0.0
141
0.0
142
1.0
143
1.0
 70
  1712
 72
     1
 73
     0
 74
     1
  7
acad1.ctb
 75
    16
147
1.0
148
0.0115486965655691
149
0.0124955963574962
  0
ACDBPLACEHOLDER
  5
F
102
{ACAD_REACTORS
330
E
102
}
330
E
  0
TABLESTYLE
  5
2198
102
{ACAD_REACTORS
330
2197
102
}
330
2197
100
AcDbTableStyle
  3
Standard
 70
     0
 71
     0
 40
1.5
 41
1.5
280
     0
281
     0
  7
STANDARD
140
4.5
170
     2
 62
     0
 63
     7
283
     0
274
    -2
284
     1
 64
     0
275
    -2
285
     1
 65
     0
276
    -2
286
     1
 66
     0
277
    -2
287
     1
 67
     0
278
    -2
288
     1
 68
     0
279
    -2
289
     1
 69
     0
  7
STANDARD
140
6.0
170
     5
 62
     0
 63
     7
283
     0
274
    -2
284
     1
 64
     0
275
    -2
285
     1
 65
     0
276
    -2
286
     1
 66
     0
277
    -2
287
     1
 67
     0
278
    -2
288
     1
 68
     0
279
    -2
289
     1
 69
     0
  7
STANDARD
140
4.5
170
     5
 62
     0
 63
     7
283
     0
274
    -2
284
     1
 64
     0
275
    -2
285
     1
 65
     0
276
    -2
286
     1
 66
     0
277
    -2
287
     1
 67
     0
278
    -2
288
     1
 68
     0
279
    -2
289
     1
 69
     0
  0
DICTIONARYVAR
  5
22C6
102
{ACAD_REACTORS
330
34
102
}
330
34
100
DictionaryVariables
280
     0
  1
STANDARD
  0
DICTIONARYVAR
  5
4D1B
102
{ACAD_REACTORS
330
34
102
}
330
34
100
DictionaryVariables
280
     0
  1
1
  0
DICTIONARYVAR
  5
35
102
{ACAD_REACTORS
330
34
102
}
330
34
100
DictionaryVariables
280
     0
  1
0
  0
DICTIONARYVAR
  5
4D1C
102
{ACAD_REACTORS
330
34
102
}
330
34
100
DictionaryVariables
280
     0
  1

  0
DICTIONARY
  5
4C
102
{ACAD_REACTORS
330
47
102
}
330
47
100
AcDbDictionary
281
     1
  0
XRECORD
  5
21A4
102
{ACAD_REACTORS
330
47
102
}
330
47
100
AcDbXrecord
280
     1
 90
-1023410169
  0
XRECORD
  5
2D7C
102
{ACAD_REACTORS
330
2D7B
102
}
330
2D7B
100
AcDbXrecord
280
     1
330
1A9A
330
1A9B
330
1A9C
330
1A9D
330
1A9E
330
1A9F
330
7A7
330
7B1
330
7B2
330
7B3
330
7B4
330
7B5
330
7B6
330
7B7
330
7B8
330
7B9
330
7BA
330
7BB
330
7BC
330
7BD
330
7BE
330
7BF
330
7C0
330
7C1
330
7C2
330
7C3
330
7C4
330
7C5
330
0
330
1AA0
330
1AA1
330
1AA2
330
1AA3
330
1AA4
330
1AA5
330
1AA6
330
1AA7
330
1AA8
330
1AA9
330
1AAA
330
1AAB
330
1AAC
330
1AAD
330
1AAE
330
1AAF
330
1FA0
330
1FA1
330
178C
330
178D
330
178E
330
17C5
330
17C6
330
17C7
330
17E3
330
17E4
330
17E5
330
1881
330
1882
330
1883
330
1851
  0
DICTIONARY
  5
4E11
330
22
100
AcDbDictionary
280
     1
281
     1
  3
ACAD_XREC_ROUNDTRIP
360
4E12
  0
DICTIONARY
  5
4E0F
330
1E
100
AcDbDictionary
280
     1
281
     1
  3
ACAD_XREC_ROUNDTRIP
360
4E10
  0
DICTIONARY
  5
4E13
330
26
100
AcDbDictionary
280
     1
281
     1
  3
ACAD_XREC_ROUNDTRIP
360
4E14
  0
DICTIONARY
  5
2E76
330
2E75
100
AcDbDictionary
280
     1
281
     1
  3
ACAD_XREC_ROUNDTRIP
360
2E77
  0
DICTIONARY
  5
4E15
330
7A0
100
AcDbDictionary
280
     1
281
     1
  3
ACAD_XREC_ROUNDTRIP
360
4E16
  0
DICTIONARY
  5
4E17
330
7A1
100
AcDbDictionary
280
     1
281
     1
  3
ACAD_XREC_ROUNDTRIP
360
4E18
  0
DICTIONARY
  5
4E19
330
7A2
100
AcDbDictionary
280
     1
281
     1
  3
ACAD_XREC_ROUNDTRIP
360
4E1A
  0
DICTIONARY
  5
4E1B
330
7A3
100
AcDbDictionary
280
     1
281
     1
  3
ACAD_XREC_ROUNDTRIP
360
4E1C
  0
DICTIONARY
  5
4E1D
330
7A4
100
AcDbDictionary
280
     1
281
     1
  3
ACAD_XREC_ROUNDTRIP
360
4E1E
  0
DICTIONARY
  5
4E1F
330
7A5
100
AcDbDictionary
280
     1
281
     1
  3
ACAD_XREC_ROUNDTRIP
360
4E20
  0
DICTIONARY
  5
4E21
330
7A6
100
AcDbDictionary
280
     1
281
     1
  3
ACAD_XREC_ROUNDTRIP
360
4E22
  0
XRECORD
  5
4E12
102
{ACAD_REACTORS
330
4E11
102
}
330
4E11
100
AcDbXrecord
280
     1
102
SHADEPLOT
 70
     0
102
SHADEPLOTRESLEVEL
 70
     2
102
SHADEPLOTCUSTOMDPI
 70
   300
  0
XRECORD
  5
4E10
102
{ACAD_REACTORS
330
4E0F
102
}
330
4E0F
100
AcDbXrecord
280
     1
102
SHADEPLOT
 70
     0
102
SHADEPLOTRESLEVEL
 70
     2
102
SHADEPLOTCUSTOMDPI
 70
   300
  0
XRECORD
  5
4E14
102
{ACAD_REACTORS
330
4E13
102
}
330
4E13
100
AcDbXrecord
280
     1
102
SHADEPLOT
 70
     0
102
SHADEPLOTRESLEVEL
 70
     2
102
SHADEPLOTCUSTOMDPI
 70
   300
  0
XRECORD
  5
2E77
102
{ACAD_REACTORS
330
2E76
102
}
330
2E76
100
AcDbXrecord
280
     1
102
MATERIAL
148
0.0
149
0.0
149
0.0
 93
        0
 94
      127
282
     0
 72
     1
 77
     1
171
     1
175
     1
179
     1
273
     0
  0
XRECORD
  5
4E16
102
{ACAD_REACTORS
330
4E15
102
}
330
4E15
100
AcDbXrecord
280
     1
102
SHADEPLOT
 70
     0
102
SHADEPLOTRESLEVEL
 70
     2
102
SHADEPLOTCUSTOMDPI
 70
   300
  0
XRECORD
  5
4E18
102
{ACAD_REACTORS
330
4E17
102
}
330
4E17
100
AcDbXrecord
280
     1
102
SHADEPLOT
 70
     0
102
SHADEPLOTRESLEVEL
 70
     2
102
SHADEPLOTCUSTOMDPI
 70
   300
  0
XRECORD
  5
4E1A
102
{ACAD_REACTORS
330
4E19
102
}
330
4E19
100
AcDbXrecord
280
     1
102
SHADEPLOT
 70
     0
102
SHADEPLOTRESLEVEL
 70
     2
102
SHADEPLOTCUSTOMDPI
 70
   300
  0
XRECORD
  5
4E1C
102
{ACAD_REACTORS
330
4E1B
102
}
330
4E1B
100
AcDbXrecord
280
     1
102
SHADEPLOT
 70
     0
102
SHADEPLOTRESLEVEL
 70
     2
102
SHADEPLOTCUSTOMDPI
 70
   300
  0
XRECORD
  5
4E1E
102
{ACAD_REACTORS
330
4E1D
102
}
330
4E1D
100
AcDbXrecord
280
     1
102
SHADEPLOT
 70
     0
102
SHADEPLOTRESLEVEL
 70
     2
102
SHADEPLOTCUSTOMDPI
 70
   300
  0
XRECORD
  5
4E20
102
{ACAD_REACTORS
330
4E1F
102
}
330
4E1F
100
AcDbXrecord
280
     1
102
SHADEPLOT
 70
     0
102
SHADEPLOTRESLEVEL
 70
     2
102
SHADEPLOTCUSTOMDPI
 70
   300
  0
XRECORD
  5
4E22
102
{ACAD_REACTORS
330
4E21
102
}
330
4E21
100
AcDbXrecord
280
     1
102
SHADEPLOT
 70
     0
102
SHADEPLOTRESLEVEL
 70
     2
102
SHADEPLOTCUSTOMDPI
 70
   300
  0
ENDSEC
  0
EOF
