  0
SECTION
  2
HEADER
  9
$ACADVER
  1
AC1015
  9
$ACADMAINTVER
 70
    20
  9
$DWGCODEPAGE
  3
ANSI_932
  9
$INSBASE
 10
0.0
 20
0.0
 30
0.0
  9
$EXTMIN
 10
296.3208870367623
 20
150.9363570587434
 30
-0.0000000000000006
  9
$EXTMAX
 10
774.1485690945392
 20
543.8806928075857
 30
0.0000000000000147
  9
$LIMMIN
 10
0.0
 20
0.0
  9
$LIMMAX
 10
853.5
 20
555.0000000000001
  9
$ORTHOMODE
 70
     1
  9
$REGENMODE
 70
     1
  9
$FILLMODE
 70
     1
  9
$QTEXTMODE
 70
     0
  9
$MIRRTEXT
 70
     1
  9
$LTSCALE
 40
3.0
  9
$ATTMODE
 70
     1
  9
$TEXTSIZE
 40
2.5
  9
$TRACEWID
 40
1.0
  9
$TEXTSTYLE
  7
STANDARD
  9
$CLAYER
  8
AM_0
  9
$CELTYPE
  6
ByLayer
  9
$CECOLOR
 62
   256
  9
$CELTSCALE
 40
1.0
  9
$DISPSILH
 70
     0
  9
$DIMSCALE
 40
1.0
  9
$DIMASZ
 40
2.5
  9
$DIMEXO
 40
1.0
  9
$DIMDLI
 40
8.0
  9
$DIMRND
 40
0.0
  9
$DIMDLE
 40
0.0
  9
$DIMEXE
 40
0.6
  9
$DIMTP
 40
0.1
  9
$DIMTM
 40
0.1
  9
$DIMTXT
 40
2.5
  9
$DIMCEN
 40
0.0
  9
$DIMTSZ
 40
0.0
  9
$DIMTOL
 70
     0
  9
$DIMLIM
 70
     0
  9
$DIMTIH
 70
     0
  9
$DIMTOH
 70
     0
  9
$DIMSE1
 70
     0
  9
$DIMSE2
 70
     0
  9
$DIMTAD
 70
     1
  9
$DIMZIN
 70
     8
  9
$DIMBLK
  1

  9
$DIMASO
 70
     1
  9
$DIMSHO
 70
     1
  9
$DIMPOST
  1

  9
$DIMAPOST
  1
"
  9
$DIMALT
 70
     0
  9
$DIMALTD
 70
     2
  9
$DIMALTF
 40
0.0393701
  9
$DIMLFAC
 40
1.0
  9
$DIMTOFL
 70
     1
  9
$DIMTVP
 40
0.0
  9
$DIMTIX
 70
     0
  9
$DIMSOXD
 70
     0
  9
$DIMSAH
 70
     0
  9
$DIMBLK1
  1

  9
$DIMBLK2
  1

  9
$DIMSTYLE
  2
AM_ISO
  9
$DIMCLRD
 70
   256
  9
$DIMCLRE
 70
   256
  9
$DIMCLRT
 70
     4
  9
$DIMTFAC
 40
0.71
  9
$DIMGAP
 40
0.8
  9
$DIMJUST
 70
     0
  9
$DIMSD1
 70
     0
  9
$DIMSD2
 70
     0
  9
$DIMTOLJ
 70
     0
  9
$DIMTZIN
 70
     8
  9
$DIMALTZ
 70
     0
  9
$DIMALTTZ
 70
     0
  9
$DIMUPT
 70
     0
  9
$DIMDEC
 70
     2
  9
$DIMTDEC
 70
     2
  9
$DIMALTU
 70
     2
  9
$DIMALTTD
 70
     2
  9
$DIMTXSTY
  7
STANDARD
  9
$DIMAUNIT
 70
     0
  9
$DIMADEC
 70
     0
  9
$DIMALTRND
 40
0.0
  9
$DIMAZIN
 70
     2
  9
$DIMDSEP
 70
    46
  9
$DIMATFIT
 70
     3
  9
$DIMFRAC
 70
     0
  9
$DIMLDRBLK
  1

  9
$DIMLUNIT
 70
     2
  9
$DIMLWD
 70
    -1
  9
$DIMLWE
 70
    -1
  9
$DIMTMOVE
 70
     0
  9
$LUNITS
 70
     2
  9
$LUPREC
 70
     2
  9
$SKETCHINC
 40
1.0
  9
$FILLETRAD
 40
5.0
  9
$AUNITS
 70
     0
  9
$AUPREC
 70
     0
  9
$MENU
  1
.
  9
$ELEVATION
 40
0.0
  9
$PELEVATION
 40
0.0
  9
$THICKNESS
 40
0.0
  9
$LIMCHECK
 70
     0
  9
$CHAMFERA
 40
6.0
  9
$CHAMFERB
 40
3.0
  9
$CHAMFERC
 40
20.0
  9
$CHAMFERD
 40
0.0
  9
$SKPOLY
 70
     0
  9
$TDCREATE
 40
2452065.605619213
  9
$TDUCREATE
 40
2452065.230619213
  9
$TDUPDATE
 40
2454770.843882511
  9
$TDUUPDATE
 40
2454770.468882511
  9
$TDINDWG
 40
0.5092306134
  9
$TDUSRTIMER
 40
0.5092304282
  9
$USRTIMER
 70
     1
  9
$ANGBASE
 50
0.0
  9
$ANGDIR
 70
     0
  9
$PDMODE
 70
     0
  9
$PDSIZE
 40
0.0
  9
$PLINEWID
 40
0.0
  9
$SPLFRAME
 70
     0
  9
$SPLINETYPE
 70
     6
  9
$SPLINESEGS
 70
     8
  9
$HANDSEED
  5
4BBB
  9
$SURFTAB1
 70
     6
  9
$SURFTAB2
 70
     6
  9
$SURFTYPE
 70
     6
  9
$SURFU
 70
     6
  9
$SURFV
 70
     6
  9
$UCSBASE
  2

  9
$UCSNAME
  2

  9
$UCSORG
 10
0.0
 20
0.0
 30
0.0
  9
$UCSXDIR
 10
1.0
 20
0.0
 30
0.0
  9
$UCSYDIR
 10
0.0
 20
1.0
 30
0.0
  9
$UCSORTHOREF
  2

  9
$UCSORTHOVIEW
 70
     0
  9
$UCSORGTOP
 10
0.0
 20
0.0
 30
0.0
  9
$UCSORGBOTTOM
 10
0.0
 20
0.0
 30
0.0
  9
$UCSORGLEFT
 10
0.0
 20
0.0
 30
0.0
  9
$UCSORGRIGHT
 10
0.0
 20
0.0
 30
0.0
  9
$UCSORGFRONT
 10
0.0
 20
0.0
 30
0.0
  9
$UCSORGBACK
 10
0.0
 20
0.0
 30
0.0
  9
$PUCSBASE
  2

  9
$PUCSNAME
  2

  9
$PUCSORG
 10
0.0
 20
0.0
 30
0.0
  9
$PUCSXDIR
 10
1.0
 20
0.0
 30
0.0
  9
$PUCSYDIR
 10
0.0
 20
1.0
 30
0.0
  9
$PUCSORTHOREF
  2

  9
$PUCSORTHOVIEW
 70
     0
  9
$PUCSORGTOP
 10
0.0
 20
0.0
 30
0.0
  9
$PUCSORGBOTTOM
 10
0.0
 20
0.0
 30
0.0
  9
$PUCSORGLEFT
 10
0.0
 20
0.0
 30
0.0
  9
$PUCSORGRIGHT
 10
0.0
 20
0.0
 30
0.0
  9
$PUCSORGFRONT
 10
0.0
 20
0.0
 30
0.0
  9
$PUCSORGBACK
 10
0.0
 20
0.0
 30
0.0
  9
$USERI1
 70
     0
  9
$USERI2
 70
     0
  9
$USERI3
 70
     0
  9
$USERI4
 70
     0
  9
$USERI5
 70
     0
  9
$USERR1
 40
0.0
  9
$USERR2
 40
0.0
  9
$USERR3
 40
0.0
  9
$USERR4
 40
0.0
  9
$USERR5
 40
0.0
  9
$WORLDVIEW
 70
     1
  9
$SHADEDGE
 70
     3
  9
$SHADEDIF
 70
    70
  9
$TILEMODE
 70
     1
  9
$MAXACTVP
 70
    64
  9
$PINSBASE
 10
0.0
 20
0.0
 30
0.0
  9
$PLIMCHECK
 70
     0
  9
$PEXTMIN
 10
1.000000000000000E+20
 20
1.000000000000000E+20
 30
1.000000000000000E+20
  9
$PEXTMAX
 10
-1.000000000000000E+20
 20
-1.000000000000000E+20
 30
-1.000000000000000E+20
  9
$PLIMMIN
 10
0.0
 20
0.0
  9
$PLIMMAX
 10
420.0
 20
297.0
  9
$UNITMODE
 70
     0
  9
$VISRETAIN
 70
     1
  9
$PLINEGEN
 70
     0
  9
$PSLTSCALE
 70
     1
  9
$TREEDEPTH
 70
  3020
  9
$CMLSTYLE
  2
Standard
  9
$CMLJUST
 70
     0
  9
$CMLSCALE
 40
20.0
  9
$PROXYGRAPHICS
 70
     1
  9
$MEASUREMENT
 70
     1
  9
$CELWEIGHT
370
    -1
  9
$ENDCAPS
280
     0
  9
$JOINSTYLE
280
     0
  9
$LWDISPLAY
290
     0
  9
$INSUNITS
 70
     4
  9
$HYPERLINKBASE
  1

  9
$STYLESHEET
  1
acad1.ctb
  9
$XEDIT
290
     1
  9
$CEPSNTYPE
380
     0
  9
$PSTYLEMODE
290
     1
  9
$FINGERPRINTGUID
  2
{91B11402-3528-11D5-BE34-000255C217F4}
  9
$VERSIONGUID
  2
{88E89E7E-7D09-4C35-BEED-71EC1A4DD4FB}
  9
$EXTNAMES
290
     1
  9
$PSVPSCALE
 40
0.0
  9
$OLESTARTUP
290
     0
  0
ENDSEC
  0
SECTION
  2
CLASSES
  0
CLASS
  1
ACDBDICTIONARYWDFLT
  2
AcDbDictionaryWithDefault
  3
ObjectDBX Classes
 90
        0
280
     0
281
     0
  0
CLASS
  1
ACDBPLACEHOLDER
  2
AcDbPlaceHolder
  3
ObjectDBX Classes
 90
        0
280
     0
281
     0
  0
CLASS
  1
LAYOUT
  2
AcDbLayout
  3
ObjectDBX Classes
 90
        0
280
     0
281
     0
  0
CLASS
  1
AMGSETTINGSOBJ
  2
AmgSettingsObj
  3
"AcadM|Product Description: AutoCAD Mechanical 2000|Company: Autodesk"
 90
        0
280
     0
281
     0
  0
CLASS
  1
ACME_DOCUMENT
  2
AcMeDbDoc
  3
AcMeServices
 90
        0
280
     0
281
     0
  0
CLASS
  1
ACMESCOPE
  2
AcMeScope
  3
AcMeServices
 90
        0
280
     0
281
     0
  0
CLASS
  1
ACMECOMMANDHISTORY
  2
AcMeCommandHistory
  3
AcMeServices
 90
        0
280
     0
281
     0
  0
CLASS
  1
DICTIONARYVAR
  2
AcDbDictionaryVar
  3
ObjectDBX Classes
 90
        0
280
     0
281
     0
  0
CLASS
  1
ACIMSYSVARMAN
  2
AcImSysVarManager
  3
AcMeServices
 90
        0
280
     0
281
     0
  0
CLASS
  1
ACIMREALSYSVAR
  2
AcImRealSysVar
  3
AcMeServices
 90
        0
280
     0
281
     0
  0
CLASS
  1
ACIMINTSYSVAR
  2
AcImIntSysVar
  3
AcMeServices
 90
        0
280
     0
281
     0
  0
CLASS
  1
ACMEDRAWINGMAN
  2
AcMeDrawingMan
  3
AcMeServices
 90
        0
280
     0
281
     0
  0
CLASS
  1
ACMEVIEW
  2
AcMeView
  3
AcMeServices
 90
        0
280
     0
281
     0
  0
CLASS
  1
ACDBENTITYCACHE
  2
AcMeEntityCache
  3
AcMeServices
 90
        0
280
     0
281
     0
  0
CLASS
  1
GSMANAGER
  2
AcMeGSManager
  3
AcMeServices
 90
        0
280
     0
281
     0
  0
CLASS
  1
AMDTINTERNALREACTOR
  2
AmdtInternalReactor
  3
AcMeServices
 90
        0
280
     0
281
     0
  0
CLASS
  1
ACMESTATEMGR
  2
AcMeStateMgr
  3
AcMeServices
 90
        0
280
     0
281
     0
  0
CLASS
  1
ACGREFMASTER
  2
AcGrefMaster
  3
AcAttribServices
 90
        0
280
     0
281
     0
  0
CLASS
  1
ACME_DATABASE
  2
AcMeDbDatabase
  3
AcMeServices
 90
        0
280
     0
281
     0
  0
CLASS
  1
ACRFINSADJUSTERMGR
  2
AcRfInsAdjusterMgr
  3
AcMeServices
 90
        0
280
     0
281
     0
  0
CLASS
  1
ACGREFACADMASTER
  2
AcGrefacadMaster
  3
AcGrefServices
 90
        0
280
     0
281
     0
  0
CLASS
  1
AMIMASTER
  2
AmiMaster
  3
AmiServices
 90
        0
280
     0
281
     0
  0
CLASS
  1
ACMDATADICTIONARY
  2
AcmDataDictionary
  3
"AcmSymBB|Product Description: AutoCAD Mechanical 2004 DX|Company: Autodesk"
 90
        0
280
     0
281
     0
  0
CLASS
  1
ACMDATAENTRYBLOCK
  2
AcmDataEntryBlock
  3
"AcmSymBB|Product Description: AutoCAD Mechanical 2004 DX|Company: Autodesk"
 90
        0
280
     0
281
     0
  0
CLASS
  1
ACIMSTRSYSVAR
  2
AcImStrSysVar
  3
AcMeServices
 90
        0
280
     0
281
     0
  0
CLASS
  1
ACMSTANDARDISO
  2
AcmStandardISO
  3
"Amdt_StdImp|Product Description: AutoCAD Mechanical 2004 DX|Company: Autodesk"
 90
        0
280
     0
281
     0
  0
CLASS
  1
AMGOBJPROPCFG
  2
AmgObjPropCfg
  3
"AmgLay|Product Description: AutoCAD Mechanical 2000|Company: Autodesk"
 90
        1
280
     0
281
     0
  0
CLASS
  1
AMDTEDGESTANDARDISO
  2
AmdtEdgeStdISO
  3
"Amdt_StdImp|Product Description: AutoCAD Mechanical 2004 DX|Company: Autodesk"
 90
        0
280
     0
281
     0
  0
CLASS
  1
ACMSURFSTANDARDISO
  2
AcmSurfTextStdISO
  3
"Amdt_StdImp|Product Description: AutoCAD Mechanical 2004 DX|Company: Autodesk"
 90
        0
280
     0
281
     0
  0
CLASS
  1
ACMFCFSTANDARDISO
  2
AcmFCFStdISO
  3
"Amdt_StdImp|Product Description: AutoCAD Mechanical 2004 DX|Company: Autodesk"
 90
        0
280
     0
281
     0
  0
CLASS
  1
ACMWELDSTANDARDISO
  2
AcmWeldingStdISO
  3
"Amdt_StdImp|Product Description: AutoCAD Mechanical 2004 DX|Company: Autodesk"
 90
        0
280
     0
281
     0
  0
CLASS
  1
ACMIDSTANDARDISO
  2
AcmIdStdISO
  3
"Amdt_StdImp|Product Description: AutoCAD Mechanical 2004 DX|Company: Autodesk"
 90
        0
280
     0
281
     0
  0
CLASS
  1
ACMDATUMSTANDARDISO
  2
AcmDatumStdISO
  3
"Amdt_StdImp|Product Description: AutoCAD Mechanical 2004 DX|Company: Autodesk"
 90
        0
280
     0
281
     0
  0
CLASS
  1
ACMBOMSTANDARDISO
  2
AcmBOMStdISO
  3
"Amdt_StdImp|Product Description: AutoCAD Mechanical 2004 DX|Company: Autodesk"
 90
        0
280
     0
281
     0
  0
CLASS
  1
ACMDETAILSTANDARDISO
  2
AmdtDetailSymStdISO
  3
"Amdt_StdImp|Product Description: AutoCAD Mechanical 2004 DX|Company: Autodesk"
 90
        0
280
     0
281
     0
  0
CLASS
  1
ACMSECTIONSTANDARDISO
  2
AmdtSectionSymStdISO
  3
"Amdt_StdImp|Product Description: AutoCAD Mechanical 2004 DX|Company: Autodesk"
 90
        0
280
     0
281
     0
  0
CLASS
  1
ACMCENTERLINESTANDARDISO
  2
AmdtCenterLineStdISO
  3
"Amdt_StdImp|Product Description: AutoCAD Mechanical 2004 DX|Company: Autodesk"
 90
        0
280
     0
281
     0
  0
CLASS
  1
ACAMGLAYSTD
  2
AcAmgLayStd
  3
"AcAmgLayStd|Product Description: AutoCAD Mechanical 2000|Company: Autodesk"
 90
        0
280
     0
281
     0
  0
CLASS
  1
ACAMGDIMSTD
  2
AcAmgDimStd
  3
"AcAmgDimStd|Product Description: AutoCAD Mechanical 2000|Company: Autodesk"
 90
        0
280
     0
281
     0
  0
CLASS
  1
ACAMGTITLESTD
  2
AcAmgTitleStd
  3
"TITLEAPP"
 90
        0
280
     0
281
     0
  0
CLASS
  1
ACAMGFILTERDAT
  2
AcAmgFilterDat
  3
"AcadM|Product Description: AutoCAD Mechanical 2000|Company: Autodesk"
 90
        0
280
     0
281
     0
  0
CLASS
  1
AMDTFORMULAUPDATEDISPATCHER
  2
AmdtFormulaUpdateDispatcher
  3
AcMeServices
 90
        0
280
     0
281
     0
  0
CLASS
  1
LAYER_INDEX
  2
AcDbLayerIndex
  3
ObjectDBX Classes
 90
    32768
280
     0
281
     0
  0
CLASS
  1
IDBUFFER
  2
AcDbIdBuffer
  3
ObjectDBX Classes
 90
    32768
280
     0
281
     0
  0
CLASS
  1
PLOTSETTINGS
  2
AcDbPlotSettings
  3
ObjectDBX Classes
 90
        0
280
     0
281
     0
  0
CLASS
  1
ACMSTANDARDANSI
  2
AcmStandardANSI
  3
"Amdt_StdImp|Product Description: AutoCAD Mechanical 2004 DX|Company: Autodesk"
 90
        0
280
     0
281
     0
  0
CLASS
  1
ACMSURFSTANDARDANSI
  2
AcmSurfTextStdANSI
  3
"Amdt_StdImp|Product Description: AutoCAD Mechanical 2004 DX|Company: Autodesk"
 90
        0
280
     0
281
     0
  0
CLASS
  1
ACMFCFSTANDARDANSI
  2
AcmFCFStdANSI
  3
"Amdt_StdImp|Product Description: AutoCAD Mechanical 2004 DX|Company: Autodesk"
 90
        0
280
     0
281
     0
  0
CLASS
  1
ACMWELDSTANDARDANSI
  2
AcmWeldingStdANSI
  3
"Amdt_StdImp|Product Description: AutoCAD Mechanical 2004 DX|Company: Autodesk"
 90
        0
280
     0
281
     0
  0
CLASS
  1
ACMIDSTANDARDANSI
  2
AcmIdStdANSI
  3
"Amdt_StdImp|Product Description: AutoCAD Mechanical 2004 DX|Company: Autodesk"
 90
        0
280
     0
281
     0
  0
CLASS
  1
ACMDATUMSTANDARDANSI
  2
AcmDatumStdANSI
  3
"Amdt_StdImp|Product Description: AutoCAD Mechanical 2004 DX|Company: Autodesk"
 90
        0
280
     0
281
     0
  0
CLASS
  1
ACMBOMSTANDARDANSI
  2
AcmBOMStdANSI
  3
"Amdt_StdImp|Product Description: AutoCAD Mechanical 2004 DX|Company: Autodesk"
 90
        0
280
     0
281
     0
  0
CLASS
  1
ACMDETAILSTANDARDANSI
  2
AmdtDetailSymStdANSI
  3
"Amdt_StdImp|Product Description: AutoCAD Mechanical 2004 DX|Company: Autodesk"
 90
        0
280
     0
281
     0
  0
CLASS
  1
ACMSECTIONSTANDARDANSI
  2
AmdtSectionSymStdANSI
  3
"Amdt_StdImp|Product Description: AutoCAD Mechanical 2004 DX|Company: Autodesk"
 90
        0
280
     0
281
     0
  0
CLASS
  1
ACMCENTERLINESTANDARDANSI
  2
AmdtCenterLineStdANSI
  3
"Amdt_StdImp|Product Description: AutoCAD Mechanical 2004 DX|Company: Autodesk"
 90
        0
280
     0
281
     0
  0
CLASS
  1
ACMSTANDARDJIS
  2
AcmStandardJIS
  3
"Amdt_StdImp|Product Description: AutoCAD Mechanical 2004 DX|Company: Autodesk"
 90
        0
280
     0
281
     0
  0
CLASS
  1
ACMSURFSTANDARDJIS
  2
AcmSurfTextStdJIS
  3
"Amdt_StdImp|Product Description: AutoCAD Mechanical 2004 DX|Company: Autodesk"
 90
        0
280
     0
281
     0
  0
CLASS
  1
ACMFCFSTANDARDJIS
  2
AcmFCFStdJIS
  3
"Amdt_StdImp|Product Description: AutoCAD Mechanical 2004 DX|Company: Autodesk"
 90
        0
280
     0
281
     0
  0
CLASS
  1
ACMWELDSTANDARDJIS
  2
AcmWeldingStdJIS
  3
"Amdt_StdImp|Product Description: AutoCAD Mechanical 2004 DX|Company: Autodesk"
 90
        0
280
     0
281
     0
  0
CLASS
  1
ACMIDSTANDARDJIS
  2
AcmIdStdJIS
  3
"Amdt_StdImp|Product Description: AutoCAD Mechanical 2004 DX|Company: Autodesk"
 90
        0
280
     0
281
     0
  0
CLASS
  1
ACMDATUMSTANDARDJIS
  2
AcmDatumStdJIS
  3
"Amdt_StdImp|Product Description: AutoCAD Mechanical 2004 DX|Company: Autodesk"
 90
        0
280
     0
281
     0
  0
CLASS
  1
ACMBOMSTANDARDJIS
  2
AcmBOMStdJIS
  3
"Amdt_StdImp|Product Description: AutoCAD Mechanical 2004 DX|Company: Autodesk"
 90
        0
280
     0
281
     0
  0
CLASS
  1
ACMDETAILSTANDARDJIS
  2
AmdtDetailSymStdJIS
  3
"Amdt_StdImp|Product Description: AutoCAD Mechanical 2004 DX|Company: Autodesk"
 90
        0
280
     0
281
     0
  0
CLASS
  1
ACMSECTIONSTANDARDJIS
  2
AmdtSectionSymStdJIS
  3
"Amdt_StdImp|Product Description: AutoCAD Mechanical 2004 DX|Company: Autodesk"
 90
        0
280
     0
281
     0
  0
CLASS
  1
ACMCENTERLINESTANDARDJIS
  2
AmdtCenterLineStdJIS
  3
"Amdt_StdImp|Product Description: AutoCAD Mechanical 2004 DX|Company: Autodesk"
 90
        0
280
     0
281
     0
  0
CLASS
  1
TABLESTYLE
  2
AcDbTableStyle
  3
ObjectDBX Classes
 90
     2047
280
     0
281
     0
  0
CLASS
  1
AM_DRAWING_MGR
  2
AcDmDwgMgr
  3
AcMechDwgViewMgmt
 90
        0
280
     0
281
     0
  0
CLASS
  1
AM_DWG_DOCUMENT
  2
AcDmDwgDocument
  3
AcMechDwgViewMgmt
 90
        0
280
     0
281
     0
  0
CLASS
  1
AM_DWG_SHEET
  2
AcDmSheet
  3
AcMechDwgViewMgmt
 90
        0
280
     0
281
     0
  0
CLASS
  1
AM_VIEWDIMPARMAP
  2
AcDmViewDimParMap
  3
AcMechDwgViewMgmt
 90
        0
280
     0
281
     0
  0
CLASS
  1
AM_DWGMGR_NAME
  2
AcDmDwgMgrName
  3
AcMechDwgViewMgmt
 90
        0
280
     0
281
     0
  0
CLASS
  1
AMDTMENUSTATEMGR
  2
AmdtMenuStateMgr
  3
McadcomServices
 90
        0
280
     0
281
     0
  0
CLASS
  1
AMDTMCOMMENUSTATE
  2
AmdtMcomMenuState
  3
McadcomServices
 90
        0
280
     0
281
     0
  0
CLASS
  1
MAPIAMMOUDLE
  2
MApiAmModule
  3
MApiAmServices
 90
        0
280
     0
281
     0
  0
CLASS
  1
AMDTADMENUSTATE
  2
AmdtAdMenuState
  3
DesignerServices
 90
        0
280
     0
281
     0
  0
CLASS
  1
ADAPPL
  2
AcAdAppl
  3
DesignerServices
 90
        0
280
     0
281
     0
  0
CLASS
  1
DEPMGR
  2
AcAdDepMgr
  3
DesignerServices
 90
        0
280
     0
281
     0
  0
CLASS
  1
PARAMMGR
  2
AcAdParamMgr
  3
DesignerServices
 90
        0
280
     0
281
     0
  0
CLASS
  1
PARAMSCOPE
  2
AcAdParamScope
  3
DesignerServices
 90
        0
280
     0
281
     0
  0
CLASS
  1
NAMEDAPPL
  2
AcAdNamedAppl
  3
DesignerServices
 90
        0
280
     0
281
     0
  0
CLASS
  1
AMDTDMMENUSTATE
  2
AmdtDmMenuState
  3
AcMechDwgViewMgmt
 90
        0
280
     0
281
     0
  0
CLASS
  1
AMDTAMMENUSTATE
  2
AmdtAmMenuState
  3
DesignerAssemblies
 90
        0
280
     0
281
     0
  0
CLASS
  1
ACAMPROJECT
  2
AcAmProject
  3
DesignerAssemblies
 90
        0
280
     0
281
     0
  0
CLASS
  1
ACAMGRCOMPDEF
  2
AcAmGrCompDef
  3
DesignerAssemblies
 90
        0
280
     0
281
     0
  0
CLASS
  1
ACCMCONTEXT
  2
AcCmContext
  3
DesignerAssemblies
 90
        0
280
     0
281
     0
  0
CLASS
  1
ACAMCOMPDEF
  2
AcAmCompDef
  3
DesignerAssemblies
 90
        0
280
     0
281
     0
  0
CLASS
  1
ACAMCOMPDEFMGR
  2
AcAmCompDefMgr
  3
DesignerAssemblies
 90
        0
280
     0
281
     0
  0
CLASS
  1
AMCONTEXTMGR
  2
AcAmContextMgr
  3
DesignerAssemblies
 90
        0
280
     0
281
     0
  0
CLASS
  1
ACAMCONTEXTMODELER
  2
AcAmContextModeler
  3
DesignerAssemblies
 90
        0
280
     0
281
     0
  0
CLASS
  1
ACMTHREADLINESTANDARDISO
  2
AmdtThreadLineStdISO
  3
"Amdt_StdImp|Product Description: AutoCAD Mechanical 2004 DX|Company: Autodesk"
 90
        0
280
     0
281
     0
  0
CLASS
  1
ACMNOTESTANDARDISO
  2
AmdtNoteStdISO
  3
"Amdt_StdImp|Product Description: AutoCAD Mechanical 2004 DX|Company: Autodesk"
 90
        0
280
     0
281
     0
  0
CLASS
  1
AMDTNOTETEMPLATEDB
  2
AmdtNoteTemplateDB
  3
AMDT_STDIMP_MODULE_NAME
 90
        0
280
     0
281
     0
  0
CLASS
  1
ACMTHREADLINESTANDARDANSI
  2
AmdtThreadLineStdANSI
  3
"Amdt_StdImp|Product Description: AutoCAD Mechanical 2004 DX|Company: Autodesk"
 90
        0
280
     0
281
     0
  0
CLASS
  1
ACMNOTESTANDARDANSI
  2
AmdtNoteStdANSI
  3
"Amdt_StdImp|Product Description: AutoCAD Mechanical 2004 DX|Company: Autodesk"
 90
        0
280
     0
281
     0
  0
CLASS
  1
ACMTHREADLINESTANDARDJIS
  2
AmdtThreadLineStdJIS
  3
"Amdt_StdImp|Product Description: AutoCAD Mechanical 2004 DX|Company: Autodesk"
 90
        0
280
     0
281
     0
  0
CLASS
  1
ACMNOTESTANDARDJIS
  2
AmdtNoteStdJIS
  3
"Amdt_StdImp|Product Description: AutoCAD Mechanical 2004 DX|Company: Autodesk"
 90
        0
280
     0
281
     0
  0
CLASS
  1
CATALOGSTATE
  2
AcAmCatalogState
  3
DesignerAssemblies
 90
        0
280
     0
281
     0
  0
CLASS
  1
ACAMGRCOMPDEFSET
  2
AcAmGrCompDefSet
  3
DesignerAssemblies
 90
        0
280
     0
281
     0
  0
CLASS
  1
AMDTBROWSERDBTAB
  2
AmdtBrowserDbTab
  3
McadcomServices
 90
        0
280
     0
281
     0
  0
CLASS
  1
CBROWSERAPPOBJECT
  2
CBrowserAppObject
  3
McadcomServices
 90
        0
280
     0
281
     0
  0
CLASS
  1
DM_PLACEHOLDER
  2
AcDmSelsetPlaceholder
  3
AcMechDwgViewMgmt
 90
        0
280
     0
281
     0
  0
CLASS
  1
DIMASSOC
  2
AcDbDimAssoc
  3
"AcDbDimAssoc|Product Desc:     AcDim ARX App For Dimension|Company:          Autodesk, Inc.|WEB Address:      www.autodesk.com"
 90
    32768
280
     0
281
     0
  0
CLASS
  1
SORTENTSTABLE
  2
AcDbSortentsTable
  3
ObjectDBX Classes
 90
        0
280
     0
281
     0
  0
CLASS
  1
STDPART2D
  2
AmgStdPart
  3
"AmgStdPart|Product Description: AutoCAD Mechanical 2000|Company: Autodesk"
 90
    33791
280
     0
281
     1
  0
CLASS
  1
AMDTNOTE
  2
AmdtNote
  3
"AcmSymBB|Product Description: AutoCAD Mechanical 2004 DX|Company: Autodesk"
 90
    33791
280
     0
281
     1
  0
CLASS
  1
ACMDATUMID
  2
AcmDatumId
  3
"AcmSymBB|Product Description: AutoCAD Mechanical 2004 DX|Company: Autodesk"
 90
    33791
280
     0
281
     1
  0
CLASS
  1
ACRFATTGENMGR
  2
AcRfAttGeneralMgr
  3
AcAttribServices
 90
        0
280
     0
281
     0
  0
ENDSEC
  0
SECTION
  2
TABLES
  0
TABLE
  2
VPORT
  5
8
330
0
100
AcDbSymbolTable
 70
    18
  0
VPORT
  5
4BA4
330
8
100
AcDbSymbolTableRecord
100
AcDbViewportTableRecord
  2
*Active
 70
     0
 10
0.0
 20
0.0
 11
1.0
 21
1.0
 12
535.2347280656506
 22
347.4085249331646
 13
0.0
 23
0.0
 14
7.5
 24
7.5
 15
30.0
 25
30.0
 16
0.0
 26
0.0
 36
1.0
 17
0.0
 27
0.0
 37
0.0
 40
395.8230488312515
 41
1.475550122249388
 42
50.0
 43
0.0
 44
0.0
 50
0.0
 51
0.0
 71
     0
 72
   100
 73
     1
 74
     3
 75
     0
 76
     0
 77
     0
 78
     0
281
     0
 65
     1
110
0.0
120
0.0
130
0.0
111
1.0
121
0.0
131
0.0
112
0.0
122
1.0
132
0.0
 79
     0
146
0.0
  0
ENDTAB
  0
TABLE
  2
LTYPE
  5
5
330
0
100
AcDbSymbolTable
 70
    20
  0
LTYPE
  5
14
330
5
100
AcDbSymbolTableRecord
100
AcDbLinetypeTableRecord
  2
ByBlock
 70
     0
  3

 72
    65
 73
     0
 40
0.0
  0
LTYPE
  5
15
330
5
100
AcDbSymbolTableRecord
100
AcDbLinetypeTableRecord
  2
ByLayer
 70
     0
  3

 72
    65
 73
     0
 40
0.0
  0
LTYPE
  5
16
330
5
100
AcDbSymbolTableRecord
100
AcDbLinetypeTableRecord
  2
Continuous
 70
     0
  3
Solid line
 72
    65
 73
     0
 40
0.0
  0
LTYPE
  5
50
330
5
100
AcDbSymbolTableRecord
100
AcDbLinetypeTableRecord
  2
AM_ISO08W050
 70
     0
  3
____ . ____ . ____ . ____ . ____ . ____ . ____
 72
    65
 73
     4
 40
18.0
 49
12.0
 74
     0
 49
-1.5
 74
     0
 49
3.0
 74
     0
 49
-1.5
 74
     0
  0
LTYPE
  5
6CA
330
5
100
AcDbSymbolTableRecord
100
AcDbLinetypeTableRecord
  2
GEN7
 70
     0
  3
____ . ____ . ____ . ____ . ____ . ____ . ____
 72
    65
 73
     4
 40
14.25
 49
9.75
 74
     0
 49
-1.5
 74
     0
 49
1.5
 74
     0
 49
-1.5
 74
     0
  0
LTYPE
  5
6D8
330
5
100
AcDbSymbolTableRecord
100
AcDbLinetypeTableRecord
  2
GEN7A
 70
     0
  3
__ . __ . __
 72
    65
 73
     4
 40
7.375
 49
4.75
 74
     0
 49
-0.875
 74
     0
 49
0.875
 74
     0
 49
-0.875
 74
     0
  0
ENDTAB
  0
TABLE
  2
LAYER
  5
2
102
{ACAD_XDICTIONARY
360
2D9C
102
}
330
0
100
AcDbSymbolTable
 70
     9
  0
LAYER
  5
10
330
2
100
AcDbSymbolTableRecord
100
AcDbLayerTableRecord
  2
0
 70
     0
 62
     7
  6
Continuous
370
    -3
390
F
  0
LAYER
  5
106
330
2
100
AcDbSymbolTableRecord
100
AcDbLayerTableRecord
  2
AM_5
 70
     0
 62
     2
  6
Continuous
370
    35
390
F
  0
LAYER
  5
124
330
2
100
AcDbSymbolTableRecord
100
AcDbLayerTableRecord
  2
Defpoints
 70
     0
 62
     7
  6
Continuous
290
     0
370
    -3
390
F
  0
LAYER
  5
6FE
330
2
100
AcDbSymbolTableRecord
100
AcDbLayerTableRecord
  2
ﾁｭｳｼﾝｾﾝ
 70
     0
 62
     1
  6
GEN7
370
    -3
390
F
  0
LAYER
  5
6FF
330
2
100
AcDbSymbolTableRecord
100
AcDbLayerTableRecord
  2
ﾁｭｳｼﾝｾﾝ1
 70
     0
 62
     1
  6
GEN7A
370
    -3
390
F
  0
LAYER
  5
71A
330
2
100
AcDbSymbolTableRecord
100
AcDbLayerTableRecord
  2
AM_7
 70
     0
 62
     1
  6
AM_ISO08W050
370
    25
390
F
  0
LAYER
  5
71D
330
2
100
AcDbSymbolTableRecord
100
AcDbLayerTableRecord
  2
AM_0
 70
     0
 62
     7
  6
Continuous
370
    50
390
F
  0
LAYER
  5
1A93
330
2
100
AcDbSymbolTableRecord
100
AcDbLayerTableRecord
  2
図面枠-ｷｲﾛ
 70
     0
 62
     2
  6
Continuous
370
    -3
390
F
  0
ENDTAB
  0
TABLE
  2
STYLE
  5
3
330
0
100
AcDbSymbolTable
 70
     8
  0
STYLE
  5
11
330
3
100
AcDbSymbolTableRecord
100
AcDbTextStyleTableRecord
  2
STANDARD
 70
     0
 40
0.0
 41
0.8299999999999998
 50
0.0
 71
     0
 42
2.5
  3
t.shx
  4
bigfont.shx
  0
ENDTAB
  0
TABLE
  2
VIEW
  5
6
330
0
100
AcDbSymbolTable
 70
     6
  0
VIEW
  5
C2
330
6
100
AcDbSymbolTableRecord
100
AcDbViewTableRecord
  2
AM_VIEW1
 70
     0
 40
277.5000000000001
 10
249.6477900552487
 20
416.2500000000001
 41
499.2955801104973
 11
0.0
 21
0.0
 31
1.0
 12
0.0
 22
0.0
 32
0.0
 42
50.0
 43
0.0
 44
0.0
 50
0.0
 71
     0
281
     0
 72
     0
  0
VIEW
  5
C3
330
6
100
AcDbSymbolTableRecord
100
AcDbViewTableRecord
  2
AM_VIEW2
 70
     0
 40
277.5000000000001
 10
603.8522099447513
 20
416.2500000000001
 41
499.2955801104973
 11
0.0
 21
0.0
 31
1.0
 12
0.0
 22
0.0
 32
0.0
 42
50.0
 43
0.0
 44
0.0
 50
0.0
 71
     0
281
     0
 72
     0
  0
VIEW
  5
C4
330
6
100
AcDbSymbolTableRecord
100
AcDbViewTableRecord
  2
AM_VIEW3
 70
     0
 40
277.5000000000001
 10
249.6477900552487
 20
138.75
 41
499.2955801104973
 11
0.0
 21
0.0
 31
1.0
 12
0.0
 22
0.0
 32
0.0
 42
50.0
 43
0.0
 44
0.0
 50
0.0
 71
     0
281
     0
 72
     0
  0
VIEW
  5
C5
330
6
100
AcDbSymbolTableRecord
100
AcDbViewTableRecord
  2
AM_VIEW4
 70
     0
 40
277.5000000000001
 10
603.8522099447513
 20
138.75
 41
499.2955801104973
 11
0.0
 21
0.0
 31
1.0
 12
0.0
 22
0.0
 32
0.0
 42
50.0
 43
0.0
 44
0.0
 50
0.0
 71
     0
281
     0
 72
     0
  0
VIEW
  5
C6
330
6
100
AcDbSymbolTableRecord
100
AcDbViewTableRecord
  2
AM_VIEW5
 70
     0
 40
277.5000000000001
 10
426.75
 20
277.5000000000001
 41
499.2955801104972
 11
0.0
 21
0.0
 31
1.0
 12
0.0
 22
0.0
 32
0.0
 42
50.0
 43
0.0
 44
0.0
 50
0.0
 71
     0
281
     0
 72
     0
  0
VIEW
  5
C7
330
6
100
AcDbSymbolTableRecord
100
AcDbViewTableRecord
  2
AM_VIEW6
 70
     0
 40
554.9944500000001
 10
426.75
 20
277.5
 41
998.5811743093925
 11
0.0
 21
0.0
 31
1.0
 12
0.0
 22
0.0
 32
0.0
 42
50.0
 43
0.0
 44
0.0
 50
0.0
 71
     0
281
     0
 72
     0
  0
ENDTAB
  0
TABLE
  2
UCS
  5
7
330
0
100
AcDbSymbolTable
 70
     0
  0
ENDTAB
  0
TABLE
  2
APPID
  5
9
330
0
100
AcDbSymbolTable
 70
    95
  0
APPID
  5
12
330
9
100
AcDbSymbolTableRecord
100
AcDbRegAppTableRecord
  2
ACAD
 70
     0
  0
APPID
  5
30
330
9
100
AcDbSymbolTableRecord
100
AcDbRegAppTableRecord
  2
MCAD_NO_VIS
 70
     0
  0
APPID
  5
31
330
9
100
AcDbSymbolTableRecord
100
AcDbRegAppTableRecord
  2
ACAD_TEMP_GRAPHIC
 70
     0
  0
APPID
  5
44
330
9
100
AcDbSymbolTableRecord
100
AcDbRegAppTableRecord
  2
ACATTRIBSERVICES
 70
     0
  0
APPID
  5
8D
330
9
100
AcDbSymbolTableRecord
100
AcDbRegAppTableRecord
  2
GENIUS_GENREC_14
 70
     0
  0
APPID
  5
8E
330
9
100
AcDbSymbolTableRecord
100
AcDbRegAppTableRecord
  2
GENIUS_GENOBJ-N-REC_13
 70
     0
  0
APPID
  5
8F
330
9
100
AcDbSymbolTableRecord
100
AcDbRegAppTableRecord
  2
GENIUS_GENODEF_13
 70
     0
  0
APPID
  5
BD
330
9
100
AcDbSymbolTableRecord
100
AcDbRegAppTableRecord
  2
GENIUS_GENOLIS_13
 70
     0
  0
APPID
  5
BE
330
9
100
AcDbSymbolTableRecord
100
AcDbRegAppTableRecord
  2
GENIUS_GENOBJ-N-TIT_13
 70
     0
  0
APPID
  5
BF
330
9
100
AcDbSymbolTableRecord
100
AcDbRegAppTableRecord
  2
GENIUS_GENOENT_13
 70
     0
  0
APPID
  5
C0
330
9
100
AcDbSymbolTableRecord
100
AcDbRegAppTableRecord
  2
GENIUS_GENTITLE_13
 70
     0
  0
APPID
  5
C1
330
9
100
AcDbSymbolTableRecord
100
AcDbRegAppTableRecord
  2
GENIUS_GENOREF_13
 70
     0
  0
APPID
  5
C8
330
9
100
AcDbSymbolTableRecord
100
AcDbRegAppTableRecord
  2
GENIUS_GENSCREG_15
 70
     0
  0
APPID
  5
C9
330
9
100
AcDbSymbolTableRecord
100
AcDbRegAppTableRecord
  2
GENIUS_GENOBJ-N-SDF_13
 70
     0
  0
APPID
  5
103
330
9
100
AcDbSymbolTableRecord
100
AcDbRegAppTableRecord
  2
GENIUS_GENFIL_13
 70
     0
  0
APPID
  5
104
330
9
100
AcDbSymbolTableRecord
100
AcDbRegAppTableRecord
  2
GENIUS_GENOBJ-N-CHA_13
 70
     0
  0
APPID
  5
13E
330
9
100
AcDbSymbolTableRecord
100
AcDbRegAppTableRecord
  2
GENIUS_GENDTOL_13
 70
     0
  0
APPID
  5
187
330
9
100
AcDbSymbolTableRecord
100
AcDbRegAppTableRecord
  2
GENIUS_GENOBJ-N-FIL_13
 70
     0
  0
APPID
  5
75A
330
9
100
AcDbSymbolTableRecord
100
AcDbRegAppTableRecord
  2
AD_DRAW
 70
     0
  0
APPID
  5
75B
330
9
100
AcDbSymbolTableRecord
100
AcDbRegAppTableRecord
  2
DESIGNERASSEMBLIES
 70
     0
  0
APPID
  5
75C
330
9
100
AcDbSymbolTableRecord
100
AcDbRegAppTableRecord
  2
ASURF_PCURVE_APPNAME
 70
     0
  0
APPID
  5
75D
330
9
100
AcDbSymbolTableRecord
100
AcDbRegAppTableRecord
  2
GENIUS_GE3SECT_13
 70
     0
  0
APPID
  5
75E
330
9
100
AcDbSymbolTableRecord
100
AcDbRegAppTableRecord
  2
GENIUS_GENCFG_13
 70
     0
  0
APPID
  5
75F
330
9
100
AcDbSymbolTableRecord
100
AcDbRegAppTableRecord
  2
GENIUS_GE3CFG0_13
 70
     0
  0
APPID
  5
760
330
9
100
AcDbSymbolTableRecord
100
AcDbRegAppTableRecord
  2
GENIUS_GENCFG0_13
 70
     0
  0
APPID
  5
761
330
9
100
AcDbSymbolTableRecord
100
AcDbRegAppTableRecord
  2
GENIUS_GENCFG1_13
 70
     0
  0
APPID
  5
762
330
9
100
AcDbSymbolTableRecord
100
AcDbRegAppTableRecord
  2
GENIUS_GENCFG2_13
 70
     0
  0
APPID
  5
763
330
9
100
AcDbSymbolTableRecord
100
AcDbRegAppTableRecord
  2
GENIUS_GENCFG3_13
 70
     0
  0
APPID
  5
764
330
9
100
AcDbSymbolTableRecord
100
AcDbRegAppTableRecord
  2
GENIUS_GENCFG4_13
 70
     0
  0
APPID
  5
765
330
9
100
AcDbSymbolTableRecord
100
AcDbRegAppTableRecord
  2
GENIUS_GEVCFG0_13
 70
     0
  0
APPID
  5
766
330
9
100
AcDbSymbolTableRecord
100
AcDbRegAppTableRecord
  2
GENIUS_GENHINW_13
 70
     0
  0
APPID
  5
767
330
9
100
AcDbSymbolTableRecord
100
AcDbRegAppTableRecord
  2
GENIUS_FIRSTVISTXT_14
 70
     0
  0
APPID
  5
768
330
9
100
AcDbSymbolTableRecord
100
AcDbRegAppTableRecord
  2
GENIUS_GENOBJ-N-LEADER_13
 70
     0
  0
APPID
  5
769
330
9
100
AcDbSymbolTableRecord
100
AcDbRegAppTableRecord
  2
GEV_VCCNULL_SWITCH_OFF
 70
     0
  0
APPID
  5
76A
330
9
100
AcDbSymbolTableRecord
100
AcDbRegAppTableRecord
  2
GENIUS_GEFCFG0_13
 70
     0
  0
APPID
  5
76B
330
9
100
AcDbSymbolTableRecord
100
AcDbRegAppTableRecord
  2
GENIUS_GENZVEED_13
 70
     0
  0
APPID
  5
76C
330
9
100
AcDbSymbolTableRecord
100
AcDbRegAppTableRecord
  2
GENIUS_GENSCREG_13
 70
     0
  0
APPID
  5
76D
330
9
100
AcDbSymbolTableRecord
100
AcDbRegAppTableRecord
  2
GENIUS_DUMCFG0_13
 70
     0
  0
APPID
  5
76E
330
9
100
AcDbSymbolTableRecord
100
AcDbRegAppTableRecord
  2
GEVID936201362
 70
     0
  0
APPID
  5
76F
330
9
100
AcDbSymbolTableRecord
100
AcDbRegAppTableRecord
  2
GEVDC
 70
     0
  0
APPID
  5
770
330
9
100
AcDbSymbolTableRecord
100
AcDbRegAppTableRecord
  2
GEVCON
 70
     0
  0
APPID
  5
771
330
9
100
AcDbSymbolTableRecord
100
AcDbRegAppTableRecord
  2
VCC
 70
     0
  0
APPID
  5
772
330
9
100
AcDbSymbolTableRecord
100
AcDbRegAppTableRecord
  2
GEVPT
 70
     0
  0
APPID
  5
773
330
9
100
AcDbSymbolTableRecord
100
AcDbRegAppTableRecord
  2
GEVIT
 70
     0
  0
APPID
  5
774
330
9
100
AcDbSymbolTableRecord
100
AcDbRegAppTableRecord
  2
GENBH
 70
     0
  0
APPID
  5
775
330
9
100
AcDbSymbolTableRecord
100
AcDbRegAppTableRecord
  2
GEVMK
 70
     0
  0
APPID
  5
776
330
9
100
AcDbSymbolTableRecord
100
AcDbRegAppTableRecord
  2
GENIUS_GENBH_13
 70
     0
  0
APPID
  5
777
330
9
100
AcDbSymbolTableRecord
100
AcDbRegAppTableRecord
  2
GENIUS_GENOBJ-NBEHI-BHF_13
 70
     0
  0
APPID
  5
778
330
9
100
AcDbSymbolTableRecord
100
AcDbRegAppTableRecord
  2
GENIUS_GENOBJ-NBEHI-BHB_13
 70
     0
  0
APPID
  5
779
330
9
100
AcDbSymbolTableRecord
100
AcDbRegAppTableRecord
  2
GENIUS_GENOBJ-F-DESC_13
 70
     0
  0
APPID
  5
77A
330
9
100
AcDbSymbolTableRecord
100
AcDbRegAppTableRecord
  2
GENIUS_GEFDESC_14
 70
     0
  0
APPID
  5
77B
330
9
100
AcDbSymbolTableRecord
100
AcDbRegAppTableRecord
  2
GENIUS_GENOBJ-F-PART_13
 70
     0
  0
APPID
  5
77C
330
9
100
AcDbSymbolTableRecord
100
AcDbRegAppTableRecord
  2
GENIUS_GEFSTDP_13
 70
     0
  0
APPID
  5
77D
330
9
100
AcDbSymbolTableRecord
100
AcDbRegAppTableRecord
  2
GENIUS_GEFPARTINS_13
 70
     0
  0
APPID
  5
77E
330
9
100
AcDbSymbolTableRecord
100
AcDbRegAppTableRecord
  2
GENIUS_GENTRA_14
 70
     0
  0
APPID
  5
77F
330
9
100
AcDbSymbolTableRecord
100
AcDbRegAppTableRecord
  2
GENIUS_GENINF13_13
 70
     0
  0
APPID
  5
780
330
9
100
AcDbSymbolTableRecord
100
AcDbRegAppTableRecord
  2
GENIUS_GENOBJ-N-INFOPT_13
 70
     0
  0
APPID
  5
781
330
9
100
AcDbSymbolTableRecord
100
AcDbRegAppTableRecord
  2
GENIUS_GENOBJ-N-RSSYM_13
 70
     0
  0
APPID
  5
782
330
9
100
AcDbSymbolTableRecord
100
AcDbRegAppTableRecord
  2
GENIUS_GENSYMENT_13
 70
     0
  0
APPID
  5
783
330
9
100
AcDbSymbolTableRecord
100
AcDbRegAppTableRecord
  2
GENIUS_GENSCSYM_13
 70
     0
  0
APPID
  5
784
330
9
100
AcDbSymbolTableRecord
100
AcDbRegAppTableRecord
  2
GENIUS_GEFINFNAM_13
 70
     0
  0
APPID
  5
785
330
9
100
AcDbSymbolTableRecord
100
AcDbRegAppTableRecord
  2
GENIUS_GENOBJ-N-CEN_13
 70
     0
  0
APPID
  5
786
330
9
100
AcDbSymbolTableRecord
100
AcDbRegAppTableRecord
  2
GENIUS_GENOBJ-N-CRS_13
 70
     0
  0
APPID
  5
787
330
9
100
AcDbSymbolTableRecord
100
AcDbRegAppTableRecord
  2
GENIUS_GENOBJ-N-CRC_13
 70
     0
  0
APPID
  5
788
330
9
100
AcDbSymbolTableRecord
100
AcDbRegAppTableRecord
  2
GENIUS_GENCRC_14
 70
     0
  0
APPID
  5
789
330
9
100
AcDbSymbolTableRecord
100
AcDbRegAppTableRecord
  2
GEVID942827039
 70
     0
  0
APPID
  5
78A
330
9
100
AcDbSymbolTableRecord
100
AcDbRegAppTableRecord
  2
GEVID942827040
 70
     0
  0
APPID
  5
78B
330
9
100
AcDbSymbolTableRecord
100
AcDbRegAppTableRecord
  2
GEVID942827041
 70
     0
  0
APPID
  5
78C
330
9
100
AcDbSymbolTableRecord
100
AcDbRegAppTableRecord
  2
GENIUS_GENOBJ-F-SCPASSM_13
 70
     0
  0
APPID
  5
78D
330
9
100
AcDbSymbolTableRecord
100
AcDbRegAppTableRecord
  2
GENIUS_GENDIMSH_14
 70
     0
  0
APPID
  5
78E
330
9
100
AcDbSymbolTableRecord
100
AcDbRegAppTableRecord
  2
GEVID942827042
 70
     0
  0
APPID
  5
78F
330
9
100
AcDbSymbolTableRecord
100
AcDbRegAppTableRecord
  2
GEVID946020473
 70
     0
  0
APPID
  5
790
330
9
100
AcDbSymbolTableRecord
100
AcDbRegAppTableRecord
  2
GEVID946020474
 70
     0
  0
APPID
  5
791
330
9
100
AcDbSymbolTableRecord
100
AcDbRegAppTableRecord
  2
GEVID946020475
 70
     0
  0
APPID
  5
792
330
9
100
AcDbSymbolTableRecord
100
AcDbRegAppTableRecord
  2
GENIUS_GENOBJ-N-HTC_13
 70
     0
  0
APPID
  5
793
330
9
100
AcDbSymbolTableRecord
100
AcDbRegAppTableRecord
  2
GENIUS_GENHATCH_13
 70
     0
  0
APPID
  5
794
330
9
100
AcDbSymbolTableRecord
100
AcDbRegAppTableRecord
  2
GEVID948854295
 70
     0
  0
APPID
  5
795
330
9
100
AcDbSymbolTableRecord
100
AcDbRegAppTableRecord
  2
GEVID939402019
 70
     0
  0
APPID
  5
796
330
9
100
AcDbSymbolTableRecord
100
AcDbRegAppTableRecord
  2
GEVID952919491
 70
     0
  0
APPID
  5
797
330
9
100
AcDbSymbolTableRecord
100
AcDbRegAppTableRecord
  2
GEVID952919492
 70
     0
  0
APPID
  5
798
330
9
100
AcDbSymbolTableRecord
100
AcDbRegAppTableRecord
  2
GENIUS_GEFWELD_13
 70
     0
  0
APPID
  5
799
330
9
100
AcDbSymbolTableRecord
100
AcDbRegAppTableRecord
  2
GENIUS_GENOBJ-F-WELS_13
 70
     0
  0
APPID
  5
79A
330
9
100
AcDbSymbolTableRecord
100
AcDbRegAppTableRecord
  2
GEVID952919493
 70
     0
  0
APPID
  5
79B
330
9
100
AcDbSymbolTableRecord
100
AcDbRegAppTableRecord
  2
GENIUS_GENOBJ-N-RSBK_13
 70
     0
  0
APPID
  5
79C
330
9
100
AcDbSymbolTableRecord
100
AcDbRegAppTableRecord
  2
GENIUS_GENOBJ-N-LIB_13
 70
     0
  0
APPID
  5
79D
330
9
100
AcDbSymbolTableRecord
100
AcDbRegAppTableRecord
  2
GENIUS_GENSCALE_13
 70
     0
  0
APPID
  5
79E
330
9
100
AcDbSymbolTableRecord
100
AcDbRegAppTableRecord
  2
GEVID986376691
 70
     0
  0
APPID
  5
79F
330
9
100
AcDbSymbolTableRecord
100
AcDbRegAppTableRecord
  2
DCO15
 70
     0
  0
APPID
  5
1A97
330
9
100
AcDbSymbolTableRecord
100
AcDbRegAppTableRecord
  2
GEVID988070561
 70
     0
  0
APPID
  5
1A98
330
9
100
AcDbSymbolTableRecord
100
AcDbRegAppTableRecord
  2
GEVID988070562
 70
     0
  0
APPID
  5
1A99
330
9
100
AcDbSymbolTableRecord
100
AcDbRegAppTableRecord
  2
GEVID988070563
 70
     0
  0
APPID
  5
2201
330
9
100
AcDbSymbolTableRecord
100
AcDbRegAppTableRecord
  2
ACADM_DIM_EDIT
 70
     0
  0
APPID
  5
2202
330
9
100
AcDbSymbolTableRecord
100
AcDbRegAppTableRecord
  2
AMDT_DM_ADJ
 70
     0
  0
APPID
  5
222C
330
9
100
AcDbSymbolTableRecord
100
AcDbRegAppTableRecord
  2
ACAD_PSEXT
 70
     0
  0
APPID
  5
222D
330
9
100
AcDbSymbolTableRecord
100
AcDbRegAppTableRecord
  2
GENIUS_GENCEN_19
 70
     0
  0
ENDTAB
  0
TABLE
  2
DIMSTYLE
  5
A
330
0
100
AcDbSymbolTable
 70
    16
100
AcDbDimStyleTable
 71
     1
340
6C
  0
DIMSTYLE
105
6C
330
A
100
AcDbSymbolTableRecord
100
AcDbDimStyleTableRecord
  2
AM_ISO
 70
     0
  4
"
 41
2.5
 42
1.0
 43
8.0
 44
0.6
 47
0.1
 48
0.1
 73
     0
 74
     0
 77
     1
 78
     8
 79
     2
140
2.5
141
0.0
143
0.0393701
146
0.71
147
0.8
172
     1
176
   256
177
   256
178
     4
271
     2
272
     2
283
     0
284
     8
340
11
371
    -1
372
    -1
  0
DIMSTYLE
105
740
330
A
100
AcDbSymbolTableRecord
100
AcDbDimStyleTableRecord
  2
STANDARD
 70
     0
340
11
  0
ENDTAB
  0
TABLE
  2
BLOCK_RECORD
  5
1
330
0
100
AcDbSymbolTable
 70
     6
  0
BLOCK_RECORD
  5
1F
102
{ACAD_XDICTIONARY
360
CC
102
}
330
1
100
AcDbSymbolTableRecord
100
AcDbBlockTableRecord
  2
*Model_Space
340
22
  0
BLOCK_RECORD
  5
1B
330
1
100
AcDbSymbolTableRecord
100
AcDbBlockTableRecord
  2
*Paper_Space
340
1E
  0
BLOCK_RECORD
  5
23
330
1
100
AcDbSymbolTableRecord
100
AcDbBlockTableRecord
  2
*Paper_Space0
340
26
  0
ENDTAB
  0
ENDSEC
  0
SECTION
  2
BLOCKS
  0
BLOCK
  5
20
330
1F
100
AcDbEntity
  8
0
100
AcDbBlockBegin
  2
*Model_Space
 70
     0
 10
0.0
 20
0.0
 30
0.0
  3
*Model_Space
  1

  0
ENDBLK
  5
21
330
1F
100
AcDbEntity
  8
0
100
AcDbBlockEnd
  0
BLOCK
  5
1C
330
1B
100
AcDbEntity
 67
     1
  8
0
100
AcDbBlockBegin
  2
*Paper_Space
 70
     0
 10
0.0
 20
0.0
 30
0.0
  3
*Paper_Space
  1

  0
ENDBLK
  5
1D
330
1B
100
AcDbEntity
 67
     1
  8
0
100
AcDbBlockEnd
  0
BLOCK
  5
24
330
23
100
AcDbEntity
  8
0
100
AcDbBlockBegin
  2
*Paper_Space0
 70
     0
 10
0.0
 20
0.0
 30
0.0
  3
*Paper_Space0
  1

  0
ENDBLK
  5
25
330
23
100
AcDbEntity
  8
0
100
AcDbBlockEnd
  0
ENDSEC
  0
SECTION
  2
ENTITIES
  0
LINE
  5
3243
330
1F
100
AcDbEntity
  8
AM_0
100
AcDbLine
 10
482.8849922836139
 20
240.3021811576678
 30
0.0
 11
484.8849422836138
 21
240.3021811576678
 31
0.0
  0
LINE
  5
3244
330
1F
100
AcDbEntity
  8
AM_0
100
AcDbLine
 10
482.8849922836139
 20
265.3021771576677
 30
0.0
 11
484.8849422836138
 21
265.3021771576677
 31
0.0
  0
LINE
  5
3245
330
1F
100
AcDbEntity
  8
AM_0
100
AcDbLine
 10
484.8849422836138
 20
264.8021671576677
 30
0.0
 11
524.8849922836138
 21
264.8021671576677
 31
0.0
  0
LINE
  5
3246
330
1F
100
AcDbEntity
  8
AM_0
100
AcDbLine
 10
524.8849922836138
 20
267.8021671576677
 30
0.0
 11
524.8849922836138
 21
240.8021821576678
 31
0.0
  0
LINE
  5
3247
330
1F
100
AcDbEntity
  8
AM_0
100
AcDbLine
 10
484.8849422836138
 20
240.8021821576678
 30
0.0
 11
524.8849922836138
 21
240.8021821576678
 31
0.0
  0
LINE
  5
3248
330
1F
100
AcDbEntity
  8
AM_0
100
AcDbLine
 10
484.8849422836138
 20
265.3021771576677
 30
0.0
 11
484.8849422836138
 21
240.3021811576678
 31
0.0
  0
LINE
  5
3249
330
1F
100
AcDbEntity
  8
ﾁｭｳｼﾝｾﾝ
 48
0.8
100
AcDbLine
 10
528.5974622836138
 20
252.8021821576678
 30
0.0
 11
400.9842662540827
 21
252.8021821576678
 31
0.0
  0
LINE
  5
324B
330
1F
100
AcDbEntity
  8
AM_0
100
AcDbLine
 10
492.8849522836141
 20
267.8021671576677
 30
0.0
 11
492.8849522836141
 21
264.8021671576677
 31
0.0
  0
LINE
  5
3267
330
1F
100
AcDbEntity
  8
AM_0
100
AcDbLine
 10
492.8849522836141
 20
267.8021671576677
 30
0.0
 11
524.8849922836138
 21
267.8021671576677
 31
0.0
  0
LINE
  5
328D
330
1F
100
AcDbEntity
  8
AM_0
100
AcDbLine
 10
417.8849522836141
 20
303.8021971576678
 30
0.0
 11
417.8849522836141
 21
188.6593411576678
 31
0.0
  0
LINE
  5
3959
330
1F
100
AcDbEntity
  8
AM_0
100
AcDbLine
 10
412.885002283614
 20
303.8237426576677
 30
0.0
 11
417.884952283614
 21
303.8237426576677
 31
0.0
  0
LINE
  5
395A
330
1F
100
AcDbEntity
  8
AM_0
100
AcDbLine
 10
380.884962283614
 20
169.3237406576677
 30
0.0
 11
405.8849569548201
 21
168.6690844071697
 31
0.0
  0
LINE
  5
395B
330
1F
100
AcDbEntity
  8
AM_0
100
AcDbLine
 10
405.884952283614
 20
282.3237626576677
 30
0.0
 11
405.884952283614
 21
267.6910706576677
 31
0.0
  0
LINE
  5
395C
330
1F
100
AcDbEntity
  8
AM_0
100
AcDbLine
 10
380.884962283614
 20
296.3237426576677
 30
0.0
 11
408.9373322836141
 21
297.0583226576678
 31
0.0
  0
LINE
  5
395D
330
1F
100
AcDbEntity
  8
AM_0
100
AcDbLine
 10
410.8849622836139
 20
301.8237626576677
 30
0.0
 11
410.8849622836139
 21
286.3237226576678
 31
0.0
  0
LINE
  5
395E
330
1F
100
AcDbEntity
  8
AM_0
100
AcDbLine
 10
405.884952283614
 20
177.1937516576677
 30
0.0
 11
410.364942283614
 21
177.1937516576677
 31
0.0
  0
LINE
  5
395F
330
1F
100
AcDbEntity
  8
AM_0
100
AcDbLine
 10
405.884952283614
 20
265.6910696576677
 30
0.0
 11
410.3256422836141
 21
265.6910696576677
 31
0.0
  0
LINE
  5
3960
330
1F
100
AcDbEntity
  8
AM_0
100
AcDbLine
 10
407.8849622836139
 20
275.2117526576677
 30
0.0
 11
410.8849622836139
 21
275.2117526576677
 31
0.0
  0
LINE
  5
3961
330
1F
100
AcDbEntity
  8
AM_0
100
AcDbLine
 10
407.8849622836139
 20
284.3237426576677
 30
0.0
 11
408.884952283614
 21
284.3237426576677
 31
0.0
  0
LINE
  5
3962
330
1F
100
AcDbEntity
  8
AM_0
100
AcDbLine
 10
405.884952283614
 20
175.1937356576677
 30
0.0
 11
405.8849622136153
 21
161.3236998212123
 31
0.0
  0
LINE
  5
3963
330
1F
100
AcDbEntity
  8
AM_0
100
AcDbLine
 10
410.8849622836139
 20
275.2117526576677
 30
0.0
 11
410.885032213614
 21
163.8237015067335
 31
0.0
  0
LINE
  5
3964
330
1F
100
AcDbEntity
  8
AM_0
100
AcDbLine
 10
380.884962283614
 20
284.3237426576677
 30
0.0
 11
406.8850022836141
 21
284.3237426576677
 31
0.0
  0
LINE
  5
3965
330
1F
100
AcDbEntity
  8
AM_0
100
AcDbLine
 10
380.884962283614
 20
269.9716796576677
 30
0.0
 11
405.884952283614
 21
269.9716796576677
 31
0.0
  0
LINE
  5
3966
330
1F
100
AcDbEntity
  8
AM_0
100
AcDbLine
 10
380.884962283614
 20
195.6758246576677
 30
0.0
 11
410.8849622836139
 21
195.6758246576677
 31
0.0
  0
LINE
  5
3967
330
1F
100
AcDbEntity
  8
AM_0
100
AcDbLine
 10
380.884962283614
 20
181.3237406576677
 30
0.0
 11
410.8849622836139
 21
181.3237406576677
 31
0.0
  0
ARC
  5
3969
330
1F
100
AcDbEntity
  8
AM_0
100
AcDbCircle
 10
412.885002283614
 20
301.8237626576677
 30
0.0
 40
2.00000007
100
AcDbArc
 50
90.00000300000095
 51
180.0000100000009
  0
ARC
  5
396A
330
1F
100
AcDbEntity
  8
AM_0
100
AcDbCircle
 10
408.884952283614
 20
286.3237226576678
 30
0.0
 40
2.00000007
100
AcDbArc
 50
270.0
 51
0.0
  0
ARC
  5
396B
330
1F
100
AcDbEntity
  8
AM_0
100
AcDbCircle
 10
407.8849622836139
 20
282.3237626576677
 30
0.0
 40
2.00000007
100
AcDbArc
 50
90.00000300000095
 51
180.0000100000009
  0
ARC
  5
396C
330
1F
100
AcDbEntity
  8
AM_0
100
AcDbCircle
 10
407.8849622836139
 20
277.2117626576677
 30
0.0
 40
2.00000007
100
AcDbArc
 50
179.999989999999
 51
270.0
  0
ARC
  5
396D
330
1F
100
AcDbEntity
  8
AM_0
100
AcDbCircle
 10
403.8850022836141
 20
267.6910706576677
 30
0.0
 40
2.00000007
100
AcDbArc
 50
270.0
 51
0.0
  0
ARC
  5
396E
330
1F
100
AcDbEntity
  8
AM_0
100
AcDbCircle
 10
403.8850022836141
 20
175.1937356576677
 30
0.0
 40
2.00000007
100
AcDbArc
 50
0.0
 51
90.00000300000095
  0
ARC
  5
396F
330
1F
100
AcDbEntity
  8
AM_0
100
AcDbCircle
 10
408.884952283614
 20
299.0576426576676
 30
0.0
 40
2.00000007
100
AcDbArc
 50
271.4999999999994
 51
0.0
  0
LINE
  5
3983
330
1F
100
AcDbEntity
  8
AM_7
100
AcDbLine
 10
296.3849833632878
 20
232.8021811576677
 30
0.0
 11
412.6693563446615
 21
232.8021811576677
 31
0.0
1001
GENIUS_GENOBJ-N-CEN_13
1002
{
1000
OWNER
1000
GEN
1002
}
1001
GENIUS_GENODEF_13
1002
{
1000
HIER
1070
     0
1002
}
1002
{
1000
MANEDIT
1070
     0
1002
}
1002
{
1000
NOSEL
1070
     0
1002
}
1002
{
1000
BEHIND
1070
     0
1002
}
1002
{
1000
OTHER
1070
     0
1002
}
1002
{
1000
REACTOR
1002
}
1001
GENIUS_GENCEN_19
1002
{
1040
9.0
1002
}
  0
LINE
  5
43C2
330
1F
100
AcDbEntity
  8
AM_0
100
AcDbLine
 10
417.884952283614
 20
303.8237381576676
 30
0.0
 11
417.884952283614
 21
159.3237011576676
 31
0.0
  0
LINE
  5
43C3
330
1F
100
AcDbEntity
  8
AM_0
100
AcDbLine
 10
481.885002283614
 20
291.4483391576677
 30
0.0
 11
481.885002283614
 21
322.8236921576677
 31
0.0
  0
LINE
  5
43C4
330
1F
100
AcDbEntity
  8
AM_0
100
AcDbLine
 10
477.884952283614
 20
264.6266831576677
 30
0.0
 11
481.885002283614
 21
264.6266831576677
 31
0.0
  0
LINE
  5
43C5
330
1F
100
AcDbEntity
  8
AM_0
100
AcDbLine
 10
454.885002283614
 20
266.6685701576676
 30
0.0
 11
469.1157122836139
 21
266.6685701576676
 31
0.0
  0
LINE
  5
43C6
330
1F
100
AcDbEntity
  8
AM_0
100
AcDbLine
 10
467.884962283614
 20
294.7753961576677
 30
0.0
 11
467.884962283614
 21
335.5431221576676
 31
0.0
  0
LINE
  5
43C7
330
1F
100
AcDbEntity
  8
AM_0
100
AcDbLine
 10
477.884952283614
 20
291.4483391576677
 30
0.0
 11
481.885002283614
 21
291.4483391576677
 31
0.0
  0
LINE
  5
43C8
330
1F
100
AcDbEntity
  8
AM_0
100
AcDbLine
 10
481.885002283614
 20
252.8237351576677
 30
0.0
 11
481.885002283614
 21
182.8237031576676
 31
0.0
  0
LINE
  5
43C9
330
1F
100
AcDbEntity
  8
AM_0
100
AcDbLine
 10
481.885002283614
 20
252.8237351576677
 30
0.0
 11
481.885002283614
 21
264.6266831576677
 31
0.0
  0
LINE
  5
43CA
330
1F
100
AcDbEntity
  8
AM_0
100
AcDbLine
 10
477.884952283614
 20
182.8237031576676
 30
0.0
 11
481.885002283614
 21
182.8237031576676
 31
0.0
  0
LINE
  5
43CB
330
1F
100
AcDbEntity
  8
AM_0
100
AcDbLine
 10
482.8849622836139
 20
226.8743951576677
 30
0.0
 11
482.8849622836139
 21
278.8524521576677
 31
0.0
  0
LINE
  5
43CC
330
1F
100
AcDbEntity
  8
AM_0
100
AcDbLine
 10
455.2105022836139
 20
321.8946521576677
 30
0.0
 11
464.989662283614
 21
322.2361421576677
 31
0.0
  0
LINE
  5
43CD
330
1F
100
AcDbEntity
  8
AM_0
100
AcDbLine
 10
469.8151622836141
 20
337.5419021576677
 30
0.0
 11
477.884952283614
 21
337.8237221576677
 31
0.0
  0
LINE
  5
43CE
330
1F
100
AcDbEntity
  8
AM_0
100
AcDbLine
 10
451.885002283614
 20
295.4808731576677
 30
0.0
 11
465.3410522836138
 21
295.4808731576677
 31
0.0
  0
LINE
  5
43CF
330
1F
100
AcDbEntity
  8
AM_0
100
AcDbLine
 10
449.8849622836139
 20
299.0573801576677
 30
0.0
 11
466.214112283614
 21
307.1272031576676
 31
0.0
  0
LINE
  5
43D0
330
1F
100
AcDbEntity
  8
AM_0
100
AcDbLine
 10
417.884952283614
 20
169.9536311576677
 30
0.0
 11
453.884952283614
 21
169.9536311576677
 31
0.0
  0
LINE
  5
43D1
330
1F
100
AcDbEntity
  8
AM_0
100
AcDbLine
 10
477.884952283614
 20
322.8236921576677
 30
0.0
 11
481.885002283614
 21
322.8236921576677
 31
0.0
  0
LINE
  5
43D2
330
1F
100
AcDbEntity
  8
AM_0
100
AcDbLine
 10
449.8849622836139
 20
316.8977021576677
 30
0.0
 11
449.8849622836139
 21
271.6685861576678
 31
0.0
  0
LINE
  5
43D3
330
1F
100
AcDbEntity
  8
AM_0
100
AcDbLine
 10
467.884962283614
 20
172.6042811576677
 30
0.0
 11
467.884962283614
 21
205.6693751576676
 31
0.0
  0
LINE
  5
43D4
330
1F
100
AcDbEntity
  8
AM_0
100
AcDbLine
 10
477.884952283614
 20
170.3236871576677
 30
0.0
 11
477.884952283614
 21
337.8237221576677
 31
0.0
  0
LINE
  5
43D5
330
1F
100
AcDbEntity
  8
AM_0
100
AcDbLine
 10
481.885002283614
 20
281.1361451576677
 30
0.0
 11
482.183112283614
 21
280.7808281576677
 31
0.0
  0
LINE
  5
43D6
330
1F
100
AcDbEntity
  8
AM_0
100
AcDbLine
 10
478.597212283614
 20
285.0543581576677
 30
0.0
 11
481.885002283614
 21
281.1361451576677
 31
0.0
  0
LINE
  5
43D7
330
1F
100
AcDbEntity
  8
AM_0
100
AcDbLine
 10
407.8849622836139
 20
159.3237011576676
 30
0.0
 11
417.884952283614
 21
159.3237011576676
 31
0.0
  0
LINE
  5
43D8
330
1F
100
AcDbEntity
  8
AM_0
100
AcDbLine
 10
412.8850322836139
 20
161.8237031576676
 30
0.0
 11
417.884952283614
 21
161.8237031576676
 31
0.0
  0
LINE
  5
43D9
330
1F
100
AcDbEntity
  8
AM_0
100
AcDbLine
 10
451.3331522836139
 20
292.5524051576677
 30
0.0
 11
468.370452283614
 21
292.5524051576677
 31
0.0
  0
LINE
  5
43DA
330
1F
100
AcDbEntity
  8
AM_0
100
AcDbLine
 10
481.815192283614
 20
186.8261591576677
 30
0.0
 11
481.885002283614
 21
186.8237171576677
 31
0.0
  0
LINE
  5
43DB
330
1F
100
AcDbEntity
  8
AM_0
100
AcDbLine
 10
454.858782283614
 20
174.2338421576677
 30
0.0
 11
467.884962283614
 21
174.5749391576677
 31
0.0
  0
LINE
  5
43DC
330
1F
100
AcDbEntity
  8
AM_0
100
AcDbLine
 10
453.884952283614
 20
173.2341791576676
 30
0.0
 11
453.884952283614
 21
157.8237011576676
 31
0.0
  0
LINE
  5
43DD
330
1F
100
AcDbEntity
  8
AM_0
100
AcDbLine
 10
417.884952283614
 20
159.3237011576676
 30
0.0
 11
453.885012283614
 21
157.8237011576676
 31
0.0
  0
LINE
  5
43DE
330
1F
100
AcDbEntity
  8
AM_0
100
AcDbLine
 10
417.884952283614
 20
281.6207651576677
 30
0.0
 11
448.203222283614
 21
281.6207651576677
 31
0.0
  0
LINE
  5
43DF
330
1F
100
AcDbEntity
  8
AM_0
100
AcDbLine
 10
417.884952283614
 20
303.8237051576678
 30
0.0
 11
446.963472283614
 21
304.5851501576676
 31
0.0
  0
LINE
  5
43E0
330
1F
100
AcDbEntity
  8
AM_0
100
AcDbLine
 10
469.8151622836141
 20
170.6055011576677
 30
0.0
 11
477.884982283614
 21
170.3237021576677
 31
0.0
  0
LINE
  5
43E1
330
1F
100
AcDbEntity
  8
AM_0
100
AcDbLine
 10
471.884952283614
 20
188.5423601576677
 30
0.0
 11
471.884952283614
 21
319.6050521576677
 31
0.0
  0
ARC
  5
43E2
330
1F
100
AcDbEntity
  8
AM_0
100
AcDbCircle
 10
454.885002283614
 20
271.6685861576678
 30
0.0
 40
5.0000001
100
AcDbArc
 50
179.999989999999
 51
270.0
  0
ARC
  5
43E3
330
1F
100
AcDbEntity
  8
AM_0
100
AcDbCircle
 10
476.299092283614
 20
283.1259821576676
 30
0.0
 40
3.0
100
AcDbArc
 50
39.99999900000135
 51
58.08679699999931
  0
ARC
  5
43E4
330
1F
100
AcDbEntity
  8
AM_0
100
AcDbCircle
 10
469.885002283614
 20
335.5431221576676
 30
0.0
 40
2.00000007
100
AcDbArc
 50
91.99999799999892
 51
180.0000100000009
  0
ARC
  5
43E5
330
1F
100
AcDbEntity
  8
AM_0
100
AcDbCircle
 10
479.884962283614
 20
226.8743951576677
 30
0.0
 40
3.0
100
AcDbArc
 50
311.8103099999991
 51
0.0
  0
ARC
  5
43E6
330
1F
100
AcDbEntity
  8
AM_0
100
AcDbCircle
 10
451.885002283614
 20
297.4808711576677
 30
0.0
 40
2.00000007
100
AcDbArc
 50
179.999989999999
 51
270.0
  0
ARC
  5
43E7
330
1F
100
AcDbEntity
  8
AM_0
100
AcDbCircle
 10
468.884952283614
 20
188.5423601576677
 30
0.0
 40
3.0
100
AcDbArc
 50
270.0
 51
0.0
  0
ARC
  5
43E8
330
1F
100
AcDbEntity
  8
AM_0
100
AcDbCircle
 10
464.884962283614
 20
309.8166881576677
 30
0.0
 40
3.0
100
AcDbArc
 50
296.2984300000016
 51
0.0
  0
ARC
  5
43E9
330
1F
100
AcDbEntity
  8
AM_0
100
AcDbCircle
 10
465.3410522836138
 20
292.4808731576677
 30
0.0
 40
3.0
100
AcDbArc
 50
22.4835360000014
 51
90.00000300000095
  0
ARC
  5
43EA
330
1F
100
AcDbEntity
  8
AM_0
100
AcDbCircle
 10
454.885002283614
 20
316.8977021576677
 30
0.0
 40
5.0000001
100
AcDbArc
 50
91.99999799999892
 51
180.0000100000009
  0
ARC
  5
43EB
330
1F
100
AcDbEntity
  8
AM_0
100
AcDbCircle
 10
446.884962283614
 20
307.5841421576677
 30
0.0
 40
3.0
100
AcDbArc
 50
271.4999999999994
 51
0.0
  0
ARC
  5
43EC
330
1F
100
AcDbEntity
  8
AM_0
100
AcDbCircle
 10
464.884962283614
 20
325.2343121576676
 30
0.0
 40
3.0
100
AcDbArc
 50
272.0000000000005
 51
0.0
  0
ARC
  5
43ED
330
1F
100
AcDbEntity
  8
AM_0
100
AcDbCircle
 10
454.885002283614
 20
173.2341791576676
 30
0.0
 40
1.000000019999999
100
AcDbArc
 50
91.50000099999992
 51
180.0000100000009
  0
ARC
  5
43EE
330
1F
100
AcDbEntity
  8
AM_0
100
AcDbCircle
 10
479.884962283614
 20
278.8524521576677
 30
0.0
 40
3.0
100
AcDbArc
 50
0.0
 51
39.99999900000135
  0
ARC
  5
43EF
330
1F
100
AcDbEntity
  8
AM_0
100
AcDbCircle
 10
470.8849622836139
 20
205.6693751576676
 30
0.0
 40
3.0
100
AcDbArc
 50
90.00000300000095
 51
180.0000100000009
  0
ARC
  5
43F0
330
1F
100
AcDbEntity
  8
AM_0
100
AcDbCircle
 10
470.8849622836139
 20
294.7753961576677
 30
0.0
 40
3.0
100
AcDbArc
 50
179.999989999999
 51
270.0
  0
ARC
  5
43F1
330
1F
100
AcDbEntity
  8
AM_0
100
AcDbCircle
 10
407.8849622836139
 20
161.3237021576677
 30
0.0
 40
2.00000007
100
AcDbArc
 50
179.999989999999
 51
270.0
  0
ARC
  5
43F2
330
1F
100
AcDbEntity
  8
AM_0
100
AcDbCircle
 10
412.8850322836139
 20
163.8237011576676
 30
0.0
 40
2.00000007
100
AcDbArc
 50
179.999989999999
 51
270.0
  0
ARC
  5
43F3
330
1F
100
AcDbEntity
  8
AM_0
100
AcDbCircle
 10
468.884952283614
 20
319.6050521576677
 30
0.0
 40
3.0
100
AcDbArc
 50
0.0
 51
90.00000300000095
  0
ARC
  5
43F4
330
1F
100
AcDbEntity
  8
AM_0
100
AcDbCircle
 10
469.885002283614
 20
172.6042811576677
 30
0.0
 40
2.00000007
100
AcDbArc
 50
179.999989999999
 51
268.0000100000003
  0
LINE
  5
461F
330
1F
100
AcDbEntity
  8
AM_0
100
AcDbLine
 10
749.5621435972221
 20
277.5460801576679
 30
0.0
 11
746.6871265972222
 21
282.5257561576678
 31
0.0
  0
LINE
  5
4620
330
1F
100
AcDbEntity
  8
AM_0
100
AcDbLine
 10
746.6871415972222
 20
282.5257561576678
 30
0.0
 11
740.9371435972222
 21
282.5257561576678
 31
0.0
  0
LINE
  5
4621
330
1F
100
AcDbEntity
  8
AM_0
100
AcDbLine
 10
738.0621415972221
 20
277.5461101576678
 30
0.0
 11
740.9371435972222
 21
282.5257561576678
 31
0.0
  0
LINE
  5
4622
330
1F
100
AcDbEntity
  8
AM_0
100
AcDbLine
 10
740.9371435972222
 20
272.5664341576679
 30
0.0
 11
738.0621265972222
 21
277.5461101576678
 31
0.0
  0
LINE
  5
4623
330
1F
100
AcDbEntity
  8
AM_0
100
AcDbLine
 10
630.0641995972222
 20
282.5258161576678
 30
0.0
 11
624.3141985972222
 21
282.5258161576678
 31
0.0
  0
LINE
  5
4624
330
1F
100
AcDbEntity
  8
AM_0
100
AcDbLine
 10
746.6871415972222
 20
272.5664641576678
 30
0.0
 11
740.9371435972222
 21
272.5664641576678
 31
0.0
  0
LINE
  5
4625
330
1F
100
AcDbEntity
  8
AM_0
100
AcDbLine
 10
632.9392285972221
 20
277.5461401576678
 30
0.0
 11
630.0641995972222
 21
282.5258161576678
 31
0.0
  0
LINE
  5
4626
330
1F
100
AcDbEntity
  8
AM_0
100
AcDbLine
 10
749.5621435972221
 20
277.5461101576678
 30
0.0
 11
746.6871265972222
 21
272.5664641576678
 31
0.0
  0
LINE
  5
4627
330
1F
100
AcDbEntity
  8
AM_0
100
AcDbLine
 10
621.4391695972222
 20
277.5461701576678
 30
0.0
 11
624.3141685972221
 21
282.5258161576678
 31
0.0
  0
LINE
  5
4628
330
1F
100
AcDbEntity
  8
AM_0
100
AcDbLine
 10
624.3141985972222
 20
272.5664971576678
 30
0.0
 11
621.4391995972222
 21
277.5461701576678
 31
0.0
  0
LINE
  5
4629
330
1F
100
AcDbEntity
  8
AM_0
100
AcDbLine
 10
710.7529225972221
 20
159.9173821576679
 30
0.0
 11
707.8779205972223
 21
164.8970431576678
 31
0.0
  0
LINE
  5
462A
330
1F
100
AcDbEntity
  8
AM_0
100
AcDbLine
 10
707.8779205972223
 20
164.8970431576678
 30
0.0
 11
710.7529225972221
 21
169.8766891576678
 31
0.0
  0
LINE
  5
462B
330
1F
100
AcDbEntity
  8
AM_0
100
AcDbLine
 10
716.5029235972221
 20
159.9174001576678
 30
0.0
 11
710.7529375972221
 21
159.9174001576678
 31
0.0
  0
LINE
  5
462C
330
1F
100
AcDbEntity
  8
AM_0
100
AcDbLine
 10
630.0641995972222
 20
272.5665271576679
 30
0.0
 11
624.3141985972222
 21
272.5665271576679
 31
0.0
  0
LINE
  5
462D
330
1F
100
AcDbEntity
  8
AM_0
100
AcDbLine
 10
663.1233595972222
 20
164.8970281576678
 30
0.0
 11
660.2483575972222
 21
169.8766891576678
 31
0.0
  0
LINE
  5
462E
330
1F
100
AcDbEntity
  8
AM_0
100
AcDbLine
 10
716.5029235972221
 20
169.8766891576678
 30
0.0
 11
710.7529375972221
 21
169.8766891576678
 31
0.0
  0
LINE
  5
462F
330
1F
100
AcDbEntity
  8
AM_0
100
AcDbLine
 10
660.2483575972222
 20
169.8766891576678
 30
0.0
 11
654.4983565972223
 21
169.8766891576678
 31
0.0
  0
LINE
  5
4630
330
1F
100
AcDbEntity
  8
AM_0
100
AcDbLine
 10
719.3779375972221
 20
164.8970281576678
 30
0.0
 11
716.5029385972222
 21
159.9173821576679
 31
0.0
  0
LINE
  5
4631
330
1F
100
AcDbEntity
  8
AM_0
100
AcDbLine
 10
651.6233425972223
 20
164.8970431576678
 30
0.0
 11
654.4983415972222
 21
169.8766891576678
 31
0.0
  0
LINE
  5
4632
330
1F
100
AcDbEntity
  8
AM_0
100
AcDbLine
 10
632.9391985972222
 20
277.5461701576678
 30
0.0
 11
630.0641995972222
 21
272.5665271576679
 31
0.0
  0
LINE
  5
4633
330
1F
100
AcDbEntity
  8
AM_0
100
AcDbLine
 10
663.1233595972222
 20
164.8970281576678
 30
0.0
 11
660.2483575972222
 21
159.9173821576679
 31
0.0
  0
LINE
  5
4634
330
1F
100
AcDbEntity
  8
AM_0
100
AcDbLine
 10
655.5006475972223
 20
337.8021691576678
 30
0.0
 11
612.2312215972222
 21
335.5344991576679
 31
0.0
  0
LINE
  5
4635
330
1F
100
AcDbEntity
  8
AM_0
100
AcDbLine
 10
600.5006515972223
 20
282.8021521576679
 30
0.0
 11
602.7683005972222
 21
326.0715691576678
 31
0.0
  0
LINE
  5
4636
330
1F
100
AcDbEntity
  8
AM_0
100
AcDbLine
 10
647.5006465972221
 20
227.8021651576679
 30
0.0
 11
626.4667555972222
 21
227.8021651576679
 31
0.0
  0
LINE
  5
4637
330
1F
100
AcDbEntity
  8
AM_0
100
AcDbLine
 10
655.5006325972222
 20
337.8021691576678
 30
0.0
 11
685.5006325972222
 21
337.8021691576678
 31
0.0
  0
LINE
  5
4638
330
1F
100
AcDbEntity
  8
AM_0
100
AcDbLine
 10
600.5006515972223
 20
282.8021821576678
 30
0.0
 11
600.5006515972223
 21
252.8021821576678
 31
0.0
  0
LINE
  5
4639
330
1F
100
AcDbEntity
  8
AM_0
100
AcDbLine
 10
629.8224085972222
 20
291.7884811576678
 30
0.0
 11
629.8224085972222
 21
291.7884811576678
 31
0.0
  0
LINE
  5
463A
330
1F
100
AcDbEntity
  8
ﾁｭｳｼﾝｾﾝ1
 48
0.5
100
AcDbLine
 10
608.0540362812633
 20
330.2487376296284
 30
0.0
 11
622.2534998427015
 21
316.0492989627705
 31
0.0
  0
LINE
  5
463B
330
1F
100
AcDbEntity
  8
ﾁｭｳｼﾝｾﾝ1
 48
0.5
100
AcDbLine
 10
607.9211788910349
 20
175.222696750602
 30
0.0
 11
622.5901487602252
 21
189.8916548502512
 31
0.0
  0
LINE
  5
463C
330
1F
100
AcDbEntity
  8
AM_0
100
AcDbLine
 10
652.5006325972221
 20
252.8021821576678
 30
0.0
 11
652.5006325972221
 21
232.8021661576678
 31
0.0
  0
LINE
  5
463D
330
1F
100
AcDbEntity
  8
AM_0
100
AcDbLine
 10
644.5494595972222
 20
174.8021641576678
 30
0.0
 11
726.4518505972222
 21
174.8021641576678
 31
0.0
  0
LINE
  5
463E
330
1F
100
AcDbEntity
  8
AM_0
100
AcDbLine
 10
719.3779225972222
 20
164.8970281576678
 30
0.0
 11
716.5029235972221
 21
169.8766891576678
 31
0.0
  0
LINE
  5
463F
330
1F
100
AcDbEntity
  8
AM_0
100
AcDbLine
 10
660.2483575972222
 20
159.9174001576678
 30
0.0
 11
654.4983565972223
 21
159.9174001576678
 31
0.0
  0
LINE
  5
4640
330
1F
100
AcDbEntity
  8
AM_0
100
AcDbLine
 10
654.4983745972221
 20
159.9173821576679
 30
0.0
 11
651.6233575972222
 21
164.8970431576678
 31
0.0
  0
LINE
  5
4641
330
1F
100
AcDbEntity
  8
AM_0
100
AcDbLine
 10
715.5006475972222
 20
337.8021691576678
 30
0.0
 11
758.7700585972222
 21
335.5345291576678
 31
0.0
  0
LINE
  5
4642
330
1F
100
AcDbEntity
  8
AM_0
100
AcDbLine
 10
770.5006495972222
 20
222.8021521576679
 30
0.0
 11
768.2458885972222
 21
179.7788041576678
 31
0.0
  0
LINE
  5
4643
330
1F
100
AcDbEntity
  8
AM_0
100
AcDbLine
 10
770.5006345972222
 20
282.8021521576679
 30
0.0
 11
768.2329945972222
 21
326.0715691576678
 31
0.0
  0
LINE
  5
4644
330
1F
100
AcDbEntity
  8
AM_0
100
AcDbLine
 10
770.5006345972222
 20
282.8021821576678
 30
0.0
 11
770.5006345972222
 21
252.8021821576678
 31
0.0
  0
LINE
  5
4645
330
1F
100
AcDbEntity
  8
AM_0
100
AcDbLine
 10
752.4385915972223
 20
264.6051301576678
 30
0.0
 11
752.4385915972223
 21
264.6051301576678
 31
0.0
  0
LINE
  5
4646
330
1F
100
AcDbEntity
  8
AM_0
100
AcDbLine
 10
741.1788715972222
 20
291.7884811576678
 30
0.0
 11
741.1788715972222
 21
291.7884811576678
 31
0.0
  0
LINE
  5
4647
330
1F
100
AcDbEntity
  8
AM_0
100
AcDbLine
 10
618.5626735972223
 20
264.6051151576679
 30
0.0
 11
618.5626735972223
 21
264.6051151576679
 31
0.0
  0
LINE
  5
4648
330
1F
100
AcDbEntity
  8
AM_0
100
AcDbLine
 10
737.5006495972222
 20
247.8021661576678
 30
0.0
 11
737.5006495972222
 21
230.8021651576678
 31
0.0
  0
LINE
  5
4649
330
1F
100
AcDbEntity
  8
ﾁｭｳｼﾝｾﾝ1
100
AcDbLine
 10
685.5006325972222
 20
342.0273327472286
 30
0.0
 11
685.5006325972222
 21
150.9388681576678
 31
0.0
  0
LINE
  5
464A
330
1F
100
AcDbEntity
  8
ﾁｭｳｼﾝｾﾝ1
100
AcDbLine
 10
712.0006351972222
 20
232.8021811576678
 30
0.0
 11
659.0006299972221
 21
232.8021811576678
 31
0.0
  0
LINE
  5
464B
330
1F
100
AcDbEntity
  8
AM_0
100
AcDbLine
 10
689.5006165972222
 20
262.8021841576678
 30
0.0
 11
689.5006165972222
 21
269.8021831576678
 31
0.0
  0
LINE
  5
464C
330
1F
100
AcDbEntity
  8
AM_0
100
AcDbLine
 10
729.0499195972222
 20
170.3021491576679
 30
0.0
 11
726.4518355972223
 21
174.8021641576678
 31
0.0
  0
LINE
  5
464D
330
1F
100
AcDbEntity
  8
AM_0
100
AcDbLine
 10
641.9513455972222
 20
170.3021641576678
 30
0.0
 11
644.5494295972222
 21
174.8021641576678
 31
0.0
  0
LINE
  5
464E
330
1F
100
AcDbEntity
  8
AM_0
100
AcDbLine
 10
748.3019185972222
 20
250.8021661576679
 30
0.0
 11
740.5006495972222
 21
250.8021661576679
 31
0.0
  0
LINE
  5
464F
330
1F
100
AcDbEntity
  8
AM_0
100
AcDbLine
 10
748.3019185972222
 20
254.8021681576678
 30
0.0
 11
740.2728955972222
 21
254.8021681576678
 31
0.0
  0
LINE
  5
4650
330
1F
100
AcDbEntity
  8
AM_0
100
AcDbLine
 10
639.3552445972223
 20
295.4120161576678
 30
0.0
 11
658.5758575972222
 21
276.1914031576678
 31
0.0
  0
LINE
  5
4651
330
1F
100
AcDbEntity
  8
AM_0
100
AcDbLine
 10
683.5006465972221
 20
315.6034291576678
 30
0.0
 11
683.5006465972221
 21
307.5744301576678
 31
0.0
  0
LINE
  5
4652
330
1F
100
AcDbEntity
  8
AM_0
100
AcDbLine
 10
687.5006485972221
 20
315.6034291576678
 30
0.0
 11
687.5006485972221
 21
307.5744301576678
 31
0.0
  0
LINE
  5
4653
330
1F
100
AcDbEntity
  8
ﾁｭｳｼﾝｾﾝ1
 48
0.5
100
AcDbLine
 10
750.0625419262428
 20
188.2402445170717
 30
0.0
 11
763.1561724429472
 21
175.1466255146484
 31
0.0
  0
LINE
  5
4654
330
1F
100
AcDbEntity
  8
AM_0
100
AcDbLine
 10
681.5006335972221
 20
262.8021841576678
 30
0.0
 11
681.5006335972221
 21
269.8021831576678
 31
0.0
  0
LINE
  5
4655
330
1F
100
AcDbEntity
  8
AM_0
100
AcDbLine
 10
681.5006335972221
 20
262.8021841576678
 30
0.0
 11
689.5006165972222
 21
262.8021841576678
 31
0.0
  0
LINE
  5
4656
330
1F
100
AcDbEntity
  8
AM_0
100
AcDbLine
 10
723.5006485972222
 20
227.8021651576679
 30
0.0
 11
744.5345245972222
 21
227.8021651576679
 31
0.0
  0
LINE
  5
4657
330
1F
100
AcDbEntity
  8
AM_0
100
AcDbLine
 10
657.3733735972222
 20
157.8970291576679
 30
0.0
 11
713.6279215972222
 21
157.8970291576679
 31
0.0
  0
LINE
  5
4658
330
1F
100
AcDbEntity
  8
AM_0
100
AcDbLine
 10
642.8907685972221
 20
298.9475401576678
 30
0.0
 11
662.1113965972222
 21
279.7269271576678
 31
0.0
  0
LINE
  5
4659
330
1F
100
AcDbEntity
  8
AM_0
100
AcDbLine
 10
681.5006335972221
 20
269.8021831576678
 30
0.0
 11
689.5006165972222
 21
269.8021831576678
 31
0.0
  0
LINE
  5
465A
330
1F
100
AcDbEntity
  8
AM_0
100
AcDbLine
 10
731.6460655972222
 20
295.4120161576678
 30
0.0
 11
712.4254225972222
 21
276.1914031576678
 31
0.0
  0
LINE
  5
465B
330
1F
100
AcDbEntity
  8
AM_0
100
AcDbLine
 10
728.1105115972223
 20
298.9475701576678
 30
0.0
 11
708.8898685972221
 21
279.7269271576678
 31
0.0
  0
LINE
  5
465C
330
1F
100
AcDbEntity
  8
AM_0
100
AcDbLine
 10
622.6993915972221
 20
250.8021661576679
 30
0.0
 11
630.5006305972222
 21
250.8021661576679
 31
0.0
  0
LINE
  5
465D
330
1F
100
AcDbEntity
  8
AM_0
100
AcDbLine
 10
718.5006325972222
 20
252.8021821576678
 30
0.0
 11
718.5006325972222
 21
232.8021661576678
 31
0.0
  0
LINE
  5
465E
330
1F
100
AcDbEntity
  8
AM_0
100
AcDbLine
 10
622.6993915972221
 20
254.8021681576678
 30
0.0
 11
630.7283845972222
 21
254.8021681576678
 31
0.0
  0
LINE
  5
465F
330
1F
100
AcDbEntity
  8
AM_0
100
AcDbLine
 10
633.5006305972221
 20
247.8021661576678
 30
0.0
 11
633.5006305972221
 21
230.8021651576678
 31
0.0
  0
LINE
  5
4660
330
1F
100
AcDbEntity
  8
AM_0
100
AcDbLine
 10
715.5006325972221
 20
337.8021691576678
 30
0.0
 11
685.5006325972222
 21
337.8021691576678
 31
0.0
  0
LINE
  5
4661
330
1F
100
AcDbEntity
  8
ﾁｭｳｼﾝｾﾝ1
 48
0.5
100
AcDbLine
 10
763.6079038195596
 20
330.9093961007732
 30
0.0
 11
748.4309259524767
 21
315.7324423837015
 31
0.0
  0
LINE
  5
4662
330
1F
100
AcDbEntity
  8
AM_0
100
AcDbLine
 10
612.7416895972222
 20
170.3021491576679
 30
0.0
 11
641.9513755972222
 21
170.3021491576679
 31
0.0
  0
LINE
  5
4663
330
1F
100
AcDbEntity
  8
AM_0
100
AcDbLine
 10
729.0499195972222
 20
170.3021491576679
 30
0.0
 11
758.2595905972222
 21
170.3021491576679
 31
0.0
  0
LINE
  5
4664
330
1F
100
AcDbEntity
  8
AM_0
100
AcDbLine
 10
770.5006345972222
 20
222.8021821576678
 30
0.0
 11
770.5006345972222
 21
252.8021821576678
 31
0.0
  0
LINE
  5
4665
330
1F
100
AcDbEntity
  8
AM_0
100
AcDbLine
 10
600.5006515972223
 20
222.8021821576678
 30
0.0
 11
600.5006515972223
 21
252.8021821576678
 31
0.0
  0
LINE
  5
4666
330
1F
100
AcDbEntity
  8
AM_0
100
AcDbLine
 10
600.5006215972222
 20
222.8021521576679
 30
0.0
 11
602.7553915972222
 21
179.7787891576678
 31
0.0
  0
CIRCLE
  5
4667
330
1F
100
AcDbEntity
  8
AM_0
100
AcDbCircle
 10
743.8121275972222
 20
277.5461101576678
 30
0.0
 40
4.979646299999999
  0
CIRCLE
  5
4668
330
1F
100
AcDbEntity
  8
AM_0
100
AcDbCircle
 10
627.1891975972222
 20
277.5461701576678
 30
0.0
 40
4.979646299999999
  0
CIRCLE
  5
4669
330
1F
100
AcDbEntity
  8
AM_0
100
AcDbCircle
 10
657.3733735972222
 20
164.8970431576678
 30
0.0
 40
4.979646299999999
  0
CIRCLE
  5
466A
330
1F
100
AcDbEntity
  8
AM_0
100
AcDbCircle
 10
713.6279215972222
 20
164.8970431576678
 30
0.0
 40
4.979646299999999
  0
ARC
  5
466B
330
1F
100
AcDbEntity
  8
AM_0
100
AcDbCircle
 10
742.6300885972222
 20
291.4961851576679
 30
0.0
 40
3.0
100
AcDbArc
 50
214.1099599999995
 51
274.8431799999998
  0
ARC
  5
466C
330
1F
100
AcDbEntity
  8
AM_0
100
AcDbCircle
 10
685.5006325972222
 20
252.8021821576678
 30
0.0
 40
70.00000199999999
100
AcDbArc
 50
0.0
 51
15.45248699999942
  0
ARC
  5
466D
330
1F
100
AcDbEntity
  8
AM_0
100
AcDbCircle
 10
740.5006495972222
 20
230.8021651576678
 30
0.0
 40
3.0
100
AcDbArc
 50
179.999989999999
 51
270.0
  0
ARC
  5
466E
330
1F
100
AcDbEntity
  8
AM_0
100
AcDbCircle
 10
685.5006325972222
 20
252.8021821576678
 30
0.0
 40
70.00000199999999
100
AcDbArc
 50
164.5475099999992
 51
0.0000100179138904
  0
ARC
  5
466F
330
1F
100
AcDbEntity
  8
AM_0
100
AcDbCircle
 10
733.7673715972222
 20
293.2907401576678
 30
0.0
 40
3.0
100
AcDbArc
 50
39.99161099999826
 51
135.0
  0
ARC
  5
4670
330
1F
100
AcDbEntity
  8
AM_0
100
AcDbCircle
 10
685.5006325972222
 20
252.8021821576678
 30
0.0
 40
66.00000300000001
100
AcDbArc
 50
168.1228399999986
 51
0.0000100179138904
  0
ARC
  5
4671
330
1F
100
AcDbEntity
  8
AM_0
100
AcDbCircle
 10
630.9695635972222
 20
293.4267871576678
 30
0.0
 40
2.00000007
100
AcDbArc
 50
143.3145800000007
 51
235.0000100000003
  0
ARC
  5
4672
330
1F
100
AcDbEntity
  8
AM_0
100
AcDbCircle
 10
713.6279215972222
 20
164.8970431576678
 30
0.0
 40
7.0000008
100
AcDbArc
 50
270.0000200000004
 51
15.08055899999697
  0
ARC
  5
4673
330
1F
100
AcDbEntity
  8
AM_0
100
AcDbCircle
 10
685.5006325972222
 20
232.8021661576678
 30
0.0
 40
71.00000099999999
100
AcDbArc
 50
234.7757899999998
 51
238.4932700000017
  0
ARC
  5
4674
330
1F
100
AcDbEntity
  8
AM_0
100
AcDbCircle
 10
758.2595905972222
 20
180.3021511576679
 30
0.0
 40
10.0000002
100
AcDbArc
 50
270.0
 51
357.0000000000009
  0
ARC
  5
4675
330
1F
100
AcDbEntity
  8
AM_0
100
AcDbCircle
 10
612.7416895972222
 20
180.3021511576679
 30
0.0
 40
10.0000002
100
AcDbArc
 50
183.0000099999998
 51
270.0
  0
ARC
  5
4676
330
1F
100
AcDbEntity
  8
AM_0
100
AcDbCircle
 10
685.5006325972222
 20
252.8021821576678
 30
0.0
 40
26.5000026
100
AcDbArc
 50
90.00000300000095
 51
270.0
  0
ARC
  5
4677
330
1F
100
AcDbEntity
  8
AM_0
100
AcDbCircle
 10
618.2154145972222
 20
262.6355101576678
 30
0.0
 40
2.00000007
100
AcDbArc
 50
79.99999799999949
 51
171.6854100000012
  0
ARC
  5
4678
330
1F
100
AcDbEntity
  8
AM_0
100
AcDbCircle
 10
685.5006325972222
 20
252.8021821576678
 30
0.0
 40
52.00000799999999
100
AcDbArc
 50
5.215907699998194
 51
42.24433400000063
  0
ARC
  5
4679
330
1F
100
AcDbEntity
  8
AM_0
100
AcDbCircle
 10
725.9891905972222
 20
301.0688761576678
 30
0.0
 40
3.0
100
AcDbArc
 50
315.0
 51
50.00838799999826
  0
ARC
  5
467A
330
1F
100
AcDbEntity
  8
AM_0
100
AcDbCircle
 10
685.5006325972222
 20
252.8021821576678
 30
0.0
 40
52.00000799999999
100
AcDbArc
 50
137.755670000002
 51
174.7840899999998
  0
ARC
  5
467B
330
1F
100
AcDbEntity
  8
AM_0
100
AcDbCircle
 10
740.0317315972222
 20
293.4267871576678
 30
0.0
 40
2.00000007
100
AcDbArc
 50
304.9999999999987
 51
36.68541400000176
  0
ARC
  5
467C
330
1F
100
AcDbEntity
  8
AM_0
100
AcDbCircle
 10
685.5006325972222
 20
232.8021661576678
 30
0.0
 40
71.00000099999999
100
AcDbArc
 50
301.5067199999999
 51
305.2242100000001
  0
ARC
  5
467D
330
1F
100
AcDbEntity
  8
AM_0
100
AcDbCircle
 10
685.5006325972222
 20
252.8021821576678
 30
0.0
 40
66.00000300000001
100
AcDbArc
 50
0.0
 51
11.87716200000044
  0
ARC
  5
467E
330
1F
100
AcDbEntity
  8
AM_0
100
AcDbCircle
 10
685.5006325972222
 20
252.8021821576678
 30
0.0
 40
70.00000199999999
100
AcDbArc
 50
30.53462700000029
 51
149.4653699999979
  0
ARC
  5
467F
330
1F
100
AcDbEntity
  8
AM_0
100
AcDbCircle
 10
627.1891975972222
 20
277.5461701576678
 30
0.0
 40
11.0000004
100
AcDbArc
 50
85.15681800000043
 51
228.8560599999996
  0
ARC
  5
4680
330
1F
100
AcDbEntity
  8
AM_0
100
AcDbCircle
 10
753.0234295972222
 20
267.0033391576679
 30
0.0
 40
3.0
100
AcDbArc
 50
131.1439400000004
 51
191.8771600000013
  0
ARC
  5
4681
330
1F
100
AcDbEntity
  8
AM_0
100
AcDbCircle
 10
685.5006325972222
 20
252.8021821576678
 30
0.0
 40
26.5000026
100
AcDbArc
 50
270.0
 51
90.00000300000095
  0
ARC
  5
4682
330
1F
100
AcDbEntity
  8
AM_0
100
AcDbCircle
 10
617.9778655972222
 20
267.0033391576679
 30
0.0
 40
3.0
100
AcDbArc
 50
348.1228399999986
 51
48.85606300000168
  0
ARC
  5
4683
330
1F
100
AcDbEntity
  8
AM_0
100
AcDbCircle
 10
630.9695635972222
 20
293.4267871576678
 30
0.0
 40
2.00000007
100
AcDbArc
 50
235.0000000000013
 51
323.3145900000011
  0
ARC
  5
4684
330
1F
100
AcDbEntity
  8
AM_0
100
AcDbCircle
 10
740.0317315972222
 20
293.4267871576678
 30
0.0
 40
2.00000007
100
AcDbArc
 50
216.6854199999992
 51
304.9999999999987
  0
ARC
  5
4685
330
1F
100
AcDbEntity
  8
AM_0
100
AcDbCircle
 10
743.8120825972222
 20
277.5461701576678
 30
0.0
 40
11.0000004
100
AcDbArc
 50
311.1439400000003
 51
94.84317999999985
  0
ARC
  5
4686
330
1F
100
AcDbEntity
  8
AM_0
100
AcDbCircle
 10
748.3019185972222
 20
257.8021681576678
 30
0.0
 40
3.0
100
AcDbArc
 50
270.0
 51
4.552071399998237
  0
ARC
  5
4687
330
1F
100
AcDbEntity
  8
AM_0
100
AcDbCircle
 10
748.3019185972222
 20
247.8021661576678
 30
0.0
 40
3.0
100
AcDbArc
 50
355.447930000001
 51
90.00000300000095
  0
ARC
  5
4688
330
1F
100
AcDbEntity
  8
AM_0
100
AcDbCircle
 10
680.5006465972221
 20
315.6034291576678
 30
0.0
 40
3.0
100
AcDbArc
 50
0.0
 51
94.55207099999915
  0
ARC
  5
4689
330
1F
100
AcDbEntity
  8
AM_0
100
AcDbCircle
 10
752.7858985972223
 20
262.6355101576678
 30
0.0
 40
2.00000007
100
AcDbArc
 50
8.314587400002103
 51
100.0000000000002
  0
ARC
  5
468A
330
1F
100
AcDbEntity
  8
AM_0
100
AcDbCircle
 10
656.4545485972222
 20
274.0700671576678
 30
0.0
 40
3.0
100
AcDbArc
 50
323.7879399999988
 51
45.00000100000149
  0
ARC
  5
468B
330
1F
100
AcDbEntity
  8
AM_0
100
AcDbCircle
 10
740.2728955972222
 20
257.8021681576678
 30
0.0
 40
3.0
100
AcDbArc
 50
185.2159100000001
 51
270.0
  0
ARC
  5
468C
330
1F
100
AcDbEntity
  8
AM_0
100
AcDbCircle
 10
690.5006485972221
 20
315.6034291576678
 30
0.0
 40
3.0
100
AcDbArc
 50
85.4479269999997
 51
180.0000100000009
  0
ARC
  5
468D
330
1F
100
AcDbEntity
  8
AM_0
100
AcDbCircle
 10
680.5006465972221
 20
307.5744301576678
 30
0.0
 40
3.0
100
AcDbArc
 50
275.21591
 51
0.0
  0
ARC
  5
468E
330
1F
100
AcDbEntity
  8
AM_0
100
AcDbCircle
 10
740.5006495972222
 20
247.8021661576678
 30
0.0
 40
3.0
100
AcDbArc
 50
90.00000300000095
 51
180.0000100000009
  0
ARC
  5
468F
330
1F
100
AcDbEntity
  8
AM_0
100
AcDbCircle
 10
630.5006305972222
 20
247.8021661576678
 30
0.0
 40
3.0
100
AcDbArc
 50
0.0
 51
90.00000300000095
  0
ARC
  5
4690
330
1F
100
AcDbEntity
  8
AM_0
100
AcDbCircle
 10
630.7283845972222
 20
257.8021681576678
 30
0.0
 40
3.0
100
AcDbArc
 50
270.0
 51
354.7840899999999
  0
ARC
  5
4691
330
1F
100
AcDbEntity
  8
AM_0
100
AcDbCircle
 10
690.5006485972221
 20
307.5744301576678
 30
0.0
 40
3.0
100
AcDbArc
 50
179.999989999999
 51
264.78409
  0
ARC
  5
4692
330
1F
100
AcDbEntity
  8
AM_0
100
AcDbCircle
 10
628.3712065972222
 20
291.4961851576679
 30
0.0
 40
3.0
100
AcDbArc
 50
265.1568200000002
 51
325.8900499999997
  0
ARC
  5
4693
330
1F
100
AcDbEntity
  8
AM_0
100
AcDbCircle
 10
752.7858985972223
 20
262.6355101576678
 30
0.0
 40
2.00000007
100
AcDbArc
 50
100.0000000000002
 51
188.3145899999988
  0
ARC
  5
4694
330
1F
100
AcDbEntity
  8
AM_0
100
AcDbCircle
 10
685.5006325972222
 20
252.8021821576678
 30
0.0
 40
66.00000300000001
100
AcDbArc
 50
34.10995399999982
 51
145.8900400000005
  0
ARC
  5
4695
330
1F
100
AcDbEntity
  8
AM_0
100
AcDbCircle
 10
723.5006485972222
 20
232.8021661576678
 30
0.0
 40
5.0000001
100
AcDbArc
 50
179.999989999999
 51
270.0
  0
ARC
  5
4696
330
1F
100
AcDbEntity
  8
AM_0
100
AcDbCircle
 10
647.5006465972221
 20
232.8021661576678
 30
0.0
 40
5.0000001
100
AcDbArc
 50
270.0
 51
0.0
  0
ARC
  5
4697
330
1F
100
AcDbEntity
  8
AM_0
100
AcDbCircle
 10
618.2154145972222
 20
262.6355101576678
 30
0.0
 40
2.00000007
100
AcDbArc
 50
351.6854100000013
 51
79.99999799999949
  0
ARC
  5
4698
330
1F
100
AcDbEntity
  8
AM_0
100
AcDbCircle
 10
744.5345245972222
 20
230.8021651576678
 30
0.0
 40
3.0
100
AcDbArc
 50
270.0
 51
339.5612199999998
  0
ARC
  5
4699
330
1F
100
AcDbEntity
  8
AM_0
100
AcDbCircle
 10
626.4667555972222
 20
230.8021651576678
 30
0.0
 40
3.0
100
AcDbArc
 50
200.4387800000003
 51
270.0
  0
ARC
  5
469A
330
1F
100
AcDbEntity
  8
AM_0
100
AcDbCircle
 10
725.2181335972222
 20
168.0061591576678
 30
0.0
 40
5.0000001
100
AcDbArc
 50
121.5067299999983
 51
195.0163499999971
  0
ARC
  5
469B
330
1F
100
AcDbEntity
  8
AM_0
100
AcDbCircle
 10
657.3733735972222
 20
164.8970431576678
 30
0.0
 40
7.0000008
100
AcDbArc
 50
164.9194400000011
 51
270.0
  0
CIRCLE
  5
469C
330
1F
100
AcDbEntity
  8
AM_5
100
AcDbCircle
 10
685.5006325972222
 20
252.8021821576678
 30
0.0
 40
4.000000199999999
  0
ARC
  5
469D
330
1F
100
AcDbEntity
  8
AM_0
100
AcDbCircle
 10
645.7831315972222
 20
168.0061591576678
 30
0.0
 40
5.0000001
100
AcDbArc
 50
344.9836399999993
 51
56.87254299999818
  0
ARC
  5
469E
330
1F
100
AcDbEntity
  8
AM_0
100
AcDbCircle
 10
685.5006325972222
 20
252.8021821576678
 30
0.0
 40
14.0000013
100
AcDbArc
 50
106.6015399999998
 51
73.39845199999938
  0
ARC
  5
469F
330
1F
100
AcDbEntity
  8
AM_0
100
AcDbCircle
 10
645.0120745972221
 20
301.0688761576678
 30
0.0
 40
3.0
100
AcDbArc
 50
129.9916100000014
 51
225.0
  0
ARC
  5
46A0
330
1F
100
AcDbEntity
  8
AM_0
100
AcDbCircle
 10
714.5467465972221
 20
274.0700671576678
 30
0.0
 40
3.0
100
AcDbArc
 50
135.0
 51
216.2120600000012
  0
ARC
  5
46A1
330
1F
100
AcDbEntity
  8
AM_0
100
AcDbCircle
 10
637.2339385972223
 20
293.2907401576678
 30
0.0
 40
3.0
100
AcDbArc
 50
45.00000100000149
 51
140.0083899999996
  0
ARC
  5
46A2
330
1F
100
AcDbEntity
  8
AM_0
100
AcDbCircle
 10
706.7685625972221
 20
281.8482661576677
 30
0.0
 40
3.0
100
AcDbArc
 50
233.7879399999982
 51
315.0
  0
ARC
  5
46A3
330
1F
100
AcDbEntity
  8
AM_0
100
AcDbCircle
 10
685.5006325972222
 20
252.8021821576678
 30
0.0
 40
52.00000799999999
100
AcDbArc
 50
47.75566499999771
 51
84.78409399999899
  0
ARC
  5
46A4
330
1F
100
AcDbEntity
  8
AM_0
100
AcDbCircle
 10
622.6993915972221
 20
247.8021661576678
 30
0.0
 40
3.0
100
AcDbArc
 50
90.00000300000095
 51
184.552069999999
  0
ARC
  5
46A5
330
1F
100
AcDbEntity
  8
AM_0
100
AcDbCircle
 10
622.6993915972221
 20
257.8021681576678
 30
0.0
 40
3.0
100
AcDbArc
 50
175.447930000001
 51
270.0
  0
ARC
  5
46A6
330
1F
100
AcDbEntity
  8
AM_0
100
AcDbCircle
 10
664.2327325972222
 20
281.8482661576677
 30
0.0
 40
3.0
100
AcDbArc
 50
225.0
 51
306.2120600000018
  0
ARC
  5
46A7
330
1F
100
AcDbEntity
  8
AM_0
100
AcDbCircle
 10
630.5006305972222
 20
230.8021651576678
 30
0.0
 40
3.0
100
AcDbArc
 50
270.0
 51
0.0
  0
ARC
  5
46A8
330
1F
100
AcDbEntity
  8
AM_0
100
AcDbCircle
 10
685.5006325972222
 20
252.8021821576678
 30
0.0
 40
33.0
100
AcDbArc
 50
0.0
 51
180.0000100000009
  0
ARC
  5
46A9
330
1F
100
AcDbEntity
  8
AM_0
100
AcDbCircle
 10
758.2466965972222
 20
325.5482191576678
 30
0.0
 40
10.0000002
100
AcDbArc
 50
3.000000099998847
 51
86.99999900000024
  0
CIRCLE
  5
46AA
330
1F
100
AcDbEntity
  8
AM_0
100
AcDbCircle
 10
756.2113135972222
 20
323.5128391576678
 30
0.0
 40
6.000000299999999
  0
ARC
  5
46AB
330
1F
100
AcDbEntity
  8
ﾁｭｳｼﾝｾﾝ1
 48
0.5
100
AcDbCircle
 10
685.5006325972222
 20
252.8021821576678
 30
0.0
 40
100.000011
100
AcDbArc
 50
37.75737500000177
 51
52.63991600000076
  0
CIRCLE
  5
46AC
330
1F
100
AcDbEntity
  8
AM_0
100
AcDbCircle
 10
614.7899665972222
 20
182.0914711576678
 30
0.0
 40
6.000000299999999
  0
CIRCLE
  5
46AD
330
1F
100
AcDbEntity
  8
AM_0
100
AcDbCircle
 10
756.2113135972222
 20
182.0914711576678
 30
0.0
 40
6.000000299999999
  0
ARC
  5
46AE
330
1F
100
AcDbEntity
  8
ﾁｭｳｼﾝｾﾝ1
 48
0.5
100
AcDbCircle
 10
685.5006325972238
 20
252.8021821576663
 30
0.0
 40
100.0000109999978
100
AcDbArc
 50
304.0479917807953
 51
322.6399200000027
  0
ARC
  5
46AF
330
1F
100
AcDbEntity
  8
AM_0
100
AcDbCircle
 10
612.7545985972221
 20
325.5482191576678
 30
0.0
 40
10.0000002
100
AcDbArc
 50
92.99999900000004
 51
176.9999900000001
  0
CIRCLE
  5
46B0
330
1F
100
AcDbEntity
  8
AM_0
100
AcDbCircle
 10
614.7899665972222
 20
323.5128391576678
 30
0.0
 40
6.000000299999999
  0
ARC
  5
46B1
330
1F
100
AcDbEntity
  8
ﾁｭｳｼﾝｾﾝ1
 48
0.5
100
AcDbCircle
 10
685.5006325972226
 20
252.8021821576672
 30
0.0
 40
100.0000110000008
100
AcDbArc
 50
124.6130529303531
 51
142.6399200000026
  0
ARC
  5
46B2
330
1F
100
AcDbEntity
  8
ﾁｭｳｼﾝｾﾝ1
 48
0.5
100
AcDbCircle
 10
685.5006325972222
 20
252.8021821576678
 30
0.0
 40
100.000011
100
AcDbArc
 50
217.7573800000021
 51
232.6399199999991
  0
CIRCLE
  5
46B3
330
1F
100
AcDbEntity
  8
AM_0
100
AcDbCircle
 10
685.5006325972222
 20
252.8021821576678
 30
0.0
 40
3.0
  0
ARC
  5
46BC
330
1F
100
AcDbEntity
  8
AM_0
100
AcDbCircle
 10
685.500617496957
 20
252.8021821576678
 30
0.0
 40
52.00000799999999
100
AcDbArc
 50
95.21591099999971
 51
132.2443299999958
  0
LINE
  5
47D9
330
1F
100
AcDbEntity
  8
ﾁｭｳｼﾝｾﾝ1
100
AcDbLine
 10
594.1625815972222
 20
252.8021821576678
 30
0.0
 11
774.1142215972222
 21
252.8021821576678
 31
0.0
  0
LINE
  5
4A1C
330
1F
100
AcDbEntity
  8
0
  6
Continuous
 62
     7
100
AcDbLine
 10
417.8849322836141
 20
529.7610922679282
 30
0.0
 11
417.8849322836141
 21
387.7610922679282
 31
0.0
  0
LINE
  5
4A1D
330
1F
100
AcDbEntity
  8
0
  6
Continuous
 62
     7
100
AcDbLine
 10
417.884962283614
 20
387.7611222679283
 30
0.0
 11
412.8326222836141
 21
387.8934122679282
 31
0.0
  0
LINE
  5
4A1E
330
1F
100
AcDbEntity
  8
0
  6
Continuous
 62
     7
100
AcDbLine
 10
417.8849322836141
 20
529.7610922679282
 30
0.0
 11
412.8326222836141
 21
529.6287922679282
 31
0.0
  0
LINE
  5
4A1F
330
1F
100
AcDbEntity
  8
0
  6
Continuous
 62
     7
100
AcDbLine
 10
410.8849622836141
 20
389.8927122679282
 30
0.0
 11
410.8849622836141
 21
527.6294622679281
 31
0.0
  0
LINE
  5
4A21
330
1F
100
AcDbEntity
  8
0
  6
Continuous
 62
     7
100
AcDbLine
 10
406.1247622836142
 20
394.6001722679282
 30
0.0
 11
380.8849922836141
 21
395.2610922679282
 31
0.0
  0
LINE
  5
4A22
330
1F
100
AcDbEntity
  8
0
  6
Continuous
 62
     7
100
AcDbLine
 10
407.884932283614
 20
393.5498122679281
 30
0.0
 11
408.8849622836141
 21
393.5498122679281
 31
0.0
  0
LINE
  5
4A23
330
1F
100
AcDbEntity
  8
0
  6
Continuous
 62
     7
100
AcDbLine
 10
405.8849322836141
 20
395.5498122679281
 30
0.0
 11
405.8849322836141
 21
404.7210522679282
 31
0.0
  0
LINE
  5
4A24
330
1F
100
AcDbEntity
  8
0
  6
Continuous
 62
     7
100
AcDbLine
 10
405.8849322836141
 20
521.9723922679281
 30
0.0
 11
405.8849322836141
 21
512.8011322679281
 31
0.0
  0
LINE
  5
4A25
330
1F
100
AcDbEntity
  8
0
  6
Continuous
 62
     7
100
AcDbLine
 10
406.1247622836142
 20
522.9220422679282
 30
0.0
 11
380.8849922836141
 21
522.2611222679282
 31
0.0
  0
LINE
  5
4A26
330
1F
100
AcDbEntity
  8
0
  6
Continuous
 62
     7
100
AcDbLine
 10
407.884932283614
 20
523.9723922679281
 30
0.0
 11
408.8849622836141
 21
523.9723922679281
 31
0.0
  0
LINE
  5
4A27
330
1F
100
AcDbEntity
  8
0
  6
Continuous
 62
     7
100
AcDbLine
 10
380.8849622836141
 20
406.7210522679282
 30
0.0
 11
410.8849622836141
 21
406.7210522679282
 31
0.0
  0
LINE
  5
4A28
330
1F
100
AcDbEntity
  8
0
  6
Continuous
 62
     7
100
AcDbLine
 10
380.8849622836141
 20
421.6110622679281
 30
0.0
 11
410.8849622836141
 21
421.6110622679281
 31
0.0
  0
LINE
  5
4A29
330
1F
100
AcDbEntity
  8
0
  6
Continuous
 62
     7
100
AcDbLine
 10
380.8849622836141
 20
495.9111122679281
 30
0.0
 11
410.8849622836141
 21
495.9111122679281
 31
0.0
  0
LINE
  5
4A2A
330
1F
100
AcDbEntity
  8
0
  6
Continuous
 62
     7
100
AcDbLine
 10
380.8849622836141
 20
510.8011322679282
 30
0.0
 11
410.8849622836141
 21
510.8011322679282
 31
0.0
  0
LINE
  5
4A2B
330
1F
100
AcDbEntity
  8
0
  6
Continuous
 62
     7
100
AcDbLine
 10
492.8849322836141
 20
462.7610622679282
 30
0.0
 11
524.884932283614
 21
462.7610622679282
 31
0.0
  0
LINE
  5
4A2C
330
1F
100
AcDbEntity
  8
0
  6
Continuous
 62
     7
100
AcDbLine
 10
492.8849322836141
 20
462.7610622679282
 30
0.0
 11
492.8849322836141
 21
454.7610922679282
 31
0.0
  0
LINE
  5
4A2D
330
1F
100
AcDbEntity
  8
0
  6
Continuous
 62
     7
100
AcDbLine
 10
484.8849022836141
 20
446.7610922679281
 30
0.0
 11
524.884932283614
 21
446.7610922679281
 31
0.0
  0
LINE
  5
4A2E
330
1F
100
AcDbEntity
  8
0
  6
Continuous
 62
     7
100
AcDbLine
 10
484.8849022836141
 20
470.7610922679282
 30
0.0
 11
524.884932283614
 21
470.7610922679282
 31
0.0
  0
LINE
  5
4A2F
330
1F
100
AcDbEntity
  8
0
  6
Continuous
 62
     7
100
AcDbLine
 10
484.8849022836141
 20
471.2610622679282
 30
0.0
 11
484.8849022836141
 21
446.2611222679282
 31
0.0
  0
LINE
  5
4A30
330
1F
100
AcDbEntity
  8
0
  6
Continuous
 62
     7
100
AcDbLine
 10
524.884932283614
 20
470.7610922679282
 30
0.0
 11
524.884932283614
 21
446.7610922679281
 31
0.0
  0
LINE
  5
4A31
330
1F
100
AcDbEntity
  8
0
  6
Continuous
 62
     7
100
AcDbLine
 10
482.884932283614
 20
471.2610622679282
 30
0.0
 11
484.8849022836141
 21
471.2610622679282
 31
0.0
  0
LINE
  5
4A32
330
1F
100
AcDbEntity
  8
0
  6
Continuous
 62
     7
100
AcDbLine
 10
482.884932283614
 20
446.2611222679282
 30
0.0
 11
484.8849022836141
 21
446.2611222679282
 31
0.0
  0
LINE
  5
4A33
330
1F
100
AcDbEntity
  8
0
  6
Continuous
 62
     7
100
AcDbLine
 10
492.8849322836141
 20
454.7610922679282
 30
0.0
 11
524.884932283614
 21
454.7610922679282
 31
0.0
  0
LINE
  5
4A34
330
1F
100
AcDbEntity
  8
0
  6
Continuous
 62
     7
100
AcDbLine
 10
450.8849322836143
 20
506.4592122679282
 30
0.0
 11
465.8849322836143
 21
506.4592122679282
 31
0.0
  0
LINE
  5
4A35
330
1F
100
AcDbEntity
  8
0
  6
Continuous
 62
     7
100
AcDbLine
 10
482.884932283614
 20
433.2267522679281
 30
0.0
 11
482.884932283614
 21
484.295392267928
 31
0.0
  0
LINE
  5
4A36
330
1F
100
AcDbEntity
  8
0
  6
Continuous
 62
     7
100
AcDbLine
 10
481.8849922836141
 20
485.2960022679282
 30
0.0
 11
481.9198422836141
 21
485.294782267928
 31
0.0
  0
LINE
  5
4A37
330
1F
100
AcDbEntity
  8
0
  6
Continuous
 62
     7
100
AcDbLine
 10
481.8849322836141
 20
432.2261722679281
 30
0.0
 11
481.9198422836141
 21
432.2274022679282
 31
0.0
  0
LINE
  5
4A38
330
1F
100
AcDbEntity
  8
0
  6
Continuous
 62
     7
100
AcDbLine
 10
469.8151322836142
 20
374.0428922679283
 30
0.0
 11
477.8849322836141
 21
373.7610922679282
 31
0.0
  0
LINE
  5
4A39
330
1F
100
AcDbEntity
  8
0
  6
Continuous
 62
     7
100
AcDbLine
 10
449.8849322836143
 20
529.1500622679282
 30
0.0
 11
449.8849322836143
 21
388.3721122679282
 31
0.0
  0
LINE
  5
4A3A
330
1F
100
AcDbEntity
  8
0
  6
Continuous
 62
     7
100
AcDbLine
 10
452.8064122836141
 20
532.1490622679281
 30
0.0
 11
464.9634522836141
 21
532.4673922679282
 31
0.0
  0
LINE
  5
4A3B
330
1F
100
AcDbEntity
  8
0
  6
Continuous
 62
     7
100
AcDbLine
 10
477.8849322836141
 20
528.7610922679281
 30
0.0
 11
481.8849622836141
 21
528.7610922679281
 31
0.0
  0
LINE
  5
4A3C
330
1F
100
AcDbEntity
  8
0
  6
Continuous
 62
     7
100
AcDbLine
 10
450.8849322836143
 20
411.0629722679282
 30
0.0
 11
465.8849322836143
 21
411.0629722679282
 31
0.0
  0
LINE
  5
4A3D
330
1F
100
AcDbEntity
  8
0
  6
Continuous
 62
     7
100
AcDbLine
 10
477.8849322836141
 20
388.7610922679282
 30
0.0
 11
481.8849622836141
 21
388.7610922679282
 31
0.0
  0
LINE
  5
4A3E
330
1F
100
AcDbEntity
  8
0
  6
Continuous
 62
     7
100
AcDbLine
 10
452.8064422836141
 20
385.3731522679283
 30
0.0
 11
464.9634822836141
 21
385.0548222679283
 31
0.0
  0
LINE
  5
4A3F
330
1F
100
AcDbEntity
  8
0
  6
Continuous
 62
     7
100
AcDbLine
 10
448.9085222836141
 20
386.9486822679282
 30
0.0
 11
417.8849322836141
 21
387.7610922679282
 31
0.0
  0
LINE
  5
4A40
330
1F
100
AcDbEntity
  8
0
  6
Continuous
 62
     7
100
AcDbLine
 10
469.8151022836142
 20
543.4793222679282
 30
0.0
 11
477.8849322836141
 21
543.7611222679282
 31
0.0
  0
LINE
  5
4A41
330
1F
100
AcDbEntity
  8
0
  6
Continuous
 62
     7
100
AcDbLine
 10
467.8849322836141
 20
500.7127522679282
 30
0.0
 11
467.8849322836141
 21
541.4804822679282
 31
0.0
  0
LINE
  5
4A42
330
1F
100
AcDbEntity
  8
0
  6
Continuous
 62
     7
100
AcDbLine
 10
477.8849322836141
 20
373.7610922679282
 30
0.0
 11
477.8849322836141
 21
543.7611222679282
 31
0.0
  0
LINE
  5
4A43
330
1F
100
AcDbEntity
  8
0
  6
Continuous
 62
     7
100
AcDbLine
 10
471.8849322836143
 20
391.9797422679283
 30
0.0
 11
471.8849322836143
 21
525.5424322679282
 31
0.0
  0
LINE
  5
4A44
330
1F
100
AcDbEntity
  8
0
  6
Continuous
 62
     7
100
AcDbLine
 10
465.4277422836141
 20
396.5990122679282
 30
0.0
 11
452.3421122836141
 21
404.3280722679281
 31
0.0
  0
LINE
  5
4A45
330
1F
100
AcDbEntity
  8
0
  6
Continuous
 62
     7
100
AcDbLine
 10
481.8849622836141
 20
528.7610922679281
 30
0.0
 11
481.8849622836141
 21
388.7610922679282
 31
0.0
  0
LINE
  5
4A46
330
1F
100
AcDbEntity
  8
0
  6
Continuous
 62
     7
100
AcDbLine
 10
465.427772283614
 20
517.438942267928
 30
0.0
 11
452.3421122836141
 21
509.7098822679282
 31
0.0
  0
LINE
  5
4A47
330
1F
100
AcDbEntity
  8
0
  6
Continuous
 62
     7
100
AcDbLine
 10
467.8849322836141
 20
416.8094322679281
 30
0.0
 11
467.8849322836141
 21
376.0417022679281
 31
0.0
  0
LINE
  5
4A48
330
1F
100
AcDbEntity
  8
0
  6
Continuous
 62
     7
100
AcDbLine
 10
465.4277422836141
 20
400.0832322679283
 30
0.0
 11
452.3421422836142
 21
407.8122622679281
 31
0.0
  0
LINE
  5
4A49
330
1F
100
AcDbEntity
  8
0
  6
Continuous
 62
     7
100
AcDbLine
 10
465.427772283614
 20
520.9231722679283
 30
0.0
 11
452.3421122836141
 21
513.1941022679281
 31
0.0
  0
LINE
  5
4A4A
330
1F
100
AcDbEntity
  8
0
  6
Continuous
 62
     7
100
AcDbLine
 10
448.908552283614
 20
530.5734622679283
 30
0.0
 11
417.8849322836141
 21
529.7610922679282
 31
0.0
  0
ARC
  5
4A4B
330
1F
100
AcDbEntity
  8
0
  6
Continuous
 62
     7
100
AcDbCircle
 10
412.8849622836142
 20
389.8927122679282
 30
0.0
 40
2.0
100
AcDbArc
 50
180.0000100000009
 51
268.5000000000005
  0
ARC
  5
4A4C
330
1F
100
AcDbEntity
  8
0
  6
Continuous
 62
     7
100
AcDbCircle
 10
412.8849622836142
 20
527.6294622679281
 30
0.0
 40
2.0
100
AcDbArc
 50
91.50000100000154
 51
180.0000100000009
  0
ARC
  5
4A4D
330
1F
100
AcDbEntity
  8
0
  6
Continuous
 62
     7
100
AcDbCircle
 10
407.884932283614
 20
395.5498122679281
 30
0.0
 40
2.0
100
AcDbArc
 50
180.0000100000009
 51
270.0
  0
ARC
  5
4A4E
330
1F
100
AcDbEntity
  8
0
  6
Continuous
 62
     7
100
AcDbCircle
 10
408.8849622836141
 20
391.5498122679281
 30
0.0
 40
2.0
100
AcDbArc
 50
0.0
 51
90.00000300000095
  0
ARC
  5
4A4F
330
1F
100
AcDbEntity
  8
0
  6
Continuous
 62
     7
100
AcDbCircle
 10
408.8849622836141
 20
525.9723922679281
 30
0.0
 40
2.0
100
AcDbArc
 50
270.0
 51
0.0
  0
ARC
  5
4A50
330
1F
100
AcDbEntity
  8
0
  6
Continuous
 62
     7
100
AcDbCircle
 10
407.884932283614
 20
521.9723922679281
 30
0.0
 40
2.0
100
AcDbArc
 50
90.00000300000095
 51
180.0000100000009
  0
ARC
  5
4A51
330
1F
100
AcDbEntity
  8
0
  6
Continuous
 62
     7
100
AcDbCircle
 10
403.884932283614
 20
404.7210522679282
 30
0.0
 40
2.0
100
AcDbArc
 50
0.0
 51
90.00000300000095
  0
ARC
  5
4A52
330
1F
100
AcDbEntity
  8
0
  6
Continuous
 62
     7
100
AcDbCircle
 10
403.884932283614
 20
512.8011322679281
 30
0.0
 40
2.0
100
AcDbArc
 50
270.0
 51
0.0
  0
ARC
  5
4A53
330
1F
100
AcDbEntity
  8
0
  6
Continuous
 62
     7
100
AcDbCircle
 10
492.8849322836141
 20
458.7610622679282
 30
0.0
 40
3.9999962
100
AcDbArc
 50
90.00000300000095
 51
270.0
  0
ARC
  5
4A54
330
1F
100
AcDbEntity
  8
0
  6
Continuous
 62
     7
100
AcDbCircle
 10
481.8849322836141
 20
484.295392267928
 30
0.0
 40
1.0
100
AcDbArc
 50
0.0
 51
87.99999999999965
  0
ARC
  5
4A55
330
1F
100
AcDbEntity
  8
0
  6
Continuous
 62
     7
100
AcDbCircle
 10
481.8849322836141
 20
433.2267522679281
 30
0.0
 40
1.0
100
AcDbArc
 50
272.0000000000004
 51
0.0
  0
ARC
  5
4A56
330
1F
100
AcDbEntity
  8
0
  6
Continuous
 62
     7
100
AcDbCircle
 10
462.884932283614
 20
521.7440622679283
 30
0.0
 40
5.0
100
AcDbArc
 50
300.5682899999989
 51
0.0
  0
ARC
  5
4A57
330
1F
100
AcDbEntity
  8
0
  6
Continuous
 62
     7
100
AcDbCircle
 10
470.884932283614
 20
416.8094322679281
 30
0.0
 40
3.0
100
AcDbArc
 50
90.00000300000095
 51
180.0000100000009
  0
ARC
  5
4A58
330
1F
100
AcDbEntity
  8
0
  6
Continuous
 62
     7
100
AcDbCircle
 10
448.830002283614
 20
533.5724322679282
 30
0.0
 40
3.0
100
AcDbArc
 50
271.4999999999995
 51
312.5181199999989
  0
ARC
  5
4A59
330
1F
100
AcDbEntity
  8
0
  6
Continuous
 62
     7
100
AcDbCircle
 10
452.8849322836141
 20
388.3721122679282
 30
0.0
 40
3.0
100
AcDbArc
 50
179.999989999999
 51
268.5000099999988
  0
ARC
  5
4A5A
330
1F
100
AcDbEntity
  8
0
  6
Continuous
 62
     7
100
AcDbCircle
 10
469.884962283614
 20
376.0417022679281
 30
0.0
 40
2.0
100
AcDbArc
 50
179.999989999999
 51
268.0000099999986
  0
ARC
  5
4A5B
330
1F
100
AcDbEntity
  8
0
  6
Continuous
 62
     7
100
AcDbCircle
 10
452.8849322836141
 20
529.1500622679282
 30
0.0
 40
3.0
100
AcDbArc
 50
91.50000100000154
 51
180.0000100000009
  0
ARC
  5
4A5C
330
1F
100
AcDbEntity
  8
0
  6
Continuous
 62
     7
100
AcDbCircle
 10
464.8849322836141
 20
535.4663522679281
 30
0.0
 40
3.0
100
AcDbArc
 50
271.4999999999995
 51
0.0
  0
ARC
  5
4A5D
330
1F
100
AcDbEntity
  8
0
  6
Continuous
 62
     7
100
AcDbCircle
 10
464.8849322836141
 20
382.0558322679283
 30
0.0
 40
3.0
100
AcDbArc
 50
0.0
 51
88.49999700000074
  0
ARC
  5
4A5E
330
1F
100
AcDbEntity
  8
0
  6
Continuous
 62
     7
100
AcDbCircle
 10
448.830002283614
 20
383.9497222679282
 30
0.0
 40
3.0
100
AcDbArc
 50
47.48195200000163
 51
88.49999700000074
  0
ARC
  5
4A5F
330
1F
100
AcDbEntity
  8
0
  6
Continuous
 62
     7
100
AcDbCircle
 10
469.884962283614
 20
541.4804822679282
 30
0.0
 40
2.0
100
AcDbArc
 50
91.99999800000055
 51
180.0000100000009
  0
ARC
  5
4A60
330
1F
100
AcDbEntity
  8
0
  6
Continuous
 62
     7
100
AcDbCircle
 10
465.8849322836143
 20
409.0629722679282
 30
0.0
 40
2.0
100
AcDbArc
 50
0.0
 51
90.00000300000095
  0
ARC
  5
4A61
330
1F
100
AcDbEntity
  8
0
  6
Continuous
 62
     7
100
AcDbCircle
 10
465.8849322836143
 20
508.4592122679282
 30
0.0
 40
2.0
100
AcDbArc
 50
270.0
 51
0.0
  0
ARC
  5
4A62
330
1F
100
AcDbEntity
  8
0
  6
Continuous
 62
     7
100
AcDbCircle
 10
468.8849322836141
 20
525.5424322679282
 30
0.0
 40
3.0
100
AcDbArc
 50
0.0
 51
90.00000300000095
  0
ARC
  5
4A63
330
1F
100
AcDbEntity
  8
0
  6
Continuous
 62
     7
100
AcDbCircle
 10
470.884932283614
 20
500.7127522679282
 30
0.0
 40
3.0
100
AcDbArc
 50
179.999989999999
 51
270.0
  0
ARC
  5
4A64
330
1F
100
AcDbEntity
  8
0
  6
Continuous
 62
     7
100
AcDbCircle
 10
462.884932283614
 20
392.2938622679282
 30
0.0
 40
5.0
100
AcDbArc
 50
0.0
 51
59.4317090000005
  0
ARC
  5
4A65
330
1F
100
AcDbEntity
  8
0
  6
Continuous
 62
     7
100
AcDbCircle
 10
468.8849322836141
 20
391.9797422679283
 30
0.0
 40
3.0
100
AcDbArc
 50
270.0
 51
0.0
  0
ARC
  5
4A66
330
1F
100
AcDbEntity
  8
0
  6
Continuous
 62
     7
100
AcDbCircle
 10
454.884932283614
 20
408.633162267928
 30
0.0
 40
5.0
100
AcDbArc
 50
179.999989999999
 51
239.431710000001
  0
ARC
  5
4A67
330
1F
100
AcDbEntity
  8
0
  6
Continuous
 62
     7
100
AcDbCircle
 10
462.884932283614
 20
525.2283122679282
 30
0.0
 40
5.0
100
AcDbArc
 50
300.5682899999989
 51
0.0
  0
ARC
  5
4A68
330
1F
100
AcDbEntity
  8
0
  6
Continuous
 62
     7
100
AcDbCircle
 10
454.884932283614
 20
505.404762267928
 30
0.0
 40
5.0
100
AcDbArc
 50
120.5682899999989
 51
180.0000100000009
  0
ARC
  5
4A69
330
1F
100
AcDbEntity
  8
0
  6
Continuous
 62
     7
100
AcDbCircle
 10
454.884932283614
 20
508.8890222679283
 30
0.0
 40
5.0
100
AcDbArc
 50
120.5682899999989
 51
180.0000100000009
  0
ARC
  5
4A6A
330
1F
100
AcDbEntity
  8
0
  6
Continuous
 62
     7
100
AcDbCircle
 10
450.8849322836143
 20
412.0629722679282
 30
0.0
 40
1.0
100
AcDbArc
 50
179.999989999999
 51
270.0
  0
ARC
  5
4A6B
330
1F
100
AcDbEntity
  8
0
  6
Continuous
 62
     7
100
AcDbCircle
 10
450.8849322836143
 20
505.4592122679282
 30
0.0
 40
1.0
100
AcDbArc
 50
90.00000300000095
 51
180.0000100000009
  0
ARC
  5
4A6C
330
1F
100
AcDbEntity
  8
0
  6
Continuous
 62
     7
100
AcDbCircle
 10
454.884932283614
 20
412.117412267928
 30
0.0
 40
5.0
100
AcDbArc
 50
179.999989999999
 51
239.431710000001
  0
ARC
  5
4A6D
330
1F
100
AcDbEntity
  8
0
  6
Continuous
 62
     7
100
AcDbCircle
 10
462.884932283614
 20
395.7781222679283
 30
0.0
 40
5.0
100
AcDbArc
 50
0.0
 51
59.4317090000005
  0
LINE
  5
4A7A
330
1F
100
AcDbEntity
  8
AM_7
100
AcDbLine
 10
296.3849795487173
 20
458.7610875834178
 30
0.0
 11
533.884932283614
 21
458.7610924524384
 31
0.0
1001
GENIUS_GENOBJ-N-CEN_13
1002
{
1000
OWNER
1000
GEN
1002
}
1001
GENIUS_GENODEF_13
1002
{
1000
HIER
1070
     0
1002
}
1002
{
1000
MANEDIT
1070
     0
1002
}
1002
{
1000
NOSEL
1070
     0
1002
}
1002
{
1000
BEHIND
1070
     0
1002
}
1002
{
1000
OTHER
1070
     0
1002
}
1002
{
1000
REACTOR
1002
}
1001
GENIUS_GENCEN_19
1002
{
1040
9.0
1002
}
  0
TEXT
  5
4A83
330
1F
100
AcDbEntity
  8
AM_0
100
AcDbText
 10
603.7979175501776
 20
403.5326309825912
 30
0.0
 40
7.5
  1
ＶＸ０４－０１５～０５０ＨＦ－Ｔ２（Ｔ４）
 41
0.8299999999999998
100
AcDbText
  0
LINE
  5
4B1B
330
1F
100
AcDbEntity
  8
0
  6
Continuous
 62
     7
100
AcDbLine
 10
380.8849922836141
 20
296.8021811576677
 30
0.0
 11
380.8849922836141
 21
168.8021811576678
 31
0.0
  0
LINE
  5
4B1C
330
1F
100
AcDbEntity
  8
0
100
AcDbLine
 10
348.1761314715803
 20
264.2964799294218
 30
0.0
 11
320.4897118533953
 21
263.3296488518833
 31
0.0
  0
ARC
  5
4B1D
330
1F
100
AcDbEntity
  8
0
100
AcDbCircle
 10
320.3850133632878
 20
266.3278213329406
 30
0.0
 40
3.0
100
AcDbArc
 50
180.0
 51
272.0000000000004
1001
GENIUS_GENOBJ-N-FIL_13
1002
{
1000
OWNER
1000
GEN
1002
}
1001
GENIUS_GENODEF_13
1002
{
1000
HIER
1070
     0
1002
}
1002
{
1000
MANEDIT
1070
     0
1002
}
1002
{
1000
NOSEL
1070
     0
1002
}
1002
{
1000
BEHIND
1070
     0
1002
}
1002
{
1000
OTHER
1070
     0
1002
}
1002
{
1000
REACTOR
1002
}
  0
LINE
  5
4B1E
330
1F
100
AcDbEntity
  8
0
100
AcDbLine
 10
372.815193290209
 20
296.5203775671743
 30
0.0
 11
380.8849922836141
 21
296.8021811576677
 31
0.0
  0
LINE
  5
4B1F
330
1F
100
AcDbEntity
  8
0
100
AcDbLine
 10
370.8849922836141
 20
294.5215959131361
 30
0.0
 11
370.8849922836173
 21
171.0827664021994
 31
0.0
  0
ARC
  5
4B20
330
1F
100
AcDbEntity
  8
0
100
AcDbCircle
 10
372.8849922836141
 20
294.5215959131361
 30
0.0
 40
2.0
100
AcDbArc
 50
92.00000000000034
 51
180.0
1001
GENIUS_GENOBJ-N-FIL_13
1002
{
1000
OWNER
1000
GEN
1002
}
1001
GENIUS_GENODEF_13
1002
{
1000
HIER
1070
     0
1002
}
1002
{
1000
MANEDIT
1070
     0
1002
}
1002
{
1000
NOSEL
1070
     0
1002
}
1002
{
1000
BEHIND
1070
     0
1002
}
1002
{
1000
OTHER
1070
     0
1002
}
1002
{
1000
REACTOR
1002
}
  0
ARC
  5
4B21
330
1F
100
AcDbEntity
  8
0
100
AcDbCircle
 10
365.8849922836141
 20
292.3732489695332
 30
0.0
 40
5.0
100
AcDbArc
 50
315.0
 51
0.0
1001
GENIUS_GENOBJ-N-FIL_13
1002
{
1000
OWNER
1000
GEN
1002
}
1001
GENIUS_GENODEF_13
1002
{
1000
HIER
1070
     0
1002
}
1002
{
1000
MANEDIT
1070
     0
1002
}
1002
{
1000
NOSEL
1070
     0
1002
}
1002
{
1000
BEHIND
1070
     0
1002
}
1002
{
1000
OTHER
1070
     0
1002
}
1002
{
1000
REACTOR
1002
}
  0
LINE
  5
4B22
330
1F
100
AcDbEntity
  8
0
100
AcDbLine
 10
346.152680853768
 20
265.5698697278214
 30
0.0
 11
369.4205261895469
 21
288.8377150636005
 31
0.0
  0
ARC
  5
4B23
330
1F
100
AcDbEntity
  8
0
100
AcDbCircle
 10
342.6171469478353
 20
269.1054036337541
 30
0.0
 40
5.0
100
AcDbArc
 50
272.0000000000004
 51
315.0
1001
GENIUS_GENOBJ-N-FIL_13
1002
{
1000
OWNER
1000
GEN
1002
}
1001
GENIUS_GENODEF_13
1002
{
1000
HIER
1070
     0
1002
}
1002
{
1000
MANEDIT
1070
     0
1002
}
1002
{
1000
NOSEL
1070
     0
1002
}
1002
{
1000
BEHIND
1070
     0
1002
}
1002
{
1000
OTHER
1070
     0
1002
}
1002
{
1000
REACTOR
1002
}
  0
LINE
  5
4B24
330
1F
100
AcDbEntity
  8
0
100
AcDbLine
 10
348.1761314715803
 20
201.3078823859136
 30
0.0
 11
320.4897118533954
 21
202.2747134634522
 31
0.0
  0
ARC
  5
4B25
330
1F
100
AcDbEntity
  8
0
100
AcDbCircle
 10
320.3850133632879
 20
199.2765409823949
 30
0.0
 40
3.0
100
AcDbArc
 50
87.99999999999965
 51
180.0
1001
GENIUS_GENOBJ-N-FIL_13
1002
{
1000
OWNER
1000
GEN
1002
}
1001
GENIUS_GENODEF_13
1002
{
1000
HIER
1070
     0
1002
}
1002
{
1000
MANEDIT
1070
     0
1002
}
1002
{
1000
NOSEL
1070
     0
1002
}
1002
{
1000
BEHIND
1070
     0
1002
}
1002
{
1000
OTHER
1070
     0
1002
}
1002
{
1000
REACTOR
1002
}
  0
LINE
  5
4B26
330
1F
100
AcDbEntity
  8
0
100
AcDbLine
 10
372.815193290209
 20
169.0839847481612
 30
0.0
 11
380.8849922836141
 21
168.8021811576678
 31
0.0
  0
ARC
  5
4B27
330
1F
100
AcDbEntity
  8
0
100
AcDbCircle
 10
372.8849922836141
 20
171.0827664021994
 30
0.0
 40
2.0
100
AcDbArc
 50
180.0
 51
267.9999999999997
1001
GENIUS_GENOBJ-N-FIL_13
1002
{
1000
OWNER
1000
GEN
1002
}
1001
GENIUS_GENODEF_13
1002
{
1000
HIER
1070
     0
1002
}
1002
{
1000
MANEDIT
1070
     0
1002
}
1002
{
1000
NOSEL
1070
     0
1002
}
1002
{
1000
BEHIND
1070
     0
1002
}
1002
{
1000
OTHER
1070
     0
1002
}
1002
{
1000
REACTOR
1002
}
  0
ARC
  5
4B28
330
1F
100
AcDbEntity
  8
0
100
AcDbCircle
 10
365.8849922836141
 20
173.2311133458023
 30
0.0
 40
5.0
100
AcDbArc
 50
0.0
 51
45.0
1001
GENIUS_GENOBJ-N-FIL_13
1002
{
1000
OWNER
1000
GEN
1002
}
1001
GENIUS_GENODEF_13
1002
{
1000
HIER
1070
     0
1002
}
1002
{
1000
MANEDIT
1070
     0
1002
}
1002
{
1000
NOSEL
1070
     0
1002
}
1002
{
1000
BEHIND
1070
     0
1002
}
1002
{
1000
OTHER
1070
     0
1002
}
1002
{
1000
REACTOR
1002
}
  0
LINE
  5
4B29
330
1F
100
AcDbEntity
  8
0
100
AcDbLine
 10
346.152680853768
 20
200.0344925875141
 30
0.0
 11
369.4205261895469
 21
176.766647251735
 31
0.0
  0
ARC
  5
4B2A
330
1F
100
AcDbEntity
  8
0
100
AcDbCircle
 10
342.6171469478353
 20
196.4989586815814
 30
0.0
 40
5.0
100
AcDbArc
 50
45.0
 51
87.99999999999965
1001
GENIUS_GENOBJ-N-FIL_13
1002
{
1000
OWNER
1000
GEN
1002
}
1001
GENIUS_GENODEF_13
1002
{
1000
HIER
1070
     0
1002
}
1002
{
1000
MANEDIT
1070
     0
1002
}
1002
{
1000
NOSEL
1070
     0
1002
}
1002
{
1000
BEHIND
1070
     0
1002
}
1002
{
1000
OTHER
1070
     0
1002
}
1002
{
1000
REACTOR
1002
}
  0
ARC
  5
4B2B
330
1F
100
AcDbEntity
  8
図面枠-ｷｲﾛ
100
AcDbCircle
 10
430.7866646468953
 20
232.8021811576678
 30
0.0
 40
81.58989117312721
100
AcDbArc
 50
162.1810811943929
 51
197.8189188056101
  0
ARC
  5
4B2C
330
1F
100
AcDbEntity
  8
図面枠-ｷｲﾛ
100
AcDbCircle
 10
348.3506289550929
 20
206.3048365210091
 30
0.0
 40
5.0
100
AcDbArc
 50
267.9999999999997
 51
17.81891880560702
1001
GENIUS_GENOBJ-N-FIL_13
1002
{
1000
OWNER
1000
GEN
1002
}
1001
GENIUS_GENODEF_13
1002
{
1000
HIER
1070
     0
1002
}
1002
{
1000
MANEDIT
1070
     0
1002
}
1002
{
1000
NOSEL
1070
     0
1002
}
1002
{
1000
BEHIND
1070
     0
1002
}
1002
{
1000
OTHER
1070
     0
1002
}
1002
{
1000
REACTOR
1002
}
  0
ARC
  5
4B2D
330
1F
100
AcDbEntity
  8
図面枠-ｷｲﾛ
100
AcDbCircle
 10
348.3506289550928
 20
259.2995257943264
 30
0.0
 40
5.0
100
AcDbArc
 50
342.181081194393
 51
92.00000000000034
1001
GENIUS_GENODEF_13
1002
{
1000
HIER
1070
     0
1002
}
1002
{
1000
MANEDIT
1070
     0
1002
}
1002
{
1000
NOSEL
1070
     0
1002
}
1002
{
1000
BEHIND
1070
     0
1002
}
1002
{
1000
OTHER
1070
     0
1002
}
1002
{
1000
REACTOR
1002
}
1001
GENIUS_GENOBJ-N-FIL_13
1002
{
1000
OWNER
1000
GEN
1002
}
  0
LINE
  5
4B2E
330
1F
100
AcDbEntity
  8
AM_0
100
AcDbLine
 10
380.8849922836141
 20
296.3021761576678
 30
0.0
 11
380.8849922836141
 21
169.3021171576677
 31
0.0
  0
LINE
  5
4B2F
330
1F
100
AcDbEntity
  8
AM_0
100
AcDbLine
 10
380.8849922836141
 20
284.3021761576677
 30
0.0
 11
370.8849922836143
 21
284.3021761576675
 31
0.0
  0
LINE
  5
4B30
330
1F
100
AcDbEntity
  8
AM_0
100
AcDbLine
 10
380.8849922836141
 20
270.7984891576677
 30
0.0
 11
370.8849922836147
 21
270.7984891576675
 31
0.0
  0
LINE
  5
4B31
330
1F
100
AcDbEntity
  8
AM_0
100
AcDbLine
 10
380.8849922836141
 20
194.8058731576677
 30
0.0
 11
370.8849922836167
 21
194.8058731576674
 31
0.0
  0
LINE
  5
4B32
330
1F
100
AcDbEntity
  8
AM_0
100
AcDbLine
 10
380.8849922836141
 20
181.3021951576677
 30
0.0
 11
370.8849922836171
 21
181.3021951576675
 31
0.0
  0
LINE
  5
4B33
330
1F
100
AcDbEntity
  8
AM_0
100
AcDbLine
 10
380.8849922836141
 20
394.7610893157646
 30
0.0
 11
380.8849922836141
 21
522.7610893157645
 31
0.0
  0
LINE
  5
4B34
330
1F
100
AcDbEntity
  8
0
100
AcDbLine
 10
356.1337512490845
 20
490.5332744266795
 30
0.0
 11
320.4897070012505
 21
489.2885569737471
 31
0.0
  0
ARC
  5
4B35
330
1F
100
AcDbEntity
  8
0
100
AcDbCircle
 10
320.385008511143
 20
492.2867294548043
 30
0.0
 40
3.0
100
AcDbArc
 50
180.0
 51
272.0000000000004
1001
GENIUS_GENOBJ-N-FIL_13
1002
{
1000
OWNER
1000
GEN
1002
}
1001
GENIUS_GENODEF_13
1002
{
1000
HIER
1070
     0
1002
}
1002
{
1000
MANEDIT
1070
     0
1002
}
1002
{
1000
NOSEL
1070
     0
1002
}
1002
{
1000
BEHIND
1070
     0
1002
}
1002
{
1000
OTHER
1070
     0
1002
}
1002
{
1000
REACTOR
1002
}
  0
LINE
  5
4B36
330
1F
100
AcDbEntity
  8
0
100
AcDbLine
 10
356.1337422706664
 20
426.9889045183824
 30
0.0
 11
320.4897070012505
 21
428.2336216577818
 31
0.0
  0
LINE
  5
4B37
330
1F
100
AcDbEntity
  8
0
100
AcDbLine
 10
372.8151894756384
 20
522.4792857252709
 30
0.0
 11
380.8849884690435
 21
522.7610893157644
 31
0.0
  0
LINE
  5
4B38
330
1F
100
AcDbEntity
  8
0
100
AcDbLine
 10
370.8849884690435
 20
520.4805040712326
 30
0.0
 11
370.8849884690467
 21
397.0416734853372
 31
0.0
  0
ARC
  5
4B39
330
1F
100
AcDbEntity
  8
0
100
AcDbCircle
 10
372.8849884690435
 20
520.4805040712326
 30
0.0
 40
2.0
100
AcDbArc
 50
92.00000000000034
 51
180.0
1001
GENIUS_GENOBJ-N-FIL_13
1002
{
1000
OWNER
1000
GEN
1002
}
1001
GENIUS_GENODEF_13
1002
{
1000
HIER
1070
     0
1002
}
1002
{
1000
MANEDIT
1070
     0
1002
}
1002
{
1000
NOSEL
1070
     0
1002
}
1002
{
1000
BEHIND
1070
     0
1002
}
1002
{
1000
OTHER
1070
     0
1002
}
1002
{
1000
REACTOR
1002
}
  0
ARC
  5
4B3A
330
1F
100
AcDbEntity
  8
0
100
AcDbCircle
 10
365.8849884690436
 20
518.3321571276299
 30
0.0
 40
5.0
100
AcDbArc
 50
315.0
 51
0.0
1001
GENIUS_GENOBJ-N-FIL_13
1002
{
1000
OWNER
1000
GEN
1002
}
1001
GENIUS_GENODEF_13
1002
{
1000
HIER
1070
     0
1002
}
1002
{
1000
MANEDIT
1070
     0
1002
}
1002
{
1000
NOSEL
1070
     0
1002
}
1002
{
1000
BEHIND
1070
     0
1002
}
1002
{
1000
OTHER
1070
     0
1002
}
1002
{
1000
REACTOR
1002
}
  0
LINE
  5
4B3B
330
1F
100
AcDbEntity
  8
0
100
AcDbLine
 10
346.1526770391975
 20
491.528777885918
 30
0.0
 11
369.4205223749763
 21
514.796623221697
 31
0.0
  0
ARC
  5
4B3C
330
1F
100
AcDbEntity
  8
0
100
AcDbCircle
 10
342.6171431332647
 20
495.0643117918507
 30
0.0
 40
5.0
100
AcDbArc
 50
272.0000000000004
 51
315.0
1001
GENIUS_GENOBJ-N-FIL_13
1002
{
1000
OWNER
1000
GEN
1002
}
1001
GENIUS_GENODEF_13
1002
{
1000
HIER
1070
     0
1002
}
1002
{
1000
MANEDIT
1070
     0
1002
}
1002
{
1000
NOSEL
1070
     0
1002
}
1002
{
1000
BEHIND
1070
     0
1002
}
1002
{
1000
OTHER
1070
     0
1002
}
1002
{
1000
REACTOR
1002
}
  0
LINE
  5
4B3D
330
1F
100
AcDbEntity
  8
0
100
AcDbLine
 10
346.1526770391976
 20
425.9934007456108
 30
0.0
 11
369.4205223749763
 21
402.7255554098316
 31
0.0
  0
ARC
  5
4B3E
330
1F
100
AcDbEntity
  8
0
100
AcDbCircle
 10
342.6171431332648
 20
422.4578668396779
 30
0.0
 40
5.0
100
AcDbArc
 50
45.0
 51
87.99999999999965
1001
GENIUS_GENOBJ-N-FIL_13
1002
{
1000
OWNER
1000
GEN
1002
}
1001
GENIUS_GENODEF_13
1002
{
1000
HIER
1070
     0
1002
}
1002
{
1000
MANEDIT
1070
     0
1002
}
1002
{
1000
NOSEL
1070
     0
1002
}
1002
{
1000
BEHIND
1070
     0
1002
}
1002
{
1000
OTHER
1070
     0
1002
}
1002
{
1000
REACTOR
1002
}
  0
LINE
  5
4B3F
330
1F
100
AcDbEntity
  8
AM_5
 62
     2
100
AcDbLine
 10
370.8849884690441
 20
496.8610887197378
 30
0.0
 11
380.8849900127526
 21
496.8610893157644
 31
0.0
1001
GENIUS_GENODEF_13
1002
{
1000
HIER
1070
     0
1002
}
1002
{
1000
MANEDIT
1070
     0
1002
}
1002
{
1000
NOSEL
1070
     0
1002
}
1002
{
1000
BEHIND
1070
     0
1002
}
1002
{
1000
OTHER
1070
     0
1002
}
1002
{
1000
REACTOR
1002
}
1001
GENIUS_GENOBJ-N-CEN_13
1002
{
1000
OWNER
1000
GEN
1002
}
1001
GENIUS_GENCEN_19
1002
{
1040
2.794
1002
}
  0
LINE
  5
4B40
330
1F
100
AcDbEntity
  8
AM_5
 62
     2
100
AcDbLine
 10
370.8849884690461
 20
420.6610887197378
 30
0.0
 11
380.8849945544756
 21
420.6610893157647
 31
0.0
1001
GENIUS_GENODEF_13
1002
{
1000
HIER
1070
     0
1002
}
1002
{
1000
MANEDIT
1070
     0
1002
}
1002
{
1000
NOSEL
1070
     0
1002
}
1002
{
1000
BEHIND
1070
     0
1002
}
1002
{
1000
OTHER
1070
     0
1002
}
1002
{
1000
REACTOR
1002
}
1001
GENIUS_GENOBJ-N-CEN_13
1002
{
1000
OWNER
1000
GEN
1002
}
1001
GENIUS_GENCEN_19
1002
{
1040
2.794
1002
}
  0
LINE
  5
4B41
330
1F
100
AcDbEntity
  8
0
100
AcDbLine
 10
370.8849884690465
 20
407.2610887197376
 30
0.0
 11
380.8849953531514
 21
407.2610893157647
 31
0.0
1001
GENIUS_GENODEF_13
1002
{
1000
HIER
1070
     0
1002
}
1002
{
1000
MANEDIT
1070
     0
1002
}
1002
{
1000
NOSEL
1070
     0
1002
}
1002
{
1000
BEHIND
1070
     0
1002
}
1002
{
1000
OTHER
1070
     0
1002
}
1002
{
1000
REACTOR
1002
}
1001
GENIUS_GENOBJ-N-CEN_13
1002
{
1000
OWNER
1000
GEN
1002
}
1001
GENIUS_GENCEN_19
1002
{
1040
2.794
1002
}
  0
LINE
  5
4B42
330
1F
100
AcDbEntity
  8
0
100
AcDbLine
 10
370.8849884690437
 20
510.2610887197377
 30
0.0
 11
380.8849892140768
 21
510.2610893157644
 31
0.0
1001
GENIUS_GENODEF_13
1002
{
1000
HIER
1070
     0
1002
}
1002
{
1000
MANEDIT
1070
     0
1002
}
1002
{
1000
NOSEL
1070
     0
1002
}
1002
{
1000
BEHIND
1070
     0
1002
}
1002
{
1000
OTHER
1070
     0
1002
}
1002
{
1000
REACTOR
1002
}
1001
GENIUS_GENOBJ-N-CEN_13
1002
{
1000
OWNER
1000
GEN
1002
}
1001
GENIUS_GENCEN_19
1002
{
1040
2.794
1002
}
  0
LINE
  5
4B43
330
1F
100
AcDbEntity
  8
0
100
AcDbLine
 10
372.8151970711871
 20
395.0428919442953
 30
0.0
 11
380.8849960981847
 21
394.7610893157651
 31
0.0
  0
ARC
  5
4B44
330
1F
100
AcDbEntity
  8
0
100
AcDbCircle
 10
372.8849958263268
 20
397.0416736066539
 30
0.0
 40
2.0
100
AcDbArc
 50
180.0000068299612
 51
268.0000068299624
1001
GENIUS_GENOBJ-N-FIL_13
1002
{
1000
OWNER
1000
GEN
1002
}
1001
GENIUS_GENODEF_13
1002
{
1000
HIER
1070
     0
1002
}
1002
{
1000
MANEDIT
1070
     0
1002
}
1002
{
1000
NOSEL
1070
     0
1002
}
1002
{
1000
BEHIND
1070
     0
1002
}
1002
{
1000
OTHER
1070
     0
1002
}
1002
{
1000
REACTOR
1002
}
  0
ARC
  5
4B45
330
1F
100
AcDbEntity
  8
0
100
AcDbCircle
 10
365.8849955702325
 20
399.1900197158195
 30
0.0
 40
5.0
100
AcDbArc
 50
0.0000068299611879
 51
45.00000682996163
1001
GENIUS_GENOBJ-N-FIL_13
1002
{
1000
OWNER
1000
GEN
1002
}
1001
GENIUS_GENODEF_13
1002
{
1000
HIER
1070
     0
1002
}
1002
{
1000
MANEDIT
1070
     0
1002
}
1002
{
1000
NOSEL
1070
     0
1002
}
1002
{
1000
BEHIND
1070
     0
1002
}
1002
{
1000
OTHER
1070
     0
1002
}
1002
{
1000
REACTOR
1002
}
  0
LINE
  5
4B46
330
1F
100
AcDbEntity
  8
0
100
AcDbLine
 10
380.8849884690435
 20
522.7610893157644
 30
0.0
 11
380.8849960981847
 21
394.7610893157651
 31
0.0
  0
ARC
  5
4B47
330
1F
100
AcDbEntity
  8
AM_5
 62
     2
100
AcDbCircle
 10
384.1496632152622
 20
458.7610852588386
 30
0.0
 40
38.83431186232895
100
AcDbArc
 50
133.1867259405558
 51
226.813256781428
  0
ARC
  5
4B48
330
1F
100
AcDbEntity
  8
AM_5
 62
     2
100
AcDbCircle
 10
356.2035412640714
 20
428.9876861724206
 30
0.0
 40
2.0
100
AcDbArc
 50
267.9999999999997
 51
46.81325678142335
1001
GENIUS_GENODEF_13
1002
{
1000
HIER
1070
     0
1002
}
1002
{
1000
MANEDIT
1070
     0
1002
}
1002
{
1000
NOSEL
1070
     0
1002
}
1002
{
1000
BEHIND
1070
     0
1002
}
1002
{
1000
OTHER
1070
     0
1002
}
1002
{
1000
REACTOR
1002
}
1001
GENIUS_GENOBJ-N-FIL_13
1002
{
1000
OWNER
1000
GEN
1002
}
  0
ARC
  5
4B49
330
1F
100
AcDbEntity
  8
AM_5
 62
     2
100
AcDbCircle
 10
356.2035502424895
 20
488.5344927726414
 30
0.0
 40
2.0
100
AcDbArc
 50
313.1867259405559
 51
92.00000000000034
1001
GENIUS_GENODEF_13
1002
{
1000
HIER
1070
     0
1002
}
1002
{
1000
MANEDIT
1070
     0
1002
}
1002
{
1000
NOSEL
1070
     0
1002
}
1002
{
1000
BEHIND
1070
     0
1002
}
1002
{
1000
OTHER
1070
     0
1002
}
1002
{
1000
REACTOR
1002
}
1001
GENIUS_GENOBJ-N-FIL_13
1002
{
1000
OWNER
1000
GEN
1002
}
  0
CIRCLE
  5
4B4A
330
1F
100
AcDbEntity
  8
0
100
AcDbCircle
 10
327.3850095487174
 20
473.261086007818
 30
0.0
 40
10.0
  0
LINE
  5
4B4B
330
1F
100
AcDbEntity
  8
ﾁｭｳｼﾝｾﾝ1
 48
0.7
100
AcDbLine
 10
327.3850095487174
 20
486.261086007818
 30
0.0
 11
327.3850095487174
 21
460.2610860078179
 31
0.0
1001
GENIUS_GENODEF_13
1002
{
1000
HIER
1070
     0
1002
}
1002
{
1000
MANEDIT
1070
     0
1002
}
1002
{
1000
NOSEL
1070
     0
1002
}
1002
{
1000
BEHIND
1070
     0
1002
}
1002
{
1000
OTHER
1070
     0
1002
}
1002
{
1000
REACTOR
1002
}
1001
GENIUS_GENOBJ-N-CEN_13
1002
{
1000
OWNER
1000
GEN
1002
}
1001
GENIUS_GENCEN_19
1002
{
1040
3.0
1002
}
  0
LINE
  5
4B4C
330
1F
100
AcDbEntity
  8
AM_0
100
AcDbLine
 10
326.3850095487175
 20
478.261086007818
 30
0.0
 11
326.3850095487175
 21
468.2610860078179
 31
0.0
1001
GENIUS_GENODEF_13
1002
{
1000
HIER
1070
     0
1002
}
1002
{
1000
MANEDIT
1070
     0
1002
}
1002
{
1000
NOSEL
1070
     0
1002
}
1002
{
1000
BEHIND
1070
     0
1002
}
1002
{
1000
OTHER
1070
     0
1002
}
1002
{
1000
REACTOR
1002
}
1001
GENIUS_GENOBJ-N-CEN_13
1002
{
1000
OWNER
1000
GEN
1002
}
1001
GENIUS_GENCEN_19
1002
{
1040
3.0
1002
}
  0
LINE
  5
4B4D
330
1F
100
AcDbEntity
  8
AM_0
100
AcDbLine
 10
328.3850095487175
 20
478.261086007818
 30
0.0
 11
328.3850095487175
 21
468.2610860078179
 31
0.0
1001
GENIUS_GENODEF_13
1002
{
1000
HIER
1070
     0
1002
}
1002
{
1000
MANEDIT
1070
     0
1002
}
1002
{
1000
NOSEL
1070
     0
1002
}
1002
{
1000
BEHIND
1070
     0
1002
}
1002
{
1000
OTHER
1070
     0
1002
}
1002
{
1000
REACTOR
1002
}
1001
GENIUS_GENOBJ-N-CEN_13
1002
{
1000
OWNER
1000
GEN
1002
}
1001
GENIUS_GENCEN_19
1002
{
1040
3.0
1002
}
  0
CIRCLE
  5
4B4E
330
1F
100
AcDbEntity
  8
AM_0
100
AcDbCircle
 10
327.3850095487174
 20
473.261086007818
 30
0.0
 40
8.500000000000056
  0
CIRCLE
  5
4B4F
330
1F
100
AcDbEntity
  8
AM_0
100
AcDbCircle
 10
327.3850095487174
 20
473.261086007818
 30
0.0
 40
8.999999999999971
  0
ARC
  5
4B50
330
1F
100
AcDbEntity
  8
AM_0
100
AcDbCircle
 10
327.3850095487174
 20
478.261086007818
 30
0.0
 40
1.0
100
AcDbArc
 50
0.0
 51
180.0
  0
ARC
  5
4B51
330
1F
100
AcDbEntity
  8
AM_0
100
AcDbCircle
 10
327.3850095487174
 20
468.2610860078179
 30
0.0
 40
1.0
100
AcDbArc
 50
180.0
 51
0.0
  0
LINE
  5
4B52
330
1F
100
AcDbEntity
  8
ﾁｭｳｼﾝｾﾝ1
 48
0.7
100
AcDbLine
 10
314.3850095487175
 20
473.261086007818
 30
0.0
 11
340.3850095487174
 21
473.261086007818
 31
0.0
1001
GENIUS_GENOBJ-N-CEN_13
1002
{
1000
OWNER
1000
GEN
1002
}
1001
GENIUS_GENODEF_13
1002
{
1000
HIER
1070
     0
1002
}
1002
{
1000
MANEDIT
1070
     0
1002
}
1002
{
1000
NOSEL
1070
     0
1002
}
1002
{
1000
BEHIND
1070
     0
1002
}
1002
{
1000
OTHER
1070
     0
1002
}
1002
{
1000
REACTOR
1002
}
1001
GENIUS_GENCEN_19
1002
{
1040
3.0
1002
}
  0
LINE
  5
4B53
330
1F
100
AcDbEntity
  8
0
100
AcDbLine
 10
305.3850133632878
 20
272.7806431576679
 30
0.0
 11
305.3850133632878
 21
192.7806431576678
 31
0.0
  0
LINE
  5
4B54
330
1F
100
AcDbEntity
  8
0
100
AcDbLine
 10
317.3850133632878
 20
269.7806431576678
 30
0.0
 11
317.3850133632878
 21
195.7806431576678
 31
0.0
  0
ARC
  5
4B55
330
1F
100
AcDbEntity
  8
AM_0
100
AcDbCircle
 10
314.3850133632879
 20
269.7806431576679
 30
0.0
 40
3.0
100
AcDbArc
 50
0.0
 51
90.0
1001
GENIUS_GENODEF_13
1002
{
1000
HIER
1070
     0
1002
}
1002
{
1000
MANEDIT
1070
     0
1002
}
1002
{
1000
NOSEL
1070
     0
1002
}
1002
{
1000
BEHIND
1070
     0
1002
}
1002
{
1000
OTHER
1070
     0
1002
}
1002
{
1000
REACTOR
1002
}
1001
GENIUS_GENOBJ-N-FIL_13
1002
{
1000
OWNER
1000
GEN
1002
}
  0
ARC
  5
4B56
330
1F
100
AcDbEntity
  8
AM_0
100
AcDbCircle
 10
314.3850133632878
 20
195.7806431576678
 30
0.0
 40
3.0
100
AcDbArc
 50
270.0
 51
0.0
1001
GENIUS_GENODEF_13
1002
{
1000
HIER
1070
     0
1002
}
1002
{
1000
MANEDIT
1070
     0
1002
}
1002
{
1000
NOSEL
1070
     0
1002
}
1002
{
1000
BEHIND
1070
     0
1002
}
1002
{
1000
OTHER
1070
     0
1002
}
1002
{
1000
REACTOR
1002
}
1001
GENIUS_GENOBJ-N-FIL_13
1002
{
1000
OWNER
1000
GEN
1002
}
  0
LINE
  5
4B57
330
1F
100
AcDbEntity
  8
AM_0
100
AcDbLine
 10
305.3850133632878
 20
272.7806431576679
 30
0.0
 11
314.3850133632879
 21
272.7806431576679
 31
0.0
  0
LINE
  5
4B58
330
1F
100
AcDbEntity
  8
AM_0
100
AcDbLine
 10
305.3850133632878
 20
192.7806431576678
 30
0.0
 11
314.3850133632878
 21
192.7806431576678
 31
0.0
  0
LINE
  5
4B59
330
1F
100
AcDbEntity
  8
0
100
AcDbLine
 10
335.8850095487175
 20
263.8672644939585
 30
0.0
 11
335.8850095487174
 21
264.1806476576672
 31
0.0
1001
GENIUS_GENOBJ-N-CEN_13
1002
{
1000
OWNER
1000
GEN
1002
}
1001
GENIUS_GENODEF_13
1002
{
1000
HIER
1070
     0
1002
}
1002
{
1000
MANEDIT
1070
     0
1002
}
1002
{
1000
NOSEL
1070
     0
1002
}
1002
{
1000
BEHIND
1070
     0
1002
}
1002
{
1000
OTHER
1070
     0
1002
}
1002
{
1000
REACTOR
1002
}
1001
GENIUS_GENCEN_19
1002
{
1040
2.794
1002
}
  0
LINE
  5
4B5A
330
1F
100
AcDbEntity
  8
0
100
AcDbLine
 10
318.8850095487175
 20
263.7297473239342
 30
0.0
 11
318.8850095487175
 21
264.1806476576671
 31
0.0
1001
GENIUS_GENOBJ-N-CEN_13
1002
{
1000
OWNER
1000
GEN
1002
}
1001
GENIUS_GENODEF_13
1002
{
1000
HIER
1070
     0
1002
}
1002
{
1000
MANEDIT
1070
     0
1002
}
1002
{
1000
NOSEL
1070
     0
1002
}
1002
{
1000
BEHIND
1070
     0
1002
}
1002
{
1000
OTHER
1070
     0
1002
}
1002
{
1000
REACTOR
1002
}
1001
GENIUS_GENCEN_19
1002
{
1040
2.794
1002
}
  0
LINE
  5
4B5B
330
1F
100
AcDbEntity
  8
図面枠-ｷｲﾛ
100
AcDbLine
 10
318.8850095487175
 20
264.1806476576671
 30
0.0
 11
335.8850095487174
 21
264.1806476576672
 31
0.0
  0
ARC
  5
4B5C
330
1F
100
AcDbEntity
  8
0
100
AcDbCircle
 10
327.3850095487176
 20
247.1181476576671
 30
0.0
 40
19.06249999999999
100
AcDbArc
 50
63.51896016962665
 51
116.4810398303733
  0
LINE
  5
4B5D
330
1F
100
AcDbEntity
  8
0
100
AcDbLine
 10
305.385008511143
 20
498.7610848157644
 30
0.0
 11
305.385008511143
 21
418.7610848157644
 31
0.0
  0
LINE
  5
4B5E
330
1F
100
AcDbEntity
  8
0
100
AcDbLine
 10
317.385008511143
 20
495.7610848157644
 30
0.0
 11
317.385008511143
 21
421.7610848157644
 31
0.0
  0
ARC
  5
4B5F
330
1F
100
AcDbEntity
  8
0
100
AcDbCircle
 10
320.385008511143
 20
425.2354491767246
 30
0.0
 40
3.0
100
AcDbArc
 50
87.99999999999965
 51
180.0
1001
GENIUS_GENODEF_13
1002
{
1000
HIER
1070
     0
1002
}
1002
{
1000
MANEDIT
1070
     0
1002
}
1002
{
1000
NOSEL
1070
     0
1002
}
1002
{
1000
BEHIND
1070
     0
1002
}
1002
{
1000
OTHER
1070
     0
1002
}
1002
{
1000
REACTOR
1002
}
1001
GENIUS_GENOBJ-N-FIL_13
1002
{
1000
OWNER
1000
GEN
1002
}
  0
ARC
  5
4B60
330
1F
100
AcDbEntity
  8
AM_0
100
AcDbCircle
 10
314.385008511143
 20
495.7610848157644
 30
0.0
 40
3.0
100
AcDbArc
 50
0.0
 51
90.0
1001
GENIUS_GENODEF_13
1002
{
1000
HIER
1070
     0
1002
}
1002
{
1000
MANEDIT
1070
     0
1002
}
1002
{
1000
NOSEL
1070
     0
1002
}
1002
{
1000
BEHIND
1070
     0
1002
}
1002
{
1000
OTHER
1070
     0
1002
}
1002
{
1000
REACTOR
1002
}
1001
GENIUS_GENOBJ-N-FIL_13
1002
{
1000
OWNER
1000
GEN
1002
}
  0
ARC
  5
4B61
330
1F
100
AcDbEntity
  8
AM_0
100
AcDbCircle
 10
314.3850085111429
 20
421.7610848157644
 30
0.0
 40
3.0
100
AcDbArc
 50
270.0
 51
0.0
1001
GENIUS_GENODEF_13
1002
{
1000
HIER
1070
     0
1002
}
1002
{
1000
MANEDIT
1070
     0
1002
}
1002
{
1000
NOSEL
1070
     0
1002
}
1002
{
1000
BEHIND
1070
     0
1002
}
1002
{
1000
OTHER
1070
     0
1002
}
1002
{
1000
REACTOR
1002
}
1001
GENIUS_GENOBJ-N-FIL_13
1002
{
1000
OWNER
1000
GEN
1002
}
  0
LINE
  5
4B62
330
1F
100
AcDbEntity
  8
AM_0
100
AcDbLine
 10
305.385008511143
 20
498.7610848157644
 30
0.0
 11
314.385008511143
 21
498.7610848157644
 31
0.0
  0
LINE
  5
4B63
330
1F
100
AcDbEntity
  8
AM_0
100
AcDbLine
 10
305.385008511143
 20
418.7610848157644
 30
0.0
 11
314.3850085111429
 21
418.7610848157644
 31
0.0
  0
ENDSEC
  0
SECTION
  2
OBJECTS
  0
DICTIONARY
  5
C
330
0
100
AcDbDictionary
281
     1
  3
ACAD_COLOR
350
2196
  3
ACAD_GROUP
350
D
  3
ACAD_LAYOUT
350
1A
  3
ACAD_MATERIAL
350
2195
  3
ACAD_MLINESTYLE
350
17
  3
ACAD_PLOTSETTINGS
350
19
  3
ACAD_PLOTSTYLENAME
350
E
  3
ACAD_TABLESTYLE
350
2197
  3
AcadDim
350
14B1
  3
ACDBHEADERROUNDTRIPXREC
350
4BA6
  3
AcDbVariableDictionary
350
34
  3
AcmDictionary
350
47
  3
AMG
350
2B
  3
AMGSNAPSETTINGS
350
81
  3
ASE_INDEX_DICTIONARY
350
2D7B
  3
DWGPROPS
350
4BA5
  0
DICTIONARY
  5
2D9C
330
2
100
AcDbDictionary
280
     1
281
     1
  3
ACAD_LAYERSTATES
360
2D9D
  0
DICTIONARY
  5
CC
330
1F
100
AcDbDictionary
280
     1
281
     1
  3
ACAD_SORTENTS
360
2D4D
  0
DICTIONARY
  5
2196
102
{ACAD_REACTORS
330
C
102
}
330
C
100
AcDbDictionary
281
     1
  0
DICTIONARY
  5
D
102
{ACAD_REACTORS
330
C
102
}
330
C
100
AcDbDictionary
281
     1
  0
DICTIONARY
  5
1A
102
{ACAD_REACTORS
330
C
102
}
330
C
100
AcDbDictionary
281
     1
  3
Model
350
22
  3
ﾚｲｱｳﾄ1
350
1E
  3
ﾚｲｱｳﾄ2
350
26
  0
DICTIONARY
  5
2195
102
{ACAD_REACTORS
330
C
102
}
330
C
100
AcDbDictionary
281
     1
  0
DICTIONARY
  5
17
102
{ACAD_REACTORS
330
C
102
}
330
C
100
AcDbDictionary
281
     1
  3
Standard
350
18
  0
DICTIONARY
  5
19
102
{ACAD_REACTORS
330
C
102
}
330
C
100
AcDbDictionary
281
     1
  3
A1
350
7A0
  3
A2
350
7A1
  3
A3外形図
350
7A2
  3
A3部品図
350
7A3
  3
A4外形図
350
7A4
  3
A4製造仕様書
350
7A5
  3
A4部品図
350
7A6
  0
ACDBDICTIONARYWDFLT
  5
E
102
{ACAD_REACTORS
330
C
102
}
330
C
100
AcDbDictionary
281
     1
  3
Normal
350
F
100
AcDbDictionaryWithDefault
340
F
  0
DICTIONARY
  5
2197
102
{ACAD_REACTORS
330
C
102
}
330
C
100
AcDbDictionary
281
     1
  3
Standard
350
2198
  0
XRECORD
  5
14B1
102
{ACAD_REACTORS
330
C
102
}
330
C
100
AcDbXrecord
280
     1
 90
   990106
  3

 60
     0
 61
     0
 62
     4
 63
     4
 64
     1
 65
     0
 66
     0
 67
     3
 68
     1
 69
     0
 70
     0
 71
     0
 72
     0
 40
0.0
170
     0
  0
DICTIONARY
  5
4BA6
102
{ACAD_REACTORS
330
C
102
}
330
C
100
AcDbDictionary
281
     1
  0
DICTIONARY
  5
34
102
{ACAD_REACTORS
330
C
102
}
330
C
100
AcDbDictionary
281
     1
  3
CTABLESTYLE
350
22C6
  3
DIMASSOC
350
4B74
  3
INDEXCTL
350
35
  3
PROJECTNAME
350
4B75
  0
DICTIONARY
  5
47
102
{ACAD_REACTORS
330
C
102
}
330
C
100
AcDbDictionary
281
     1
  3
AcmStdDictionary
350
4C
  3
AMDTSECTSYM_ARROWCOLOR
350
21A4
  0
DICTIONARY
  5
2B
102
{ACAD_REACTORS
330
C
102
}
330
C
100
AcDbDictionary
281
     1
  0
DICTIONARY
  5
81
102
{ACAD_REACTORS
330
C
102
}
330
C
100
AcDbDictionary
281
     1
  0
DICTIONARY
  5
2D7B
102
{ACAD_REACTORS
330
C
102
}
330
C
100
AcDbDictionary
281
     1
  3
ASEBlockHierarchyIndexRecord
350
2D7C
1001
DCO15
1040
1618997538.121
  0
XRECORD
  5
4BA5
102
{ACAD_REACTORS
330
C
102
}
330
C
100
AcDbXrecord
280
     1
  1
DWGPROPS COOKIE
  2

  3

  4

  6

  7

  8
ISHIGURE
  9

300
AmdtFileType=84
301
=
302
=
303
=
304
=
305
=
306
=
307
=
308
=
309
=
 40
0.5092304282407408
 41
2452065.605619213
 42
2454770.843882511
  1

 90
        1
  0
DICTIONARY
  5
2D9D
102
{ACAD_REACTORS
330
2D9C
102
}
330
2D9C
100
AcDbDictionary
281
     1
  0
SORTENTSTABLE
  5
2D4D
102
{ACAD_REACTORS
330
CC
102
}
330
CC
100
AcDbSortentsTable
330
1F
331
328D
  5
328D
331
3248
  5
3248
331
3246
  5
3246
331
3267
  5
3267
331
3244
  5
3244
331
324B
  5
324B
331
3249
  5
3249
331
3247
  5
3247
331
3245
  5
3245
331
3243
  5
3243
  0
LAYOUT
  5
22
102
{ACAD_XDICTIONARY
360
4BA9
102
}
102
{ACAD_REACTORS
330
1A
102
}
330
1A
100
AcDbPlotSettings
  1

  2
\\XSERIES235\Canon LASER SHOT LBP-910
  4
A4
  6
AM_VIEW1
 40
5.873749732971191
 41
5.873747825622558
 42
5.873748779296875
 43
5.873748779296875
 44
209.9733276367187
 45
296.9259948730469
 46
0.0
 47
0.34
 48
0.0
 49
0.0
140
0.0
141
0.0
142
1.0
143
3.0
 70
 11936
 72
     1
 73
     1
 74
     2
  7
acad1.ctb
 75
     0
147
0.3341282932256912
148
0.0
149
0.0
100
AcDbLayout
  1
Model
 70
     1
 71
     0
 10
0.0
 20
0.0
 11
12.0
 21
9.0
 12
0.0
 22
0.0
 32
0.0
 14
0.0
 24
0.0
 34
0.0
 15
0.0
 25
0.0
 35
0.0
146
0.0
 13
0.0
 23
0.0
 33
0.0
 16
1.0
 26
0.0
 36
0.0
 17
0.0
 27
1.0
 37
0.0
 76
     0
330
1F
1001
ACAD_PSEXT
1000
\\XSERIES235\Canon LASER SHOT LBP-910
1000
Canon LASER SHOT LBP-910
1000
\\XSERIES235
1000

1070
     0
  0
LAYOUT
  5
1E
102
{ACAD_XDICTIONARY
360
4BA7
102
}
102
{ACAD_REACTORS
330
1A
102
}
330
1A
100
AcDbPlotSettings
  1

  2
\\FHKSV01\RICOH imagio MF2700(FAX)
  4

  6

 40
0.0
 41
0.0
 42
0.0
 43
0.0
 44
0.0
 45
0.0
 46
0.0
 47
0.0
 48
0.0
 49
0.0
140
0.0
141
0.0
142
1.0
143
1.0
 70
   688
 72
     0
 73
     0
 74
     5
  7
acad1.ctb
 75
    16
147
1.0
148
0.0
149
0.0
100
AcDbLayout
  1
ﾚｲｱｳﾄ1
 70
     1
 71
     1
 10
0.0
 20
0.0
 11
420.0
 21
297.0
 12
0.0
 22
0.0
 32
0.0
 14
1.000000000000000E+20
 24
1.000000000000000E+20
 34
1.000000000000000E+20
 15
-1.000000000000000E+20
 25
-1.000000000000000E+20
 35
-1.000000000000000E+20
146
0.0
 13
0.0
 23
0.0
 33
0.0
 16
1.0
 26
0.0
 36
0.0
 17
0.0
 27
1.0
 37
0.0
 76
     0
330
1B
  0
LAYOUT
  5
26
102
{ACAD_XDICTIONARY
360
4BAB
102
}
102
{ACAD_REACTORS
330
1A
102
}
330
1A
100
AcDbPlotSettings
  1

  2
\\FHKSV01\RICOH imagio MF2700(FAX)
  4

  6

 40
0.0
 41
0.0
 42
0.0
 43
0.0
 44
0.0
 45
0.0
 46
0.0
 47
0.0
 48
0.0
 49
0.0
140
0.0
141
0.0
142
1.0
143
1.0
 70
   688
 72
     0
 73
     0
 74
     5
  7
acad1.ctb
 75
    16
147
1.0
148
0.0
149
0.0
100
AcDbLayout
  1
ﾚｲｱｳﾄ2
 70
     1
 71
     2
 10
0.0
 20
0.0
 11
12.0
 21
9.0
 12
0.0
 22
0.0
 32
0.0
 14
0.0
 24
0.0
 34
0.0
 15
0.0
 25
0.0
 35
0.0
146
0.0
 13
0.0
 23
0.0
 33
0.0
 16
1.0
 26
0.0
 36
0.0
 17
0.0
 27
1.0
 37
0.0
 76
     0
330
23
  0
MLINESTYLE
  5
18
102
{ACAD_REACTORS
330
17
102
}
330
17
100
AcDbMlineStyle
  2
STANDARD
 70
     0
  3

 62
   256
 51
90.0
 52
90.0
 71
     2
 49
0.5
 62
   256
  6
BYLAYER
 49
-0.5
 62
   256
  6
BYLAYER
  0
PLOTSETTINGS
  5
7A0
102
{ACAD_XDICTIONARY
360
4BAD
102
}
102
{ACAD_REACTORS
330
19
102
}
330
19
100
AcDbPlotSettings
  1
A1
  2
\\NETFINITY_5500\HP DesignJet 750C+ (D/A1) by HP)
  4
User267
  6

 40
17.76941680908203
 41
5.789102554321289
 42
17.7694091796875
 43
5.7890625
 44
840.9093017578125
 45
593.97900390625
 46
2.0
 47
13.0
 48
0.0
 49
0.0
140
0.0
141
0.0
142
1.0
143
1.0
 70
  1712
 72
     1
 73
     0
 74
     1
  7
acad.ctb
 75
    16
147
1.0
148
0.0100416569983963
149
0.0078848243487073
  0
PLOTSETTINGS
  5
7A1
102
{ACAD_XDICTIONARY
360
4BAF
102
}
102
{ACAD_REACTORS
330
19
102
}
330
19
100
AcDbPlotSettings
  1
A2
  2
\\NETFINITY_5500\HP DesignJet 750C+ (D/A1) by HP)
  4
User266
  6

 40
5.78908348083496
 41
17.76940155029297
 42
5.78912353515625
 43
17.7694091796875
 44
593.97900390625
 45
419.9466552734374
 46
12.0
 47
0.0
 48
0.0
 49
0.0
140
0.0
141
0.0
142
1.0
143
1.0
 70
  1712
 72
     1
 73
     0
 74
     1
  7
acad.ctb
 75
    16
147
1.0
148
0.0100416569983963
149
0.0078848243487073
  0
PLOTSETTINGS
  5
7A2
102
{ACAD_XDICTIONARY
360
4BB1
102
}
102
{ACAD_REACTORS
330
19
102
}
330
19
100
AcDbPlotSettings
  1
A3外形図
  2
\\NETFINITY_5500\Canon LASER SHOT LBP-910
  4
A3
  6

 40
5.873749732971191
 41
5.873747825622558
 42
5.873748779296875
 43
5.873748779296875
 44
296.9259948730469
 45
419.9466552734374
 46
0.0
 47
15.0
 48
0.0
 49
0.0
140
0.0
141
0.0
142
1.0
143
1.0
 70
  1712
 72
     1
 73
     1
 74
     1
  7
acad1.ctb
 75
    16
147
1.0
148
0.0024839861629289
149
0.0093761313144114
  0
PLOTSETTINGS
  5
7A3
102
{ACAD_XDICTIONARY
360
4BB3
102
}
102
{ACAD_REACTORS
330
19
102
}
330
19
100
AcDbPlotSettings
  1
A3部品図
  2
\\NETFINITY_5500\Canon LASER SHOT LBP-910
  4
A3
  6

 40
5.873749732971191
 41
5.873747825622558
 42
5.873748779296875
 43
5.873748779296875
 44
296.9259948730469
 45
419.9466552734374
 46
0.0
 47
0.0
 48
0.0
 49
0.0
140
0.0
141
0.0
142
1.0
143
1.0
 70
  1712
 72
     1
 73
     1
 74
     1
  7
acad1.ctb
 75
    16
147
1.0
148
0.0024839861629289
149
0.0093761313144114
  0
PLOTSETTINGS
  5
7A4
102
{ACAD_XDICTIONARY
360
4BB5
102
}
102
{ACAD_REACTORS
330
19
102
}
330
19
100
AcDbPlotSettings
  1
A4外形図
  2
\\NETFINITY_5500\Canon LASER SHOT LBP-910
  4
A4
  6

 40
5.873749732971191
 41
5.873747825622558
 42
5.873748779296875
 43
5.873748779296875
 44
209.9733276367187
 45
296.9259948730469
 46
0.0
 47
0.0
 48
0.0
 49
0.0
140
0.0
141
0.0
142
1.0
143
1.0
 70
  1712
 72
     1
 73
     1
 74
     1
  7
acad1.ctb
 75
    16
147
1.0
148
0.0115486965655691
149
0.0124955963574962
  0
PLOTSETTINGS
  5
7A5
102
{ACAD_XDICTIONARY
360
4BB7
102
}
102
{ACAD_REACTORS
330
19
102
}
330
19
100
AcDbPlotSettings
  1
A4製造仕様書
  2
\\NETFINITY_5500\Canon LASER SHOT LBP-910
  4
A4
  6

 40
5.873749732971191
 41
5.873747825622558
 42
5.873748779296875
 43
5.873748779296875
 44
209.9733276367187
 45
296.9259948730469
 46
15.0
 47
0.0
 48
0.0
 49
0.0
140
0.0
141
0.0
142
1.0
143
1.0
 70
  1712
 72
     1
 73
     0
 74
     1
  7
acad1.ctb
 75
    16
147
1.0
148
0.0115486965655691
149
7.86079562315183
  0
PLOTSETTINGS
  5
7A6
102
{ACAD_XDICTIONARY
360
4BB9
102
}
102
{ACAD_REACTORS
330
19
102
}
330
19
100
AcDbPlotSettings
  1
A4部品図
  2
\\NETFINITY_5500\Canon LASER SHOT LBP-910
  4
A4
  6

 40
5.873749732971191
 41
5.873747825622558
 42
5.873748779296875
 43
5.873748779296875
 44
209.9733276367187
 45
296.9259948730469
 46
0.0
 47
0.0
 48
0.0
 49
0.0
140
0.0
141
0.0
142
1.0
143
1.0
 70
  1712
 72
     1
 73
     0
 74
     1
  7
acad1.ctb
 75
    16
147
1.0
148
0.0115486965655691
149
0.0124955963574962
  0
ACDBPLACEHOLDER
  5
F
102
{ACAD_REACTORS
330
E
102
}
330
E
  0
TABLESTYLE
  5
2198
102
{ACAD_REACTORS
330
2197
102
}
330
2197
100
AcDbTableStyle
  3
Standard
 70
     0
 71
     0
 40
1.5
 41
1.5
280
     0
281
     0
  7
STANDARD
140
4.5
170
     2
 62
     0
 63
     7
283
     0
274
    -2
284
     1
 64
     0
275
    -2
285
     1
 65
     0
276
    -2
286
     1
 66
     0
277
    -2
287
     1
 67
     0
278
    -2
288
     1
 68
     0
279
    -2
289
     1
 69
     0
  7
STANDARD
140
6.0
170
     5
 62
     0
 63
     7
283
     0
274
    -2
284
     1
 64
     0
275
    -2
285
     1
 65
     0
276
    -2
286
     1
 66
     0
277
    -2
287
     1
 67
     0
278
    -2
288
     1
 68
     0
279
    -2
289
     1
 69
     0
  7
STANDARD
140
4.5
170
     5
 62
     0
 63
     7
283
     0
274
    -2
284
     1
 64
     0
275
    -2
285
     1
 65
     0
276
    -2
286
     1
 66
     0
277
    -2
287
     1
 67
     0
278
    -2
288
     1
 68
     0
279
    -2
289
     1
 69
     0
  0
DICTIONARYVAR
  5
22C6
102
{ACAD_REACTORS
330
34
102
}
330
34
100
DictionaryVariables
280
     0
  1
STANDARD
  0
DICTIONARYVAR
  5
4B74
102
{ACAD_REACTORS
330
34
102
}
330
34
100
DictionaryVariables
280
     0
  1
1
  0
DICTIONARYVAR
  5
35
102
{ACAD_REACTORS
330
34
102
}
330
34
100
DictionaryVariables
280
     0
  1
0
  0
DICTIONARYVAR
  5
4B75
102
{ACAD_REACTORS
330
34
102
}
330
34
100
DictionaryVariables
280
     0
  1

  0
DICTIONARY
  5
4C
102
{ACAD_REACTORS
330
47
102
}
330
47
100
AcDbDictionary
281
     1
  0
XRECORD
  5
21A4
102
{ACAD_REACTORS
330
47
102
}
330
47
100
AcDbXrecord
280
     1
 90
-1023410169
  0
XRECORD
  5
2D7C
102
{ACAD_REACTORS
330
2D7B
102
}
330
2D7B
100
AcDbXrecord
280
     1
330
0
330
0
330
0
330
0
330
0
330
0
330
0
330
0
330
0
330
0
330
0
330
0
330
0
330
0
330
0
330
0
330
0
330
0
330
0
330
0
330
0
330
0
330
0
330
0
330
0
330
0
330
0
330
0
330
0
330
0
330
0
330
0
330
0
330
0
330
0
330
0
330
0
330
0
330
0
330
0
330
0
330
0
330
0
330
0
330
0
330
0
330
0
330
0
330
0
330
0
330
0
330
0
330
0
330
0
330
0
330
0
330
0
330
0
330
0
330
0
  0
DICTIONARY
  5
4BA9
330
22
100
AcDbDictionary
280
     1
281
     1
  3
ACAD_XREC_ROUNDTRIP
360
4BAA
  0
DICTIONARY
  5
4BA7
330
1E
100
AcDbDictionary
280
     1
281
     1
  3
ACAD_XREC_ROUNDTRIP
360
4BA8
  0
DICTIONARY
  5
4BAB
330
26
100
AcDbDictionary
280
     1
281
     1
  3
ACAD_XREC_ROUNDTRIP
360
4BAC
  0
DICTIONARY
  5
4BAD
330
7A0
100
AcDbDictionary
280
     1
281
     1
  3
ACAD_XREC_ROUNDTRIP
360
4BAE
  0
DICTIONARY
  5
4BAF
330
7A1
100
AcDbDictionary
280
     1
281
     1
  3
ACAD_XREC_ROUNDTRIP
360
4BB0
  0
DICTIONARY
  5
4BB1
330
7A2
100
AcDbDictionary
280
     1
281
     1
  3
ACAD_XREC_ROUNDTRIP
360
4BB2
  0
DICTIONARY
  5
4BB3
330
7A3
100
AcDbDictionary
280
     1
281
     1
  3
ACAD_XREC_ROUNDTRIP
360
4BB4
  0
DICTIONARY
  5
4BB5
330
7A4
100
AcDbDictionary
280
     1
281
     1
  3
ACAD_XREC_ROUNDTRIP
360
4BB6
  0
DICTIONARY
  5
4BB7
330
7A5
100
AcDbDictionary
280
     1
281
     1
  3
ACAD_XREC_ROUNDTRIP
360
4BB8
  0
DICTIONARY
  5
4BB9
330
7A6
100
AcDbDictionary
280
     1
281
     1
  3
ACAD_XREC_ROUNDTRIP
360
4BBA
  0
XRECORD
  5
4BAA
102
{ACAD_REACTORS
330
4BA9
102
}
330
4BA9
100
AcDbXrecord
280
     1
102
SHADEPLOT
 70
     0
102
SHADEPLOTRESLEVEL
 70
     2
102
SHADEPLOTCUSTOMDPI
 70
   300
  0
XRECORD
  5
4BA8
102
{ACAD_REACTORS
330
4BA7
102
}
330
4BA7
100
AcDbXrecord
280
     1
102
SHADEPLOT
 70
     0
102
SHADEPLOTRESLEVEL
 70
     2
102
SHADEPLOTCUSTOMDPI
 70
   300
  0
XRECORD
  5
4BAC
102
{ACAD_REACTORS
330
4BAB
102
}
330
4BAB
100
AcDbXrecord
280
     1
102
SHADEPLOT
 70
     0
102
SHADEPLOTRESLEVEL
 70
     2
102
SHADEPLOTCUSTOMDPI
 70
   300
  0
XRECORD
  5
4BAE
102
{ACAD_REACTORS
330
4BAD
102
}
330
4BAD
100
AcDbXrecord
280
     1
102
SHADEPLOT
 70
     0
102
SHADEPLOTRESLEVEL
 70
     2
102
SHADEPLOTCUSTOMDPI
 70
   300
  0
XRECORD
  5
4BB0
102
{ACAD_REACTORS
330
4BAF
102
}
330
4BAF
100
AcDbXrecord
280
     1
102
SHADEPLOT
 70
     0
102
SHADEPLOTRESLEVEL
 70
     2
102
SHADEPLOTCUSTOMDPI
 70
   300
  0
XRECORD
  5
4BB2
102
{ACAD_REACTORS
330
4BB1
102
}
330
4BB1
100
AcDbXrecord
280
     1
102
SHADEPLOT
 70
     0
102
SHADEPLOTRESLEVEL
 70
     2
102
SHADEPLOTCUSTOMDPI
 70
   300
  0
XRECORD
  5
4BB4
102
{ACAD_REACTORS
330
4BB3
102
}
330
4BB3
100
AcDbXrecord
280
     1
102
SHADEPLOT
 70
     0
102
SHADEPLOTRESLEVEL
 70
     2
102
SHADEPLOTCUSTOMDPI
 70
   300
  0
XRECORD
  5
4BB6
102
{ACAD_REACTORS
330
4BB5
102
}
330
4BB5
100
AcDbXrecord
280
     1
102
SHADEPLOT
 70
     0
102
SHADEPLOTRESLEVEL
 70
     2
102
SHADEPLOTCUSTOMDPI
 70
   300
  0
XRECORD
  5
4BB8
102
{ACAD_REACTORS
330
4BB7
102
}
330
4BB7
100
AcDbXrecord
280
     1
102
SHADEPLOT
 70
     0
102
SHADEPLOTRESLEVEL
 70
     2
102
SHADEPLOTCUSTOMDPI
 70
   300
  0
XRECORD
  5
4BBA
102
{ACAD_REACTORS
330
4BB9
102
}
330
4BB9
100
AcDbXrecord
280
     1
102
SHADEPLOT
 70
     0
102
SHADEPLOTRESLEVEL
 70
     2
102
SHADEPLOTCUSTOMDPI
 70
   300
  0
ENDSEC
  0
EOF
