  0
SECTION
  2
HEADER
  9
$ACADVER
  1
AC1015
  9
$ACADMAINTVER
 70
    20
  9
$DWGCODEPAGE
  3
ANSI_932
  9
$INSBASE
 10
0.0
 20
0.0
 30
0.0
  9
$EXTMIN
 10
260.5514581085415
 20
144.0099384817174
 30
-0.0000000000000082
  9
$EXTMAX
 10
784.0899688561239
 20
561.3749504699881
 30
0.0000000000000071
  9
$LIMMIN
 10
0.0
 20
0.0
  9
$LIMMAX
 10
853.5
 20
555.0000000000001
  9
$ORTHOMODE
 70
     0
  9
$REGENMODE
 70
     1
  9
$FILLMODE
 70
     1
  9
$QTEXTMODE
 70
     0
  9
$MIRRTEXT
 70
     1
  9
$LTSCALE
 40
3.0
  9
$ATTMODE
 70
     1
  9
$TEXTSIZE
 40
2.5
  9
$TRACEWID
 40
1.0
  9
$TEXTSTYLE
  7
STANDARD
  9
$CLAYER
  8
AM_0
  9
$CELTYPE
  6
ByLayer
  9
$CECOLOR
 62
   256
  9
$CELTSCALE
 40
1.0
  9
$DISPSILH
 70
     0
  9
$DIMSCALE
 40
1.0
  9
$DIMASZ
 40
2.5
  9
$DIMEXO
 40
1.0
  9
$DIMDLI
 40
8.0
  9
$DIMRND
 40
0.0
  9
$DIMDLE
 40
0.0
  9
$DIMEXE
 40
0.6
  9
$DIMTP
 40
0.1
  9
$DIMTM
 40
0.1
  9
$DIMTXT
 40
2.5
  9
$DIMCEN
 40
0.0
  9
$DIMTSZ
 40
0.0
  9
$DIMTOL
 70
     0
  9
$DIMLIM
 70
     0
  9
$DIMTIH
 70
     0
  9
$DIMTOH
 70
     0
  9
$DIMSE1
 70
     0
  9
$DIMSE2
 70
     0
  9
$DIMTAD
 70
     1
  9
$DIMZIN
 70
     8
  9
$DIMBLK
  1

  9
$DIMASO
 70
     1
  9
$DIMSHO
 70
     1
  9
$DIMPOST
  1

  9
$DIMAPOST
  1
"
  9
$DIMALT
 70
     0
  9
$DIMALTD
 70
     2
  9
$DIMALTF
 40
0.0393701
  9
$DIMLFAC
 40
1.0
  9
$DIMTOFL
 70
     1
  9
$DIMTVP
 40
0.0
  9
$DIMTIX
 70
     0
  9
$DIMSOXD
 70
     0
  9
$DIMSAH
 70
     0
  9
$DIMBLK1
  1

  9
$DIMBLK2
  1

  9
$DIMSTYLE
  2
AM_ISO
  9
$DIMCLRD
 70
   256
  9
$DIMCLRE
 70
   256
  9
$DIMCLRT
 70
     4
  9
$DIMTFAC
 40
0.71
  9
$DIMGAP
 40
0.8
  9
$DIMJUST
 70
     0
  9
$DIMSD1
 70
     0
  9
$DIMSD2
 70
     0
  9
$DIMTOLJ
 70
     0
  9
$DIMTZIN
 70
     8
  9
$DIMALTZ
 70
     0
  9
$DIMALTTZ
 70
     0
  9
$DIMUPT
 70
     0
  9
$DIMDEC
 70
     2
  9
$DIMTDEC
 70
     2
  9
$DIMALTU
 70
     2
  9
$DIMALTTD
 70
     2
  9
$DIMTXSTY
  7
STANDARD
  9
$DIMAUNIT
 70
     0
  9
$DIMADEC
 70
     0
  9
$DIMALTRND
 40
0.0
  9
$DIMAZIN
 70
     2
  9
$DIMDSEP
 70
    46
  9
$DIMATFIT
 70
     3
  9
$DIMFRAC
 70
     0
  9
$DIMLDRBLK
  1

  9
$DIMLUNIT
 70
     2
  9
$DIMLWD
 70
    -1
  9
$DIMLWE
 70
    -1
  9
$DIMTMOVE
 70
     0
  9
$LUNITS
 70
     2
  9
$LUPREC
 70
     2
  9
$SKETCHINC
 40
1.0
  9
$FILLETRAD
 40
5.0
  9
$AUNITS
 70
     0
  9
$AUPREC
 70
     0
  9
$MENU
  1
.
  9
$ELEVATION
 40
0.0
  9
$PELEVATION
 40
0.0
  9
$THICKNESS
 40
0.0
  9
$LIMCHECK
 70
     0
  9
$CHAMFERA
 40
6.0
  9
$CHAMFERB
 40
3.0
  9
$CHAMFERC
 40
20.0
  9
$CHAMFERD
 40
0.0
  9
$SKPOLY
 70
     0
  9
$TDCREATE
 40
2452065.605619213
  9
$TDUCREATE
 40
2452065.230619213
  9
$TDUPDATE
 40
2454770.811110937
  9
$TDUUPDATE
 40
2454770.436110937
  9
$TDINDWG
 40
0.5016721759
  9
$TDUSRTIMER
 40
0.5016719907
  9
$USRTIMER
 70
     1
  9
$ANGBASE
 50
0.0
  9
$ANGDIR
 70
     0
  9
$PDMODE
 70
     0
  9
$PDSIZE
 40
0.0
  9
$PLINEWID
 40
0.0
  9
$SPLFRAME
 70
     0
  9
$SPLINETYPE
 70
     6
  9
$SPLINESEGS
 70
     8
  9
$HANDSEED
  5
5335
  9
$SURFTAB1
 70
     6
  9
$SURFTAB2
 70
     6
  9
$SURFTYPE
 70
     6
  9
$SURFU
 70
     6
  9
$SURFV
 70
     6
  9
$UCSBASE
  2

  9
$UCSNAME
  2

  9
$UCSORG
 10
0.0
 20
0.0
 30
0.0
  9
$UCSXDIR
 10
1.0
 20
0.0
 30
0.0
  9
$UCSYDIR
 10
0.0
 20
1.0
 30
0.0
  9
$UCSORTHOREF
  2

  9
$UCSORTHOVIEW
 70
     0
  9
$UCSORGTOP
 10
0.0
 20
0.0
 30
0.0
  9
$UCSORGBOTTOM
 10
0.0
 20
0.0
 30
0.0
  9
$UCSORGLEFT
 10
0.0
 20
0.0
 30
0.0
  9
$UCSORGRIGHT
 10
0.0
 20
0.0
 30
0.0
  9
$UCSORGFRONT
 10
0.0
 20
0.0
 30
0.0
  9
$UCSORGBACK
 10
0.0
 20
0.0
 30
0.0
  9
$PUCSBASE
  2

  9
$PUCSNAME
  2

  9
$PUCSORG
 10
0.0
 20
0.0
 30
0.0
  9
$PUCSXDIR
 10
1.0
 20
0.0
 30
0.0
  9
$PUCSYDIR
 10
0.0
 20
1.0
 30
0.0
  9
$PUCSORTHOREF
  2

  9
$PUCSORTHOVIEW
 70
     0
  9
$PUCSORGTOP
 10
0.0
 20
0.0
 30
0.0
  9
$PUCSORGBOTTOM
 10
0.0
 20
0.0
 30
0.0
  9
$PUCSORGLEFT
 10
0.0
 20
0.0
 30
0.0
  9
$PUCSORGRIGHT
 10
0.0
 20
0.0
 30
0.0
  9
$PUCSORGFRONT
 10
0.0
 20
0.0
 30
0.0
  9
$PUCSORGBACK
 10
0.0
 20
0.0
 30
0.0
  9
$USERI1
 70
     0
  9
$USERI2
 70
     0
  9
$USERI3
 70
     0
  9
$USERI4
 70
     0
  9
$USERI5
 70
     0
  9
$USERR1
 40
0.0
  9
$USERR2
 40
0.0
  9
$USERR3
 40
0.0
  9
$USERR4
 40
0.0
  9
$USERR5
 40
0.0
  9
$WORLDVIEW
 70
     1
  9
$SHADEDGE
 70
     3
  9
$SHADEDIF
 70
    70
  9
$TILEMODE
 70
     1
  9
$MAXACTVP
 70
    64
  9
$PINSBASE
 10
0.0
 20
0.0
 30
0.0
  9
$PLIMCHECK
 70
     0
  9
$PEXTMIN
 10
1.000000000000000E+20
 20
1.000000000000000E+20
 30
1.000000000000000E+20
  9
$PEXTMAX
 10
-1.000000000000000E+20
 20
-1.000000000000000E+20
 30
-1.000000000000000E+20
  9
$PLIMMIN
 10
0.0
 20
0.0
  9
$PLIMMAX
 10
420.0
 20
297.0
  9
$UNITMODE
 70
     0
  9
$VISRETAIN
 70
     1
  9
$PLINEGEN
 70
     0
  9
$PSLTSCALE
 70
     1
  9
$TREEDEPTH
 70
  3020
  9
$CMLSTYLE
  2
Standard
  9
$CMLJUST
 70
     0
  9
$CMLSCALE
 40
20.0
  9
$PROXYGRAPHICS
 70
     1
  9
$MEASUREMENT
 70
     1
  9
$CELWEIGHT
370
    -1
  9
$ENDCAPS
280
     0
  9
$JOINSTYLE
280
     0
  9
$LWDISPLAY
290
     0
  9
$INSUNITS
 70
     4
  9
$HYPERLINKBASE
  1

  9
$STYLESHEET
  1
acad1.ctb
  9
$XEDIT
290
     1
  9
$CEPSNTYPE
380
     0
  9
$PSTYLEMODE
290
     1
  9
$FINGERPRINTGUID
  2
{91B11402-3528-11D5-BE34-000255C217F4}
  9
$VERSIONGUID
  2
{D33B7ABF-D085-4BFA-8888-AAEB082E1B56}
  9
$EXTNAMES
290
     1
  9
$PSVPSCALE
 40
0.0
  9
$OLESTARTUP
290
     0
  0
ENDSEC
  0
SECTION
  2
CLASSES
  0
CLASS
  1
ACDBDICTIONARYWDFLT
  2
AcDbDictionaryWithDefault
  3
ObjectDBX Classes
 90
        0
280
     0
281
     0
  0
CLASS
  1
ACDBPLACEHOLDER
  2
AcDbPlaceHolder
  3
ObjectDBX Classes
 90
        0
280
     0
281
     0
  0
CLASS
  1
LAYOUT
  2
AcDbLayout
  3
ObjectDBX Classes
 90
        0
280
     0
281
     0
  0
CLASS
  1
AMGSETTINGSOBJ
  2
AmgSettingsObj
  3
"AcadM|Product Description: AutoCAD Mechanical 2000|Company: Autodesk"
 90
        0
280
     0
281
     0
  0
CLASS
  1
ACME_DOCUMENT
  2
AcMeDbDoc
  3
AcMeServices
 90
        0
280
     0
281
     0
  0
CLASS
  1
ACMESCOPE
  2
AcMeScope
  3
AcMeServices
 90
        0
280
     0
281
     0
  0
CLASS
  1
ACMECOMMANDHISTORY
  2
AcMeCommandHistory
  3
AcMeServices
 90
        0
280
     0
281
     0
  0
CLASS
  1
DICTIONARYVAR
  2
AcDbDictionaryVar
  3
ObjectDBX Classes
 90
        0
280
     0
281
     0
  0
CLASS
  1
ACIMSYSVARMAN
  2
AcImSysVarManager
  3
AcMeServices
 90
        0
280
     0
281
     0
  0
CLASS
  1
ACIMREALSYSVAR
  2
AcImRealSysVar
  3
AcMeServices
 90
        0
280
     0
281
     0
  0
CLASS
  1
ACIMINTSYSVAR
  2
AcImIntSysVar
  3
AcMeServices
 90
        0
280
     0
281
     0
  0
CLASS
  1
ACMEDRAWINGMAN
  2
AcMeDrawingMan
  3
AcMeServices
 90
        0
280
     0
281
     0
  0
CLASS
  1
ACMEVIEW
  2
AcMeView
  3
AcMeServices
 90
        0
280
     0
281
     0
  0
CLASS
  1
ACDBENTITYCACHE
  2
AcMeEntityCache
  3
AcMeServices
 90
        0
280
     0
281
     0
  0
CLASS
  1
GSMANAGER
  2
AcMeGSManager
  3
AcMeServices
 90
        0
280
     0
281
     0
  0
CLASS
  1
AMDTINTERNALREACTOR
  2
AmdtInternalReactor
  3
AcMeServices
 90
        0
280
     0
281
     0
  0
CLASS
  1
ACMESTATEMGR
  2
AcMeStateMgr
  3
AcMeServices
 90
        0
280
     0
281
     0
  0
CLASS
  1
ACGREFMASTER
  2
AcGrefMaster
  3
AcAttribServices
 90
        0
280
     0
281
     0
  0
CLASS
  1
ACME_DATABASE
  2
AcMeDbDatabase
  3
AcMeServices
 90
        0
280
     0
281
     0
  0
CLASS
  1
ACRFINSADJUSTERMGR
  2
AcRfInsAdjusterMgr
  3
AcMeServices
 90
        0
280
     0
281
     0
  0
CLASS
  1
ACGREFACADMASTER
  2
AcGrefacadMaster
  3
AcGrefServices
 90
        0
280
     0
281
     0
  0
CLASS
  1
AMIMASTER
  2
AmiMaster
  3
AmiServices
 90
        0
280
     0
281
     0
  0
CLASS
  1
ACMDATADICTIONARY
  2
AcmDataDictionary
  3
"AcmSymBB|Product Description: AutoCAD Mechanical 2004 DX|Company: Autodesk"
 90
        0
280
     0
281
     0
  0
CLASS
  1
ACMDATAENTRYBLOCK
  2
AcmDataEntryBlock
  3
"AcmSymBB|Product Description: AutoCAD Mechanical 2004 DX|Company: Autodesk"
 90
        0
280
     0
281
     0
  0
CLASS
  1
ACIMSTRSYSVAR
  2
AcImStrSysVar
  3
AcMeServices
 90
        0
280
     0
281
     0
  0
CLASS
  1
ACMSTANDARDISO
  2
AcmStandardISO
  3
"Amdt_StdImp|Product Description: AutoCAD Mechanical 2004 DX|Company: Autodesk"
 90
        0
280
     0
281
     0
  0
CLASS
  1
AMGOBJPROPCFG
  2
AmgObjPropCfg
  3
"AmgLay|Product Description: AutoCAD Mechanical 2000|Company: Autodesk"
 90
        1
280
     0
281
     0
  0
CLASS
  1
AMDTEDGESTANDARDISO
  2
AmdtEdgeStdISO
  3
"Amdt_StdImp|Product Description: AutoCAD Mechanical 2004 DX|Company: Autodesk"
 90
        0
280
     0
281
     0
  0
CLASS
  1
ACMSURFSTANDARDISO
  2
AcmSurfTextStdISO
  3
"Amdt_StdImp|Product Description: AutoCAD Mechanical 2004 DX|Company: Autodesk"
 90
        0
280
     0
281
     0
  0
CLASS
  1
ACMFCFSTANDARDISO
  2
AcmFCFStdISO
  3
"Amdt_StdImp|Product Description: AutoCAD Mechanical 2004 DX|Company: Autodesk"
 90
        0
280
     0
281
     0
  0
CLASS
  1
ACMWELDSTANDARDISO
  2
AcmWeldingStdISO
  3
"Amdt_StdImp|Product Description: AutoCAD Mechanical 2004 DX|Company: Autodesk"
 90
        0
280
     0
281
     0
  0
CLASS
  1
ACMIDSTANDARDISO
  2
AcmIdStdISO
  3
"Amdt_StdImp|Product Description: AutoCAD Mechanical 2004 DX|Company: Autodesk"
 90
        0
280
     0
281
     0
  0
CLASS
  1
ACMDATUMSTANDARDISO
  2
AcmDatumStdISO
  3
"Amdt_StdImp|Product Description: AutoCAD Mechanical 2004 DX|Company: Autodesk"
 90
        0
280
     0
281
     0
  0
CLASS
  1
ACMBOMSTANDARDISO
  2
AcmBOMStdISO
  3
"Amdt_StdImp|Product Description: AutoCAD Mechanical 2004 DX|Company: Autodesk"
 90
        0
280
     0
281
     0
  0
CLASS
  1
ACMDETAILSTANDARDISO
  2
AmdtDetailSymStdISO
  3
"Amdt_StdImp|Product Description: AutoCAD Mechanical 2004 DX|Company: Autodesk"
 90
        0
280
     0
281
     0
  0
CLASS
  1
ACMSECTIONSTANDARDISO
  2
AmdtSectionSymStdISO
  3
"Amdt_StdImp|Product Description: AutoCAD Mechanical 2004 DX|Company: Autodesk"
 90
        0
280
     0
281
     0
  0
CLASS
  1
ACMCENTERLINESTANDARDISO
  2
AmdtCenterLineStdISO
  3
"Amdt_StdImp|Product Description: AutoCAD Mechanical 2004 DX|Company: Autodesk"
 90
        0
280
     0
281
     0
  0
CLASS
  1
ACAMGLAYSTD
  2
AcAmgLayStd
  3
"AcAmgLayStd|Product Description: AutoCAD Mechanical 2000|Company: Autodesk"
 90
        0
280
     0
281
     0
  0
CLASS
  1
ACAMGDIMSTD
  2
AcAmgDimStd
  3
"AcAmgDimStd|Product Description: AutoCAD Mechanical 2000|Company: Autodesk"
 90
        0
280
     0
281
     0
  0
CLASS
  1
ACAMGTITLESTD
  2
AcAmgTitleStd
  3
"TITLEAPP"
 90
        0
280
     0
281
     0
  0
CLASS
  1
ACAMGFILTERDAT
  2
AcAmgFilterDat
  3
"AcadM|Product Description: AutoCAD Mechanical 2000|Company: Autodesk"
 90
        0
280
     0
281
     0
  0
CLASS
  1
AMDTFORMULAUPDATEDISPATCHER
  2
AmdtFormulaUpdateDispatcher
  3
AcMeServices
 90
        0
280
     0
281
     0
  0
CLASS
  1
LAYER_INDEX
  2
AcDbLayerIndex
  3
ObjectDBX Classes
 90
    32768
280
     0
281
     0
  0
CLASS
  1
IDBUFFER
  2
AcDbIdBuffer
  3
ObjectDBX Classes
 90
    32768
280
     0
281
     0
  0
CLASS
  1
PLOTSETTINGS
  2
AcDbPlotSettings
  3
ObjectDBX Classes
 90
        0
280
     0
281
     0
  0
CLASS
  1
ACMSTANDARDANSI
  2
AcmStandardANSI
  3
"Amdt_StdImp|Product Description: AutoCAD Mechanical 2004 DX|Company: Autodesk"
 90
        0
280
     0
281
     0
  0
CLASS
  1
ACMSURFSTANDARDANSI
  2
AcmSurfTextStdANSI
  3
"Amdt_StdImp|Product Description: AutoCAD Mechanical 2004 DX|Company: Autodesk"
 90
        0
280
     0
281
     0
  0
CLASS
  1
ACMFCFSTANDARDANSI
  2
AcmFCFStdANSI
  3
"Amdt_StdImp|Product Description: AutoCAD Mechanical 2004 DX|Company: Autodesk"
 90
        0
280
     0
281
     0
  0
CLASS
  1
ACMWELDSTANDARDANSI
  2
AcmWeldingStdANSI
  3
"Amdt_StdImp|Product Description: AutoCAD Mechanical 2004 DX|Company: Autodesk"
 90
        0
280
     0
281
     0
  0
CLASS
  1
ACMIDSTANDARDANSI
  2
AcmIdStdANSI
  3
"Amdt_StdImp|Product Description: AutoCAD Mechanical 2004 DX|Company: Autodesk"
 90
        0
280
     0
281
     0
  0
CLASS
  1
ACMDATUMSTANDARDANSI
  2
AcmDatumStdANSI
  3
"Amdt_StdImp|Product Description: AutoCAD Mechanical 2004 DX|Company: Autodesk"
 90
        0
280
     0
281
     0
  0
CLASS
  1
ACMBOMSTANDARDANSI
  2
AcmBOMStdANSI
  3
"Amdt_StdImp|Product Description: AutoCAD Mechanical 2004 DX|Company: Autodesk"
 90
        0
280
     0
281
     0
  0
CLASS
  1
ACMDETAILSTANDARDANSI
  2
AmdtDetailSymStdANSI
  3
"Amdt_StdImp|Product Description: AutoCAD Mechanical 2004 DX|Company: Autodesk"
 90
        0
280
     0
281
     0
  0
CLASS
  1
ACMSECTIONSTANDARDANSI
  2
AmdtSectionSymStdANSI
  3
"Amdt_StdImp|Product Description: AutoCAD Mechanical 2004 DX|Company: Autodesk"
 90
        0
280
     0
281
     0
  0
CLASS
  1
ACMCENTERLINESTANDARDANSI
  2
AmdtCenterLineStdANSI
  3
"Amdt_StdImp|Product Description: AutoCAD Mechanical 2004 DX|Company: Autodesk"
 90
        0
280
     0
281
     0
  0
CLASS
  1
ACMSTANDARDJIS
  2
AcmStandardJIS
  3
"Amdt_StdImp|Product Description: AutoCAD Mechanical 2004 DX|Company: Autodesk"
 90
        0
280
     0
281
     0
  0
CLASS
  1
ACMSURFSTANDARDJIS
  2
AcmSurfTextStdJIS
  3
"Amdt_StdImp|Product Description: AutoCAD Mechanical 2004 DX|Company: Autodesk"
 90
        0
280
     0
281
     0
  0
CLASS
  1
ACMFCFSTANDARDJIS
  2
AcmFCFStdJIS
  3
"Amdt_StdImp|Product Description: AutoCAD Mechanical 2004 DX|Company: Autodesk"
 90
        0
280
     0
281
     0
  0
CLASS
  1
ACMWELDSTANDARDJIS
  2
AcmWeldingStdJIS
  3
"Amdt_StdImp|Product Description: AutoCAD Mechanical 2004 DX|Company: Autodesk"
 90
        0
280
     0
281
     0
  0
CLASS
  1
ACMIDSTANDARDJIS
  2
AcmIdStdJIS
  3
"Amdt_StdImp|Product Description: AutoCAD Mechanical 2004 DX|Company: Autodesk"
 90
        0
280
     0
281
     0
  0
CLASS
  1
ACMDATUMSTANDARDJIS
  2
AcmDatumStdJIS
  3
"Amdt_StdImp|Product Description: AutoCAD Mechanical 2004 DX|Company: Autodesk"
 90
        0
280
     0
281
     0
  0
CLASS
  1
ACMBOMSTANDARDJIS
  2
AcmBOMStdJIS
  3
"Amdt_StdImp|Product Description: AutoCAD Mechanical 2004 DX|Company: Autodesk"
 90
        0
280
     0
281
     0
  0
CLASS
  1
ACMDETAILSTANDARDJIS
  2
AmdtDetailSymStdJIS
  3
"Amdt_StdImp|Product Description: AutoCAD Mechanical 2004 DX|Company: Autodesk"
 90
        0
280
     0
281
     0
  0
CLASS
  1
ACMSECTIONSTANDARDJIS
  2
AmdtSectionSymStdJIS
  3
"Amdt_StdImp|Product Description: AutoCAD Mechanical 2004 DX|Company: Autodesk"
 90
        0
280
     0
281
     0
  0
CLASS
  1
ACMCENTERLINESTANDARDJIS
  2
AmdtCenterLineStdJIS
  3
"Amdt_StdImp|Product Description: AutoCAD Mechanical 2004 DX|Company: Autodesk"
 90
        0
280
     0
281
     0
  0
CLASS
  1
TABLESTYLE
  2
AcDbTableStyle
  3
ObjectDBX Classes
 90
     2047
280
     0
281
     0
  0
CLASS
  1
AM_DRAWING_MGR
  2
AcDmDwgMgr
  3
AcMechDwgViewMgmt
 90
        0
280
     0
281
     0
  0
CLASS
  1
AM_DWG_DOCUMENT
  2
AcDmDwgDocument
  3
AcMechDwgViewMgmt
 90
        0
280
     0
281
     0
  0
CLASS
  1
AM_DWG_SHEET
  2
AcDmSheet
  3
AcMechDwgViewMgmt
 90
        0
280
     0
281
     0
  0
CLASS
  1
AM_VIEWDIMPARMAP
  2
AcDmViewDimParMap
  3
AcMechDwgViewMgmt
 90
        0
280
     0
281
     0
  0
CLASS
  1
AM_DWGMGR_NAME
  2
AcDmDwgMgrName
  3
AcMechDwgViewMgmt
 90
        0
280
     0
281
     0
  0
CLASS
  1
AMDTMENUSTATEMGR
  2
AmdtMenuStateMgr
  3
McadcomServices
 90
        0
280
     0
281
     0
  0
CLASS
  1
AMDTMCOMMENUSTATE
  2
AmdtMcomMenuState
  3
McadcomServices
 90
        0
280
     0
281
     0
  0
CLASS
  1
MAPIAMMOUDLE
  2
MApiAmModule
  3
MApiAmServices
 90
        0
280
     0
281
     0
  0
CLASS
  1
AMDTADMENUSTATE
  2
AmdtAdMenuState
  3
DesignerServices
 90
        0
280
     0
281
     0
  0
CLASS
  1
ADAPPL
  2
AcAdAppl
  3
DesignerServices
 90
        0
280
     0
281
     0
  0
CLASS
  1
DEPMGR
  2
AcAdDepMgr
  3
DesignerServices
 90
        0
280
     0
281
     0
  0
CLASS
  1
PARAMMGR
  2
AcAdParamMgr
  3
DesignerServices
 90
        0
280
     0
281
     0
  0
CLASS
  1
PARAMSCOPE
  2
AcAdParamScope
  3
DesignerServices
 90
        0
280
     0
281
     0
  0
CLASS
  1
NAMEDAPPL
  2
AcAdNamedAppl
  3
DesignerServices
 90
        0
280
     0
281
     0
  0
CLASS
  1
AMDTDMMENUSTATE
  2
AmdtDmMenuState
  3
AcMechDwgViewMgmt
 90
        0
280
     0
281
     0
  0
CLASS
  1
AMDTAMMENUSTATE
  2
AmdtAmMenuState
  3
DesignerAssemblies
 90
        0
280
     0
281
     0
  0
CLASS
  1
ACAMPROJECT
  2
AcAmProject
  3
DesignerAssemblies
 90
        0
280
     0
281
     0
  0
CLASS
  1
ACAMGRCOMPDEF
  2
AcAmGrCompDef
  3
DesignerAssemblies
 90
        0
280
     0
281
     0
  0
CLASS
  1
ACCMCONTEXT
  2
AcCmContext
  3
DesignerAssemblies
 90
        0
280
     0
281
     0
  0
CLASS
  1
ACAMCOMPDEF
  2
AcAmCompDef
  3
DesignerAssemblies
 90
        0
280
     0
281
     0
  0
CLASS
  1
ACAMCOMPDEFMGR
  2
AcAmCompDefMgr
  3
DesignerAssemblies
 90
        0
280
     0
281
     0
  0
CLASS
  1
AMCONTEXTMGR
  2
AcAmContextMgr
  3
DesignerAssemblies
 90
        0
280
     0
281
     0
  0
CLASS
  1
ACAMCONTEXTMODELER
  2
AcAmContextModeler
  3
DesignerAssemblies
 90
        0
280
     0
281
     0
  0
CLASS
  1
ACMTHREADLINESTANDARDISO
  2
AmdtThreadLineStdISO
  3
"Amdt_StdImp|Product Description: AutoCAD Mechanical 2004 DX|Company: Autodesk"
 90
        0
280
     0
281
     0
  0
CLASS
  1
ACMNOTESTANDARDISO
  2
AmdtNoteStdISO
  3
"Amdt_StdImp|Product Description: AutoCAD Mechanical 2004 DX|Company: Autodesk"
 90
        0
280
     0
281
     0
  0
CLASS
  1
AMDTNOTETEMPLATEDB
  2
AmdtNoteTemplateDB
  3
AMDT_STDIMP_MODULE_NAME
 90
        0
280
     0
281
     0
  0
CLASS
  1
ACMTHREADLINESTANDARDANSI
  2
AmdtThreadLineStdANSI
  3
"Amdt_StdImp|Product Description: AutoCAD Mechanical 2004 DX|Company: Autodesk"
 90
        0
280
     0
281
     0
  0
CLASS
  1
ACMNOTESTANDARDANSI
  2
AmdtNoteStdANSI
  3
"Amdt_StdImp|Product Description: AutoCAD Mechanical 2004 DX|Company: Autodesk"
 90
        0
280
     0
281
     0
  0
CLASS
  1
ACMTHREADLINESTANDARDJIS
  2
AmdtThreadLineStdJIS
  3
"Amdt_StdImp|Product Description: AutoCAD Mechanical 2004 DX|Company: Autodesk"
 90
        0
280
     0
281
     0
  0
CLASS
  1
ACMNOTESTANDARDJIS
  2
AmdtNoteStdJIS
  3
"Amdt_StdImp|Product Description: AutoCAD Mechanical 2004 DX|Company: Autodesk"
 90
        0
280
     0
281
     0
  0
CLASS
  1
CATALOGSTATE
  2
AcAmCatalogState
  3
DesignerAssemblies
 90
        0
280
     0
281
     0
  0
CLASS
  1
ACAMGRCOMPDEFSET
  2
AcAmGrCompDefSet
  3
DesignerAssemblies
 90
        0
280
     0
281
     0
  0
CLASS
  1
AMDTBROWSERDBTAB
  2
AmdtBrowserDbTab
  3
McadcomServices
 90
        0
280
     0
281
     0
  0
CLASS
  1
CBROWSERAPPOBJECT
  2
CBrowserAppObject
  3
McadcomServices
 90
        0
280
     0
281
     0
  0
CLASS
  1
DM_PLACEHOLDER
  2
AcDmSelsetPlaceholder
  3
AcMechDwgViewMgmt
 90
        0
280
     0
281
     0
  0
CLASS
  1
DIMASSOC
  2
AcDbDimAssoc
  3
"AcDbDimAssoc|Product Desc:     AcDim ARX App For Dimension|Company:          Autodesk, Inc.|WEB Address:      www.autodesk.com"
 90
    32768
280
     0
281
     0
  0
CLASS
  1
SORTENTSTABLE
  2
AcDbSortentsTable
  3
ObjectDBX Classes
 90
        0
280
     0
281
     0
  0
CLASS
  1
STDPART2D
  2
AmgStdPart
  3
"AmgStdPart|Product Description: AutoCAD Mechanical 2000|Company: Autodesk"
 90
    33791
280
     0
281
     1
  0
CLASS
  1
AMDTNOTE
  2
AmdtNote
  3
"AcmSymBB|Product Description: AutoCAD Mechanical 2004 DX|Company: Autodesk"
 90
    33791
280
     0
281
     1
  0
CLASS
  1
ACMDATUMID
  2
AcmDatumId
  3
"AcmSymBB|Product Description: AutoCAD Mechanical 2004 DX|Company: Autodesk"
 90
     1023
280
     0
281
     1
  0
CLASS
  1
ACRFATTGENMGR
  2
AcRfAttGeneralMgr
  3
AcAttribServices
 90
        0
280
     0
281
     0
  0
ENDSEC
  0
SECTION
  2
TABLES
  0
TABLE
  2
VPORT
  5
8
330
0
100
AcDbSymbolTable
 70
    21
  0
VPORT
  5
531E
330
8
100
AcDbSymbolTableRecord
100
AcDbViewportTableRecord
  2
*Active
 70
     0
 10
0.0
 20
0.0
 11
1.0
 21
1.0
 12
522.3207134823328
 22
352.6924444758528
 13
0.0
 23
0.0
 14
7.5
 24
7.5
 15
30.0
 25
30.0
 16
0.0
 26
0.0
 36
1.0
 17
0.0
 27
0.0
 37
0.0
 40
420.4226311237158
 41
1.475550122249388
 42
50.0
 43
0.0
 44
0.0
 50
0.0
 51
0.0
 71
     0
 72
   100
 73
     1
 74
     3
 75
     0
 76
     0
 77
     0
 78
     0
281
     0
 65
     1
110
0.0
120
0.0
130
0.0
111
1.0
121
0.0
131
0.0
112
0.0
122
1.0
132
0.0
 79
     0
146
0.0
  0
ENDTAB
  0
TABLE
  2
LTYPE
  5
5
330
0
100
AcDbSymbolTable
 70
    33
  0
LTYPE
  5
14
330
5
100
AcDbSymbolTableRecord
100
AcDbLinetypeTableRecord
  2
ByBlock
 70
     0
  3

 72
    65
 73
     0
 40
0.0
  0
LTYPE
  5
15
330
5
100
AcDbSymbolTableRecord
100
AcDbLinetypeTableRecord
  2
ByLayer
 70
     0
  3

 72
    65
 73
     0
 40
0.0
  0
LTYPE
  5
16
330
5
100
AcDbSymbolTableRecord
100
AcDbLinetypeTableRecord
  2
Continuous
 70
     0
  3
Solid line
 72
    65
 73
     0
 40
0.0
  0
LTYPE
  5
50
330
5
100
AcDbSymbolTableRecord
100
AcDbLinetypeTableRecord
  2
AM_ISO08W050
 70
     0
  3
____ . ____ . ____ . ____ . ____ . ____ . ____
 72
    65
 73
     4
 40
18.0
 49
12.0
 74
     0
 49
-1.5
 74
     0
 49
3.0
 74
     0
 49
-1.5
 74
     0
  0
LTYPE
  5
53
330
5
100
AcDbSymbolTableRecord
100
AcDbLinetypeTableRecord
  2
AM_ISO08W050x2
 70
     0
  3
__ . __ . __ . __ . __ . __
 72
    65
 73
     4
 40
9.0
 49
6.0
 74
     0
 49
-0.75
 74
     0
 49
1.5
 74
     0
 49
-0.75
 74
     0
  0
LTYPE
  5
6CA
330
5
100
AcDbSymbolTableRecord
100
AcDbLinetypeTableRecord
  2
GEN7
 70
     0
  3
____ . ____ . ____ . ____ . ____ . ____ . ____
 72
    65
 73
     4
 40
14.25
 49
9.75
 74
     0
 49
-1.5
 74
     0
 49
1.5
 74
     0
 49
-1.5
 74
     0
  0
LTYPE
  5
6D8
330
5
100
AcDbSymbolTableRecord
100
AcDbLinetypeTableRecord
  2
GEN7A
 70
     0
  3
__ . __ . __
 72
    65
 73
     4
 40
7.375
 49
4.75
 74
     0
 49
-0.875
 74
     0
 49
0.875
 74
     0
 49
-0.875
 74
     0
  0
ENDTAB
  0
TABLE
  2
LAYER
  5
2
102
{ACAD_XDICTIONARY
360
2D9C
102
}
330
0
100
AcDbSymbolTable
 70
    83
  0
LAYER
  5
10
330
2
100
AcDbSymbolTableRecord
100
AcDbLayerTableRecord
  2
0
 70
     0
 62
     7
  6
Continuous
370
    -3
390
F
  0
LAYER
  5
106
330
2
100
AcDbSymbolTableRecord
100
AcDbLayerTableRecord
  2
AM_5
 70
     0
 62
     2
  6
Continuous
370
    35
390
F
  0
LAYER
  5
124
330
2
100
AcDbSymbolTableRecord
100
AcDbLayerTableRecord
  2
Defpoints
 70
     0
 62
     7
  6
Continuous
290
     0
370
    -3
390
F
  0
LAYER
  5
6FE
330
2
100
AcDbSymbolTableRecord
100
AcDbLayerTableRecord
  2
ﾁｭｳｼﾝｾﾝ
 70
     0
 62
     1
  6
GEN7
370
    -3
390
F
  0
LAYER
  5
6FF
330
2
100
AcDbSymbolTableRecord
100
AcDbLayerTableRecord
  2
ﾁｭｳｼﾝｾﾝ1
 70
     0
 62
     1
  6
GEN7A
370
    -3
390
F
  0
LAYER
  5
71A
330
2
100
AcDbSymbolTableRecord
100
AcDbLayerTableRecord
  2
AM_7
 70
     0
 62
     1
  6
AM_ISO08W050
370
    25
390
F
  0
LAYER
  5
71D
330
2
100
AcDbSymbolTableRecord
100
AcDbLayerTableRecord
  2
AM_0
 70
     0
 62
     7
  6
Continuous
370
    50
390
F
  0
LAYER
  5
1A93
330
2
100
AcDbSymbolTableRecord
100
AcDbLayerTableRecord
  2
図面枠-ｷｲﾛ
 70
     0
 62
     2
  6
Continuous
370
    -3
390
F
  0
ENDTAB
  0
TABLE
  2
STYLE
  5
3
330
0
100
AcDbSymbolTable
 70
    13
  0
STYLE
  5
11
330
3
100
AcDbSymbolTableRecord
100
AcDbTextStyleTableRecord
  2
STANDARD
 70
     0
 40
0.0
 41
0.8299999999999998
 50
0.0
 71
     0
 42
2.5
  3
t.shx
  4
bigfont.shx
  0
ENDTAB
  0
TABLE
  2
VIEW
  5
6
330
0
100
AcDbSymbolTable
 70
     6
  0
VIEW
  5
C2
330
6
100
AcDbSymbolTableRecord
100
AcDbViewTableRecord
  2
AM_VIEW1
 70
     0
 40
277.5000000000001
 10
249.6477900552487
 20
416.2500000000001
 41
499.2955801104973
 11
0.0
 21
0.0
 31
1.0
 12
0.0
 22
0.0
 32
0.0
 42
50.0
 43
0.0
 44
0.0
 50
0.0
 71
     0
281
     0
 72
     0
  0
VIEW
  5
C3
330
6
100
AcDbSymbolTableRecord
100
AcDbViewTableRecord
  2
AM_VIEW2
 70
     0
 40
277.5000000000001
 10
603.8522099447513
 20
416.2500000000001
 41
499.2955801104973
 11
0.0
 21
0.0
 31
1.0
 12
0.0
 22
0.0
 32
0.0
 42
50.0
 43
0.0
 44
0.0
 50
0.0
 71
     0
281
     0
 72
     0
  0
VIEW
  5
C4
330
6
100
AcDbSymbolTableRecord
100
AcDbViewTableRecord
  2
AM_VIEW3
 70
     0
 40
277.5000000000001
 10
249.6477900552487
 20
138.75
 41
499.2955801104973
 11
0.0
 21
0.0
 31
1.0
 12
0.0
 22
0.0
 32
0.0
 42
50.0
 43
0.0
 44
0.0
 50
0.0
 71
     0
281
     0
 72
     0
  0
VIEW
  5
C5
330
6
100
AcDbSymbolTableRecord
100
AcDbViewTableRecord
  2
AM_VIEW4
 70
     0
 40
277.5000000000001
 10
603.8522099447513
 20
138.75
 41
499.2955801104973
 11
0.0
 21
0.0
 31
1.0
 12
0.0
 22
0.0
 32
0.0
 42
50.0
 43
0.0
 44
0.0
 50
0.0
 71
     0
281
     0
 72
     0
  0
VIEW
  5
C6
330
6
100
AcDbSymbolTableRecord
100
AcDbViewTableRecord
  2
AM_VIEW5
 70
     0
 40
277.5000000000001
 10
426.75
 20
277.5000000000001
 41
499.2955801104972
 11
0.0
 21
0.0
 31
1.0
 12
0.0
 22
0.0
 32
0.0
 42
50.0
 43
0.0
 44
0.0
 50
0.0
 71
     0
281
     0
 72
     0
  0
VIEW
  5
C7
330
6
100
AcDbSymbolTableRecord
100
AcDbViewTableRecord
  2
AM_VIEW6
 70
     0
 40
554.9944500000001
 10
426.75
 20
277.5
 41
998.5811743093925
 11
0.0
 21
0.0
 31
1.0
 12
0.0
 22
0.0
 32
0.0
 42
50.0
 43
0.0
 44
0.0
 50
0.0
 71
     0
281
     0
 72
     0
  0
ENDTAB
  0
TABLE
  2
UCS
  5
7
330
0
100
AcDbSymbolTable
 70
     0
  0
ENDTAB
  0
TABLE
  2
APPID
  5
9
330
0
100
AcDbSymbolTable
 70
    95
  0
APPID
  5
12
330
9
100
AcDbSymbolTableRecord
100
AcDbRegAppTableRecord
  2
ACAD
 70
     0
  0
APPID
  5
30
330
9
100
AcDbSymbolTableRecord
100
AcDbRegAppTableRecord
  2
MCAD_NO_VIS
 70
     0
  0
APPID
  5
31
330
9
100
AcDbSymbolTableRecord
100
AcDbRegAppTableRecord
  2
ACAD_TEMP_GRAPHIC
 70
     0
  0
APPID
  5
44
330
9
100
AcDbSymbolTableRecord
100
AcDbRegAppTableRecord
  2
ACATTRIBSERVICES
 70
     0
  0
APPID
  5
8D
330
9
100
AcDbSymbolTableRecord
100
AcDbRegAppTableRecord
  2
GENIUS_GENREC_14
 70
     0
  0
APPID
  5
8E
330
9
100
AcDbSymbolTableRecord
100
AcDbRegAppTableRecord
  2
GENIUS_GENOBJ-N-REC_13
 70
     0
  0
APPID
  5
8F
330
9
100
AcDbSymbolTableRecord
100
AcDbRegAppTableRecord
  2
GENIUS_GENODEF_13
 70
     0
  0
APPID
  5
BD
330
9
100
AcDbSymbolTableRecord
100
AcDbRegAppTableRecord
  2
GENIUS_GENOLIS_13
 70
     0
  0
APPID
  5
BE
330
9
100
AcDbSymbolTableRecord
100
AcDbRegAppTableRecord
  2
GENIUS_GENOBJ-N-TIT_13
 70
     0
  0
APPID
  5
BF
330
9
100
AcDbSymbolTableRecord
100
AcDbRegAppTableRecord
  2
GENIUS_GENOENT_13
 70
     0
  0
APPID
  5
C0
330
9
100
AcDbSymbolTableRecord
100
AcDbRegAppTableRecord
  2
GENIUS_GENTITLE_13
 70
     0
  0
APPID
  5
C1
330
9
100
AcDbSymbolTableRecord
100
AcDbRegAppTableRecord
  2
GENIUS_GENOREF_13
 70
     0
  0
APPID
  5
C8
330
9
100
AcDbSymbolTableRecord
100
AcDbRegAppTableRecord
  2
GENIUS_GENSCREG_15
 70
     0
  0
APPID
  5
C9
330
9
100
AcDbSymbolTableRecord
100
AcDbRegAppTableRecord
  2
GENIUS_GENOBJ-N-SDF_13
 70
     0
  0
APPID
  5
103
330
9
100
AcDbSymbolTableRecord
100
AcDbRegAppTableRecord
  2
GENIUS_GENFIL_13
 70
     0
  0
APPID
  5
104
330
9
100
AcDbSymbolTableRecord
100
AcDbRegAppTableRecord
  2
GENIUS_GENOBJ-N-CHA_13
 70
     0
  0
APPID
  5
13E
330
9
100
AcDbSymbolTableRecord
100
AcDbRegAppTableRecord
  2
GENIUS_GENDTOL_13
 70
     0
  0
APPID
  5
187
330
9
100
AcDbSymbolTableRecord
100
AcDbRegAppTableRecord
  2
GENIUS_GENOBJ-N-FIL_13
 70
     0
  0
APPID
  5
75A
330
9
100
AcDbSymbolTableRecord
100
AcDbRegAppTableRecord
  2
AD_DRAW
 70
     0
  0
APPID
  5
75B
330
9
100
AcDbSymbolTableRecord
100
AcDbRegAppTableRecord
  2
DESIGNERASSEMBLIES
 70
     0
  0
APPID
  5
75C
330
9
100
AcDbSymbolTableRecord
100
AcDbRegAppTableRecord
  2
ASURF_PCURVE_APPNAME
 70
     0
  0
APPID
  5
75D
330
9
100
AcDbSymbolTableRecord
100
AcDbRegAppTableRecord
  2
GENIUS_GE3SECT_13
 70
     0
  0
APPID
  5
75E
330
9
100
AcDbSymbolTableRecord
100
AcDbRegAppTableRecord
  2
GENIUS_GENCFG_13
 70
     0
  0
APPID
  5
75F
330
9
100
AcDbSymbolTableRecord
100
AcDbRegAppTableRecord
  2
GENIUS_GE3CFG0_13
 70
     0
  0
APPID
  5
760
330
9
100
AcDbSymbolTableRecord
100
AcDbRegAppTableRecord
  2
GENIUS_GENCFG0_13
 70
     0
  0
APPID
  5
761
330
9
100
AcDbSymbolTableRecord
100
AcDbRegAppTableRecord
  2
GENIUS_GENCFG1_13
 70
     0
  0
APPID
  5
762
330
9
100
AcDbSymbolTableRecord
100
AcDbRegAppTableRecord
  2
GENIUS_GENCFG2_13
 70
     0
  0
APPID
  5
763
330
9
100
AcDbSymbolTableRecord
100
AcDbRegAppTableRecord
  2
GENIUS_GENCFG3_13
 70
     0
  0
APPID
  5
764
330
9
100
AcDbSymbolTableRecord
100
AcDbRegAppTableRecord
  2
GENIUS_GENCFG4_13
 70
     0
  0
APPID
  5
765
330
9
100
AcDbSymbolTableRecord
100
AcDbRegAppTableRecord
  2
GENIUS_GEVCFG0_13
 70
     0
  0
APPID
  5
766
330
9
100
AcDbSymbolTableRecord
100
AcDbRegAppTableRecord
  2
GENIUS_GENHINW_13
 70
     0
  0
APPID
  5
767
330
9
100
AcDbSymbolTableRecord
100
AcDbRegAppTableRecord
  2
GENIUS_FIRSTVISTXT_14
 70
     0
  0
APPID
  5
768
330
9
100
AcDbSymbolTableRecord
100
AcDbRegAppTableRecord
  2
GENIUS_GENOBJ-N-LEADER_13
 70
     0
  0
APPID
  5
769
330
9
100
AcDbSymbolTableRecord
100
AcDbRegAppTableRecord
  2
GEV_VCCNULL_SWITCH_OFF
 70
     0
  0
APPID
  5
76A
330
9
100
AcDbSymbolTableRecord
100
AcDbRegAppTableRecord
  2
GENIUS_GEFCFG0_13
 70
     0
  0
APPID
  5
76B
330
9
100
AcDbSymbolTableRecord
100
AcDbRegAppTableRecord
  2
GENIUS_GENZVEED_13
 70
     0
  0
APPID
  5
76C
330
9
100
AcDbSymbolTableRecord
100
AcDbRegAppTableRecord
  2
GENIUS_GENSCREG_13
 70
     0
  0
APPID
  5
76D
330
9
100
AcDbSymbolTableRecord
100
AcDbRegAppTableRecord
  2
GENIUS_DUMCFG0_13
 70
     0
  0
APPID
  5
76E
330
9
100
AcDbSymbolTableRecord
100
AcDbRegAppTableRecord
  2
GEVID936201362
 70
     0
  0
APPID
  5
76F
330
9
100
AcDbSymbolTableRecord
100
AcDbRegAppTableRecord
  2
GEVDC
 70
     0
  0
APPID
  5
770
330
9
100
AcDbSymbolTableRecord
100
AcDbRegAppTableRecord
  2
GEVCON
 70
     0
  0
APPID
  5
771
330
9
100
AcDbSymbolTableRecord
100
AcDbRegAppTableRecord
  2
VCC
 70
     0
  0
APPID
  5
772
330
9
100
AcDbSymbolTableRecord
100
AcDbRegAppTableRecord
  2
GEVPT
 70
     0
  0
APPID
  5
773
330
9
100
AcDbSymbolTableRecord
100
AcDbRegAppTableRecord
  2
GEVIT
 70
     0
  0
APPID
  5
774
330
9
100
AcDbSymbolTableRecord
100
AcDbRegAppTableRecord
  2
GENBH
 70
     0
  0
APPID
  5
775
330
9
100
AcDbSymbolTableRecord
100
AcDbRegAppTableRecord
  2
GEVMK
 70
     0
  0
APPID
  5
776
330
9
100
AcDbSymbolTableRecord
100
AcDbRegAppTableRecord
  2
GENIUS_GENBH_13
 70
     0
  0
APPID
  5
777
330
9
100
AcDbSymbolTableRecord
100
AcDbRegAppTableRecord
  2
GENIUS_GENOBJ-NBEHI-BHF_13
 70
     0
  0
APPID
  5
778
330
9
100
AcDbSymbolTableRecord
100
AcDbRegAppTableRecord
  2
GENIUS_GENOBJ-NBEHI-BHB_13
 70
     0
  0
APPID
  5
779
330
9
100
AcDbSymbolTableRecord
100
AcDbRegAppTableRecord
  2
GENIUS_GENOBJ-F-DESC_13
 70
     0
  0
APPID
  5
77A
330
9
100
AcDbSymbolTableRecord
100
AcDbRegAppTableRecord
  2
GENIUS_GEFDESC_14
 70
     0
  0
APPID
  5
77B
330
9
100
AcDbSymbolTableRecord
100
AcDbRegAppTableRecord
  2
GENIUS_GENOBJ-F-PART_13
 70
     0
  0
APPID
  5
77C
330
9
100
AcDbSymbolTableRecord
100
AcDbRegAppTableRecord
  2
GENIUS_GEFSTDP_13
 70
     0
  0
APPID
  5
77D
330
9
100
AcDbSymbolTableRecord
100
AcDbRegAppTableRecord
  2
GENIUS_GEFPARTINS_13
 70
     0
  0
APPID
  5
77E
330
9
100
AcDbSymbolTableRecord
100
AcDbRegAppTableRecord
  2
GENIUS_GENTRA_14
 70
     0
  0
APPID
  5
77F
330
9
100
AcDbSymbolTableRecord
100
AcDbRegAppTableRecord
  2
GENIUS_GENINF13_13
 70
     0
  0
APPID
  5
780
330
9
100
AcDbSymbolTableRecord
100
AcDbRegAppTableRecord
  2
GENIUS_GENOBJ-N-INFOPT_13
 70
     0
  0
APPID
  5
781
330
9
100
AcDbSymbolTableRecord
100
AcDbRegAppTableRecord
  2
GENIUS_GENOBJ-N-RSSYM_13
 70
     0
  0
APPID
  5
782
330
9
100
AcDbSymbolTableRecord
100
AcDbRegAppTableRecord
  2
GENIUS_GENSYMENT_13
 70
     0
  0
APPID
  5
783
330
9
100
AcDbSymbolTableRecord
100
AcDbRegAppTableRecord
  2
GENIUS_GENSCSYM_13
 70
     0
  0
APPID
  5
784
330
9
100
AcDbSymbolTableRecord
100
AcDbRegAppTableRecord
  2
GENIUS_GEFINFNAM_13
 70
     0
  0
APPID
  5
785
330
9
100
AcDbSymbolTableRecord
100
AcDbRegAppTableRecord
  2
GENIUS_GENOBJ-N-CEN_13
 70
     0
  0
APPID
  5
786
330
9
100
AcDbSymbolTableRecord
100
AcDbRegAppTableRecord
  2
GENIUS_GENOBJ-N-CRS_13
 70
     0
  0
APPID
  5
787
330
9
100
AcDbSymbolTableRecord
100
AcDbRegAppTableRecord
  2
GENIUS_GENOBJ-N-CRC_13
 70
     0
  0
APPID
  5
788
330
9
100
AcDbSymbolTableRecord
100
AcDbRegAppTableRecord
  2
GENIUS_GENCRC_14
 70
     0
  0
APPID
  5
789
330
9
100
AcDbSymbolTableRecord
100
AcDbRegAppTableRecord
  2
GEVID942827039
 70
     0
  0
APPID
  5
78A
330
9
100
AcDbSymbolTableRecord
100
AcDbRegAppTableRecord
  2
GEVID942827040
 70
     0
  0
APPID
  5
78B
330
9
100
AcDbSymbolTableRecord
100
AcDbRegAppTableRecord
  2
GEVID942827041
 70
     0
  0
APPID
  5
78C
330
9
100
AcDbSymbolTableRecord
100
AcDbRegAppTableRecord
  2
GENIUS_GENOBJ-F-SCPASSM_13
 70
     0
  0
APPID
  5
78D
330
9
100
AcDbSymbolTableRecord
100
AcDbRegAppTableRecord
  2
GENIUS_GENDIMSH_14
 70
     0
  0
APPID
  5
78E
330
9
100
AcDbSymbolTableRecord
100
AcDbRegAppTableRecord
  2
GEVID942827042
 70
     0
  0
APPID
  5
78F
330
9
100
AcDbSymbolTableRecord
100
AcDbRegAppTableRecord
  2
GEVID946020473
 70
     0
  0
APPID
  5
790
330
9
100
AcDbSymbolTableRecord
100
AcDbRegAppTableRecord
  2
GEVID946020474
 70
     0
  0
APPID
  5
791
330
9
100
AcDbSymbolTableRecord
100
AcDbRegAppTableRecord
  2
GEVID946020475
 70
     0
  0
APPID
  5
792
330
9
100
AcDbSymbolTableRecord
100
AcDbRegAppTableRecord
  2
GENIUS_GENOBJ-N-HTC_13
 70
     0
  0
APPID
  5
793
330
9
100
AcDbSymbolTableRecord
100
AcDbRegAppTableRecord
  2
GENIUS_GENHATCH_13
 70
     0
  0
APPID
  5
794
330
9
100
AcDbSymbolTableRecord
100
AcDbRegAppTableRecord
  2
GEVID948854295
 70
     0
  0
APPID
  5
795
330
9
100
AcDbSymbolTableRecord
100
AcDbRegAppTableRecord
  2
GEVID939402019
 70
     0
  0
APPID
  5
796
330
9
100
AcDbSymbolTableRecord
100
AcDbRegAppTableRecord
  2
GEVID952919491
 70
     0
  0
APPID
  5
797
330
9
100
AcDbSymbolTableRecord
100
AcDbRegAppTableRecord
  2
GEVID952919492
 70
     0
  0
APPID
  5
798
330
9
100
AcDbSymbolTableRecord
100
AcDbRegAppTableRecord
  2
GENIUS_GEFWELD_13
 70
     0
  0
APPID
  5
799
330
9
100
AcDbSymbolTableRecord
100
AcDbRegAppTableRecord
  2
GENIUS_GENOBJ-F-WELS_13
 70
     0
  0
APPID
  5
79A
330
9
100
AcDbSymbolTableRecord
100
AcDbRegAppTableRecord
  2
GEVID952919493
 70
     0
  0
APPID
  5
79B
330
9
100
AcDbSymbolTableRecord
100
AcDbRegAppTableRecord
  2
GENIUS_GENOBJ-N-RSBK_13
 70
     0
  0
APPID
  5
79C
330
9
100
AcDbSymbolTableRecord
100
AcDbRegAppTableRecord
  2
GENIUS_GENOBJ-N-LIB_13
 70
     0
  0
APPID
  5
79D
330
9
100
AcDbSymbolTableRecord
100
AcDbRegAppTableRecord
  2
GENIUS_GENSCALE_13
 70
     0
  0
APPID
  5
79E
330
9
100
AcDbSymbolTableRecord
100
AcDbRegAppTableRecord
  2
GEVID986376691
 70
     0
  0
APPID
  5
79F
330
9
100
AcDbSymbolTableRecord
100
AcDbRegAppTableRecord
  2
DCO15
 70
     0
  0
APPID
  5
1A97
330
9
100
AcDbSymbolTableRecord
100
AcDbRegAppTableRecord
  2
GEVID988070561
 70
     0
  0
APPID
  5
1A98
330
9
100
AcDbSymbolTableRecord
100
AcDbRegAppTableRecord
  2
GEVID988070562
 70
     0
  0
APPID
  5
1A99
330
9
100
AcDbSymbolTableRecord
100
AcDbRegAppTableRecord
  2
GEVID988070563
 70
     0
  0
APPID
  5
2201
330
9
100
AcDbSymbolTableRecord
100
AcDbRegAppTableRecord
  2
ACADM_DIM_EDIT
 70
     0
  0
APPID
  5
2202
330
9
100
AcDbSymbolTableRecord
100
AcDbRegAppTableRecord
  2
AMDT_DM_ADJ
 70
     0
  0
APPID
  5
222C
330
9
100
AcDbSymbolTableRecord
100
AcDbRegAppTableRecord
  2
ACAD_PSEXT
 70
     0
  0
APPID
  5
222D
330
9
100
AcDbSymbolTableRecord
100
AcDbRegAppTableRecord
  2
GENIUS_GENCEN_19
 70
     0
  0
ENDTAB
  0
TABLE
  2
DIMSTYLE
  5
A
330
0
100
AcDbSymbolTable
 70
    25
100
AcDbDimStyleTable
 71
     1
340
6C
  0
DIMSTYLE
105
6C
330
A
100
AcDbSymbolTableRecord
100
AcDbDimStyleTableRecord
  2
AM_ISO
 70
     0
  4
"
 41
2.5
 42
1.0
 43
8.0
 44
0.6
 47
0.1
 48
0.1
 73
     0
 74
     0
 77
     1
 78
     8
 79
     2
140
2.5
141
0.0
143
0.0393701
146
0.71
147
0.8
172
     1
176
   256
177
   256
178
     4
271
     2
272
     2
283
     0
284
     8
340
11
371
    -1
372
    -1
  0
DIMSTYLE
105
740
330
A
100
AcDbSymbolTableRecord
100
AcDbDimStyleTableRecord
  2
STANDARD
 70
     0
340
11
  0
ENDTAB
  0
TABLE
  2
BLOCK_RECORD
  5
1
330
0
100
AcDbSymbolTable
 70
   109
  0
BLOCK_RECORD
  5
1F
102
{ACAD_XDICTIONARY
360
CC
102
}
330
1
100
AcDbSymbolTableRecord
100
AcDbBlockTableRecord
  2
*Model_Space
340
22
  0
BLOCK_RECORD
  5
1B
330
1
100
AcDbSymbolTableRecord
100
AcDbBlockTableRecord
  2
*Paper_Space
340
1E
  0
BLOCK_RECORD
  5
23
330
1
100
AcDbSymbolTableRecord
100
AcDbBlockTableRecord
  2
*Paper_Space0
340
26
  0
ENDTAB
  0
ENDSEC
  0
SECTION
  2
BLOCKS
  0
BLOCK
  5
20
330
1F
100
AcDbEntity
  8
0
100
AcDbBlockBegin
  2
*Model_Space
 70
     0
 10
0.0
 20
0.0
 30
0.0
  3
*Model_Space
  1

  0
ENDBLK
  5
21
330
1F
100
AcDbEntity
  8
0
100
AcDbBlockEnd
  0
BLOCK
  5
1C
330
1B
100
AcDbEntity
 67
     1
  8
0
100
AcDbBlockBegin
  2
*Paper_Space
 70
     0
 10
0.0
 20
0.0
 30
0.0
  3
*Paper_Space
  1

  0
ENDBLK
  5
1D
330
1B
100
AcDbEntity
 67
     1
  8
0
100
AcDbBlockEnd
  0
BLOCK
  5
24
330
23
100
AcDbEntity
  8
0
100
AcDbBlockBegin
  2
*Paper_Space0
 70
     0
 10
0.0
 20
0.0
 30
0.0
  3
*Paper_Space0
  1

  0
ENDBLK
  5
25
330
23
100
AcDbEntity
  8
0
100
AcDbBlockEnd
  0
ENDSEC
  0
SECTION
  2
ENTITIES
  0
LINE
  5
3DCE
330
1F
100
AcDbEntity
  8
AM_0
100
AcDbLine
 10
465.5927915460209
 20
238.5690941114144
 30
0.0
 11
468.5927915460208
 21
238.5690941114144
 31
0.0
  0
LINE
  5
3DCF
330
1F
100
AcDbEntity
  8
AM_0
100
AcDbLine
 10
510.5928215460208
 20
270.5691251114144
 30
0.0
 11
510.5928215460208
 21
239.5690931114144
 31
0.0
  0
LINE
  5
3DD0
330
1F
100
AcDbEntity
  8
AM_0
100
AcDbLine
 10
468.5927915460208
 20
267.5691251114145
 30
0.0
 11
510.5928215460208
 21
267.5691251114145
 31
0.0
  0
LINE
  5
3DD1
330
1F
100
AcDbEntity
  8
AM_0
100
AcDbLine
 10
468.5927915460208
 20
268.5690941114144
 30
0.0
 11
468.5927915460208
 21
238.5690941114144
 31
0.0
  0
LINE
  5
3DD2
330
1F
100
AcDbEntity
  8
AM_0
100
AcDbLine
 10
468.5927915460208
 20
239.5690931114144
 30
0.0
 11
510.5928215460208
 21
239.5690931114144
 31
0.0
  0
LINE
  5
3DD3
330
1F
100
AcDbEntity
  8
ﾁｭｳｼﾝｾﾝ
100
AcDbLine
 10
363.9517715460208
 20
253.5690941114144
 30
0.0
 11
515.5406015460208
 21
253.5690941114144
 31
0.0
  0
LINE
  5
3DD4
330
1F
100
AcDbEntity
  8
AM_0
100
AcDbLine
 10
478.5927815460208
 20
270.5691251114144
 30
0.0
 11
510.5928215460208
 21
270.5691251114144
 31
0.0
  0
LINE
  5
3DD5
330
1F
100
AcDbEntity
  8
AM_0
100
AcDbLine
 10
478.5927815460208
 20
270.5691251114144
 30
0.0
 11
478.5927815460208
 21
267.5691251114145
 31
0.0
  0
LINE
  5
3DD6
330
1F
100
AcDbEntity
  8
AM_0
100
AcDbLine
 10
465.5927915460209
 20
268.5690941114144
 30
0.0
 11
468.5927915460208
 21
268.5690941114144
 31
0.0
  0
LINE
  5
3E12
330
1F
100
AcDbEntity
  8
AM_0
100
AcDbLine
 10
346.0928315460209
 20
293.8691201114144
 30
0.0
 11
368.1799115460208
 21
294.6404201114145
 31
0.0
  0
LINE
  5
3E13
330
1F
100
AcDbEntity
  8
AM_0
100
AcDbLine
 10
346.0928315460209
 20
166.8691091114144
 30
0.0
 11
368.3196215460208
 21
166.0929251114145
 31
0.0
  0
LINE
  5
3E14
330
1F
100
AcDbEntity
  8
ﾁｭｳｼﾝｾﾝ
100
AcDbLine
 10
260.5963091733343
 20
230.3691101114144
 30
0.0
 11
368.4560028663861
 21
230.3691101114144
 31
0.0
  0
LINE
  5
3E15
330
1F
100
AcDbEntity
  8
AM_0
100
AcDbLine
 10
389.5929236267232
 20
311.3690939926547
 30
0.0
 11
384.5230736267231
 21
311.1920639926546
 31
0.0
  0
LINE
  5
3E16
330
1F
100
AcDbEntity
  8
AM_0
100
AcDbLine
 10
368.7358715460208
 20
166.0491791114144
 30
0.0
 11
370.1137415460209
 21
165.8062271114144
 31
0.0
  0
LINE
  5
3E17
330
1F
100
AcDbEntity
  8
AM_0
100
AcDbLine
 10
368.8736915460208
 20
294.7132901114145
 30
0.0
 11
370.1137415460209
 21
294.9319601114145
 31
0.0
  0
LINE
  5
3E18
330
1F
100
AcDbEntity
  8
AM_0
100
AcDbLine
 10
377.4183215460208
 20
306.1884101114145
 30
0.0
 11
378.0634715460208
 21
306.2109401114145
 31
0.0
  0
LINE
  5
3E19
330
1F
100
AcDbEntity
  8
AM_0
100
AcDbLine
 10
372.5928215460208
 20
301.1914301114144
 30
0.0
 11
372.592831476021
 21
151.8940919604804
 31
0.0
  0
LINE
  5
3E1A
330
1F
100
AcDbEntity
  8
AM_0
100
AcDbLine
 10
346.0928315460209
 20
281.8691201114144
 30
0.0
 11
372.5928215460208
 21
281.8691201114144
 31
0.0
  0
LINE
  5
3E1B
330
1F
100
AcDbEntity
  8
AM_0
100
AcDbLine
 10
346.0928315460209
 20
267.5170301114144
 30
0.0
 11
372.5928215460208
 21
267.5170301114144
 31
0.0
  0
LINE
  5
3E1C
330
1F
100
AcDbEntity
  8
AM_0
100
AcDbLine
 10
346.0928315460209
 20
193.2211751114144
 30
0.0
 11
372.5928215460208
 21
193.2211751114144
 31
0.0
  0
LINE
  5
3E1D
330
1F
100
AcDbEntity
  8
AM_0
100
AcDbLine
 10
346.0928315460209
 20
178.8690941114145
 30
0.0
 11
372.5928215460208
 21
178.8690941114145
 31
0.0
  0
LINE
  5
3E1E
330
1F
100
AcDbEntity
  8
AM_0
100
AcDbLine
 10
382.5927815460209
 20
309.1933001114145
 30
0.0
 11
382.5927815460209
 21
286.7032001114145
 31
0.0
  0
LINE
  5
3E1F
330
1F
100
AcDbEntity
  8
AM_0
100
AcDbLine
 10
374.5928315460209
 20
263.5183121114145
 30
0.0
 11
380.5928315460209
 21
263.5183121114145
 31
0.0
  0
LINE
  5
3E20
330
1F
100
AcDbEntity
  8
AM_0
100
AcDbLine
 10
374.5928315460209
 20
284.7031901114145
 30
0.0
 11
380.5928315460209
 21
284.7031901114145
 31
0.0
  0
LINE
  5
3E21
330
1F
100
AcDbEntity
  8
AM_0
100
AcDbLine
 10
373.5082115460208
 20
257.0412011114145
 30
0.0
 11
380.5928315460209
 21
257.0412011114145
 31
0.0
  0
LINE
  5
3E22
330
1F
100
AcDbEntity
  8
AM_0
100
AcDbLine
 10
374.5928315460209
 20
168.8251181114144
 30
0.0
 11
380.5928315460209
 21
168.8251181114144
 31
0.0
  0
LINE
  5
3E23
330
1F
100
AcDbEntity
  8
AM_0
100
AcDbLine
 10
382.5927815460209
 20
261.5183141114145
 30
0.0
 11
382.5927815460209
 21
170.8251191114144
 31
0.0
  0
LINE
  5
3E24
330
1F
100
AcDbEntity
  8
AM_0
100
AcDbLine
 10
346.0928315460209
 20
293.8690901114145
 30
0.0
 11
346.0928315460209
 21
166.8690491114145
 31
0.0
  0
ARC
  5
3F35
330
1F
100
AcDbEntity
  8
AM_0
100
AcDbCircle
 10
368.0054315460209
 20
299.6373701114145
 30
0.0
 40
5.0000001
100
AcDbArc
 50
272.0000000000001
 51
279.9999999999998
  0
ARC
  5
3F36
330
1F
100
AcDbEntity
  8
AM_0
100
AcDbCircle
 10
368.2149515460208
 20
163.0947731114145
 30
0.0
 40
3.0
100
AcDbArc
 50
79.9999980000003
 51
87.99999999999993
  0
ARC
  5
3F37
330
1F
100
AcDbEntity
  8
AM_0
100
AcDbCircle
 10
369.5928215460208
 20
162.8518061114144
 30
0.0
 40
3.0
100
AcDbArc
 50
0.0
 51
79.9999980000003
  0
ARC
  5
3F38
330
1F
100
AcDbEntity
  8
AM_0
100
AcDbCircle
 10
377.8890215460208
 20
311.2078901114145
 30
0.0
 40
5.0000001
100
AcDbArc
 50
272.0000000000001
 51
343.2736600000023
  0
ARC
  5
3F39
330
1F
100
AcDbEntity
  8
AM_0
100
AcDbCircle
 10
384.5928536267233
 20
309.1932839926548
 30
0.0
 40
2.00000007
100
AcDbArc
 50
91.99999800000014
 51
163.2736499999998
  0
ARC
  5
3F3A
330
1F
100
AcDbEntity
  8
AM_0
100
AcDbCircle
 10
369.5928215460208
 20
297.8864201114144
 30
0.0
 40
3.0
100
AcDbArc
 50
279.9999999999998
 51
0.0
  0
ARC
  5
3F3B
330
1F
100
AcDbEntity
  8
AM_0
100
AcDbCircle
 10
377.5928315460209
 20
301.1914301114144
 30
0.0
 40
5.0000001
100
AcDbArc
 50
91.99999800000014
 51
180.0000100000009
  0
ARC
  5
3F3C
330
1F
100
AcDbEntity
  8
AM_0
100
AcDbCircle
 10
380.5928315460209
 20
170.8251191114144
 30
0.0
 40
2.00000007
100
AcDbArc
 50
270.0
 51
0.0
  0
ARC
  5
3F3D
330
1F
100
AcDbEntity
  8
AM_0
100
AcDbCircle
 10
374.5928315460209
 20
166.8251351114144
 30
0.0
 40
2.00000007
100
AcDbArc
 50
90.00000300000015
 51
180.0000100000009
  0
ARC
  5
3F3E
330
1F
100
AcDbEntity
  8
AM_0
100
AcDbCircle
 10
374.5928315460209
 20
265.5183131114144
 30
0.0
 40
2.00000007
100
AcDbArc
 50
179.999989999999
 51
270.0
  0
ARC
  5
3F3F
330
1F
100
AcDbEntity
  8
AM_0
100
AcDbCircle
 10
374.5928315460209
 20
282.7031801114145
 30
0.0
 40
2.00000007
100
AcDbArc
 50
90.00000300000015
 51
180.0000100000009
  0
ARC
  5
3F40
330
1F
100
AcDbEntity
  8
AM_0
100
AcDbCircle
 10
380.5928315460209
 20
286.7032001114145
 30
0.0
 40
2.00000007
100
AcDbArc
 50
270.0
 51
0.0
  0
ARC
  5
3F41
330
1F
100
AcDbEntity
  8
AM_0
100
AcDbCircle
 10
380.5928315460209
 20
261.5183141114145
 30
0.0
 40
2.00000007
100
AcDbArc
 50
0.0
 51
90.00000300000015
  0
ARC
  5
3F42
330
1F
100
AcDbEntity
  8
AM_0
100
AcDbCircle
 10
380.5928315460209
 20
255.0412001114145
 30
0.0
 40
2.00000007
100
AcDbArc
 50
0.0
 51
90.00000300000015
  0
LINE
  5
428E
330
1F
100
AcDbEntity
  8
AM_0
100
AcDbLine
 10
346.0928315460209
 20
293.8906716114144
 30
0.0
 11
346.0928315460209
 21
166.8906246114144
 31
0.0
  0
LINE
  5
428F
330
1F
100
AcDbEntity
  8
0
  6
Continuous
 62
     7
100
AcDbLine
 10
346.0928315460209
 20
294.3906481114144
 30
0.0
 11
346.0928315460209
 21
166.3906481114144
 31
0.0
  0
LINE
  5
4290
330
1F
100
AcDbEntity
  8
0
  6
Continuous
 62
     7
100
AcDbLine
 10
270.5928526256947
 20
260.3691101114145
 30
0.0
 11
270.5928526256947
 21
200.3691101114144
 31
0.0
  0
LINE
  5
4291
330
1F
100
AcDbEntity
  8
0
100
AcDbLine
 10
313.3839707339871
 20
261.8849468831685
 30
0.0
 11
270.5928526256947
 21
260.3906481114144
 31
0.0
  0
LINE
  5
4292
330
1F
100
AcDbEntity
  8
0
100
AcDbLine
 10
338.0230325526158
 20
294.108844520921
 30
0.0
 11
346.0928315460209
 21
294.3906481114144
 31
0.0
  0
LINE
  5
4293
330
1F
100
AcDbEntity
  8
0
100
AcDbLine
 10
336.0928315460209
 20
292.1100628668827
 30
0.0
 11
336.092831546024
 21
168.6712333559461
 31
0.0
  0
ARC
  5
4294
330
1F
100
AcDbEntity
  8
0
100
AcDbCircle
 10
338.0928315460209
 20
292.1100628668827
 30
0.0
 40
2.0
100
AcDbArc
 50
92.00000000000047
 51
180.0
1001
GENIUS_GENOBJ-N-FIL_13
1002
{
1000
OWNER
1000
GEN
1002
}
1001
GENIUS_GENODEF_13
1002
{
1000
HIER
1070
     0
1002
}
1002
{
1000
MANEDIT
1070
     0
1002
}
1002
{
1000
NOSEL
1070
     0
1002
}
1002
{
1000
BEHIND
1070
     0
1002
}
1002
{
1000
OTHER
1070
     0
1002
}
1002
{
1000
REACTOR
1002
}
  0
ARC
  5
4295
330
1F
100
AcDbEntity
  8
0
100
AcDbCircle
 10
331.0928315460209
 20
289.96171592328
 30
0.0
 40
5.0
100
AcDbArc
 50
315.0
 51
0.0
1001
GENIUS_GENOBJ-N-FIL_13
1002
{
1000
OWNER
1000
GEN
1002
}
1001
GENIUS_GENODEF_13
1002
{
1000
HIER
1070
     0
1002
}
1002
{
1000
MANEDIT
1070
     0
1002
}
1002
{
1000
NOSEL
1070
     0
1002
}
1002
{
1000
BEHIND
1070
     0
1002
}
1002
{
1000
OTHER
1070
     0
1002
}
1002
{
1000
REACTOR
1002
}
  0
LINE
  5
4296
330
1F
100
AcDbEntity
  8
0
100
AcDbLine
 10
311.3605201161748
 20
263.1583366815681
 30
0.0
 11
334.6283654519538
 21
286.4261820173471
 31
0.0
  0
ARC
  5
4297
330
1F
100
AcDbEntity
  8
0
100
AcDbCircle
 10
307.8249862102422
 20
266.6938705875008
 30
0.0
 40
5.0
100
AcDbArc
 50
272.0000000000005
 51
315.0
1001
GENIUS_GENOBJ-N-FIL_13
1002
{
1000
OWNER
1000
GEN
1002
}
1001
GENIUS_GENODEF_13
1002
{
1000
HIER
1070
     0
1002
}
1002
{
1000
MANEDIT
1070
     0
1002
}
1002
{
1000
NOSEL
1070
     0
1002
}
1002
{
1000
BEHIND
1070
     0
1002
}
1002
{
1000
OTHER
1070
     0
1002
}
1002
{
1000
REACTOR
1002
}
  0
LINE
  5
4298
330
1F
100
AcDbEntity
  8
0
100
AcDbLine
 10
313.3839707339872
 20
198.8963493396603
 30
0.0
 11
270.5928526256947
 21
200.3906481114144
 31
0.0
  0
LINE
  5
4299
330
1F
100
AcDbEntity
  8
0
100
AcDbLine
 10
338.0230325526158
 20
166.6724517019078
 30
0.0
 11
346.0928315460209
 21
166.3906481114144
 31
0.0
  0
ARC
  5
429A
330
1F
100
AcDbEntity
  8
0
100
AcDbCircle
 10
338.0928315460209
 20
168.6712333559461
 30
0.0
 40
2.0
100
AcDbArc
 50
180.0
 51
267.9999999999995
1001
GENIUS_GENOBJ-N-FIL_13
1002
{
1000
OWNER
1000
GEN
1002
}
1001
GENIUS_GENODEF_13
1002
{
1000
HIER
1070
     0
1002
}
1002
{
1000
MANEDIT
1070
     0
1002
}
1002
{
1000
NOSEL
1070
     0
1002
}
1002
{
1000
BEHIND
1070
     0
1002
}
1002
{
1000
OTHER
1070
     0
1002
}
1002
{
1000
REACTOR
1002
}
  0
ARC
  5
429B
330
1F
100
AcDbEntity
  8
0
100
AcDbCircle
 10
331.0928315460209
 20
170.8195802995488
 30
0.0
 40
5.0
100
AcDbArc
 50
0.0
 51
45.0
1001
GENIUS_GENOBJ-N-FIL_13
1002
{
1000
OWNER
1000
GEN
1002
}
1001
GENIUS_GENODEF_13
1002
{
1000
HIER
1070
     0
1002
}
1002
{
1000
MANEDIT
1070
     0
1002
}
1002
{
1000
NOSEL
1070
     0
1002
}
1002
{
1000
BEHIND
1070
     0
1002
}
1002
{
1000
OTHER
1070
     0
1002
}
1002
{
1000
REACTOR
1002
}
  0
LINE
  5
429C
330
1F
100
AcDbEntity
  8
0
100
AcDbLine
 10
311.3605201161748
 20
197.6229595412607
 30
0.0
 11
334.6283654519538
 21
174.3551142054817
 31
0.0
  0
ARC
  5
429D
330
1F
100
AcDbEntity
  8
0
100
AcDbCircle
 10
307.8249862102422
 20
194.087425635328
 30
0.0
 40
5.0
100
AcDbArc
 50
45.0
 51
87.99999999999952
1001
GENIUS_GENOBJ-N-FIL_13
1002
{
1000
OWNER
1000
GEN
1002
}
1001
GENIUS_GENODEF_13
1002
{
1000
HIER
1070
     0
1002
}
1002
{
1000
MANEDIT
1070
     0
1002
}
1002
{
1000
NOSEL
1070
     0
1002
}
1002
{
1000
BEHIND
1070
     0
1002
}
1002
{
1000
OTHER
1070
     0
1002
}
1002
{
1000
REACTOR
1002
}
  0
ARC
  5
429E
330
1F
100
AcDbEntity
  8
図面枠-ｷｲﾛ
100
AcDbCircle
 10
395.9945039093021
 20
230.3906481114144
 30
0.0
 40
81.58989117312721
100
AcDbArc
 50
162.1810811943898
 51
197.8189188056101
  0
ARC
  5
429F
330
1F
100
AcDbEntity
  8
図面枠-ｷｲﾛ
100
AcDbCircle
 10
313.5584682174997
 20
203.8933034747557
 30
0.0
 40
5.0
100
AcDbArc
 50
267.9999999999995
 51
17.81891880561013
1001
GENIUS_GENOBJ-N-FIL_13
1002
{
1000
OWNER
1000
GEN
1002
}
1001
GENIUS_GENODEF_13
1002
{
1000
HIER
1070
     0
1002
}
1002
{
1000
MANEDIT
1070
     0
1002
}
1002
{
1000
NOSEL
1070
     0
1002
}
1002
{
1000
BEHIND
1070
     0
1002
}
1002
{
1000
OTHER
1070
     0
1002
}
1002
{
1000
REACTOR
1002
}
  0
ARC
  5
42A0
330
1F
100
AcDbEntity
  8
図面枠-ｷｲﾛ
100
AcDbCircle
 10
313.5584682174996
 20
256.8879927480731
 30
0.0
 40
5.0
100
AcDbArc
 50
342.1810811943899
 51
92.00000000000047
1001
GENIUS_GENODEF_13
1002
{
1000
HIER
1070
     0
1002
}
1002
{
1000
MANEDIT
1070
     0
1002
}
1002
{
1000
NOSEL
1070
     0
1002
}
1002
{
1000
BEHIND
1070
     0
1002
}
1002
{
1000
OTHER
1070
     0
1002
}
1002
{
1000
REACTOR
1002
}
1001
GENIUS_GENOBJ-N-FIL_13
1002
{
1000
OWNER
1000
GEN
1002
}
  0
LINE
  5
42A1
330
1F
100
AcDbEntity
  8
AM_0
100
AcDbLine
 10
346.0928315460209
 20
293.8906431114144
 30
0.0
 11
346.0928315460209
 21
166.8905841114144
 31
0.0
  0
LINE
  5
4526
330
1F
100
AcDbEntity
  8
AM_0
100
AcDbLine
 10
346.0928315460209
 20
281.8906776114144
 30
0.0
 11
336.092831546021
 21
281.8906776114141
 31
0.0
  0
LINE
  5
4527
330
1F
100
AcDbEntity
  8
AM_0
100
AcDbLine
 10
346.0928315460209
 20
268.3869906114144
 30
0.0
 11
336.0928315460214
 21
268.3869906114142
 31
0.0
  0
LINE
  5
4528
330
1F
100
AcDbEntity
  8
AM_0
100
AcDbLine
 10
346.0928315460209
 20
192.3943746114144
 30
0.0
 11
336.0928315460235
 21
192.3943746114141
 31
0.0
  0
LINE
  5
4529
330
1F
100
AcDbEntity
  8
AM_0
100
AcDbLine
 10
346.0928315460209
 20
178.8906966114144
 30
0.0
 11
336.0928315460238
 21
178.8906966114141
 31
0.0
  0
LINE
  5
4C46
330
1F
100
AcDbEntity
  8
AM_0
100
AcDbLine
 10
468.5927615460209
 20
338.5690286114145
 30
0.0
 11
468.5927615460209
 21
168.5690486114145
 31
0.0
  0
LINE
  5
4C47
330
1F
100
AcDbEntity
  8
AM_0
100
AcDbLine
 10
389.5928315460209
 20
311.3690786114144
 30
0.0
 11
389.5928315460209
 21
149.3690516114145
 31
0.0
  0
LINE
  5
4C48
330
1F
100
AcDbEntity
  8
AM_0
100
AcDbLine
 10
414.5927615460209
 20
178.2842756114145
 30
0.0
 11
414.5927615460209
 21
190.6042826114144
 31
0.0
  0
LINE
  5
4C49
330
1F
100
AcDbEntity
  8
AM_0
100
AcDbLine
 10
414.5927615460209
 20
191.7645926114145
 30
0.0
 11
454.5927515460207
 21
191.7645926114145
 31
0.0
  0
LINE
  5
4C4A
330
1F
100
AcDbEntity
  8
AM_0
100
AcDbLine
 10
414.5927615460209
 20
177.1012766114145
 30
0.0
 11
454.5927515460207
 21
177.1012766114145
 31
0.0
  0
LINE
  5
4C4B
330
1F
100
AcDbEntity
  8
AM_0
100
AcDbLine
 10
453.1675415460208
 20
272.0433266114145
 30
0.0
 11
448.8310715460208
 21
248.9125586114144
 31
0.0
  0
LINE
  5
4C4C
330
1F
100
AcDbEntity
  8
AM_0
100
AcDbLine
 10
445.5228815460208
 20
294.9401756114145
 30
0.0
 11
445.5228815460208
 21
294.9401756114145
 31
0.0
  0
LINE
  5
4C4D
330
1F
100
AcDbEntity
  8
AM_0
100
AcDbLine
 10
426.1700915460208
 20
312.6463586114145
 30
0.0
 11
445.5228815460208
 21
294.9401756114145
 31
0.0
  0
LINE
  5
4C4E
330
1F
100
AcDbEntity
  8
AM_0
100
AcDbLine
 10
456.5229815460208
 20
345.7872386114145
 30
0.0
 11
464.5928015460207
 21
346.0690286114145
 31
0.0
  0
LINE
  5
4C4F
330
1F
100
AcDbEntity
  8
AM_0
100
AcDbLine
 10
432.3467015460208
 20
147.8760716114144
 30
0.0
 11
454.5927515460207
 21
160.7198366114145
 31
0.0
  0
LINE
  5
4C50
330
1F
100
AcDbEntity
  8
AM_0
100
AcDbLine
 10
454.5927515460207
 20
229.6586816114145
 30
0.0
 11
454.5927515460207
 21
304.6942586114145
 31
0.0
  0
LINE
  5
4C51
330
1F
100
AcDbEntity
  8
AM_0
100
AcDbLine
 10
389.5928336267232
 20
311.3690324926547
 30
0.0
 11
424.9891436267231
 21
312.6051224926548
 31
0.0
  0
LINE
  5
4C52
330
1F
100
AcDbEntity
  8
AM_0
100
AcDbLine
 10
389.5927715460208
 20
149.3690516114145
 30
0.0
 11
432.3467015460208
 21
147.8760566114145
 31
0.0
  0
LINE
  5
4C53
330
1F
100
AcDbEntity
  8
AM_0
100
AcDbLine
 10
389.5928315460209
 20
276.6190406114144
 30
0.0
 11
451.5380915460208
 21
276.6190406114144
 31
0.0
  0
LINE
  5
4C54
330
1F
100
AcDbEntity
  8
AM_0
100
AcDbLine
 10
454.5927515460207
 20
163.8264356114144
 30
0.0
 11
454.5927515460207
 21
199.1983976114145
 31
0.0
  0
LINE
  5
4C55
330
1F
100
AcDbEntity
  8
AM_0
100
AcDbLine
 10
427.0057115460208
 20
313.4819786114144
 30
0.0
 11
454.5927515460207
 21
341.0690486114145
 31
0.0
  0
LINE
  5
4C56
330
1F
100
AcDbEntity
  8
AM_0
100
AcDbLine
 10
456.2217815460208
 20
227.6586956114145
 30
0.0
 11
458.5928015460208
 21
227.6586956114145
 31
0.0
  0
LINE
  5
4C57
330
1F
100
AcDbEntity
  8
AM_0
100
AcDbLine
 10
464.5928015460207
 20
161.0690486114144
 30
0.0
 11
464.5928015460207
 21
253.5690506114145
 31
0.0
  0
LINE
  5
4C58
330
1F
100
AcDbEntity
  8
AM_0
100
AcDbLine
 10
454.5927515460207
 20
160.7198366114145
 30
0.0
 11
464.5928015460207
 21
161.0690336114145
 31
0.0
  0
LINE
  5
4C59
330
1F
100
AcDbEntity
  8
AM_0
100
AcDbLine
 10
464.5928015460207
 20
338.5690286114145
 30
0.0
 11
468.5927615460209
 21
338.5690286114145
 31
0.0
  0
LINE
  5
4C5A
330
1F
100
AcDbEntity
  8
AM_0
100
AcDbLine
 10
458.5928015460208
 20
183.0690356114144
 30
0.0
 11
458.5928015460208
 21
323.7413186114145
 31
0.0
  0
LINE
  5
4C5B
330
1F
100
AcDbEntity
  8
AM_0
100
AcDbLine
 10
389.5928315460209
 20
164.2588376114145
 30
0.0
 11
454.5927515460207
 21
164.2588376114145
 31
0.0
  0
LINE
  5
4C5C
330
1F
100
AcDbEntity
  8
AM_0
100
AcDbLine
 10
464.5928015460207
 20
168.5690486114145
 30
0.0
 11
468.5927615460209
 21
168.5690486114145
 31
0.0
  0
LINE
  5
4C5D
330
1F
100
AcDbEntity
  8
AM_0
100
AcDbLine
 10
464.5928015460207
 20
253.5690506114145
 30
0.0
 11
464.5928015460207
 21
346.0690286114145
 31
0.0
  0
LINE
  5
4C5E
330
1F
100
AcDbEntity
  8
AM_0
100
AcDbLine
 10
454.5927515460207
 20
304.6942586114145
 30
0.0
 11
454.5927515460207
 21
343.7884586114144
 31
0.0
  0
LINE
  5
4C5F
330
1F
100
AcDbEntity
  8
AM_0
100
AcDbLine
 10
389.5927715460208
 20
149.3690666114145
 30
0.0
 11
374.5229915460208
 21
149.8953116114144
 31
0.0
  0
ARC
  5
4C60
330
1F
100
AcDbEntity
  8
AM_0
100
AcDbCircle
 10
414.5944115460208
 20
184.4329406114144
 30
0.0
 40
7.331659199999998
100
AcDbArc
 50
90.00000300000015
 51
270.0
  0
ARC
  5
4C61
330
1F
100
AcDbEntity
  8
AM_0
100
AcDbCircle
 10
473.2380515460207
 20
244.3368266114145
 30
0.0
 40
24.8322114
100
AcDbArc
 50
169.3816800000027
 51
218.7932100000009
  0
ARC
  5
4C62
330
1F
100
AcDbEntity
  8
AM_0
100
AcDbCircle
 10
428.7605615460209
 20
276.6190406114144
 30
0.0
 40
24.8322114
100
AcDbArc
 50
349.3816800000027
 51
47.54406599999885
  0
ARC
  5
4C63
330
1F
100
AcDbEntity
  8
AM_0
100
AcDbCircle
 10
457.5927515460207
 20
163.8264356114144
 30
0.0
 40
3.0
100
AcDbArc
 50
179.999989999999
 51
271.9999899999997
  0
ARC
  5
4C64
330
1F
100
AcDbEntity
  8
AM_0
100
AcDbCircle
 10
457.5927515460207
 20
199.1983976114145
 30
0.0
 40
3.0
100
AcDbArc
 50
90.00000300000015
 51
180.0000100000009
  0
ARC
  5
4C65
330
1F
100
AcDbEntity
  8
AM_0
100
AcDbCircle
 10
455.5928015460207
 20
323.7413186114145
 30
0.0
 40
3.0
100
AcDbArc
 50
0.0
 51
91.99999799999975
  0
ARC
  5
4C66
330
1F
100
AcDbEntity
  8
AM_0
100
AcDbCircle
 10
455.5928015460207
 20
183.0690356114144
 30
0.0
 40
3.0
100
AcDbArc
 50
270.0
 51
0.0
  0
ARC
  5
4C67
330
1F
100
AcDbEntity
  8
AM_0
100
AcDbCircle
 10
456.5927615460209
 20
343.7884586114144
 30
0.0
 40
2.00000007
100
AcDbArc
 50
91.99999799999975
 51
180.0000100000009
  0
ARC
  5
4C68
330
1F
100
AcDbEntity
  8
AM_0
100
AcDbCircle
 10
424.8844436267232
 20
315.6032924926547
 30
0.0
 40
3.0
100
AcDbArc
 50
271.9999999999997
 51
314.9999999999995
  0
ARC
  5
4C69
330
1F
100
AcDbEntity
  8
AM_0
100
AcDbCircle
 10
457.5927515460207
 20
304.6942586114145
 30
0.0
 40
3.0
100
AcDbArc
 50
179.999989999999
 51
270.0
  0
ARC
  5
4C6A
330
1F
100
AcDbEntity
  8
AM_0
100
AcDbCircle
 10
456.2217815460208
 20
230.6586956114145
 30
0.0
 40
3.0
100
AcDbArc
 50
218.7932199999974
 51
270.0
  0
ARC
  5
4C6B
330
1F
100
AcDbEntity
  8
AM_0
100
AcDbCircle
 10
374.5928315460209
 20
151.8940916114145
 30
0.0
 40
2.00000007
100
AcDbArc
 50
179.999989999999
 51
268.0000100000003
  0
POINT
  5
4E3E
330
1F
100
AcDbEntity
  8
AM_0
100
AcDbPoint
 10
685.1201915776343
 20
253.5690941114144
 30
0.0
  0
LINE
  5
4E3F
330
1F
100
AcDbEntity
  8
AM_0
100
AcDbLine
 10
681.1201775776343
 20
270.5690951114144
 30
0.0
 11
689.1201785776342
 21
270.5690951114144
 31
0.0
  0
LINE
  5
4E40
330
1F
100
AcDbEntity
  8
AM_0
100
AcDbLine
 10
681.1201775776343
 20
263.5690961114144
 30
0.0
 11
689.1201785776342
 21
263.5690961114144
 31
0.0
  0
LINE
  5
4E41
330
1F
100
AcDbEntity
  8
AM_0
100
AcDbLine
 10
689.1201785776342
 20
263.5690961114144
 30
0.0
 11
689.1201785776342
 21
270.5690951114144
 31
0.0
  0
LINE
  5
4E42
330
1F
100
AcDbEntity
  8
AM_0
100
AcDbLine
 10
681.1201775776343
 20
263.5690961114144
 30
0.0
 11
681.1201775776343
 21
270.5690951114144
 31
0.0
  0
LINE
  5
4E43
330
1F
100
AcDbEntity
  8
AM_0
100
AcDbLine
 10
685.1201915776343
 20
161.0690921114144
 30
0.0
 11
715.1201795776342
 21
161.0690921114144
 31
0.0
  0
LINE
  5
4E44
330
1F
100
AcDbEntity
  8
AM_0
100
AcDbLine
 10
685.1201915776343
 20
161.0690921114144
 30
0.0
 11
655.1201915776342
 21
161.0690921114144
 31
0.0
  0
LINE
  5
4E45
330
1F
100
AcDbEntity
  8
AM_0
100
AcDbLine
 10
592.6201775776343
 20
283.5690971114144
 30
0.0
 11
595.0256975776343
 21
329.4691721114144
 31
0.0
  0
LINE
  5
4E46
330
1F
100
AcDbEntity
  8
AM_0
100
AcDbLine
 10
592.6201775776343
 20
253.5690941114144
 30
0.0
 11
592.6201775776343
 21
283.5690971114144
 31
0.0
  0
LINE
  5
4E47
330
1F
100
AcDbEntity
  8
AM_0
100
AcDbLine
 10
715.1201795776342
 20
346.0691021114144
 30
0.0
 11
761.0202665776342
 21
343.6635821114144
 31
0.0
  0
LINE
  5
4E48
330
1F
100
AcDbEntity
  8
AM_0
100
AcDbLine
 10
685.1201915776343
 20
346.0690721114145
 30
0.0
 11
715.1201795776342
 21
346.0690721114145
 31
0.0
  0
LINE
  5
4E49
330
1F
100
AcDbEntity
  8
AM_0
100
AcDbLine
 10
655.1201765776341
 20
161.0690921114144
 30
0.0
 11
609.2201045776342
 21
163.4746091114143
 31
0.0
  0
LINE
  5
4E4A
330
1F
100
AcDbEntity
  8
AM_0
100
AcDbLine
 10
687.6202122340746
 20
314.1888724549741
 30
0.0
 11
687.6202122340746
 21
324.7569424549741
 31
0.0
  0
LINE
  5
4E4B
330
1F
100
AcDbEntity
  8
AM_0
100
AcDbLine
 10
777.6201725776342
 20
253.5690941114144
 30
0.0
 11
777.6201725776342
 21
223.5690941114144
 31
0.0
  0
LINE
  5
4E4C
330
1F
100
AcDbEntity
  8
AM_0
100
AcDbLine
 10
777.6201815776342
 20
223.5690941114144
 30
0.0
 11
775.2146615776342
 21
177.6690071114144
 31
0.0
  0
LINE
  5
4E4D
330
1F
100
AcDbEntity
  8
AM_0
100
AcDbLine
 10
777.6201875776343
 20
283.5690971114144
 30
0.0
 11
775.2146615776342
 21
329.4691721114144
 31
0.0
  0
LINE
  5
4E4E
330
1F
100
AcDbEntity
  8
AM_0
100
AcDbLine
 10
777.6201725776342
 20
253.5690941114144
 30
0.0
 11
777.6201725776342
 21
283.5690971114144
 31
0.0
  0
LINE
  5
4E4F
330
1F
100
AcDbEntity
  8
AM_0
100
AcDbLine
 10
592.6201475776342
 20
223.5690941114144
 30
0.0
 11
595.0256675776342
 21
177.6690071114144
 31
0.0
  0
LINE
  5
4E50
330
1F
100
AcDbEntity
  8
AM_0
100
AcDbLine
 10
657.8476235776342
 20
285.0842951114143
 30
0.0
 11
632.9598215776342
 21
309.9720821114145
 31
0.0
  0
LINE
  5
4E51
330
1F
100
AcDbEntity
  8
AM_0
100
AcDbLine
 10
653.6049785776342
 20
280.8416471114144
 30
0.0
 11
628.7172065776343
 21
305.7294221114144
 31
0.0
  0
LINE
  5
4E52
330
1F
100
AcDbEntity
  8
AM_0
100
AcDbLine
 10
610.2552305776343
 20
225.3690971114145
 30
0.0
 11
641.1201905776342
 21
225.3690971114145
 31
0.0
  0
LINE
  5
4E53
330
1F
100
AcDbEntity
  8
AM_0
100
AcDbLine
 10
759.9851255776342
 20
225.3690971114145
 30
0.0
 11
729.1201775776343
 21
225.3690971114145
 31
0.0
  0
LINE
  5
4E54
330
1F
100
AcDbEntity
  8
AM_0
100
AcDbLine
 10
715.1201795776342
 20
161.0690921114144
 30
0.0
 11
761.0202665776342
 21
163.4746091114143
 31
0.0
  0
LINE
  5
4E55
330
1F
100
AcDbEntity
  8
ﾁｭｳｼﾝｾﾝ1
 48
0.5
100
AcDbLine
 10
753.8859073534313
 20
322.3348371273689
 30
0.0
 11
768.0744267656103
 21
336.5233387660132
 31
0.0
  0
LINE
  5
4E56
330
1F
100
AcDbEntity
  8
ﾁｭｳｼﾝｾﾝ1
 48
0.5
100
AcDbLine
 10
616.8797597395023
 20
321.8095038173557
 30
0.0
 11
601.6574364251101
 21
337.0318411793757
 31
0.0
  0
LINE
  5
4E57
330
1F
100
AcDbEntity
  8
AM_0
100
AcDbLine
 10
592.6201775776343
 20
253.5690941114144
 30
0.0
 11
592.6201775776343
 21
223.5690941114144
 31
0.0
  0
LINE
  5
4E58
330
1F
100
AcDbEntity
  8
ﾁｭｳｼﾝｾﾝ1
 48
0.5
100
AcDbLine
 10
616.0698999858083
 20
184.5187930454113
 30
0.0
 11
601.9609043336527
 21
170.4098155668687
 31
0.0
  0
LINE
  5
4E59
330
1F
100
AcDbEntity
  8
ﾁｭｳｼﾝｾﾝ
100
AcDbLine
 10
650.1171245776342
 20
230.3691131114145
 30
0.0
 11
719.7671195776343
 21
230.3691131114145
 31
0.0
  0
LINE
  5
4E5A
330
1F
100
AcDbEntity
  8
ﾁｭｳｼﾝｾﾝ
100
AcDbLine
 10
685.1201915776343
 20
144.0343631114144
 30
0.0
 11
685.1201915776343
 21
351.1882120653546
 31
0.0
  0
LINE
  5
4E5B
330
1F
100
AcDbEntity
  8
ﾁｭｳｼﾝｾﾝ
100
AcDbLine
 10
583.8564875776342
 20
253.5690941114144
 30
0.0
 11
784.0398769206758
 21
253.5690941114144
 31
0.0
  0
LINE
  5
4E5C
330
1F
100
AcDbEntity
  8
AM_0
100
AcDbLine
 10
682.6201962340746
 20
314.1888724549741
 30
0.0
 11
682.6201962340746
 21
324.7569424549741
 31
0.0
  0
LINE
  5
4E5D
330
1F
100
AcDbEntity
  8
AM_0
100
AcDbLine
 10
716.6353925776341
 20
280.8416471114144
 30
0.0
 11
741.5231795776342
 21
305.7294221114144
 31
0.0
  0
LINE
  5
4E5E
330
1F
100
AcDbEntity
  8
AM_0
100
AcDbLine
 10
655.1201615776342
 20
346.0691021114144
 30
0.0
 11
609.2201045776342
 21
343.6635821114144
 31
0.0
  0
LINE
  5
4E5F
330
1F
100
AcDbEntity
  8
AM_0
100
AcDbLine
 10
646.1201615776342
 20
253.5690941114144
 30
0.0
 11
646.1201615776342
 21
230.3691131114145
 31
0.0
  0
LINE
  5
4E60
330
1F
100
AcDbEntity
  8
AM_0
100
AcDbLine
 10
724.1201945776342
 20
253.5690941114144
 30
0.0
 11
724.1201945776342
 21
230.3691131114145
 31
0.0
  0
LINE
  5
4E61
330
1F
100
AcDbEntity
  8
AM_0
100
AcDbLine
 10
712.3927475776342
 20
285.0842951114143
 30
0.0
 11
737.2805345776343
 21
309.9720821114145
 31
0.0
  0
LINE
  5
4E62
330
1F
100
AcDbEntity
  8
ﾁｭｳｼﾝｾﾝ1
 48
0.5
100
AcDbLine
 10
753.4784960873735
 20
185.210776036906
 30
0.0
 11
768.6951063649289
 21
169.9941513560833
 31
0.0
  0
LINE
  5
4E63
330
1F
100
AcDbEntity
  8
AM_0
100
AcDbLine
 10
685.1201915776343
 20
346.0690721114145
 30
0.0
 11
655.1201915776342
 21
346.0690721114145
 31
0.0
  0
CIRCLE
  5
4E79
330
1F
100
AcDbEntity
  8
AM_5
100
AcDbCircle
 10
685.1201915776343
 20
253.5690941114144
 30
0.0
 40
4.000000199999999
  0
ARC
  5
4E7A
330
1F
100
AcDbEntity
  8
AM_0
100
AcDbCircle
 10
685.1201915776343
 20
253.5690941114144
 30
0.0
 40
14.0000013
100
AcDbArc
 50
106.6015399999998
 51
73.39845200000015
  0
CIRCLE
  5
4E7B
330
1F
100
AcDbEntity
  8
AM_0
100
AcDbCircle
 10
685.1201915776343
 20
253.5690941114144
 30
0.0
 40
3.0
  0
ARC
  5
4E7C
330
1F
100
AcDbEntity
  8
AM_0
100
AcDbCircle
 10
685.1201915776343
 20
230.3691131114145
 30
0.0
 40
76.000002
100
AcDbArc
 50
358.6064500000027
 51
12.76020200000241
  0
ARC
  5
4E7D
330
1F
100
AcDbEntity
  8
AM_0
100
AcDbCircle
 10
685.1201915776343
 20
230.3691131114145
 30
0.0
 40
76.000002
100
AcDbArc
 50
167.2398000000004
 51
181.3935400000023
  0
ARC
  5
4E7E
330
1F
100
AcDbEntity
  8
AM_0
100
AcDbCircle
 10
685.1201915776343
 20
253.5690941114144
 30
0.0
 40
74.400003
100
AcDbArc
 50
171.8834499999987
 51
184.9454200000019
  0
ARC
  5
4E7F
330
1F
100
AcDbEntity
  8
AM_0
100
AcDbCircle
 10
610.0051685776342
 20
328.6841321114143
 30
0.0
 40
15.00000029999999
100
AcDbArc
 50
92.99999900000004
 51
176.9999900000002
  0
ARC
  5
4E80
330
1F
100
AcDbEntity
  8
AM_0
100
AcDbCircle
 10
760.2351995776342
 20
328.6841321114143
 30
0.0
 40
15.00000029999999
100
AcDbArc
 50
3.000000099998805
 51
86.99999900000024
  0
ARC
  5
4E81
330
1F
100
AcDbEntity
  8
AM_0
100
AcDbCircle
 10
760.2351995776342
 20
178.4540561114144
 30
0.0
 40
15.00000029999999
100
AcDbArc
 50
272.9999999999997
 51
357.0000000000009
  0
ARC
  5
4E82
330
1F
100
AcDbEntity
  8
AM_0
100
AcDbCircle
 10
690.6202122340746
 20
314.1888724549741
 30
0.0
 40
3.0
100
AcDbArc
 50
180.0000100000009
 51
266.2457999999998
  0
ARC
  5
4E83
330
1F
100
AcDbEntity
  8
AM_0
100
AcDbCircle
 10
760.2351995776342
 20
328.6841321114143
 30
0.0
 40
15.00000029999999
100
AcDbArc
 50
3.000000099998805
 51
86.99999900000024
  0
ARC
  5
4E84
330
1F
100
AcDbEntity
  8
AM_0
100
AcDbCircle
 10
679.6201962340746
 20
324.7569424549741
 30
0.0
 40
3.0
100
AcDbArc
 50
0.0
 51
94.41791900000014
  0
ARC
  5
4E85
330
1F
100
AcDbEntity
  8
AM_0
100
AcDbCircle
 10
760.2351995776342
 20
178.4540561114144
 30
0.0
 40
15.00000029999999
100
AcDbArc
 50
272.9999999999997
 51
357.0000000000009
  0
ARC
  5
4E86
330
1F
100
AcDbEntity
  8
AM_0
100
AcDbCircle
 10
690.6202122340746
 20
324.7569424549741
 30
0.0
 40
3.0
100
AcDbArc
 50
85.58208599999963
 51
180.0000100000009
  0
ARC
  5
4E87
330
1F
100
AcDbEntity
  8
AM_0
100
AcDbCircle
 10
685.1201915776343
 20
253.5690941114144
 30
0.0
 40
74.400003
100
AcDbArc
 50
355.054579999998
 51
8.11654939999979
  0
ARC
  5
4E88
330
1F
100
AcDbEntity
  8
AM_0
100
AcDbCircle
 10
610.0051685776342
 20
178.4540561114144
 30
0.0
 40
15.00000029999999
100
AcDbArc
 50
183.0000099999997
 51
267.0000000000003
  0
ARC
  5
4E89
330
1F
100
AcDbEntity
  8
AM_0
100
AcDbCircle
 10
685.1201915776343
 20
230.3691131114145
 30
0.0
 40
81.00000300000001
100
AcDbArc
 50
125.4741699999996
 51
155.4112299999974
  0
ARC
  5
4E8A
330
1F
100
AcDbEntity
  8
AM_0
100
AcDbCircle
 10
729.1201775776343
 20
230.3691131114145
 30
0.0
 40
5.0000001
100
AcDbArc
 50
179.999989999999
 51
270.0
  0
ARC
  5
4E8B
330
1F
100
AcDbEntity
  8
AM_0
100
AcDbCircle
 10
685.1201915776343
 20
253.5690941114144
 30
0.0
 40
39.000012
100
AcDbArc
 50
0.0
 51
36.78679099999945
  0
ARC
  5
4E8C
330
1F
100
AcDbEntity
  8
AM_0
100
AcDbCircle
 10
659.9689325776343
 20
287.2056011114143
 30
0.0
 40
3.0
100
AcDbArc
 50
225.0000000000006
 51
306.786789999999
  0
ARC
  5
4E8D
330
1F
100
AcDbEntity
  8
AM_0
100
AcDbCircle
 10
651.4836725776342
 20
278.7203111114145
 30
0.0
 40
3.0
100
AcDbArc
 50
323.2132100000001
 51
45.00000100000209
  0
ARC
  5
4E8E
330
1F
100
AcDbEntity
  8
AM_0
100
AcDbCircle
 10
685.1201915776343
 20
253.5690941114144
 30
0.0
 40
39.000012
100
AcDbArc
 50
53.21320799999875
 51
126.7867899999989
  0
ARC
  5
4E8F
330
1F
100
AcDbEntity
  8
AM_0
100
AcDbCircle
 10
635.0811792340746
 20
312.0934024549741
 30
0.0
 40
3.0
100
AcDbArc
 50
130.5308599999992
 51
225.0000000000006
  0
ARC
  5
4E90
330
1F
100
AcDbEntity
  8
AM_0
100
AcDbCircle
 10
685.1201915776343
 20
230.3691131114145
 30
0.0
 40
81.00000300000001
100
AcDbArc
 50
58.86094500000002
 51
86.24580300000038
  0
ARC
  5
4E91
330
1F
100
AcDbEntity
  8
AM_0
100
AcDbCircle
 10
685.1201915776343
 20
253.5690941114144
 30
0.0
 40
39.000012
100
AcDbArc
 50
143.21321
 51
180.0000100000009
  0
ARC
  5
4E92
330
1F
100
AcDbEntity
  8
AM_0
100
AcDbCircle
 10
641.1201905776342
 20
230.3691131114145
 30
0.0
 40
5.0000001
100
AcDbArc
 50
270.0
 51
0.0
  0
ARC
  5
4E93
330
1F
100
AcDbEntity
  8
AM_0
100
AcDbCircle
 10
653.7880235776342
 20
150.2798021114145
 30
0.0
 40
5.0000001
100
AcDbArc
 50
68.63379799999991
 51
143.2612600000019
  0
ARC
  5
4E94
330
1F
100
AcDbEntity
  8
AM_0
100
AcDbCircle
 10
643.3701905776342
 20
158.0559701114143
 30
0.0
 40
8.000000099999999
100
AcDbArc
 50
156.7387399999976
 51
323.2612699999982
  0
ARC
  5
4E95
330
1F
100
AcDbEntity
  8
AM_0
100
AcDbCircle
 10
726.8701625776342
 20
158.0559701114143
 30
0.0
 40
8.000000099999999
100
AcDbArc
 50
216.7387399999981
 51
23.26125799999788
  0
ARC
  5
4E96
330
1F
100
AcDbEntity
  8
ﾁｭｳｼﾝｾﾝ1
 48
0.5
100
AcDbCircle
 10
685.1201915776239
 20
253.5690941114038
 30
0.0
 40
107.5000110000146
100
AcDbArc
 50
38.852188836946
 51
51.12454037661565
  0
ARC
  5
4E97
330
1F
100
AcDbEntity
  8
AM_0
100
AcDbCircle
 10
685.1201915776343
 20
230.3691131114145
 30
0.0
 40
81.00000300000001
100
AcDbArc
 50
248.6338000000014
 51
270.0
  0
ARC
  5
4E98
330
1F
100
AcDbEntity
  8
AM_0
100
AcDbCircle
 10
716.4523475776341
 20
150.2798021114145
 30
0.0
 40
5.0000001
100
AcDbArc
 50
36.73873700000072
 51
111.3662099999999
  0
CIRCLE
  5
4E99
330
1F
100
AcDbEntity
  8
AM_0
100
AcDbCircle
 10
761.1341555776342
 20
329.5830821114143
 30
0.0
 40
6.000000299999999
  0
CIRCLE
  5
4E9A
330
1F
100
AcDbEntity
  8
AM_0
100
AcDbCircle
 10
609.1062125776342
 20
329.5830821114143
 30
0.0
 40
6.000000299999999
  0
ARC
  5
4E9B
330
1F
100
AcDbEntity
  8
ﾁｭｳｼﾝｾﾝ1
 48
0.5
100
AcDbCircle
 10
685.1201915776361
 20
253.5690941114132
 30
0.0
 40
107.500011000002
100
AcDbArc
 50
123.9568253910159
 51
141.5259858988166
  0
ARC
  5
4E9C
330
1F
100
AcDbEntity
  8
AM_0
100
AcDbCircle
 10
626.5958975776342
 20
303.6080921114144
 30
0.0
 40
3.0
100
AcDbArc
 50
45.00000100000209
 51
139.4691400000015
  0
ARC
  5
4E9D
330
1F
100
AcDbEntity
  8
AM_0
100
AcDbCircle
 10
610.0051685776342
 20
178.4540561114144
 30
0.0
 40
15.00000029999999
100
AcDbArc
 50
183.0000099999997
 51
267.0000000000003
  0
ARC
  5
4E9E
330
1F
100
AcDbEntity
  8
ﾁｭｳｼﾝｾﾝ1
 48
0.5
100
AcDbCircle
 10
685.1201915776376
 20
253.5690941114176
 30
0.0
 40
107.5000110000045
100
AcDbArc
 50
218.9860358254459
 51
231.2572415082051
  0
CIRCLE
  5
4E9F
330
1F
100
AcDbEntity
  8
AM_0
100
AcDbCircle
 10
609.1062125776342
 20
177.5551151114143
 30
0.0
 40
6.000000299999999
  0
CIRCLE
  5
4EA0
330
1F
100
AcDbEntity
  8
AM_0
100
AcDbCircle
 10
685.1201915776343
 20
253.5690941114144
 30
0.0
 40
29.000001
  0
CIRCLE
  5
4EA1
330
1F
100
AcDbEntity
  8
AM_0
100
AcDbCircle
 10
761.1341555776342
 20
177.5551151114143
 30
0.0
 40
6.000000299999999
  0
CIRCLE
  5
4EA2
330
1F
100
AcDbEntity
  8
AM_0
100
AcDbCircle
 10
685.1201915776343
 20
253.5690941114144
 30
0.0
 40
80.00000099999999
  0
ARC
  5
4EA3
330
1F
100
AcDbEntity
  8
AM_0
100
AcDbCircle
 10
685.1201915776343
 20
230.3691131114145
 30
0.0
 40
81.00000300000001
100
AcDbArc
 50
24.58877499999778
 51
54.52583000000032
  0
CIRCLE
  5
4EA4
330
1F
100
AcDbEntity
  8
AM_0
100
AcDbCircle
 10
685.1201915776343
 20
253.5690941114144
 30
0.0
 40
85.000002
  0
ARC
  5
4EA5
330
1F
100
AcDbEntity
  8
AM_0
100
AcDbCircle
 10
743.6444855776343
 20
303.6080921114144
 30
0.0
 40
3.0
100
AcDbArc
 50
40.53086499999821
 51
134.9999999999994
  0
ARC
  5
4EA6
330
1F
100
AcDbEntity
  8
AM_0
100
AcDbCircle
 10
710.2714385776343
 20
287.2056011114143
 30
0.0
 40
3.0
100
AcDbArc
 50
233.213210000001
 51
314.9999999999995
  0
ARC
  5
4EA7
330
1F
100
AcDbEntity
  8
ﾁｭｳｼﾝｾﾝ1
 48
0.5
100
AcDbCircle
 10
685.120191577634
 20
253.5690941114151
 30
0.0
 40
107.5000110000007
100
AcDbArc
 50
304.0951932909079
 51
322.1338772208592
  0
ARC
  5
4EA8
330
1F
100
AcDbEntity
  8
AM_0
100
AcDbCircle
 10
718.7566985776342
 20
278.7203111114145
 30
0.0
 40
3.0
100
AcDbArc
 50
134.9999999999994
 51
216.78679
  0
ARC
  5
4EA9
330
1F
100
AcDbEntity
  8
AM_0
100
AcDbCircle
 10
735.1592142340746
 20
312.0934024549741
 30
0.0
 40
3.0
100
AcDbArc
 50
314.9999999999995
 51
49.46913700000072
  0
ARC
  5
4EAA
330
1F
100
AcDbEntity
  8
AM_0
100
AcDbCircle
 10
610.0051685776342
 20
328.6841321114143
 30
0.0
 40
15.00000029999999
100
AcDbArc
 50
92.99999900000004
 51
176.9999900000002
  0
ARC
  5
4EAB
330
1F
100
AcDbEntity
  8
AM_0
100
AcDbCircle
 10
685.1201915776343
 20
230.3691131114145
 30
0.0
 40
81.00000300000001
100
AcDbArc
 50
270.0
 51
291.3661999999986
  0
ARC
  5
4EAC
330
1F
100
AcDbEntity
  8
AM_0
100
AcDbCircle
 10
679.6201962340746
 20
314.1888724549741
 30
0.0
 40
3.0
100
AcDbArc
 50
273.7542000000001
 51
0.0
  0
ARC
  5
4EB5
330
1F
100
AcDbEntity
  8
AM_0
100
AcDbCircle
 10
685.1202237074509
 20
230.3691034549741
 30
0.0
 40
81.00000300000001
100
AcDbArc
 50
93.75419500000086
 51
121.13908081043
  0
LINE
  5
5252
330
1F
100
AcDbEntity
  8
AM_0
100
AcDbLine
 10
346.092831546021
 20
405.2436270361073
 30
0.0
 11
346.092831546021
 21
532.2436270361073
 31
0.0
  0
LINE
  5
5253
330
1F
100
AcDbEntity
  8
0
  6
Continuous
 62
     7
100
AcDbLine
 10
270.5928488111242
 20
498.7436225361071
 30
0.0
 11
270.5928488111242
 21
438.7436225361071
 31
0.0
  0
LINE
  5
5254
330
1F
100
AcDbEntity
  8
0
100
AcDbLine
 10
321.3415905114914
 20
500.5158121470222
 30
0.0
 11
270.5928488111242
 21
498.7436270361071
 31
0.0
  0
LINE
  5
5255
330
1F
100
AcDbEntity
  8
0
100
AcDbLine
 10
321.3415815330733
 20
436.9714422387251
 30
0.0
 11
270.5928488111242
 21
438.7436270361071
 31
0.0
  0
LINE
  5
5256
330
1F
100
AcDbEntity
  8
0
100
AcDbLine
 10
338.0230287380453
 20
532.4618234456136
 30
0.0
 11
346.0928277314504
 21
532.743627036107
 31
0.0
  0
LINE
  5
5257
330
1F
100
AcDbEntity
  8
0
100
AcDbLine
 10
336.0928277314504
 20
530.4630417915753
 30
0.0
 11
336.0928277314536
 21
407.0242112056798
 31
0.0
  0
ARC
  5
5258
330
1F
100
AcDbEntity
  8
0
100
AcDbCircle
 10
338.0928277314504
 20
530.4630417915753
 30
0.0
 40
2.0
100
AcDbArc
 50
92.00000000000041
 51
180.0
1001
GENIUS_GENOBJ-N-FIL_13
1002
{
1000
OWNER
1000
GEN
1002
}
1001
GENIUS_GENODEF_13
1002
{
1000
HIER
1070
     0
1002
}
1002
{
1000
MANEDIT
1070
     0
1002
}
1002
{
1000
NOSEL
1070
     0
1002
}
1002
{
1000
BEHIND
1070
     0
1002
}
1002
{
1000
OTHER
1070
     0
1002
}
1002
{
1000
REACTOR
1002
}
  0
ARC
  5
5259
330
1F
100
AcDbEntity
  8
0
100
AcDbCircle
 10
331.0928277314504
 20
528.3146948479725
 30
0.0
 40
5.0
100
AcDbArc
 50
315.0
 51
0.0
1001
GENIUS_GENOBJ-N-FIL_13
1002
{
1000
OWNER
1000
GEN
1002
}
1001
GENIUS_GENODEF_13
1002
{
1000
HIER
1070
     0
1002
}
1002
{
1000
MANEDIT
1070
     0
1002
}
1002
{
1000
NOSEL
1070
     0
1002
}
1002
{
1000
BEHIND
1070
     0
1002
}
1002
{
1000
OTHER
1070
     0
1002
}
1002
{
1000
REACTOR
1002
}
  0
LINE
  5
525A
330
1F
100
AcDbEntity
  8
0
100
AcDbLine
 10
311.3605163016044
 20
501.5113156062607
 30
0.0
 11
334.6283616373832
 21
524.7791609420398
 31
0.0
  0
ARC
  5
525B
330
1F
100
AcDbEntity
  8
0
100
AcDbCircle
 10
307.8249823956716
 20
505.0468495121934
 30
0.0
 40
5.0
100
AcDbArc
 50
272.0000000000004
 51
315.0
1001
GENIUS_GENOBJ-N-FIL_13
1002
{
1000
OWNER
1000
GEN
1002
}
1001
GENIUS_GENODEF_13
1002
{
1000
HIER
1070
     0
1002
}
1002
{
1000
MANEDIT
1070
     0
1002
}
1002
{
1000
NOSEL
1070
     0
1002
}
1002
{
1000
BEHIND
1070
     0
1002
}
1002
{
1000
OTHER
1070
     0
1002
}
1002
{
1000
REACTOR
1002
}
  0
LINE
  5
525C
330
1F
100
AcDbEntity
  8
0
100
AcDbLine
 10
311.3605163016044
 20
435.9759384659534
 30
0.0
 11
334.6283616373832
 21
412.7080931301744
 31
0.0
  0
ARC
  5
525D
330
1F
100
AcDbEntity
  8
0
100
AcDbCircle
 10
307.8249823956717
 20
432.4404045600207
 30
0.0
 40
5.0
100
AcDbArc
 50
45.0
 51
87.99999999999959
1001
GENIUS_GENOBJ-N-FIL_13
1002
{
1000
OWNER
1000
GEN
1002
}
1001
GENIUS_GENODEF_13
1002
{
1000
HIER
1070
     0
1002
}
1002
{
1000
MANEDIT
1070
     0
1002
}
1002
{
1000
NOSEL
1070
     0
1002
}
1002
{
1000
BEHIND
1070
     0
1002
}
1002
{
1000
OTHER
1070
     0
1002
}
1002
{
1000
REACTOR
1002
}
  0
LINE
  5
525E
330
1F
100
AcDbEntity
  8
AM_5
 62
     2
100
AcDbLine
 10
336.092827731451
 20
506.8436264400806
 30
0.0
 11
346.0928292751594
 21
506.8436270361071
 31
0.0
1001
GENIUS_GENODEF_13
1002
{
1000
HIER
1070
     0
1002
}
1002
{
1000
MANEDIT
1070
     0
1002
}
1002
{
1000
NOSEL
1070
     0
1002
}
1002
{
1000
BEHIND
1070
     0
1002
}
1002
{
1000
OTHER
1070
     0
1002
}
1002
{
1000
REACTOR
1002
}
1001
GENIUS_GENOBJ-N-CEN_13
1002
{
1000
OWNER
1000
GEN
1002
}
1001
GENIUS_GENCEN_19
1002
{
1040
2.794
1002
}
  0
LINE
  5
525F
330
1F
100
AcDbEntity
  8
AM_5
 62
     2
100
AcDbLine
 10
336.092827731453
 20
430.6436264400804
 30
0.0
 11
346.0928338168825
 21
430.6436270361074
 31
0.0
1001
GENIUS_GENODEF_13
1002
{
1000
HIER
1070
     0
1002
}
1002
{
1000
MANEDIT
1070
     0
1002
}
1002
{
1000
NOSEL
1070
     0
1002
}
1002
{
1000
BEHIND
1070
     0
1002
}
1002
{
1000
OTHER
1070
     0
1002
}
1002
{
1000
REACTOR
1002
}
1001
GENIUS_GENOBJ-N-CEN_13
1002
{
1000
OWNER
1000
GEN
1002
}
1001
GENIUS_GENCEN_19
1002
{
1040
2.794
1002
}
  0
LINE
  5
5260
330
1F
100
AcDbEntity
  8
0
100
AcDbLine
 10
336.0928277314533
 20
417.2436264400803
 30
0.0
 11
346.0928346155582
 21
417.2436270361074
 31
0.0
1001
GENIUS_GENODEF_13
1002
{
1000
HIER
1070
     0
1002
}
1002
{
1000
MANEDIT
1070
     0
1002
}
1002
{
1000
NOSEL
1070
     0
1002
}
1002
{
1000
BEHIND
1070
     0
1002
}
1002
{
1000
OTHER
1070
     0
1002
}
1002
{
1000
REACTOR
1002
}
1001
GENIUS_GENOBJ-N-CEN_13
1002
{
1000
OWNER
1000
GEN
1002
}
1001
GENIUS_GENCEN_19
1002
{
1040
2.794
1002
}
  0
LINE
  5
5261
330
1F
100
AcDbEntity
  8
0
100
AcDbLine
 10
336.0928277314506
 20
520.2436264400804
 30
0.0
 11
346.0928284764837
 21
520.243627036107
 31
0.0
1001
GENIUS_GENODEF_13
1002
{
1000
HIER
1070
     0
1002
}
1002
{
1000
MANEDIT
1070
     0
1002
}
1002
{
1000
NOSEL
1070
     0
1002
}
1002
{
1000
BEHIND
1070
     0
1002
}
1002
{
1000
OTHER
1070
     0
1002
}
1002
{
1000
REACTOR
1002
}
1001
GENIUS_GENOBJ-N-CEN_13
1002
{
1000
OWNER
1000
GEN
1002
}
1001
GENIUS_GENCEN_19
1002
{
1040
2.794
1002
}
  0
LINE
  5
5262
330
1F
100
AcDbEntity
  8
0
100
AcDbLine
 10
338.023036333594
 20
405.025429664638
 30
0.0
 11
346.0928353605916
 21
404.7436270361076
 31
0.0
  0
ARC
  5
5263
330
1F
100
AcDbEntity
  8
0
100
AcDbCircle
 10
338.0928350887337
 20
407.0242113269966
 30
0.0
 40
2.0
100
AcDbArc
 50
180.0000068299612
 51
268.0000068299623
1001
GENIUS_GENOBJ-N-FIL_13
1002
{
1000
OWNER
1000
GEN
1002
}
1001
GENIUS_GENODEF_13
1002
{
1000
HIER
1070
     0
1002
}
1002
{
1000
MANEDIT
1070
     0
1002
}
1002
{
1000
NOSEL
1070
     0
1002
}
1002
{
1000
BEHIND
1070
     0
1002
}
1002
{
1000
OTHER
1070
     0
1002
}
1002
{
1000
REACTOR
1002
}
  0
ARC
  5
5264
330
1F
100
AcDbEntity
  8
0
100
AcDbCircle
 10
331.0928348326394
 20
409.1725574361621
 30
0.0
 40
5.0
100
AcDbArc
 50
0.0000068299611879
 51
45.00000682996163
1001
GENIUS_GENOBJ-N-FIL_13
1002
{
1000
OWNER
1000
GEN
1002
}
1001
GENIUS_GENODEF_13
1002
{
1000
HIER
1070
     0
1002
}
1002
{
1000
MANEDIT
1070
     0
1002
}
1002
{
1000
NOSEL
1070
     0
1002
}
1002
{
1000
BEHIND
1070
     0
1002
}
1002
{
1000
OTHER
1070
     0
1002
}
1002
{
1000
REACTOR
1002
}
  0
ARC
  5
5265
330
1F
100
AcDbEntity
  8
AM_5
 62
     2
100
AcDbCircle
 10
349.3575024776691
 20
468.7436229791813
 30
0.0
 40
38.83431186232895
100
AcDbArc
 50
133.1867259405558
 51
226.813256781428
  0
ARC
  5
5266
330
1F
100
AcDbEntity
  8
AM_5
 62
     2
100
AcDbCircle
 10
321.4113805264783
 20
438.9702238927633
 30
0.0
 40
2.0
100
AcDbArc
 50
267.9999999999996
 51
46.81325678142335
1001
GENIUS_GENODEF_13
1002
{
1000
HIER
1070
     0
1002
}
1002
{
1000
MANEDIT
1070
     0
1002
}
1002
{
1000
NOSEL
1070
     0
1002
}
1002
{
1000
BEHIND
1070
     0
1002
}
1002
{
1000
OTHER
1070
     0
1002
}
1002
{
1000
REACTOR
1002
}
1001
GENIUS_GENOBJ-N-FIL_13
1002
{
1000
OWNER
1000
GEN
1002
}
  0
ARC
  5
5267
330
1F
100
AcDbEntity
  8
AM_5
 62
     2
100
AcDbCircle
 10
321.4113895048964
 20
498.517030492984
 30
0.0
 40
2.0
100
AcDbArc
 50
313.1867259405559
 51
92.00000000000041
1001
GENIUS_GENODEF_13
1002
{
1000
HIER
1070
     0
1002
}
1002
{
1000
MANEDIT
1070
     0
1002
}
1002
{
1000
NOSEL
1070
     0
1002
}
1002
{
1000
BEHIND
1070
     0
1002
}
1002
{
1000
OTHER
1070
     0
1002
}
1002
{
1000
REACTOR
1002
}
1001
GENIUS_GENOBJ-N-FIL_13
1002
{
1000
OWNER
1000
GEN
1002
}
  0
LINE
  5
5268
330
1F
100
AcDbEntity
  8
0
100
AcDbLine
 10
299.0928488111243
 20
261.3643519087216
 30
0.0
 11
299.0928488111243
 21
261.7691146114144
 31
0.0
1001
GENIUS_GENOBJ-N-CEN_13
1002
{
1000
OWNER
1000
GEN
1002
}
1001
GENIUS_GENODEF_13
1002
{
1000
HIER
1070
     0
1002
}
1002
{
1000
MANEDIT
1070
     0
1002
}
1002
{
1000
NOSEL
1070
     0
1002
}
1002
{
1000
BEHIND
1070
     0
1002
}
1002
{
1000
OTHER
1070
     0
1002
}
1002
{
1000
REACTOR
1002
}
1001
GENIUS_GENCEN_19
1002
{
1040
2.794
1002
}
  0
LINE
  5
5269
330
1F
100
AcDbEntity
  8
0
100
AcDbLine
 10
282.0928488111243
 20
260.7691146114144
 30
0.0
 11
282.0928488111243
 21
261.7691146114144
 31
0.0
1001
GENIUS_GENOBJ-N-CEN_13
1002
{
1000
OWNER
1000
GEN
1002
}
1001
GENIUS_GENODEF_13
1002
{
1000
HIER
1070
     0
1002
}
1002
{
1000
MANEDIT
1070
     0
1002
}
1002
{
1000
NOSEL
1070
     0
1002
}
1002
{
1000
BEHIND
1070
     0
1002
}
1002
{
1000
OTHER
1070
     0
1002
}
1002
{
1000
REACTOR
1002
}
1001
GENIUS_GENCEN_19
1002
{
1040
2.794
1002
}
  0
LINE
  5
526A
330
1F
100
AcDbEntity
  8
0
100
AcDbLine
 10
281.5928488111244
 20
260.753238442616
 30
0.0
 11
281.5928488111243
 21
260.7691146114144
 31
0.0
1001
GENIUS_GENOBJ-N-CEN_13
1002
{
1000
OWNER
1000
GEN
1002
}
1001
GENIUS_GENODEF_13
1002
{
1000
HIER
1070
     0
1002
}
1002
{
1000
MANEDIT
1070
     0
1002
}
1002
{
1000
NOSEL
1070
     0
1002
}
1002
{
1000
BEHIND
1070
     0
1002
}
1002
{
1000
OTHER
1070
     0
1002
}
1002
{
1000
REACTOR
1002
}
1001
GENIUS_GENCEN_19
1002
{
1040
2.794
1002
}
  0
LINE
  5
526B
330
1F
100
AcDbEntity
  8
0
100
AcDbLine
 10
281.5928488111243
 20
260.7691146114143
 30
0.0
 11
282.047482801996
 21
260.7691146114143
 31
0.0
  0
LINE
  5
526C
330
1F
100
AcDbEntity
  8
図面枠-ｷｲﾛ
100
AcDbLine
 10
282.0928488111243
 20
261.7691146114143
 30
0.0
 11
299.0928488111243
 21
261.7691146114144
 31
0.0
  0
ARC
  5
526D
330
1F
100
AcDbEntity
  8
0
100
AcDbCircle
 10
290.5928488111245
 20
244.7066146114143
 30
0.0
 40
19.06249999999999
100
AcDbArc
 50
63.51896016962665
 51
116.4810398303733
  0
LINE
  5
526E
330
1F
100
AcDbEntity
  8
AM_7
  6
AM_ISO08W050x2
 62
     1
370
    25
100
AcDbLine
 10
290.5928488111243
 20
266.5631146114143
 30
0.0
 11
290.5928488111243
 21
251.5052730724308
 31
0.0
1001
GENIUS_GENODEF_13
1002
{
1000
HIER
1070
     0
1002
}
1002
{
1000
MANEDIT
1070
     0
1002
}
1002
{
1000
NOSEL
1070
     0
1002
}
1002
{
1000
BEHIND
1070
     0
1002
}
1002
{
1000
OTHER
1070
     0
1002
}
1002
{
1000
REACTOR
1002
}
1001
GENIUS_GENOBJ-N-CEN_13
1002
{
1000
OWNER
1000
GEN
1002
}
1001
GENIUS_GENCEN_19
1002
{
1040
2.794
1002
}
  0
CIRCLE
  5
526F
330
1F
100
AcDbEntity
  8
0
100
AcDbCircle
 10
290.5928488111243
 20
482.7436237281605
 30
0.0
 40
10.0
  0
LINE
  5
5270
330
1F
100
AcDbEntity
  8
ﾁｭｳｼﾝｾﾝ1
 48
0.7
100
AcDbLine
 10
290.5928488111243
 20
495.7436237281605
 30
0.0
 11
290.5928488111243
 21
469.7436237281605
 31
0.0
1001
GENIUS_GENODEF_13
1002
{
1000
HIER
1070
     0
1002
}
1002
{
1000
MANEDIT
1070
     0
1002
}
1002
{
1000
NOSEL
1070
     0
1002
}
1002
{
1000
BEHIND
1070
     0
1002
}
1002
{
1000
OTHER
1070
     0
1002
}
1002
{
1000
REACTOR
1002
}
1001
GENIUS_GENOBJ-N-CEN_13
1002
{
1000
OWNER
1000
GEN
1002
}
1001
GENIUS_GENCEN_19
1002
{
1040
3.0
1002
}
  0
LINE
  5
5271
330
1F
100
AcDbEntity
  8
AM_0
100
AcDbLine
 10
289.5928488111243
 20
487.7436237281605
 30
0.0
 11
289.5928488111243
 21
477.7436237281604
 31
0.0
1001
GENIUS_GENODEF_13
1002
{
1000
HIER
1070
     0
1002
}
1002
{
1000
MANEDIT
1070
     0
1002
}
1002
{
1000
NOSEL
1070
     0
1002
}
1002
{
1000
BEHIND
1070
     0
1002
}
1002
{
1000
OTHER
1070
     0
1002
}
1002
{
1000
REACTOR
1002
}
1001
GENIUS_GENOBJ-N-CEN_13
1002
{
1000
OWNER
1000
GEN
1002
}
1001
GENIUS_GENCEN_19
1002
{
1040
3.0
1002
}
  0
LINE
  5
5272
330
1F
100
AcDbEntity
  8
AM_0
100
AcDbLine
 10
291.5928488111243
 20
487.7436237281605
 30
0.0
 11
291.5928488111243
 21
477.7436237281604
 31
0.0
1001
GENIUS_GENODEF_13
1002
{
1000
HIER
1070
     0
1002
}
1002
{
1000
MANEDIT
1070
     0
1002
}
1002
{
1000
NOSEL
1070
     0
1002
}
1002
{
1000
BEHIND
1070
     0
1002
}
1002
{
1000
OTHER
1070
     0
1002
}
1002
{
1000
REACTOR
1002
}
1001
GENIUS_GENOBJ-N-CEN_13
1002
{
1000
OWNER
1000
GEN
1002
}
1001
GENIUS_GENCEN_19
1002
{
1040
3.0
1002
}
  0
CIRCLE
  5
5273
330
1F
100
AcDbEntity
  8
AM_0
100
AcDbCircle
 10
290.5928488111243
 20
482.7436237281605
 30
0.0
 40
8.500000000000056
  0
CIRCLE
  5
5274
330
1F
100
AcDbEntity
  8
AM_0
100
AcDbCircle
 10
290.5928488111243
 20
482.7436237281605
 30
0.0
 40
8.999999999999971
  0
ARC
  5
5275
330
1F
100
AcDbEntity
  8
AM_0
100
AcDbCircle
 10
290.5928488111243
 20
487.7436237281605
 30
0.0
 40
1.0
100
AcDbArc
 50
0.0
 51
180.0
  0
ARC
  5
5276
330
1F
100
AcDbEntity
  8
AM_0
100
AcDbCircle
 10
290.5928488111243
 20
477.7436237281604
 30
0.0
 40
1.0
100
AcDbArc
 50
180.0
 51
0.0
  0
LINE
  5
5277
330
1F
100
AcDbEntity
  8
ﾁｭｳｼﾝｾﾝ1
 48
0.7
100
AcDbLine
 10
277.5928488111243
 20
482.7436237281605
 30
0.0
 11
303.5928488111243
 21
482.7436237281605
 31
0.0
1001
GENIUS_GENOBJ-N-CEN_13
1002
{
1000
OWNER
1000
GEN
1002
}
1001
GENIUS_GENODEF_13
1002
{
1000
HIER
1070
     0
1002
}
1002
{
1000
MANEDIT
1070
     0
1002
}
1002
{
1000
NOSEL
1070
     0
1002
}
1002
{
1000
BEHIND
1070
     0
1002
}
1002
{
1000
OTHER
1070
     0
1002
}
1002
{
1000
REACTOR
1002
}
1001
GENIUS_GENCEN_19
1002
{
1040
3.0
1002
}
  0
TEXT
  5
5278
330
1F
100
AcDbEntity
  8
AM_0
100
AcDbText
 10
603.6032908799575
 20
381.6520167262256
 30
0.0
 40
7.5
  1
ＶＸ０４－０６０～１００ＨＦ－Ｔ１（Ｔ３）
 41
0.8299999999999998
100
AcDbText
  0
LINE
  5
5279
330
1F
100
AcDbEntity
  8
0
  6
Continuous
 62
     7
100
AcDbLine
 10
346.092831546021
 20
405.2436270361073
 30
0.0
 11
346.092831546021
 21
532.2436270361074
 31
0.0
  0
LINE
  5
52BF
330
1F
100
AcDbEntity
  8
0
  6
Continuous
 62
     7
100
AcDbLine
 10
389.592831546021
 20
386.4926770361071
 30
0.0
 11
389.592831546021
 21
550.9945770361073
 31
0.0
  0
LINE
  5
52C0
330
1F
100
AcDbEntity
  8
0
  6
Continuous
 62
     7
100
AcDbLine
 10
389.592831546021
 20
386.4926770361071
 30
0.0
 11
377.418331546021
 21
386.9178170361074
 31
0.0
  0
LINE
  5
52C1
330
1F
100
AcDbEntity
  8
0
  6
Continuous
 62
     7
100
AcDbLine
 10
389.5928015460211
 20
550.9945770361073
 30
0.0
 11
377.418301546021
 21
550.5694270361073
 31
0.0
  0
LINE
  5
52C2
330
1F
100
AcDbEntity
  8
0
  6
Continuous
 62
     7
100
AcDbLine
 10
372.592831546021
 20
391.9147670361075
 30
0.0
 11
372.592831546021
 21
545.5724870361073
 31
0.0
  0
LINE
  5
52C3
330
1F
100
AcDbEntity
  8
0
  6
Continuous
 62
     7
100
AcDbLine
 10
372.592831546021
 20
528.0521270361073
 30
0.0
 11
382.5928015460211
 21
528.0521270361073
 31
0.0
  0
LINE
  5
52C4
330
1F
100
AcDbEntity
  8
0
  6
Continuous
 62
     7
100
AcDbLine
 10
372.592831546021
 20
409.4351270361074
 30
0.0
 11
382.5928015460211
 21
409.4351270361074
 31
0.0
  0
LINE
  5
52C5
330
1F
100
AcDbEntity
  8
0
  6
Continuous
 62
     7
100
AcDbLine
 10
382.5928015460211
 20
397.6534470361074
 30
0.0
 11
382.5928015460211
 21
539.8338070361074
 31
0.0
  0
LINE
  5
52C6
330
1F
100
AcDbEntity
  8
0
  6
Continuous
 62
     7
100
AcDbLine
 10
346.092831546021
 20
405.2436270361073
 30
0.0
 11
346.092831546021
 21
532.2436270361074
 31
0.0
  0
LINE
  5
52C7
330
1F
100
AcDbEntity
  8
0
  6
Continuous
 62
     7
100
AcDbLine
 10
346.092831546021
 20
520.7836370361073
 30
0.0
 11
372.5928015460211
 21
520.7836370361073
 31
0.0
  0
LINE
  5
52C8
330
1F
100
AcDbEntity
  8
0
  6
Continuous
 62
     7
100
AcDbLine
 10
346.092831546021
 20
505.8915470361074
 30
0.0
 11
372.5928015460211
 21
505.8915470361074
 31
0.0
  0
LINE
  5
52C9
330
1F
100
AcDbEntity
  8
0
  6
Continuous
 62
     7
100
AcDbLine
 10
346.092831546021
 20
532.2436270361074
 30
0.0
 11
369.6975415460211
 21
533.0679370361072
 31
0.0
  0
LINE
  5
52CA
330
1F
100
AcDbEntity
  8
0
  6
Continuous
 62
     7
100
AcDbLine
 10
346.092861546021
 20
405.2435970361074
 30
0.0
 11
369.6975115460209
 21
404.4193170361074
 31
0.0
  0
LINE
  5
52CB
330
1F
100
AcDbEntity
  8
0
  6
Continuous
 62
     7
100
AcDbLine
 10
346.092831546021
 20
431.5957070361074
 30
0.0
 11
372.5928015460211
 21
431.5957070361074
 31
0.0
  0
LINE
  5
52CC
330
1F
100
AcDbEntity
  8
0
  6
Continuous
 62
     7
100
AcDbLine
 10
346.092831546021
 20
416.7036170361073
 30
0.0
 11
372.5928015460211
 21
416.7036170361073
 31
0.0
  0
LINE
  5
52CD
330
1F
100
AcDbEntity
  8
0
  6
Continuous
 62
     7
100
AcDbLine
 10
464.5928315460209
 20
383.7436270361072
 30
0.0
 11
468.5928615460209
 21
383.7436270361072
 31
0.0
  0
LINE
  5
52CE
330
1F
100
AcDbEntity
  8
0
  6
Continuous
 62
     7
100
AcDbLine
 10
478.5928015460211
 20
472.7435970361073
 30
0.0
 11
510.592801546021
 21
472.7435970361073
 31
0.0
  0
LINE
  5
52CF
330
1F
100
AcDbEntity
  8
0
  6
Continuous
 62
     7
100
AcDbLine
 10
456.5230715460209
 20
560.9617970361073
 30
0.0
 11
464.5928315460209
 21
561.2435970361074
 31
0.0
  0
LINE
  5
52D0
330
1F
100
AcDbEntity
  8
0
  6
Continuous
 62
     7
100
AcDbLine
 10
452.898591546021
 20
382.9379270361074
 30
0.0
 11
454.5928615460209
 21
381.2436570361075
 31
0.0
  0
LINE
  5
52D2
330
1F
100
AcDbEntity
  8
0
  6
Continuous
 62
     7
100
AcDbLine
 10
478.5928015460211
 20
472.7435970361073
 30
0.0
 11
478.5928015460211
 21
464.7436270361073
 31
0.0
  0
LINE
  5
52D3
330
1F
100
AcDbEntity
  8
0
  6
Continuous
 62
     7
100
AcDbLine
 10
468.5928315460209
 20
454.7436570361074
 30
0.0
 11
510.592801546021
 21
454.7436570361074
 31
0.0
  0
LINE
  5
52D4
330
1F
100
AcDbEntity
  8
0
  6
Continuous
 62
     7
100
AcDbLine
 10
468.5928315460209
 20
482.7436570361074
 30
0.0
 11
510.592801546021
 21
482.7436570361074
 31
0.0
  0
LINE
  5
52D5
330
1F
100
AcDbEntity
  8
0
  6
Continuous
 62
     7
100
AcDbLine
 10
510.592801546021
 20
482.7436570361074
 30
0.0
 11
510.592801546021
 21
454.7436570361074
 31
0.0
  0
LINE
  5
52D6
330
1F
100
AcDbEntity
  8
0
  6
Continuous
 62
     7
100
AcDbLine
 10
449.537531546021
 20
553.0878670361073
 30
0.0
 11
389.592831546021
 21
550.9945770361073
 31
0.0
  0
LINE
  5
52D7
330
1F
100
AcDbEntity
  8
0
  6
Continuous
 62
     7
100
AcDbLine
 10
449.537531546021
 20
384.3993570361072
 30
0.0
 11
389.592831546021
 21
386.4926770361071
 31
0.0
  0
LINE
  5
52D8
330
1F
100
AcDbEntity
  8
0
  6
Continuous
 62
     7
100
AcDbLine
 10
464.5928315460209
 20
376.2436270361072
 30
0.0
 11
464.5928315460209
 21
561.2436270361074
 31
0.0
  0
LINE
  5
52D9
330
1F
100
AcDbEntity
  8
0
  6
Continuous
 62
     7
100
AcDbLine
 10
464.5928315460209
 20
553.7436270361074
 30
0.0
 11
468.5928615460209
 21
553.7436270361074
 31
0.0
  0
LINE
  5
52DB
330
1F
100
AcDbEntity
  8
0
  6
Continuous
 62
     7
100
AcDbLine
 10
458.5928315460209
 20
398.2436270361074
 30
0.0
 11
458.5928315460209
 21
538.9159270361074
 31
0.0
  0
LINE
  5
52DC
330
1F
100
AcDbEntity
  8
0
  6
Continuous
 62
     7
100
AcDbLine
 10
452.898591546021
 20
554.5492870361073
 30
0.0
 11
454.5928615460209
 21
556.2435970361073
 31
0.0
  0
LINE
  5
52DD
330
1F
100
AcDbEntity
  8
0
  6
Continuous
 62
     7
100
AcDbLine
 10
454.5928315460209
 20
378.5242370361074
 30
0.0
 11
454.5928315460209
 21
558.9630170361073
 31
0.0
  0
LINE
  5
52DE
330
1F
100
AcDbEntity
  8
0
  6
Continuous
 62
     7
100
AcDbLine
 10
478.5928015460211
 20
464.7436270361073
 30
0.0
 11
510.592801546021
 21
464.7436270361073
 31
0.0
  0
LINE
  5
52DF
330
1F
100
AcDbEntity
  8
0
  6
Continuous
 62
     7
100
AcDbLine
 10
468.5928615460209
 20
553.7436270361074
 30
0.0
 11
468.5928615460209
 21
383.7436270361072
 31
0.0
  0
LINE
  5
52E0
330
1F
100
AcDbEntity
  8
0
  6
Continuous
 62
     7
100
AcDbLine
 10
456.5230415460209
 20
376.5254270361073
 30
0.0
 11
464.592801546021
 21
376.2436270361072
 31
0.0
  0
ARC
  5
52E1
330
1F
100
AcDbEntity
  8
0
  6
Continuous
 62
     7
100
AcDbCircle
 10
377.592831546021
 20
391.9147670361075
 30
0.0
 40
5.0
100
AcDbArc
 50
180.000010000001
 51
267.9999999999997
  0
ARC
  5
52E2
330
1F
100
AcDbEntity
  8
0
  6
Continuous
 62
     7
100
AcDbCircle
 10
377.592831546021
 20
545.5724870361073
 30
0.0
 40
5.0
100
AcDbArc
 50
91.99999800000055
 51
180.000010000001
  0
ARC
  5
52E3
330
1F
100
AcDbEntity
  8
0
  6
Continuous
 62
     7
100
AcDbCircle
 10
369.5928315460211
 20
401.4211470361074
 30
0.0
 40
3.0
100
AcDbArc
 50
0.0
 51
87.99999999999965
  0
ARC
  5
52E4
330
1F
100
AcDbEntity
  8
0
  6
Continuous
 62
     7
100
AcDbCircle
 10
369.5928315460211
 20
536.0661070361072
 30
0.0
 40
3.0
100
AcDbArc
 50
272.0000000000004
 51
0.0
  0
ARC
  5
52E5
330
1F
100
AcDbEntity
  8
0
  6
Continuous
 62
     7
100
AcDbCircle
 10
457.592831546021
 20
417.6183870361072
 30
0.0
 40
3.0
100
AcDbArc
 50
90.00000300000095
 51
180.000010000001
  0
ARC
  5
52E6
330
1F
100
AcDbEntity
  8
0
  6
Continuous
 62
     7
100
AcDbCircle
 10
449.3630315460209
 20
558.0848470361072
 30
0.0
 40
5.0
100
AcDbArc
 50
272.0000000000004
 51
315.0
  0
ARC
  5
52E7
330
1F
100
AcDbEntity
  8
0
  6
Continuous
 62
     7
100
AcDbCircle
 10
455.592831546021
 20
538.9159270361074
 30
0.0
 40
3.0
100
AcDbArc
 50
0.0
 51
91.99999800000055
  0
ARC
  5
52E8
330
1F
100
AcDbEntity
  8
0
  6
Continuous
 62
     7
100
AcDbCircle
 10
478.5928015460211
 20
468.7435970361073
 30
0.0
 40
3.9999962
100
AcDbArc
 50
90.00000300000095
 51
270.0
  0
ARC
  5
52E9
330
1F
100
AcDbEntity
  8
0
  6
Continuous
 62
     7
100
AcDbCircle
 10
456.5928615460209
 20
558.9630170361073
 30
0.0
 40
2.0
100
AcDbArc
 50
91.99999800000055
 51
180.000010000001
  0
ARC
  5
52EA
330
1F
100
AcDbEntity
  8
0
  6
Continuous
 62
     7
100
AcDbCircle
 10
457.592831546021
 20
519.8688670361073
 30
0.0
 40
3.0
100
AcDbArc
 50
179.999989999999
 51
270.0
  0
ARC
  5
52EB
330
1F
100
AcDbEntity
  8
0
  6
Continuous
 62
     7
100
AcDbCircle
 10
456.5928615460209
 20
378.5242370361074
 30
0.0
 40
2.0
100
AcDbArc
 50
179.999989999999
 51
268.0000099999986
  0
ARC
  5
52EC
330
1F
100
AcDbEntity
  8
0
  6
Continuous
 62
     7
100
AcDbCircle
 10
455.592831546021
 20
398.5713270361074
 30
0.0
 40
3.0
100
AcDbArc
 50
267.9999999999997
 51
0.0
  0
ARC
  5
52ED
330
1F
100
AcDbEntity
  8
0
  6
Continuous
 62
     7
100
AcDbCircle
 10
449.3630315460209
 20
379.4024070361075
 30
0.0
 40
5.0
100
AcDbArc
 50
45.00000099999919
 51
87.99999999999965
  0
POLYLINE
  5
52EE
330
1F
100
AcDbEntity
  8
0
  6
Continuous
 62
     7
100
AcDb2dPolyline
 66
     1
 10
0.0
 20
0.0
 30
0.0
  0
VERTEX
  5
52EF
330
52EE
100
AcDbEntity
  8
0
  6
Continuous
 62
     7
100
AcDbVertex
100
AcDb2dVertex
 10
451.505891546021
 20
553.1566170361075
 30
0.0
 42
0.081985852
  0
VERTEX
  5
52F0
330
52EE
100
AcDbEntity
  8
0
  6
Continuous
 62
     7
100
AcDbVertex
100
AcDb2dVertex
 10
429.3900015460209
 20
498.2449370361073
 30
0.0
 42
0.10914194
  0
VERTEX
  5
52F1
330
52EE
100
AcDbEntity
  8
0
  6
Continuous
 62
     7
100
AcDbVertex
100
AcDb2dVertex
 10
429.3900915460209
 20
439.2419270361072
 30
0.0
 42
0.081985219
  0
VERTEX
  5
52F2
330
52EE
100
AcDbEntity
  8
0
  6
Continuous
 62
     7
100
AcDbVertex
100
AcDb2dVertex
 10
451.505891546021
 20
384.3306270361073
 30
0.0
  0
SEQEND
  5
52F3
330
52EE
100
AcDbEntity
  8
0
 62
     7
  0
LINE
  5
5300
330
1F
100
AcDbEntity
  8
AM_7
100
AcDbLine
 10
261.5928488111243
 20
468.7436212423569
 30
0.0
 11
519.5928015460209
 21
468.7436583298576
 31
0.0
1001
GENIUS_GENOBJ-N-CEN_13
1002
{
1000
OWNER
1000
GEN
1002
}
1001
GENIUS_GENODEF_13
1002
{
1000
HIER
1070
     0
1002
}
1002
{
1000
MANEDIT
1070
     0
1002
}
1002
{
1000
NOSEL
1070
     0
1002
}
1002
{
1000
BEHIND
1070
     0
1002
}
1002
{
1000
OTHER
1070
     0
1002
}
1002
{
1000
REACTOR
1002
}
1001
GENIUS_GENCEN_19
1002
{
1040
9.0
1002
}
  0
ENDSEC
  0
SECTION
  2
OBJECTS
  0
DICTIONARY
  5
C
330
0
100
AcDbDictionary
281
     1
  3
ACAD_COLOR
350
2196
  3
ACAD_GROUP
350
D
  3
ACAD_LAYOUT
350
1A
  3
ACAD_MATERIAL
350
2195
  3
ACAD_MLINESTYLE
350
17
  3
ACAD_PLOTSETTINGS
350
19
  3
ACAD_PLOTSTYLENAME
350
E
  3
ACAD_TABLESTYLE
350
2197
  3
AcadDim
350
14B1
  3
ACDBHEADERROUNDTRIPXREC
350
5320
  3
AcDbVariableDictionary
350
34
  3
AcmDictionary
350
47
  3
AMG
350
2B
  3
AMGSNAPSETTINGS
350
81
  3
ASE_INDEX_DICTIONARY
350
2D7B
  3
DWGPROPS
350
531F
  0
DICTIONARY
  5
2D9C
330
2
100
AcDbDictionary
280
     1
281
     1
  3
ACAD_LAYERSTATES
360
2D9D
  0
DICTIONARY
  5
CC
330
1F
100
AcDbDictionary
280
     1
281
     1
  3
ACAD_SORTENTS
360
2D4D
  0
DICTIONARY
  5
2196
102
{ACAD_REACTORS
330
C
102
}
330
C
100
AcDbDictionary
281
     1
  0
DICTIONARY
  5
D
102
{ACAD_REACTORS
330
C
102
}
330
C
100
AcDbDictionary
281
     1
  0
DICTIONARY
  5
1A
102
{ACAD_REACTORS
330
C
102
}
330
C
100
AcDbDictionary
281
     1
  3
Model
350
22
  3
ﾚｲｱｳﾄ1
350
1E
  3
ﾚｲｱｳﾄ2
350
26
  0
DICTIONARY
  5
2195
102
{ACAD_REACTORS
330
C
102
}
330
C
100
AcDbDictionary
281
     1
  0
DICTIONARY
  5
17
102
{ACAD_REACTORS
330
C
102
}
330
C
100
AcDbDictionary
281
     1
  3
Standard
350
18
  0
DICTIONARY
  5
19
102
{ACAD_REACTORS
330
C
102
}
330
C
100
AcDbDictionary
281
     1
  3
A1
350
7A0
  3
A2
350
7A1
  3
A3外形図
350
7A2
  3
A3部品図
350
7A3
  3
A4外形図
350
7A4
  3
A4製造仕様書
350
7A5
  3
A4部品図
350
7A6
  0
ACDBDICTIONARYWDFLT
  5
E
102
{ACAD_REACTORS
330
C
102
}
330
C
100
AcDbDictionary
281
     1
  3
Normal
350
F
100
AcDbDictionaryWithDefault
340
F
  0
DICTIONARY
  5
2197
102
{ACAD_REACTORS
330
C
102
}
330
C
100
AcDbDictionary
281
     1
  3
Standard
350
2198
  0
XRECORD
  5
14B1
102
{ACAD_REACTORS
330
C
102
}
330
C
100
AcDbXrecord
280
     1
 90
   990106
  3

 60
     0
 61
     0
 62
     4
 63
     4
 64
     1
 65
     0
 66
     0
 67
     3
 68
     1
 69
     0
 70
     0
 71
     0
 72
     0
 40
0.0
170
     0
  0
DICTIONARY
  5
5320
102
{ACAD_REACTORS
330
C
102
}
330
C
100
AcDbDictionary
281
     1
  0
DICTIONARY
  5
34
102
{ACAD_REACTORS
330
C
102
}
330
C
100
AcDbDictionary
281
     1
  3
CTABLESTYLE
350
22C6
  3
DIMASSOC
350
5305
  3
INDEXCTL
350
35
  3
PROJECTNAME
350
5306
  0
DICTIONARY
  5
47
102
{ACAD_REACTORS
330
C
102
}
330
C
100
AcDbDictionary
281
     1
  3
AcmStdDictionary
350
4C
  3
AMDTSECTSYM_ARROWCOLOR
350
21A4
  0
DICTIONARY
  5
2B
102
{ACAD_REACTORS
330
C
102
}
330
C
100
AcDbDictionary
281
     1
  0
DICTIONARY
  5
81
102
{ACAD_REACTORS
330
C
102
}
330
C
100
AcDbDictionary
281
     1
  0
DICTIONARY
  5
2D7B
102
{ACAD_REACTORS
330
C
102
}
330
C
100
AcDbDictionary
281
     1
  3
ASEBlockHierarchyIndexRecord
350
2D7C
1001
DCO15
1040
1618997545.122
  0
XRECORD
  5
531F
102
{ACAD_REACTORS
330
C
102
}
330
C
100
AcDbXrecord
280
     1
  1
DWGPROPS COOKIE
  2

  3

  4

  6

  7

  8
ISHIGURE
  9

300
AmdtFileType=84
301
=
302
=
303
=
304
=
305
=
306
=
307
=
308
=
309
=
 40
0.5016712615740741
 41
2452065.605619213
 42
2454770.811110937
  1

 90
        1
  0
DICTIONARY
  5
2D9D
102
{ACAD_REACTORS
330
2D9C
102
}
330
2D9C
100
AcDbDictionary
281
     1
  0
SORTENTSTABLE
  5
2D4D
102
{ACAD_REACTORS
330
CC
102
}
330
CC
100
AcDbSortentsTable
330
1F
  0
LAYOUT
  5
22
102
{ACAD_XDICTIONARY
360
5323
102
}
102
{ACAD_REACTORS
330
1A
102
}
330
1A
100
AcDbPlotSettings
  1

  2
\\XSERIES235\Canon LASER SHOT LBP-910
  4
A4
  6
AM_VIEW1
 40
5.873749732971191
 41
5.873747825622558
 42
5.873748779296875
 43
5.873748779296875
 44
209.9733276367187
 45
296.9259948730469
 46
0.0
 47
0.34
 48
0.0
 49
0.0
140
0.0
141
0.0
142
1.0
143
3.0
 70
 11936
 72
     1
 73
     1
 74
     2
  7
acad1.ctb
 75
     0
147
0.3341282932256912
148
0.0
149
0.0
100
AcDbLayout
  1
Model
 70
     1
 71
     0
 10
0.0
 20
0.0
 11
12.0
 21
9.0
 12
0.0
 22
0.0
 32
0.0
 14
0.0
 24
0.0
 34
0.0
 15
0.0
 25
0.0
 35
0.0
146
0.0
 13
0.0
 23
0.0
 33
0.0
 16
1.0
 26
0.0
 36
0.0
 17
0.0
 27
1.0
 37
0.0
 76
     0
330
1F
1001
ACAD_PSEXT
1000
\\XSERIES235\Canon LASER SHOT LBP-910
1000
Canon LASER SHOT LBP-910
1000
\\XSERIES235
1000

1070
     0
  0
LAYOUT
  5
1E
102
{ACAD_XDICTIONARY
360
5321
102
}
102
{ACAD_REACTORS
330
1A
102
}
330
1A
100
AcDbPlotSettings
  1

  2
\\FHKSV01\RICOH imagio MF2700(FAX)
  4

  6

 40
0.0
 41
0.0
 42
0.0
 43
0.0
 44
0.0
 45
0.0
 46
0.0
 47
0.0
 48
0.0
 49
0.0
140
0.0
141
0.0
142
1.0
143
1.0
 70
   688
 72
     0
 73
     0
 74
     5
  7
acad1.ctb
 75
    16
147
1.0
148
0.0
149
0.0
100
AcDbLayout
  1
ﾚｲｱｳﾄ1
 70
     1
 71
     1
 10
0.0
 20
0.0
 11
420.0
 21
297.0
 12
0.0
 22
0.0
 32
0.0
 14
1.000000000000000E+20
 24
1.000000000000000E+20
 34
1.000000000000000E+20
 15
-1.000000000000000E+20
 25
-1.000000000000000E+20
 35
-1.000000000000000E+20
146
0.0
 13
0.0
 23
0.0
 33
0.0
 16
1.0
 26
0.0
 36
0.0
 17
0.0
 27
1.0
 37
0.0
 76
     0
330
1B
  0
LAYOUT
  5
26
102
{ACAD_XDICTIONARY
360
5325
102
}
102
{ACAD_REACTORS
330
1A
102
}
330
1A
100
AcDbPlotSettings
  1

  2
\\FHKSV01\RICOH imagio MF2700(FAX)
  4

  6

 40
0.0
 41
0.0
 42
0.0
 43
0.0
 44
0.0
 45
0.0
 46
0.0
 47
0.0
 48
0.0
 49
0.0
140
0.0
141
0.0
142
1.0
143
1.0
 70
   688
 72
     0
 73
     0
 74
     5
  7
acad1.ctb
 75
    16
147
1.0
148
0.0
149
0.0
100
AcDbLayout
  1
ﾚｲｱｳﾄ2
 70
     1
 71
     2
 10
0.0
 20
0.0
 11
12.0
 21
9.0
 12
0.0
 22
0.0
 32
0.0
 14
0.0
 24
0.0
 34
0.0
 15
0.0
 25
0.0
 35
0.0
146
0.0
 13
0.0
 23
0.0
 33
0.0
 16
1.0
 26
0.0
 36
0.0
 17
0.0
 27
1.0
 37
0.0
 76
     0
330
23
  0
MLINESTYLE
  5
18
102
{ACAD_REACTORS
330
17
102
}
330
17
100
AcDbMlineStyle
  2
STANDARD
 70
     0
  3

 62
   256
 51
90.0
 52
90.0
 71
     2
 49
0.5
 62
   256
  6
BYLAYER
 49
-0.5
 62
   256
  6
BYLAYER
  0
PLOTSETTINGS
  5
7A0
102
{ACAD_XDICTIONARY
360
5327
102
}
102
{ACAD_REACTORS
330
19
102
}
330
19
100
AcDbPlotSettings
  1
A1
  2
\\NETFINITY_5500\HP DesignJet 750C+ (D/A1) by HP)
  4
User267
  6

 40
17.76941680908203
 41
5.789102554321289
 42
17.7694091796875
 43
5.7890625
 44
840.9093017578125
 45
593.97900390625
 46
2.0
 47
13.0
 48
0.0
 49
0.0
140
0.0
141
0.0
142
1.0
143
1.0
 70
  1712
 72
     1
 73
     0
 74
     1
  7
acad.ctb
 75
    16
147
1.0
148
0.0100416569983963
149
0.0078848243487073
  0
PLOTSETTINGS
  5
7A1
102
{ACAD_XDICTIONARY
360
5329
102
}
102
{ACAD_REACTORS
330
19
102
}
330
19
100
AcDbPlotSettings
  1
A2
  2
\\NETFINITY_5500\HP DesignJet 750C+ (D/A1) by HP)
  4
User266
  6

 40
5.78908348083496
 41
17.76940155029297
 42
5.78912353515625
 43
17.7694091796875
 44
593.97900390625
 45
419.9466552734374
 46
12.0
 47
0.0
 48
0.0
 49
0.0
140
0.0
141
0.0
142
1.0
143
1.0
 70
  1712
 72
     1
 73
     0
 74
     1
  7
acad.ctb
 75
    16
147
1.0
148
0.0100416569983963
149
0.0078848243487073
  0
PLOTSETTINGS
  5
7A2
102
{ACAD_XDICTIONARY
360
532B
102
}
102
{ACAD_REACTORS
330
19
102
}
330
19
100
AcDbPlotSettings
  1
A3外形図
  2
\\NETFINITY_5500\Canon LASER SHOT LBP-910
  4
A3
  6

 40
5.873749732971191
 41
5.873747825622558
 42
5.873748779296875
 43
5.873748779296875
 44
296.9259948730469
 45
419.9466552734374
 46
0.0
 47
15.0
 48
0.0
 49
0.0
140
0.0
141
0.0
142
1.0
143
1.0
 70
  1712
 72
     1
 73
     1
 74
     1
  7
acad1.ctb
 75
    16
147
1.0
148
0.0024839861629289
149
0.0093761313144114
  0
PLOTSETTINGS
  5
7A3
102
{ACAD_XDICTIONARY
360
532D
102
}
102
{ACAD_REACTORS
330
19
102
}
330
19
100
AcDbPlotSettings
  1
A3部品図
  2
\\NETFINITY_5500\Canon LASER SHOT LBP-910
  4
A3
  6

 40
5.873749732971191
 41
5.873747825622558
 42
5.873748779296875
 43
5.873748779296875
 44
296.9259948730469
 45
419.9466552734374
 46
0.0
 47
0.0
 48
0.0
 49
0.0
140
0.0
141
0.0
142
1.0
143
1.0
 70
  1712
 72
     1
 73
     1
 74
     1
  7
acad1.ctb
 75
    16
147
1.0
148
0.0024839861629289
149
0.0093761313144114
  0
PLOTSETTINGS
  5
7A4
102
{ACAD_XDICTIONARY
360
532F
102
}
102
{ACAD_REACTORS
330
19
102
}
330
19
100
AcDbPlotSettings
  1
A4外形図
  2
\\NETFINITY_5500\Canon LASER SHOT LBP-910
  4
A4
  6

 40
5.873749732971191
 41
5.873747825622558
 42
5.873748779296875
 43
5.873748779296875
 44
209.9733276367187
 45
296.9259948730469
 46
0.0
 47
0.0
 48
0.0
 49
0.0
140
0.0
141
0.0
142
1.0
143
1.0
 70
  1712
 72
     1
 73
     1
 74
     1
  7
acad1.ctb
 75
    16
147
1.0
148
0.0115486965655691
149
0.0124955963574962
  0
PLOTSETTINGS
  5
7A5
102
{ACAD_XDICTIONARY
360
5331
102
}
102
{ACAD_REACTORS
330
19
102
}
330
19
100
AcDbPlotSettings
  1
A4製造仕様書
  2
\\NETFINITY_5500\Canon LASER SHOT LBP-910
  4
A4
  6

 40
5.873749732971191
 41
5.873747825622558
 42
5.873748779296875
 43
5.873748779296875
 44
209.9733276367187
 45
296.9259948730469
 46
15.0
 47
0.0
 48
0.0
 49
0.0
140
0.0
141
0.0
142
1.0
143
1.0
 70
  1712
 72
     1
 73
     0
 74
     1
  7
acad1.ctb
 75
    16
147
1.0
148
0.0115486965655691
149
7.86079562315183
  0
PLOTSETTINGS
  5
7A6
102
{ACAD_XDICTIONARY
360
5333
102
}
102
{ACAD_REACTORS
330
19
102
}
330
19
100
AcDbPlotSettings
  1
A4部品図
  2
\\NETFINITY_5500\Canon LASER SHOT LBP-910
  4
A4
  6

 40
5.873749732971191
 41
5.873747825622558
 42
5.873748779296875
 43
5.873748779296875
 44
209.9733276367187
 45
296.9259948730469
 46
0.0
 47
0.0
 48
0.0
 49
0.0
140
0.0
141
0.0
142
1.0
143
1.0
 70
  1712
 72
     1
 73
     0
 74
     1
  7
acad1.ctb
 75
    16
147
1.0
148
0.0115486965655691
149
0.0124955963574962
  0
ACDBPLACEHOLDER
  5
F
102
{ACAD_REACTORS
330
E
102
}
330
E
  0
TABLESTYLE
  5
2198
102
{ACAD_REACTORS
330
2197
102
}
330
2197
100
AcDbTableStyle
  3
Standard
 70
     0
 71
     0
 40
1.5
 41
1.5
280
     0
281
     0
  7
STANDARD
140
4.5
170
     2
 62
     0
 63
     7
283
     0
274
    -2
284
     1
 64
     0
275
    -2
285
     1
 65
     0
276
    -2
286
     1
 66
     0
277
    -2
287
     1
 67
     0
278
    -2
288
     1
 68
     0
279
    -2
289
     1
 69
     0
  7
STANDARD
140
6.0
170
     5
 62
     0
 63
     7
283
     0
274
    -2
284
     1
 64
     0
275
    -2
285
     1
 65
     0
276
    -2
286
     1
 66
     0
277
    -2
287
     1
 67
     0
278
    -2
288
     1
 68
     0
279
    -2
289
     1
 69
     0
  7
STANDARD
140
4.5
170
     5
 62
     0
 63
     7
283
     0
274
    -2
284
     1
 64
     0
275
    -2
285
     1
 65
     0
276
    -2
286
     1
 66
     0
277
    -2
287
     1
 67
     0
278
    -2
288
     1
 68
     0
279
    -2
289
     1
 69
     0
  0
DICTIONARYVAR
  5
22C6
102
{ACAD_REACTORS
330
34
102
}
330
34
100
DictionaryVariables
280
     0
  1
STANDARD
  0
DICTIONARYVAR
  5
5305
102
{ACAD_REACTORS
330
34
102
}
330
34
100
DictionaryVariables
280
     0
  1
1
  0
DICTIONARYVAR
  5
35
102
{ACAD_REACTORS
330
34
102
}
330
34
100
DictionaryVariables
280
     0
  1
0
  0
DICTIONARYVAR
  5
5306
102
{ACAD_REACTORS
330
34
102
}
330
34
100
DictionaryVariables
280
     0
  1

  0
DICTIONARY
  5
4C
102
{ACAD_REACTORS
330
47
102
}
330
47
100
AcDbDictionary
281
     1
  0
XRECORD
  5
21A4
102
{ACAD_REACTORS
330
47
102
}
330
47
100
AcDbXrecord
280
     1
 90
-1023410169
  0
XRECORD
  5
2D7C
102
{ACAD_REACTORS
330
2D7B
102
}
330
2D7B
100
AcDbXrecord
280
     1
330
0
330
1A9A
330
1A9B
330
1A9C
330
1A9D
330
1A9E
330
1A9F
330
1AA0
330
1AA1
330
1AA2
330
1AA3
330
1AA4
330
1AA5
330
1AA6
330
1AA7
330
1AA8
330
1AA9
330
1AAA
330
1AAB
330
1AAC
330
1AAD
330
1AAE
330
1AAF
330
1FA0
330
1FA1
330
7A7
330
7B1
330
7B2
330
7B3
330
7B4
330
7B5
330
7B6
330
7B7
330
7B8
330
7B9
330
7BA
330
7BB
330
7BC
330
7BD
330
7BE
330
7BF
330
7C0
330
7C1
330
7C2
330
7C3
330
7C4
330
7C5
330
178C
330
178D
330
178E
330
17C5
330
17C6
330
17C7
330
17E3
330
17E4
330
17E5
330
1881
330
1882
330
1883
330
1851
  0
DICTIONARY
  5
5323
330
22
100
AcDbDictionary
280
     1
281
     1
  3
ACAD_XREC_ROUNDTRIP
360
5324
  0
DICTIONARY
  5
5321
330
1E
100
AcDbDictionary
280
     1
281
     1
  3
ACAD_XREC_ROUNDTRIP
360
5322
  0
DICTIONARY
  5
5325
330
26
100
AcDbDictionary
280
     1
281
     1
  3
ACAD_XREC_ROUNDTRIP
360
5326
  0
DICTIONARY
  5
5327
330
7A0
100
AcDbDictionary
280
     1
281
     1
  3
ACAD_XREC_ROUNDTRIP
360
5328
  0
DICTIONARY
  5
5329
330
7A1
100
AcDbDictionary
280
     1
281
     1
  3
ACAD_XREC_ROUNDTRIP
360
532A
  0
DICTIONARY
  5
532B
330
7A2
100
AcDbDictionary
280
     1
281
     1
  3
ACAD_XREC_ROUNDTRIP
360
532C
  0
DICTIONARY
  5
532D
330
7A3
100
AcDbDictionary
280
     1
281
     1
  3
ACAD_XREC_ROUNDTRIP
360
532E
  0
DICTIONARY
  5
532F
330
7A4
100
AcDbDictionary
280
     1
281
     1
  3
ACAD_XREC_ROUNDTRIP
360
5330
  0
DICTIONARY
  5
5331
330
7A5
100
AcDbDictionary
280
     1
281
     1
  3
ACAD_XREC_ROUNDTRIP
360
5332
  0
DICTIONARY
  5
5333
330
7A6
100
AcDbDictionary
280
     1
281
     1
  3
ACAD_XREC_ROUNDTRIP
360
5334
  0
XRECORD
  5
5324
102
{ACAD_REACTORS
330
5323
102
}
330
5323
100
AcDbXrecord
280
     1
102
SHADEPLOT
 70
     0
102
SHADEPLOTRESLEVEL
 70
     2
102
SHADEPLOTCUSTOMDPI
 70
   300
  0
XRECORD
  5
5322
102
{ACAD_REACTORS
330
5321
102
}
330
5321
100
AcDbXrecord
280
     1
102
SHADEPLOT
 70
     0
102
SHADEPLOTRESLEVEL
 70
     2
102
SHADEPLOTCUSTOMDPI
 70
   300
  0
XRECORD
  5
5326
102
{ACAD_REACTORS
330
5325
102
}
330
5325
100
AcDbXrecord
280
     1
102
SHADEPLOT
 70
     0
102
SHADEPLOTRESLEVEL
 70
     2
102
SHADEPLOTCUSTOMDPI
 70
   300
  0
XRECORD
  5
5328
102
{ACAD_REACTORS
330
5327
102
}
330
5327
100
AcDbXrecord
280
     1
102
SHADEPLOT
 70
     0
102
SHADEPLOTRESLEVEL
 70
     2
102
SHADEPLOTCUSTOMDPI
 70
   300
  0
XRECORD
  5
532A
102
{ACAD_REACTORS
330
5329
102
}
330
5329
100
AcDbXrecord
280
     1
102
SHADEPLOT
 70
     0
102
SHADEPLOTRESLEVEL
 70
     2
102
SHADEPLOTCUSTOMDPI
 70
   300
  0
XRECORD
  5
532C
102
{ACAD_REACTORS
330
532B
102
}
330
532B
100
AcDbXrecord
280
     1
102
SHADEPLOT
 70
     0
102
SHADEPLOTRESLEVEL
 70
     2
102
SHADEPLOTCUSTOMDPI
 70
   300
  0
XRECORD
  5
532E
102
{ACAD_REACTORS
330
532D
102
}
330
532D
100
AcDbXrecord
280
     1
102
SHADEPLOT
 70
     0
102
SHADEPLOTRESLEVEL
 70
     2
102
SHADEPLOTCUSTOMDPI
 70
   300
  0
XRECORD
  5
5330
102
{ACAD_REACTORS
330
532F
102
}
330
532F
100
AcDbXrecord
280
     1
102
SHADEPLOT
 70
     0
102
SHADEPLOTRESLEVEL
 70
     2
102
SHADEPLOTCUSTOMDPI
 70
   300
  0
XRECORD
  5
5332
102
{ACAD_REACTORS
330
5331
102
}
330
5331
100
AcDbXrecord
280
     1
102
SHADEPLOT
 70
     0
102
SHADEPLOTRESLEVEL
 70
     2
102
SHADEPLOTCUSTOMDPI
 70
   300
  0
XRECORD
  5
5334
102
{ACAD_REACTORS
330
5333
102
}
330
5333
100
AcDbXrecord
280
     1
102
SHADEPLOT
 70
     0
102
SHADEPLOTRESLEVEL
 70
     2
102
SHADEPLOTCUSTOMDPI
 70
   300
  0
ENDSEC
  0
EOF
