  0
SECTION
  2
HEADER
  9
$ACADVER
  1
AC1015
  9
$ACADMAINTVER
 70
    20
  9
$DWGCODEPAGE
  3
ANSI_932
  9
$INSBASE
 10
0.0
 20
0.0
 30
0.0
  9
$EXTMIN
 10
265.5206016615505
 20
212.1692925948962
 30
-0.0015258207003583
  9
$EXTMAX
 10
811.0698414153535
 20
638.7886354649087
 30
0.0000000349246037
  9
$LIMMIN
 10
0.0
 20
0.0
  9
$LIMMAX
 10
853.5
 20
555.0000000000001
  9
$ORTHOMODE
 70
     0
  9
$REGENMODE
 70
     1
  9
$FILLMODE
 70
     1
  9
$QTEXTMODE
 70
     0
  9
$MIRRTEXT
 70
     1
  9
$LTSCALE
 40
3.0
  9
$ATTMODE
 70
     1
  9
$TEXTSIZE
 40
2.5
  9
$TRACEWID
 40
1.0
  9
$TEXTSTYLE
  7
STANDARD
  9
$CLAYER
  8
AM_0
  9
$CELTYPE
  6
ByLayer
  9
$CECOLOR
 62
   256
  9
$CELTSCALE
 40
1.0
  9
$DISPSILH
 70
     0
  9
$DIMSCALE
 40
1.0
  9
$DIMASZ
 40
2.5
  9
$DIMEXO
 40
1.0
  9
$DIMDLI
 40
8.0
  9
$DIMRND
 40
0.0
  9
$DIMDLE
 40
0.0
  9
$DIMEXE
 40
0.6
  9
$DIMTP
 40
0.1
  9
$DIMTM
 40
0.1
  9
$DIMTXT
 40
2.5
  9
$DIMCEN
 40
0.0
  9
$DIMTSZ
 40
0.0
  9
$DIMTOL
 70
     0
  9
$DIMLIM
 70
     0
  9
$DIMTIH
 70
     0
  9
$DIMTOH
 70
     0
  9
$DIMSE1
 70
     0
  9
$DIMSE2
 70
     0
  9
$DIMTAD
 70
     1
  9
$DIMZIN
 70
     8
  9
$DIMBLK
  1

  9
$DIMASO
 70
     1
  9
$DIMSHO
 70
     1
  9
$DIMPOST
  1

  9
$DIMAPOST
  1
"
  9
$DIMALT
 70
     0
  9
$DIMALTD
 70
     2
  9
$DIMALTF
 40
0.0393701
  9
$DIMLFAC
 40
1.0
  9
$DIMTOFL
 70
     1
  9
$DIMTVP
 40
0.0
  9
$DIMTIX
 70
     0
  9
$DIMSOXD
 70
     0
  9
$DIMSAH
 70
     0
  9
$DIMBLK1
  1

  9
$DIMBLK2
  1

  9
$DIMSTYLE
  2
AM_ISO
  9
$DIMCLRD
 70
   256
  9
$DIMCLRE
 70
   256
  9
$DIMCLRT
 70
     4
  9
$DIMTFAC
 40
0.71
  9
$DIMGAP
 40
0.8
  9
$DIMJUST
 70
     0
  9
$DIMSD1
 70
     0
  9
$DIMSD2
 70
     0
  9
$DIMTOLJ
 70
     0
  9
$DIMTZIN
 70
     8
  9
$DIMALTZ
 70
     0
  9
$DIMALTTZ
 70
     0
  9
$DIMUPT
 70
     0
  9
$DIMDEC
 70
     2
  9
$DIMTDEC
 70
     2
  9
$DIMALTU
 70
     2
  9
$DIMALTTD
 70
     2
  9
$DIMTXSTY
  7
STANDARD
  9
$DIMAUNIT
 70
     0
  9
$DIMADEC
 70
     0
  9
$DIMALTRND
 40
0.0
  9
$DIMAZIN
 70
     2
  9
$DIMDSEP
 70
    46
  9
$DIMATFIT
 70
     3
  9
$DIMFRAC
 70
     0
  9
$DIMLDRBLK
  1

  9
$DIMLUNIT
 70
     2
  9
$DIMLWD
 70
    -1
  9
$DIMLWE
 70
    -1
  9
$DIMTMOVE
 70
     0
  9
$LUNITS
 70
     2
  9
$LUPREC
 70
     2
  9
$SKETCHINC
 40
1.0
  9
$FILLETRAD
 40
5.0
  9
$AUNITS
 70
     0
  9
$AUPREC
 70
     0
  9
$MENU
  1
.
  9
$ELEVATION
 40
0.0
  9
$PELEVATION
 40
0.0
  9
$THICKNESS
 40
0.0
  9
$LIMCHECK
 70
     0
  9
$CHAMFERA
 40
6.0
  9
$CHAMFERB
 40
3.0
  9
$CHAMFERC
 40
20.0
  9
$CHAMFERD
 40
0.0
  9
$SKPOLY
 70
     0
  9
$TDCREATE
 40
2452065.605619213
  9
$TDUCREATE
 40
2452065.230619213
  9
$TDUPDATE
 40
2454770.873692466
  9
$TDUUPDATE
 40
2454770.498692466
  9
$TDINDWG
 40
0.4916442245
  9
$TDUSRTIMER
 40
0.4916440394
  9
$USRTIMER
 70
     1
  9
$ANGBASE
 50
0.0
  9
$ANGDIR
 70
     0
  9
$PDMODE
 70
     0
  9
$PDSIZE
 40
0.0
  9
$PLINEWID
 40
0.0
  9
$SPLFRAME
 70
     0
  9
$SPLINETYPE
 70
     6
  9
$SPLINESEGS
 70
     8
  9
$HANDSEED
  5
5248
  9
$SURFTAB1
 70
     6
  9
$SURFTAB2
 70
     6
  9
$SURFTYPE
 70
     6
  9
$SURFU
 70
     6
  9
$SURFV
 70
     6
  9
$UCSBASE
  2

  9
$UCSNAME
  2

  9
$UCSORG
 10
0.0
 20
0.0
 30
0.0
  9
$UCSXDIR
 10
1.0
 20
0.0
 30
0.0
  9
$UCSYDIR
 10
0.0
 20
1.0
 30
0.0
  9
$UCSORTHOREF
  2

  9
$UCSORTHOVIEW
 70
     0
  9
$UCSORGTOP
 10
0.0
 20
0.0
 30
0.0
  9
$UCSORGBOTTOM
 10
0.0
 20
0.0
 30
0.0
  9
$UCSORGLEFT
 10
0.0
 20
0.0
 30
0.0
  9
$UCSORGRIGHT
 10
0.0
 20
0.0
 30
0.0
  9
$UCSORGFRONT
 10
0.0
 20
0.0
 30
0.0
  9
$UCSORGBACK
 10
0.0
 20
0.0
 30
0.0
  9
$PUCSBASE
  2

  9
$PUCSNAME
  2

  9
$PUCSORG
 10
0.0
 20
0.0
 30
0.0
  9
$PUCSXDIR
 10
1.0
 20
0.0
 30
0.0
  9
$PUCSYDIR
 10
0.0
 20
1.0
 30
0.0
  9
$PUCSORTHOREF
  2

  9
$PUCSORTHOVIEW
 70
     0
  9
$PUCSORGTOP
 10
0.0
 20
0.0
 30
0.0
  9
$PUCSORGBOTTOM
 10
0.0
 20
0.0
 30
0.0
  9
$PUCSORGLEFT
 10
0.0
 20
0.0
 30
0.0
  9
$PUCSORGRIGHT
 10
0.0
 20
0.0
 30
0.0
  9
$PUCSORGFRONT
 10
0.0
 20
0.0
 30
0.0
  9
$PUCSORGBACK
 10
0.0
 20
0.0
 30
0.0
  9
$USERI1
 70
     0
  9
$USERI2
 70
     0
  9
$USERI3
 70
     0
  9
$USERI4
 70
     0
  9
$USERI5
 70
     0
  9
$USERR1
 40
0.0
  9
$USERR2
 40
0.0
  9
$USERR3
 40
0.0
  9
$USERR4
 40
0.0
  9
$USERR5
 40
0.0
  9
$WORLDVIEW
 70
     1
  9
$SHADEDGE
 70
     3
  9
$SHADEDIF
 70
    70
  9
$TILEMODE
 70
     1
  9
$MAXACTVP
 70
    64
  9
$PINSBASE
 10
0.0
 20
0.0
 30
0.0
  9
$PLIMCHECK
 70
     0
  9
$PEXTMIN
 10
1.000000000000000E+20
 20
1.000000000000000E+20
 30
1.000000000000000E+20
  9
$PEXTMAX
 10
-1.000000000000000E+20
 20
-1.000000000000000E+20
 30
-1.000000000000000E+20
  9
$PLIMMIN
 10
0.0
 20
0.0
  9
$PLIMMAX
 10
420.0
 20
297.0
  9
$UNITMODE
 70
     0
  9
$VISRETAIN
 70
     1
  9
$PLINEGEN
 70
     0
  9
$PSLTSCALE
 70
     1
  9
$TREEDEPTH
 70
  3020
  9
$CMLSTYLE
  2
Standard
  9
$CMLJUST
 70
     0
  9
$CMLSCALE
 40
20.0
  9
$PROXYGRAPHICS
 70
     1
  9
$MEASUREMENT
 70
     1
  9
$CELWEIGHT
370
    -1
  9
$ENDCAPS
280
     0
  9
$JOINSTYLE
280
     0
  9
$LWDISPLAY
290
     0
  9
$INSUNITS
 70
     4
  9
$HYPERLINKBASE
  1

  9
$STYLESHEET
  1
acad1.ctb
  9
$XEDIT
290
     1
  9
$CEPSNTYPE
380
     0
  9
$PSTYLEMODE
290
     1
  9
$FINGERPRINTGUID
  2
{91B11402-3528-11D5-BE34-000255C217F4}
  9
$VERSIONGUID
  2
{3F96B954-5504-4796-A8D1-E7350C5FBA6E}
  9
$EXTNAMES
290
     1
  9
$PSVPSCALE
 40
0.0
  9
$OLESTARTUP
290
     0
  0
ENDSEC
  0
SECTION
  2
CLASSES
  0
CLASS
  1
ACDBDICTIONARYWDFLT
  2
AcDbDictionaryWithDefault
  3
ObjectDBX Classes
 90
        0
280
     0
281
     0
  0
CLASS
  1
ACDBPLACEHOLDER
  2
AcDbPlaceHolder
  3
ObjectDBX Classes
 90
        0
280
     0
281
     0
  0
CLASS
  1
LAYOUT
  2
AcDbLayout
  3
ObjectDBX Classes
 90
        0
280
     0
281
     0
  0
CLASS
  1
AMGSETTINGSOBJ
  2
AmgSettingsObj
  3
"AcadM|Product Description: AutoCAD Mechanical 2000|Company: Autodesk"
 90
        0
280
     0
281
     0
  0
CLASS
  1
ACME_DOCUMENT
  2
AcMeDbDoc
  3
AcMeServices
 90
        0
280
     0
281
     0
  0
CLASS
  1
ACMESCOPE
  2
AcMeScope
  3
AcMeServices
 90
        0
280
     0
281
     0
  0
CLASS
  1
ACMECOMMANDHISTORY
  2
AcMeCommandHistory
  3
AcMeServices
 90
        0
280
     0
281
     0
  0
CLASS
  1
DICTIONARYVAR
  2
AcDbDictionaryVar
  3
ObjectDBX Classes
 90
        0
280
     0
281
     0
  0
CLASS
  1
ACIMSYSVARMAN
  2
AcImSysVarManager
  3
AcMeServices
 90
        0
280
     0
281
     0
  0
CLASS
  1
ACIMREALSYSVAR
  2
AcImRealSysVar
  3
AcMeServices
 90
        0
280
     0
281
     0
  0
CLASS
  1
ACIMINTSYSVAR
  2
AcImIntSysVar
  3
AcMeServices
 90
        0
280
     0
281
     0
  0
CLASS
  1
ACMEDRAWINGMAN
  2
AcMeDrawingMan
  3
AcMeServices
 90
        0
280
     0
281
     0
  0
CLASS
  1
ACMEVIEW
  2
AcMeView
  3
AcMeServices
 90
        0
280
     0
281
     0
  0
CLASS
  1
ACDBENTITYCACHE
  2
AcMeEntityCache
  3
AcMeServices
 90
        0
280
     0
281
     0
  0
CLASS
  1
GSMANAGER
  2
AcMeGSManager
  3
AcMeServices
 90
        0
280
     0
281
     0
  0
CLASS
  1
AMDTINTERNALREACTOR
  2
AmdtInternalReactor
  3
AcMeServices
 90
        0
280
     0
281
     0
  0
CLASS
  1
ACMESTATEMGR
  2
AcMeStateMgr
  3
AcMeServices
 90
        0
280
     0
281
     0
  0
CLASS
  1
ACGREFMASTER
  2
AcGrefMaster
  3
AcAttribServices
 90
        0
280
     0
281
     0
  0
CLASS
  1
ACME_DATABASE
  2
AcMeDbDatabase
  3
AcMeServices
 90
        0
280
     0
281
     0
  0
CLASS
  1
ACRFINSADJUSTERMGR
  2
AcRfInsAdjusterMgr
  3
AcMeServices
 90
        0
280
     0
281
     0
  0
CLASS
  1
ACGREFACADMASTER
  2
AcGrefacadMaster
  3
AcGrefServices
 90
        0
280
     0
281
     0
  0
CLASS
  1
AMIMASTER
  2
AmiMaster
  3
AmiServices
 90
        0
280
     0
281
     0
  0
CLASS
  1
ACMDATADICTIONARY
  2
AcmDataDictionary
  3
"AcmSymBB|Product Description: AutoCAD Mechanical 2004 DX|Company: Autodesk"
 90
        0
280
     0
281
     0
  0
CLASS
  1
ACMDATAENTRYBLOCK
  2
AcmDataEntryBlock
  3
"AcmSymBB|Product Description: AutoCAD Mechanical 2004 DX|Company: Autodesk"
 90
        0
280
     0
281
     0
  0
CLASS
  1
ACIMSTRSYSVAR
  2
AcImStrSysVar
  3
AcMeServices
 90
        0
280
     0
281
     0
  0
CLASS
  1
ACMSTANDARDISO
  2
AcmStandardISO
  3
"Amdt_StdImp|Product Description: AutoCAD Mechanical 2004 DX|Company: Autodesk"
 90
        0
280
     0
281
     0
  0
CLASS
  1
AMGOBJPROPCFG
  2
AmgObjPropCfg
  3
"AmgLay|Product Description: AutoCAD Mechanical 2000|Company: Autodesk"
 90
        1
280
     0
281
     0
  0
CLASS
  1
AMDTEDGESTANDARDISO
  2
AmdtEdgeStdISO
  3
"Amdt_StdImp|Product Description: AutoCAD Mechanical 2004 DX|Company: Autodesk"
 90
        0
280
     0
281
     0
  0
CLASS
  1
ACMSURFSTANDARDISO
  2
AcmSurfTextStdISO
  3
"Amdt_StdImp|Product Description: AutoCAD Mechanical 2004 DX|Company: Autodesk"
 90
        0
280
     0
281
     0
  0
CLASS
  1
ACMFCFSTANDARDISO
  2
AcmFCFStdISO
  3
"Amdt_StdImp|Product Description: AutoCAD Mechanical 2004 DX|Company: Autodesk"
 90
        0
280
     0
281
     0
  0
CLASS
  1
ACMWELDSTANDARDISO
  2
AcmWeldingStdISO
  3
"Amdt_StdImp|Product Description: AutoCAD Mechanical 2004 DX|Company: Autodesk"
 90
        0
280
     0
281
     0
  0
CLASS
  1
ACMIDSTANDARDISO
  2
AcmIdStdISO
  3
"Amdt_StdImp|Product Description: AutoCAD Mechanical 2004 DX|Company: Autodesk"
 90
        0
280
     0
281
     0
  0
CLASS
  1
ACMDATUMSTANDARDISO
  2
AcmDatumStdISO
  3
"Amdt_StdImp|Product Description: AutoCAD Mechanical 2004 DX|Company: Autodesk"
 90
        0
280
     0
281
     0
  0
CLASS
  1
ACMBOMSTANDARDISO
  2
AcmBOMStdISO
  3
"Amdt_StdImp|Product Description: AutoCAD Mechanical 2004 DX|Company: Autodesk"
 90
        0
280
     0
281
     0
  0
CLASS
  1
ACMDETAILSTANDARDISO
  2
AmdtDetailSymStdISO
  3
"Amdt_StdImp|Product Description: AutoCAD Mechanical 2004 DX|Company: Autodesk"
 90
        0
280
     0
281
     0
  0
CLASS
  1
ACMSECTIONSTANDARDISO
  2
AmdtSectionSymStdISO
  3
"Amdt_StdImp|Product Description: AutoCAD Mechanical 2004 DX|Company: Autodesk"
 90
        0
280
     0
281
     0
  0
CLASS
  1
ACMCENTERLINESTANDARDISO
  2
AmdtCenterLineStdISO
  3
"Amdt_StdImp|Product Description: AutoCAD Mechanical 2004 DX|Company: Autodesk"
 90
        0
280
     0
281
     0
  0
CLASS
  1
ACAMGLAYSTD
  2
AcAmgLayStd
  3
"AcAmgLayStd|Product Description: AutoCAD Mechanical 2000|Company: Autodesk"
 90
        0
280
     0
281
     0
  0
CLASS
  1
ACAMGDIMSTD
  2
AcAmgDimStd
  3
"AcAmgDimStd|Product Description: AutoCAD Mechanical 2000|Company: Autodesk"
 90
        0
280
     0
281
     0
  0
CLASS
  1
ACAMGTITLESTD
  2
AcAmgTitleStd
  3
"TITLEAPP"
 90
        0
280
     0
281
     0
  0
CLASS
  1
ACAMGFILTERDAT
  2
AcAmgFilterDat
  3
"AcadM|Product Description: AutoCAD Mechanical 2000|Company: Autodesk"
 90
        0
280
     0
281
     0
  0
CLASS
  1
AMDTFORMULAUPDATEDISPATCHER
  2
AmdtFormulaUpdateDispatcher
  3
AcMeServices
 90
        0
280
     0
281
     0
  0
CLASS
  1
LAYER_INDEX
  2
AcDbLayerIndex
  3
ObjectDBX Classes
 90
    32768
280
     0
281
     0
  0
CLASS
  1
IDBUFFER
  2
AcDbIdBuffer
  3
ObjectDBX Classes
 90
    32768
280
     0
281
     0
  0
CLASS
  1
PLOTSETTINGS
  2
AcDbPlotSettings
  3
ObjectDBX Classes
 90
        0
280
     0
281
     0
  0
CLASS
  1
ACMSTANDARDANSI
  2
AcmStandardANSI
  3
"Amdt_StdImp|Product Description: AutoCAD Mechanical 2004 DX|Company: Autodesk"
 90
        0
280
     0
281
     0
  0
CLASS
  1
ACMSURFSTANDARDANSI
  2
AcmSurfTextStdANSI
  3
"Amdt_StdImp|Product Description: AutoCAD Mechanical 2004 DX|Company: Autodesk"
 90
        0
280
     0
281
     0
  0
CLASS
  1
ACMFCFSTANDARDANSI
  2
AcmFCFStdANSI
  3
"Amdt_StdImp|Product Description: AutoCAD Mechanical 2004 DX|Company: Autodesk"
 90
        0
280
     0
281
     0
  0
CLASS
  1
ACMWELDSTANDARDANSI
  2
AcmWeldingStdANSI
  3
"Amdt_StdImp|Product Description: AutoCAD Mechanical 2004 DX|Company: Autodesk"
 90
        0
280
     0
281
     0
  0
CLASS
  1
ACMIDSTANDARDANSI
  2
AcmIdStdANSI
  3
"Amdt_StdImp|Product Description: AutoCAD Mechanical 2004 DX|Company: Autodesk"
 90
        0
280
     0
281
     0
  0
CLASS
  1
ACMDATUMSTANDARDANSI
  2
AcmDatumStdANSI
  3
"Amdt_StdImp|Product Description: AutoCAD Mechanical 2004 DX|Company: Autodesk"
 90
        0
280
     0
281
     0
  0
CLASS
  1
ACMBOMSTANDARDANSI
  2
AcmBOMStdANSI
  3
"Amdt_StdImp|Product Description: AutoCAD Mechanical 2004 DX|Company: Autodesk"
 90
        0
280
     0
281
     0
  0
CLASS
  1
ACMDETAILSTANDARDANSI
  2
AmdtDetailSymStdANSI
  3
"Amdt_StdImp|Product Description: AutoCAD Mechanical 2004 DX|Company: Autodesk"
 90
        0
280
     0
281
     0
  0
CLASS
  1
ACMSECTIONSTANDARDANSI
  2
AmdtSectionSymStdANSI
  3
"Amdt_StdImp|Product Description: AutoCAD Mechanical 2004 DX|Company: Autodesk"
 90
        0
280
     0
281
     0
  0
CLASS
  1
ACMCENTERLINESTANDARDANSI
  2
AmdtCenterLineStdANSI
  3
"Amdt_StdImp|Product Description: AutoCAD Mechanical 2004 DX|Company: Autodesk"
 90
        0
280
     0
281
     0
  0
CLASS
  1
ACMSTANDARDJIS
  2
AcmStandardJIS
  3
"Amdt_StdImp|Product Description: AutoCAD Mechanical 2004 DX|Company: Autodesk"
 90
        0
280
     0
281
     0
  0
CLASS
  1
ACMSURFSTANDARDJIS
  2
AcmSurfTextStdJIS
  3
"Amdt_StdImp|Product Description: AutoCAD Mechanical 2004 DX|Company: Autodesk"
 90
        0
280
     0
281
     0
  0
CLASS
  1
ACMFCFSTANDARDJIS
  2
AcmFCFStdJIS
  3
"Amdt_StdImp|Product Description: AutoCAD Mechanical 2004 DX|Company: Autodesk"
 90
        0
280
     0
281
     0
  0
CLASS
  1
ACMWELDSTANDARDJIS
  2
AcmWeldingStdJIS
  3
"Amdt_StdImp|Product Description: AutoCAD Mechanical 2004 DX|Company: Autodesk"
 90
        0
280
     0
281
     0
  0
CLASS
  1
ACMIDSTANDARDJIS
  2
AcmIdStdJIS
  3
"Amdt_StdImp|Product Description: AutoCAD Mechanical 2004 DX|Company: Autodesk"
 90
        0
280
     0
281
     0
  0
CLASS
  1
ACMDATUMSTANDARDJIS
  2
AcmDatumStdJIS
  3
"Amdt_StdImp|Product Description: AutoCAD Mechanical 2004 DX|Company: Autodesk"
 90
        0
280
     0
281
     0
  0
CLASS
  1
ACMBOMSTANDARDJIS
  2
AcmBOMStdJIS
  3
"Amdt_StdImp|Product Description: AutoCAD Mechanical 2004 DX|Company: Autodesk"
 90
        0
280
     0
281
     0
  0
CLASS
  1
ACMDETAILSTANDARDJIS
  2
AmdtDetailSymStdJIS
  3
"Amdt_StdImp|Product Description: AutoCAD Mechanical 2004 DX|Company: Autodesk"
 90
        0
280
     0
281
     0
  0
CLASS
  1
ACMSECTIONSTANDARDJIS
  2
AmdtSectionSymStdJIS
  3
"Amdt_StdImp|Product Description: AutoCAD Mechanical 2004 DX|Company: Autodesk"
 90
        0
280
     0
281
     0
  0
CLASS
  1
ACMCENTERLINESTANDARDJIS
  2
AmdtCenterLineStdJIS
  3
"Amdt_StdImp|Product Description: AutoCAD Mechanical 2004 DX|Company: Autodesk"
 90
        0
280
     0
281
     0
  0
CLASS
  1
TABLESTYLE
  2
AcDbTableStyle
  3
ObjectDBX Classes
 90
     2047
280
     0
281
     0
  0
CLASS
  1
AM_DRAWING_MGR
  2
AcDmDwgMgr
  3
AcMechDwgViewMgmt
 90
        0
280
     0
281
     0
  0
CLASS
  1
AM_DWG_DOCUMENT
  2
AcDmDwgDocument
  3
AcMechDwgViewMgmt
 90
        0
280
     0
281
     0
  0
CLASS
  1
AM_DWG_SHEET
  2
AcDmSheet
  3
AcMechDwgViewMgmt
 90
        0
280
     0
281
     0
  0
CLASS
  1
AM_VIEWDIMPARMAP
  2
AcDmViewDimParMap
  3
AcMechDwgViewMgmt
 90
        0
280
     0
281
     0
  0
CLASS
  1
AM_DWGMGR_NAME
  2
AcDmDwgMgrName
  3
AcMechDwgViewMgmt
 90
        0
280
     0
281
     0
  0
CLASS
  1
AMDTMENUSTATEMGR
  2
AmdtMenuStateMgr
  3
McadcomServices
 90
        0
280
     0
281
     0
  0
CLASS
  1
AMDTMCOMMENUSTATE
  2
AmdtMcomMenuState
  3
McadcomServices
 90
        0
280
     0
281
     0
  0
CLASS
  1
MAPIAMMOUDLE
  2
MApiAmModule
  3
MApiAmServices
 90
        0
280
     0
281
     0
  0
CLASS
  1
AMDTADMENUSTATE
  2
AmdtAdMenuState
  3
DesignerServices
 90
        0
280
     0
281
     0
  0
CLASS
  1
ADAPPL
  2
AcAdAppl
  3
DesignerServices
 90
        0
280
     0
281
     0
  0
CLASS
  1
DEPMGR
  2
AcAdDepMgr
  3
DesignerServices
 90
        0
280
     0
281
     0
  0
CLASS
  1
PARAMMGR
  2
AcAdParamMgr
  3
DesignerServices
 90
        0
280
     0
281
     0
  0
CLASS
  1
PARAMSCOPE
  2
AcAdParamScope
  3
DesignerServices
 90
        0
280
     0
281
     0
  0
CLASS
  1
NAMEDAPPL
  2
AcAdNamedAppl
  3
DesignerServices
 90
        0
280
     0
281
     0
  0
CLASS
  1
AMDTDMMENUSTATE
  2
AmdtDmMenuState
  3
AcMechDwgViewMgmt
 90
        0
280
     0
281
     0
  0
CLASS
  1
AMDTAMMENUSTATE
  2
AmdtAmMenuState
  3
DesignerAssemblies
 90
        0
280
     0
281
     0
  0
CLASS
  1
ACAMPROJECT
  2
AcAmProject
  3
DesignerAssemblies
 90
        0
280
     0
281
     0
  0
CLASS
  1
ACAMGRCOMPDEF
  2
AcAmGrCompDef
  3
DesignerAssemblies
 90
        0
280
     0
281
     0
  0
CLASS
  1
ACCMCONTEXT
  2
AcCmContext
  3
DesignerAssemblies
 90
        0
280
     0
281
     0
  0
CLASS
  1
ACAMCOMPDEF
  2
AcAmCompDef
  3
DesignerAssemblies
 90
        0
280
     0
281
     0
  0
CLASS
  1
ACAMCOMPDEFMGR
  2
AcAmCompDefMgr
  3
DesignerAssemblies
 90
        0
280
     0
281
     0
  0
CLASS
  1
AMCONTEXTMGR
  2
AcAmContextMgr
  3
DesignerAssemblies
 90
        0
280
     0
281
     0
  0
CLASS
  1
ACAMCONTEXTMODELER
  2
AcAmContextModeler
  3
DesignerAssemblies
 90
        0
280
     0
281
     0
  0
CLASS
  1
ACMTHREADLINESTANDARDISO
  2
AmdtThreadLineStdISO
  3
"Amdt_StdImp|Product Description: AutoCAD Mechanical 2004 DX|Company: Autodesk"
 90
        0
280
     0
281
     0
  0
CLASS
  1
ACMNOTESTANDARDISO
  2
AmdtNoteStdISO
  3
"Amdt_StdImp|Product Description: AutoCAD Mechanical 2004 DX|Company: Autodesk"
 90
        0
280
     0
281
     0
  0
CLASS
  1
AMDTNOTETEMPLATEDB
  2
AmdtNoteTemplateDB
  3
AMDT_STDIMP_MODULE_NAME
 90
        0
280
     0
281
     0
  0
CLASS
  1
ACMTHREADLINESTANDARDANSI
  2
AmdtThreadLineStdANSI
  3
"Amdt_StdImp|Product Description: AutoCAD Mechanical 2004 DX|Company: Autodesk"
 90
        0
280
     0
281
     0
  0
CLASS
  1
ACMNOTESTANDARDANSI
  2
AmdtNoteStdANSI
  3
"Amdt_StdImp|Product Description: AutoCAD Mechanical 2004 DX|Company: Autodesk"
 90
        0
280
     0
281
     0
  0
CLASS
  1
ACMTHREADLINESTANDARDJIS
  2
AmdtThreadLineStdJIS
  3
"Amdt_StdImp|Product Description: AutoCAD Mechanical 2004 DX|Company: Autodesk"
 90
        0
280
     0
281
     0
  0
CLASS
  1
ACMNOTESTANDARDJIS
  2
AmdtNoteStdJIS
  3
"Amdt_StdImp|Product Description: AutoCAD Mechanical 2004 DX|Company: Autodesk"
 90
        0
280
     0
281
     0
  0
CLASS
  1
CATALOGSTATE
  2
AcAmCatalogState
  3
DesignerAssemblies
 90
        0
280
     0
281
     0
  0
CLASS
  1
ACAMGRCOMPDEFSET
  2
AcAmGrCompDefSet
  3
DesignerAssemblies
 90
        0
280
     0
281
     0
  0
CLASS
  1
AMDTBROWSERDBTAB
  2
AmdtBrowserDbTab
  3
McadcomServices
 90
        0
280
     0
281
     0
  0
CLASS
  1
CBROWSERAPPOBJECT
  2
CBrowserAppObject
  3
McadcomServices
 90
        0
280
     0
281
     0
  0
CLASS
  1
DM_PLACEHOLDER
  2
AcDmSelsetPlaceholder
  3
AcMechDwgViewMgmt
 90
        0
280
     0
281
     0
  0
CLASS
  1
DIMASSOC
  2
AcDbDimAssoc
  3
"AcDbDimAssoc|Product Desc:     AcDim ARX App For Dimension|Company:          Autodesk, Inc.|WEB Address:      www.autodesk.com"
 90
    32768
280
     0
281
     0
  0
CLASS
  1
SORTENTSTABLE
  2
AcDbSortentsTable
  3
ObjectDBX Classes
 90
        0
280
     0
281
     0
  0
CLASS
  1
STDPART2D
  2
AmgStdPart
  3
"AmgStdPart|Product Description: AutoCAD Mechanical 2000|Company: Autodesk"
 90
    33791
280
     0
281
     1
  0
CLASS
  1
AMDTNOTE
  2
AmdtNote
  3
"AcmSymBB|Product Description: AutoCAD Mechanical 2004 DX|Company: Autodesk"
 90
    33791
280
     0
281
     1
  0
CLASS
  1
ACMDATUMID
  2
AcmDatumId
  3
"AcmSymBB|Product Description: AutoCAD Mechanical 2004 DX|Company: Autodesk"
 90
    33791
280
     0
281
     1
  0
CLASS
  1
ACRFATTGENMGR
  2
AcRfAttGeneralMgr
  3
AcAttribServices
 90
        0
280
     0
281
     0
  0
ENDSEC
  0
SECTION
  2
TABLES
  0
TABLE
  2
VPORT
  5
8
330
0
100
AcDbSymbolTable
 70
    16
  0
VPORT
  5
5231
330
8
100
AcDbSymbolTableRecord
100
AcDbViewportTableRecord
  2
*Active
 70
     0
 10
0.0
 20
0.0
 11
1.0
 21
1.0
 12
538.2952215384521
 22
425.4789640299025
 13
0.0
 23
0.0
 14
7.5
 24
7.5
 15
30.0
 25
30.0
 16
0.0
 26
0.0
 36
1.0
 17
0.0
 27
0.0
 37
0.0
 40
429.7447593012948
 41
1.475550122249388
 42
50.0
 43
0.0
 44
0.0
 50
0.0
 51
0.0
 71
     0
 72
   100
 73
     1
 74
     3
 75
     0
 76
     0
 77
     0
 78
     0
281
     0
 65
     1
110
0.0
120
0.0
130
0.0
111
1.0
121
0.0
131
0.0
112
0.0
122
1.0
132
0.0
 79
     0
146
0.0
  0
ENDTAB
  0
TABLE
  2
LTYPE
  5
5
330
0
100
AcDbSymbolTable
 70
    20
  0
LTYPE
  5
14
330
5
100
AcDbSymbolTableRecord
100
AcDbLinetypeTableRecord
  2
ByBlock
 70
     0
  3

 72
    65
 73
     0
 40
0.0
  0
LTYPE
  5
15
330
5
100
AcDbSymbolTableRecord
100
AcDbLinetypeTableRecord
  2
ByLayer
 70
     0
  3

 72
    65
 73
     0
 40
0.0
  0
LTYPE
  5
16
330
5
100
AcDbSymbolTableRecord
100
AcDbLinetypeTableRecord
  2
Continuous
 70
     0
  3
Solid line
 72
    65
 73
     0
 40
0.0
  0
LTYPE
  5
4F
330
5
100
AcDbSymbolTableRecord
100
AcDbLinetypeTableRecord
  2
AM_ISO02W050
 70
     0
  3
__ __ __ __ __ __ __ __ __ __ __ __ __ __ __
 72
    65
 73
     2
 40
7.5
 49
6.0
 74
     0
 49
-1.5
 74
     0
  0
LTYPE
  5
50
330
5
100
AcDbSymbolTableRecord
100
AcDbLinetypeTableRecord
  2
AM_ISO08W050
 70
     0
  3
____ . ____ . ____ . ____ . ____ . ____ . ____
 72
    65
 73
     4
 40
18.0
 49
12.0
 74
     0
 49
-1.5
 74
     0
 49
3.0
 74
     0
 49
-1.5
 74
     0
  0
LTYPE
  5
51
330
5
100
AcDbSymbolTableRecord
100
AcDbLinetypeTableRecord
  2
AM_ISO09W050
 70
     0
  3
_____ . . _____ . . _____ . . ____ .. ____
 72
    65
 73
     6
 40
22.5
 49
12.0
 74
     0
 49
-1.5
 74
     0
 49
3.0
 74
     0
 49
-1.5
 74
     0
 49
3.0
 74
     0
 49
-1.5
 74
     0
  0
LTYPE
  5
52
330
5
100
AcDbSymbolTableRecord
100
AcDbLinetypeTableRecord
  2
Amconstr
 70
     0
  3
_______________________
 72
    65
 73
     2
 40
9999.0
 49
9999.0
 74
     0
 49
0.0
 74
     0
  0
LTYPE
  5
53
330
5
100
AcDbSymbolTableRecord
100
AcDbLinetypeTableRecord
  2
AM_ISO08W050x2
 70
     0
  3
__ . __ . __ . __ . __ . __
 72
    65
 73
     4
 40
9.0
 49
6.0
 74
     0
 49
-0.75
 74
     0
 49
1.5
 74
     0
 49
-0.75
 74
     0
  0
LTYPE
  5
54
330
5
100
AcDbSymbolTableRecord
100
AcDbLinetypeTableRecord
  2
AM_ISO02W050x2
 70
     0
  3
 _ _ _ _ _ _ _ _ _ _ _ _
 72
    65
 73
     2
 40
3.75
 49
3.0
 74
     0
 49
-0.75
 74
     0
  0
LTYPE
  5
57
330
5
100
AcDbSymbolTableRecord
100
AcDbLinetypeTableRecord
  2
Amzigzag
 70
     0
  3
/\/-/\/-/\/-/\/-/\/-/\/
 72
    65
 73
     2
 40
11.0001
 49
0.0001
 74
     4
 75
   135
340
56
 46
0.04
 50
0.0
 44
0.0
 45
0.0
 49
-11.0
 74
     0
  0
LTYPE
  5
64
330
5
100
AcDbSymbolTableRecord
100
AcDbLinetypeTableRecord
  2
ACISOWELD
 70
     0
  3
_ _ _ _ _
 72
    65
 73
     2
 40
2.0
 49
2.0
 74
     0
 49
-1.0
 74
     0
  0
LTYPE
  5
65
330
5
100
AcDbSymbolTableRecord
100
AcDbLinetypeTableRecord
  2
ACISOTGB
 70
     0
  3
__ . . __ . .
 72
    65
 73
     6
 40
9.0
 49
4.0
 74
     0
 49
-1.0
 74
     0
 49
1.0
 74
     0
 49
-1.0
 74
     0
 49
1.0
 74
     0
 49
-1.0
 74
     0
  0
LTYPE
  5
66
330
5
100
AcDbSymbolTableRecord
100
AcDbLinetypeTableRecord
  2
ACISOTGL
 70
     0
  3
_ _ _ _ _
 72
    65
 73
     2
 40
3.0
 49
2.0
 74
     0
 49
-1.0
 74
     0
  0
LTYPE
  5
69
330
5
100
AcDbSymbolTableRecord
100
AcDbLinetypeTableRecord
  2
CENTER
 70
     0
  3
__ . __
 72
    65
 73
     4
 40
7.0
 49
4.0
 74
     0
 49
-1.0
 74
     0
 49
1.0
 74
     0
 49
-1.0
 74
     0
  0
LTYPE
  5
6C2
330
5
100
AcDbSymbolTableRecord
100
AcDbLinetypeTableRecord
  2
HIDDEN
 70
     0
  3
Hidden __ __ __ __ __ __ __ __ __ __ __ __ __ _
 72
    65
 73
     2
 40
9.524999999999998
 49
6.349999999999999
 74
     0
 49
-3.174999999999999
 74
     0
  0
LTYPE
  5
6C3
330
5
100
AcDbSymbolTableRecord
100
AcDbLinetypeTableRecord
  2
PHANTOM2
 70
     0
  3
Phantom (.5x) ___ _ _ ___ _ _ ___ _ _ ___ _ _
 72
    65
 73
     6
 40
31.75
 49
15.875
 74
     0
 49
-3.174999999999999
 74
     0
 49
3.174999999999999
 74
     0
 49
-3.174999999999999
 74
     0
 49
3.174999999999999
 74
     0
 49
-3.174999999999999
 74
     0
  0
LTYPE
  5
6C6
330
5
100
AcDbSymbolTableRecord
100
AcDbLinetypeTableRecord
  2
ACANSTGBM
 70
     0
  3
__ . . __ . .
 72
    65
 73
     6
 40
9.0
 49
4.0
 74
     0
 49
-1.0
 74
     0
 49
1.0
 74
     0
 49
-1.0
 74
     0
 49
1.0
 74
     0
 49
-1.0
 74
     0
  0
LTYPE
  5
6C7
330
5
100
AcDbSymbolTableRecord
100
AcDbLinetypeTableRecord
  2
ACANSTGLM
 70
     0
  3
_ _ _ _ _
 72
    65
 73
     2
 40
3.0
 49
2.0
 74
     0
 49
-1.0
 74
     0
  0
LTYPE
  5
6CA
330
5
100
AcDbSymbolTableRecord
100
AcDbLinetypeTableRecord
  2
GEN7
 70
     0
  3
____ . ____ . ____ . ____ . ____ . ____ . ____
 72
    65
 73
     4
 40
14.25
 49
9.75
 74
     0
 49
-1.5
 74
     0
 49
1.5
 74
     0
 49
-1.5
 74
     0
  0
LTYPE
  5
6D8
330
5
100
AcDbSymbolTableRecord
100
AcDbLinetypeTableRecord
  2
GEN7A
 70
     0
  3
__ . __ . __
 72
    65
 73
     4
 40
7.375
 49
4.75
 74
     0
 49
-0.875
 74
     0
 49
0.875
 74
     0
 49
-0.875
 74
     0
  0
LTYPE
  5
6E0
330
5
100
AcDbSymbolTableRecord
100
AcDbLinetypeTableRecord
  2
ACJISTGB
 70
     0
  3
__ . . __ . .
 72
    65
 73
     6
 40
9.0
 49
4.0
 74
     0
 49
-1.0
 74
     0
 49
1.0
 74
     0
 49
-1.0
 74
     0
 49
1.0
 74
     0
 49
-1.0
 74
     0
  0
LTYPE
  5
6E1
330
5
100
AcDbSymbolTableRecord
100
AcDbLinetypeTableRecord
  2
ACJISTGL
 70
     0
  3
_ _ _ _ _
 72
    65
 73
     2
 40
3.0
 49
2.0
 74
     0
 49
-1.0
 74
     0
  0
ENDTAB
  0
TABLE
  2
LAYER
  5
2
102
{ACAD_XDICTIONARY
360
2D9C
102
}
330
0
100
AcDbSymbolTable
 70
     9
  0
LAYER
  5
10
330
2
100
AcDbSymbolTableRecord
100
AcDbLayerTableRecord
  2
0
 70
     0
 62
     7
  6
Continuous
370
    -3
390
F
  0
LAYER
  5
106
330
2
100
AcDbSymbolTableRecord
100
AcDbLayerTableRecord
  2
AM_5
 70
     0
 62
     2
  6
Continuous
370
    35
390
F
  0
LAYER
  5
124
330
2
100
AcDbSymbolTableRecord
100
AcDbLayerTableRecord
  2
Defpoints
 70
     0
 62
     7
  6
Continuous
290
     0
370
    -3
390
F
  0
LAYER
  5
6FE
330
2
100
AcDbSymbolTableRecord
100
AcDbLayerTableRecord
  2
ﾁｭｳｼﾝｾﾝ
 70
     0
 62
     1
  6
GEN7
370
    -3
390
F
  0
LAYER
  5
6FF
330
2
100
AcDbSymbolTableRecord
100
AcDbLayerTableRecord
  2
ﾁｭｳｼﾝｾﾝ1
 70
     0
 62
     1
  6
GEN7A
370
    -3
390
F
  0
LAYER
  5
71A
330
2
100
AcDbSymbolTableRecord
100
AcDbLayerTableRecord
  2
AM_7
 70
     0
 62
     1
  6
AM_ISO08W050
370
    25
390
F
  0
LAYER
  5
71D
330
2
100
AcDbSymbolTableRecord
100
AcDbLayerTableRecord
  2
AM_0
 70
     0
 62
     7
  6
Continuous
370
    50
390
F
  0
LAYER
  5
1A93
330
2
100
AcDbSymbolTableRecord
100
AcDbLayerTableRecord
  2
図面枠-ｷｲﾛ
 70
     0
 62
     2
  6
Continuous
370
    -3
390
F
  0
ENDTAB
  0
TABLE
  2
STYLE
  5
3
330
0
100
AcDbSymbolTable
 70
     8
  0
STYLE
  5
11
330
3
100
AcDbSymbolTableRecord
100
AcDbTextStyleTableRecord
  2
STANDARD
 70
     0
 40
0.0
 41
0.8299999999999998
 50
0.0
 71
     0
 42
2.5
  3
t.shx
  4
bigfont.shx
  0
STYLE
  5
56
330
3
100
AcDbSymbolTableRecord
100
AcDbTextStyleTableRecord
  2

 70
     1
 40
0.0
 41
1.0
 50
0.0
 71
     0
 42
2.5
  3
ltypeshp.shx
  4

  0
STYLE
  5
58
330
3
100
AcDbSymbolTableRecord
100
AcDbTextStyleTableRecord
  2
ACISOTS
 70
     0
 40
1.0
 41
1.0
 50
0.0
 71
     0
 42
2.5
  3
isocp.shx
  4
extfont.shx
  0
STYLE
  5
63
330
3
100
AcDbSymbolTableRecord
100
AcDbTextStyleTableRecord
  2
ACISOGDT
 70
     0
 40
0.0
 41
1.0
 50
0.0
 71
     0
 42
2.5
  3
amgdt.shx
  4

  0
STYLE
  5
73A
330
3
100
AcDbSymbolTableRecord
100
AcDbTextStyleTableRecord
  2
ACANSTS
 70
     0
 40
1.0
 41
1.0
 50
0.0
 71
     0
 42
2.5
  3
romans.shx
  4
bigfont.shx
  0
STYLE
  5
73B
330
3
100
AcDbSymbolTableRecord
100
AcDbTextStyleTableRecord
  2
ACANSGDT
 70
     0
 40
0.0
 41
1.0
 50
0.0
 71
     0
 42
2.5
  3
amgdtans.shx
  4

  0
STYLE
  5
73D
330
3
100
AcDbSymbolTableRecord
100
AcDbTextStyleTableRecord
  2
ACJISTS
 70
     0
 40
1.0
 41
1.0
 50
0.0
 71
     0
 42
2.5
  3
isocp.shx
  4
bigfont.shx
  0
STYLE
  5
73E
330
3
100
AcDbSymbolTableRecord
100
AcDbTextStyleTableRecord
  2
ACJISGDT
 70
     0
 40
0.0
 41
1.0
 50
0.0
 71
     0
 42
2.5
  3
amgdt.shx
  4

  0
ENDTAB
  0
TABLE
  2
VIEW
  5
6
330
0
100
AcDbSymbolTable
 70
     6
  0
VIEW
  5
C2
330
6
100
AcDbSymbolTableRecord
100
AcDbViewTableRecord
  2
AM_VIEW1
 70
     0
 40
277.5000000000001
 10
249.6477900552487
 20
416.2500000000001
 41
499.2955801104973
 11
0.0
 21
0.0
 31
1.0
 12
0.0
 22
0.0
 32
0.0
 42
50.0
 43
0.0
 44
0.0
 50
0.0
 71
     0
281
     0
 72
     0
  0
VIEW
  5
C3
330
6
100
AcDbSymbolTableRecord
100
AcDbViewTableRecord
  2
AM_VIEW2
 70
     0
 40
277.5000000000001
 10
603.8522099447513
 20
416.2500000000001
 41
499.2955801104973
 11
0.0
 21
0.0
 31
1.0
 12
0.0
 22
0.0
 32
0.0
 42
50.0
 43
0.0
 44
0.0
 50
0.0
 71
     0
281
     0
 72
     0
  0
VIEW
  5
C4
330
6
100
AcDbSymbolTableRecord
100
AcDbViewTableRecord
  2
AM_VIEW3
 70
     0
 40
277.5000000000001
 10
249.6477900552487
 20
138.75
 41
499.2955801104973
 11
0.0
 21
0.0
 31
1.0
 12
0.0
 22
0.0
 32
0.0
 42
50.0
 43
0.0
 44
0.0
 50
0.0
 71
     0
281
     0
 72
     0
  0
VIEW
  5
C5
330
6
100
AcDbSymbolTableRecord
100
AcDbViewTableRecord
  2
AM_VIEW4
 70
     0
 40
277.5000000000001
 10
603.8522099447513
 20
138.75
 41
499.2955801104973
 11
0.0
 21
0.0
 31
1.0
 12
0.0
 22
0.0
 32
0.0
 42
50.0
 43
0.0
 44
0.0
 50
0.0
 71
     0
281
     0
 72
     0
  0
VIEW
  5
C6
330
6
100
AcDbSymbolTableRecord
100
AcDbViewTableRecord
  2
AM_VIEW5
 70
     0
 40
277.5000000000001
 10
426.75
 20
277.5000000000001
 41
499.2955801104972
 11
0.0
 21
0.0
 31
1.0
 12
0.0
 22
0.0
 32
0.0
 42
50.0
 43
0.0
 44
0.0
 50
0.0
 71
     0
281
     0
 72
     0
  0
VIEW
  5
C7
330
6
100
AcDbSymbolTableRecord
100
AcDbViewTableRecord
  2
AM_VIEW6
 70
     0
 40
554.9944500000001
 10
426.75
 20
277.5
 41
998.5811743093925
 11
0.0
 21
0.0
 31
1.0
 12
0.0
 22
0.0
 32
0.0
 42
50.0
 43
0.0
 44
0.0
 50
0.0
 71
     0
281
     0
 72
     0
  0
ENDTAB
  0
TABLE
  2
UCS
  5
7
330
0
100
AcDbSymbolTable
 70
     0
  0
ENDTAB
  0
TABLE
  2
APPID
  5
9
330
0
100
AcDbSymbolTable
 70
    95
  0
APPID
  5
12
330
9
100
AcDbSymbolTableRecord
100
AcDbRegAppTableRecord
  2
ACAD
 70
     0
  0
APPID
  5
30
330
9
100
AcDbSymbolTableRecord
100
AcDbRegAppTableRecord
  2
MCAD_NO_VIS
 70
     0
  0
APPID
  5
31
330
9
100
AcDbSymbolTableRecord
100
AcDbRegAppTableRecord
  2
ACAD_TEMP_GRAPHIC
 70
     0
  0
APPID
  5
44
330
9
100
AcDbSymbolTableRecord
100
AcDbRegAppTableRecord
  2
ACATTRIBSERVICES
 70
     0
  0
APPID
  5
8D
330
9
100
AcDbSymbolTableRecord
100
AcDbRegAppTableRecord
  2
GENIUS_GENREC_14
 70
     0
  0
APPID
  5
8E
330
9
100
AcDbSymbolTableRecord
100
AcDbRegAppTableRecord
  2
GENIUS_GENOBJ-N-REC_13
 70
     0
  0
APPID
  5
8F
330
9
100
AcDbSymbolTableRecord
100
AcDbRegAppTableRecord
  2
GENIUS_GENODEF_13
 70
     0
  0
APPID
  5
BD
330
9
100
AcDbSymbolTableRecord
100
AcDbRegAppTableRecord
  2
GENIUS_GENOLIS_13
 70
     0
  0
APPID
  5
BE
330
9
100
AcDbSymbolTableRecord
100
AcDbRegAppTableRecord
  2
GENIUS_GENOBJ-N-TIT_13
 70
     0
  0
APPID
  5
BF
330
9
100
AcDbSymbolTableRecord
100
AcDbRegAppTableRecord
  2
GENIUS_GENOENT_13
 70
     0
  0
APPID
  5
C0
330
9
100
AcDbSymbolTableRecord
100
AcDbRegAppTableRecord
  2
GENIUS_GENTITLE_13
 70
     0
  0
APPID
  5
C1
330
9
100
AcDbSymbolTableRecord
100
AcDbRegAppTableRecord
  2
GENIUS_GENOREF_13
 70
     0
  0
APPID
  5
C8
330
9
100
AcDbSymbolTableRecord
100
AcDbRegAppTableRecord
  2
GENIUS_GENSCREG_15
 70
     0
  0
APPID
  5
C9
330
9
100
AcDbSymbolTableRecord
100
AcDbRegAppTableRecord
  2
GENIUS_GENOBJ-N-SDF_13
 70
     0
  0
APPID
  5
103
330
9
100
AcDbSymbolTableRecord
100
AcDbRegAppTableRecord
  2
GENIUS_GENFIL_13
 70
     0
  0
APPID
  5
104
330
9
100
AcDbSymbolTableRecord
100
AcDbRegAppTableRecord
  2
GENIUS_GENOBJ-N-CHA_13
 70
     0
  0
APPID
  5
13E
330
9
100
AcDbSymbolTableRecord
100
AcDbRegAppTableRecord
  2
GENIUS_GENDTOL_13
 70
     0
  0
APPID
  5
187
330
9
100
AcDbSymbolTableRecord
100
AcDbRegAppTableRecord
  2
GENIUS_GENOBJ-N-FIL_13
 70
     0
  0
APPID
  5
75A
330
9
100
AcDbSymbolTableRecord
100
AcDbRegAppTableRecord
  2
AD_DRAW
 70
     0
  0
APPID
  5
75B
330
9
100
AcDbSymbolTableRecord
100
AcDbRegAppTableRecord
  2
DESIGNERASSEMBLIES
 70
     0
  0
APPID
  5
75C
330
9
100
AcDbSymbolTableRecord
100
AcDbRegAppTableRecord
  2
ASURF_PCURVE_APPNAME
 70
     0
  0
APPID
  5
75D
330
9
100
AcDbSymbolTableRecord
100
AcDbRegAppTableRecord
  2
GENIUS_GE3SECT_13
 70
     0
  0
APPID
  5
75E
330
9
100
AcDbSymbolTableRecord
100
AcDbRegAppTableRecord
  2
GENIUS_GENCFG_13
 70
     0
  0
APPID
  5
75F
330
9
100
AcDbSymbolTableRecord
100
AcDbRegAppTableRecord
  2
GENIUS_GE3CFG0_13
 70
     0
  0
APPID
  5
760
330
9
100
AcDbSymbolTableRecord
100
AcDbRegAppTableRecord
  2
GENIUS_GENCFG0_13
 70
     0
  0
APPID
  5
761
330
9
100
AcDbSymbolTableRecord
100
AcDbRegAppTableRecord
  2
GENIUS_GENCFG1_13
 70
     0
  0
APPID
  5
762
330
9
100
AcDbSymbolTableRecord
100
AcDbRegAppTableRecord
  2
GENIUS_GENCFG2_13
 70
     0
  0
APPID
  5
763
330
9
100
AcDbSymbolTableRecord
100
AcDbRegAppTableRecord
  2
GENIUS_GENCFG3_13
 70
     0
  0
APPID
  5
764
330
9
100
AcDbSymbolTableRecord
100
AcDbRegAppTableRecord
  2
GENIUS_GENCFG4_13
 70
     0
  0
APPID
  5
765
330
9
100
AcDbSymbolTableRecord
100
AcDbRegAppTableRecord
  2
GENIUS_GEVCFG0_13
 70
     0
  0
APPID
  5
766
330
9
100
AcDbSymbolTableRecord
100
AcDbRegAppTableRecord
  2
GENIUS_GENHINW_13
 70
     0
  0
APPID
  5
767
330
9
100
AcDbSymbolTableRecord
100
AcDbRegAppTableRecord
  2
GENIUS_FIRSTVISTXT_14
 70
     0
  0
APPID
  5
768
330
9
100
AcDbSymbolTableRecord
100
AcDbRegAppTableRecord
  2
GENIUS_GENOBJ-N-LEADER_13
 70
     0
  0
APPID
  5
769
330
9
100
AcDbSymbolTableRecord
100
AcDbRegAppTableRecord
  2
GEV_VCCNULL_SWITCH_OFF
 70
     0
  0
APPID
  5
76A
330
9
100
AcDbSymbolTableRecord
100
AcDbRegAppTableRecord
  2
GENIUS_GEFCFG0_13
 70
     0
  0
APPID
  5
76B
330
9
100
AcDbSymbolTableRecord
100
AcDbRegAppTableRecord
  2
GENIUS_GENZVEED_13
 70
     0
  0
APPID
  5
76C
330
9
100
AcDbSymbolTableRecord
100
AcDbRegAppTableRecord
  2
GENIUS_GENSCREG_13
 70
     0
  0
APPID
  5
76D
330
9
100
AcDbSymbolTableRecord
100
AcDbRegAppTableRecord
  2
GENIUS_DUMCFG0_13
 70
     0
  0
APPID
  5
76E
330
9
100
AcDbSymbolTableRecord
100
AcDbRegAppTableRecord
  2
GEVID936201362
 70
     0
  0
APPID
  5
76F
330
9
100
AcDbSymbolTableRecord
100
AcDbRegAppTableRecord
  2
GEVDC
 70
     0
  0
APPID
  5
770
330
9
100
AcDbSymbolTableRecord
100
AcDbRegAppTableRecord
  2
GEVCON
 70
     0
  0
APPID
  5
771
330
9
100
AcDbSymbolTableRecord
100
AcDbRegAppTableRecord
  2
VCC
 70
     0
  0
APPID
  5
772
330
9
100
AcDbSymbolTableRecord
100
AcDbRegAppTableRecord
  2
GEVPT
 70
     0
  0
APPID
  5
773
330
9
100
AcDbSymbolTableRecord
100
AcDbRegAppTableRecord
  2
GEVIT
 70
     0
  0
APPID
  5
774
330
9
100
AcDbSymbolTableRecord
100
AcDbRegAppTableRecord
  2
GENBH
 70
     0
  0
APPID
  5
775
330
9
100
AcDbSymbolTableRecord
100
AcDbRegAppTableRecord
  2
GEVMK
 70
     0
  0
APPID
  5
776
330
9
100
AcDbSymbolTableRecord
100
AcDbRegAppTableRecord
  2
GENIUS_GENBH_13
 70
     0
  0
APPID
  5
777
330
9
100
AcDbSymbolTableRecord
100
AcDbRegAppTableRecord
  2
GENIUS_GENOBJ-NBEHI-BHF_13
 70
     0
  0
APPID
  5
778
330
9
100
AcDbSymbolTableRecord
100
AcDbRegAppTableRecord
  2
GENIUS_GENOBJ-NBEHI-BHB_13
 70
     0
  0
APPID
  5
779
330
9
100
AcDbSymbolTableRecord
100
AcDbRegAppTableRecord
  2
GENIUS_GENOBJ-F-DESC_13
 70
     0
  0
APPID
  5
77A
330
9
100
AcDbSymbolTableRecord
100
AcDbRegAppTableRecord
  2
GENIUS_GEFDESC_14
 70
     0
  0
APPID
  5
77B
330
9
100
AcDbSymbolTableRecord
100
AcDbRegAppTableRecord
  2
GENIUS_GENOBJ-F-PART_13
 70
     0
  0
APPID
  5
77C
330
9
100
AcDbSymbolTableRecord
100
AcDbRegAppTableRecord
  2
GENIUS_GEFSTDP_13
 70
     0
  0
APPID
  5
77D
330
9
100
AcDbSymbolTableRecord
100
AcDbRegAppTableRecord
  2
GENIUS_GEFPARTINS_13
 70
     0
  0
APPID
  5
77E
330
9
100
AcDbSymbolTableRecord
100
AcDbRegAppTableRecord
  2
GENIUS_GENTRA_14
 70
     0
  0
APPID
  5
77F
330
9
100
AcDbSymbolTableRecord
100
AcDbRegAppTableRecord
  2
GENIUS_GENINF13_13
 70
     0
  0
APPID
  5
780
330
9
100
AcDbSymbolTableRecord
100
AcDbRegAppTableRecord
  2
GENIUS_GENOBJ-N-INFOPT_13
 70
     0
  0
APPID
  5
781
330
9
100
AcDbSymbolTableRecord
100
AcDbRegAppTableRecord
  2
GENIUS_GENOBJ-N-RSSYM_13
 70
     0
  0
APPID
  5
782
330
9
100
AcDbSymbolTableRecord
100
AcDbRegAppTableRecord
  2
GENIUS_GENSYMENT_13
 70
     0
  0
APPID
  5
783
330
9
100
AcDbSymbolTableRecord
100
AcDbRegAppTableRecord
  2
GENIUS_GENSCSYM_13
 70
     0
  0
APPID
  5
784
330
9
100
AcDbSymbolTableRecord
100
AcDbRegAppTableRecord
  2
GENIUS_GEFINFNAM_13
 70
     0
  0
APPID
  5
785
330
9
100
AcDbSymbolTableRecord
100
AcDbRegAppTableRecord
  2
GENIUS_GENOBJ-N-CEN_13
 70
     0
  0
APPID
  5
786
330
9
100
AcDbSymbolTableRecord
100
AcDbRegAppTableRecord
  2
GENIUS_GENOBJ-N-CRS_13
 70
     0
  0
APPID
  5
787
330
9
100
AcDbSymbolTableRecord
100
AcDbRegAppTableRecord
  2
GENIUS_GENOBJ-N-CRC_13
 70
     0
  0
APPID
  5
788
330
9
100
AcDbSymbolTableRecord
100
AcDbRegAppTableRecord
  2
GENIUS_GENCRC_14
 70
     0
  0
APPID
  5
789
330
9
100
AcDbSymbolTableRecord
100
AcDbRegAppTableRecord
  2
GEVID942827039
 70
     0
  0
APPID
  5
78A
330
9
100
AcDbSymbolTableRecord
100
AcDbRegAppTableRecord
  2
GEVID942827040
 70
     0
  0
APPID
  5
78B
330
9
100
AcDbSymbolTableRecord
100
AcDbRegAppTableRecord
  2
GEVID942827041
 70
     0
  0
APPID
  5
78C
330
9
100
AcDbSymbolTableRecord
100
AcDbRegAppTableRecord
  2
GENIUS_GENOBJ-F-SCPASSM_13
 70
     0
  0
APPID
  5
78D
330
9
100
AcDbSymbolTableRecord
100
AcDbRegAppTableRecord
  2
GENIUS_GENDIMSH_14
 70
     0
  0
APPID
  5
78E
330
9
100
AcDbSymbolTableRecord
100
AcDbRegAppTableRecord
  2
GEVID942827042
 70
     0
  0
APPID
  5
78F
330
9
100
AcDbSymbolTableRecord
100
AcDbRegAppTableRecord
  2
GEVID946020473
 70
     0
  0
APPID
  5
790
330
9
100
AcDbSymbolTableRecord
100
AcDbRegAppTableRecord
  2
GEVID946020474
 70
     0
  0
APPID
  5
791
330
9
100
AcDbSymbolTableRecord
100
AcDbRegAppTableRecord
  2
GEVID946020475
 70
     0
  0
APPID
  5
792
330
9
100
AcDbSymbolTableRecord
100
AcDbRegAppTableRecord
  2
GENIUS_GENOBJ-N-HTC_13
 70
     0
  0
APPID
  5
793
330
9
100
AcDbSymbolTableRecord
100
AcDbRegAppTableRecord
  2
GENIUS_GENHATCH_13
 70
     0
  0
APPID
  5
794
330
9
100
AcDbSymbolTableRecord
100
AcDbRegAppTableRecord
  2
GEVID948854295
 70
     0
  0
APPID
  5
795
330
9
100
AcDbSymbolTableRecord
100
AcDbRegAppTableRecord
  2
GEVID939402019
 70
     0
  0
APPID
  5
796
330
9
100
AcDbSymbolTableRecord
100
AcDbRegAppTableRecord
  2
GEVID952919491
 70
     0
  0
APPID
  5
797
330
9
100
AcDbSymbolTableRecord
100
AcDbRegAppTableRecord
  2
GEVID952919492
 70
     0
  0
APPID
  5
798
330
9
100
AcDbSymbolTableRecord
100
AcDbRegAppTableRecord
  2
GENIUS_GEFWELD_13
 70
     0
  0
APPID
  5
799
330
9
100
AcDbSymbolTableRecord
100
AcDbRegAppTableRecord
  2
GENIUS_GENOBJ-F-WELS_13
 70
     0
  0
APPID
  5
79A
330
9
100
AcDbSymbolTableRecord
100
AcDbRegAppTableRecord
  2
GEVID952919493
 70
     0
  0
APPID
  5
79B
330
9
100
AcDbSymbolTableRecord
100
AcDbRegAppTableRecord
  2
GENIUS_GENOBJ-N-RSBK_13
 70
     0
  0
APPID
  5
79C
330
9
100
AcDbSymbolTableRecord
100
AcDbRegAppTableRecord
  2
GENIUS_GENOBJ-N-LIB_13
 70
     0
  0
APPID
  5
79D
330
9
100
AcDbSymbolTableRecord
100
AcDbRegAppTableRecord
  2
GENIUS_GENSCALE_13
 70
     0
  0
APPID
  5
79E
330
9
100
AcDbSymbolTableRecord
100
AcDbRegAppTableRecord
  2
GEVID986376691
 70
     0
  0
APPID
  5
79F
330
9
100
AcDbSymbolTableRecord
100
AcDbRegAppTableRecord
  2
DCO15
 70
     0
  0
APPID
  5
1A97
330
9
100
AcDbSymbolTableRecord
100
AcDbRegAppTableRecord
  2
GEVID988070561
 70
     0
  0
APPID
  5
1A98
330
9
100
AcDbSymbolTableRecord
100
AcDbRegAppTableRecord
  2
GEVID988070562
 70
     0
  0
APPID
  5
1A99
330
9
100
AcDbSymbolTableRecord
100
AcDbRegAppTableRecord
  2
GEVID988070563
 70
     0
  0
APPID
  5
2201
330
9
100
AcDbSymbolTableRecord
100
AcDbRegAppTableRecord
  2
ACADM_DIM_EDIT
 70
     0
  0
APPID
  5
2202
330
9
100
AcDbSymbolTableRecord
100
AcDbRegAppTableRecord
  2
AMDT_DM_ADJ
 70
     0
  0
APPID
  5
222C
330
9
100
AcDbSymbolTableRecord
100
AcDbRegAppTableRecord
  2
ACAD_PSEXT
 70
     0
  0
APPID
  5
222D
330
9
100
AcDbSymbolTableRecord
100
AcDbRegAppTableRecord
  2
GENIUS_GENCEN_19
 70
     0
  0
ENDTAB
  0
TABLE
  2
DIMSTYLE
  5
A
330
0
100
AcDbSymbolTable
 70
    16
100
AcDbDimStyleTable
 71
     2
340
6C
340
71
  0
DIMSTYLE
105
6C
330
A
100
AcDbSymbolTableRecord
100
AcDbDimStyleTableRecord
  2
AM_ISO
 70
     0
  4
"
 41
2.5
 42
1.0
 43
8.0
 44
0.6
 47
0.1
 48
0.1
 73
     0
 74
     0
 77
     1
 78
     8
 79
     2
140
2.5
141
0.0
143
0.0393701
146
0.71
147
0.8
172
     1
176
   256
177
   256
178
     4
271
     2
272
     2
283
     0
284
     8
340
11
371
    -1
372
    -1
  0
DIMSTYLE
105
6D
330
A
100
AcDbSymbolTableRecord
100
AcDbDimStyleTableRecord
  2
AM_ISO$3
 70
     0
  4
"
 41
2.5
 42
1.0
 43
8.0
 44
0.6
 47
0.1
 48
0.1
 73
     0
 77
     1
 78
     8
 79
     2
140
2.5
141
0.0
143
0.0393701
146
0.71
147
0.8
176
   256
177
   256
178
     4
271
     2
272
     2
283
     0
284
     8
288
     1
289
     0
340
11
371
    -1
372
    -1
  0
DIMSTYLE
105
6E
330
A
100
AcDbSymbolTableRecord
100
AcDbDimStyleTableRecord
  2
AM_ISO$4
 70
     0
  4
"
 41
2.5
 42
1.0
 43
8.0
 44
0.6
 47
0.1
 48
0.1
 73
     0
 77
     1
 78
     8
 79
     2
140
2.5
141
0.0
143
0.0393701
146
0.71
147
0.8
176
   256
177
   256
178
     4
271
     2
272
     2
283
     0
284
     8
288
     1
289
     0
340
11
371
    -1
372
    -1
  0
DIMSTYLE
105
6F
330
A
100
AcDbSymbolTableRecord
100
AcDbDimStyleTableRecord
  2
AM_ISO$6
 70
     0
  4
"
 41
2.5
 42
1.0
 43
8.0
 44
0.6
 47
0.1
 48
0.1
 73
     0
 74
     0
 78
     8
 79
     2
140
2.5
141
0.0
143
0.0393701
146
0.71
147
0.8
172
     1
176
   256
177
   256
178
     4
271
     2
272
     2
283
     0
284
     8
340
11
371
    -1
372
    -1
  0
DIMSTYLE
105
70
330
A
100
AcDbSymbolTableRecord
100
AcDbDimStyleTableRecord
  2
AM_ISO$7
 70
     0
  4
"
 41
2.5
 42
1.0
 43
8.0
 44
0.6
 47
0.1
 48
0.1
 73
     0
 74
     0
 77
     1
 78
     8
 79
     2
140
2.5
141
0.0
143
0.0393701
146
0.71
147
0.8
172
     1
176
   256
177
   256
178
     4
271
     2
272
     2
283
     0
284
     8
340
11
371
    -1
372
    -1
  0
DIMSTYLE
105
71
330
A
100
AcDbSymbolTableRecord
100
AcDbDimStyleTableRecord
  2
AM_ISO$SF
 70
     0
  4
"
 41
2.5
 42
1.0
 43
10.0
 44
1.0
 47
0.1
 48
0.1
 73
     0
 74
     0
 75
     1
 76
     1
 77
     1
 78
     8
 79
     2
140
3.5
141
0.0
143
0.0393701
146
0.71
147
1.5
172
     1
176
   256
177
   256
178
     2
271
     2
272
     3
274
     4
283
     0
284
     8
340
11
371
    -1
372
    -1
  0
DIMSTYLE
105
76
330
A
100
AcDbSymbolTableRecord
100
AcDbDimStyleTableRecord
  2
AM_ISO$SH
 70
     0
  4
"
 41
2.5
 42
1.0
 43
10.0
 44
1.0
 47
0.1
 48
0.1
 73
     0
 74
     0
 75
     1
 76
     1
 77
     1
 78
     8
 79
     2
140
3.5
141
0.0
143
0.0393701
144
2.0
146
0.71
147
1.5
172
     1
173
     1
176
   256
177
   256
178
     2
271
     2
272
     3
274
     4
283
     0
284
     8
340
11
343
72
371
    -1
372
    -1
  0
DIMSTYLE
105
740
330
A
100
AcDbSymbolTableRecord
100
AcDbDimStyleTableRecord
  2
STANDARD
 70
     0
340
11
  0
DIMSTYLE
105
748
330
A
100
AcDbSymbolTableRecord
100
AcDbDimStyleTableRecord
  2
AM_JIS
 70
     0
  4
"
 41
2.5
 42
1.0
 43
7.0
 44
1.0
 47
0.1
 48
0.1000000001
 73
     0
 74
     0
 77
     3
 78
     8
 79
     2
140
2.5
141
0.0
143
0.0393701
146
0.71
147
1.0
172
     1
176
   256
177
   256
178
     4
271
     2
272
     2
283
     0
284
     8
340
11
371
    -1
372
    -1
  0
DIMSTYLE
105
749
330
A
100
AcDbSymbolTableRecord
100
AcDbDimStyleTableRecord
  2
AM_JIS$3
 70
     0
  4
"
 41
2.5
 42
1.0
 43
7.0
 44
1.0
 47
0.1
 48
0.1000000001
 73
     0
 77
     3
 78
     8
 79
     2
140
2.5
141
0.0
143
0.0393701
146
0.71
147
1.0
176
   256
177
   256
178
     4
271
     2
272
     2
283
     0
284
     8
288
     1
289
     0
340
11
371
    -1
372
    -1
  0
DIMSTYLE
105
74A
330
A
100
AcDbSymbolTableRecord
100
AcDbDimStyleTableRecord
  2
AM_JIS$4
 70
     0
  4
"
 41
2.5
 42
1.0
 43
7.0
 44
1.0
 47
0.1
 48
0.1000000001
 73
     0
 74
     0
 77
     3
 78
     8
 79
     2
140
2.5
141
0.0
143
0.0393701
146
0.71
147
1.0
176
   256
177
   256
178
     4
271
     2
272
     2
283
     0
284
     8
288
     1
289
     0
340
11
371
    -1
372
    -1
  0
DIMSTYLE
105
74B
330
A
100
AcDbSymbolTableRecord
100
AcDbDimStyleTableRecord
  2
AM_JIS$6
 70
     0
  4
"
 41
2.5
 42
1.0
 43
7.0
 44
1.0
 47
0.1
 48
0.1000000001
 73
     0
 74
     0
 78
     8
 79
     2
140
2.5
141
0.0
143
0.0393701
146
0.71
147
1.0
172
     1
176
   256
177
   256
178
     4
271
     2
272
     2
283
     0
284
     8
340
11
371
    -1
372
    -1
  0
DIMSTYLE
105
74C
330
A
100
AcDbSymbolTableRecord
100
AcDbDimStyleTableRecord
  2
AM_JIS$7
 70
     0
  4
"
 41
2.5
 42
1.0
 43
7.0
 44
1.0
 47
0.1
 48
0.1000000001
 73
     0
 74
     0
 77
     3
 78
     8
 79
     2
140
2.5
141
0.0
143
0.0393701
146
0.71
147
1.0
172
     1
176
   256
177
   256
178
     4
271
     2
272
     2
283
     0
284
     8
340
11
371
    -1
372
    -1
  0
DIMSTYLE
105
74D
330
A
100
AcDbSymbolTableRecord
100
AcDbDimStyleTableRecord
  2
AM_JIS$SF
 70
     0
  4
"
 41
2.5
 42
1.0
 43
10.0
 44
1.0
 47
0.1
 48
0.1
 73
     0
 74
     0
 75
     1
 76
     1
 77
     3
 78
     8
 79
     2
140
3.5
141
0.0
143
0.0393701
146
0.71
147
1.5
172
     1
176
   256
177
   256
178
     4
271
     2
272
     3
274
     4
283
     0
340
11
341
319
342
319
343
319
344
319
371
    -1
372
    -1
  0
DIMSTYLE
105
74E
330
A
100
AcDbSymbolTableRecord
100
AcDbDimStyleTableRecord
  2
AM_JIS$SH
 70
     0
  4
"
 41
2.5
 42
1.0
 43
10.0
 44
1.0
 47
0.1
 48
0.1
 73
     0
 74
     0
 75
     1
 77
     3
 78
     8
 79
     2
140
3.5
141
0.0
143
0.0393701
146
0.71
147
1.5
172
     1
173
     1
176
   256
177
   256
178
     4
271
     2
272
     2
281
     1
283
     0
340
11
343
577
371
    -1
372
    -1
  0
DIMSTYLE
105
2351
330
A
100
AcDbSymbolTableRecord
100
AcDbDimStyleTableRecord
  2
AM_ISO$0
 70
     0
  4
"
 41
2.5
 42
1.0
 43
8.0
 44
0.6
 47
0.1
 48
0.1
 73
     0
 74
     0
 77
     1
 78
     8
 79
     2
140
2.5
141
0.0
143
0.0393701
146
0.71
147
0.8
172
     1
176
   256
177
   256
178
     4
271
     2
272
     2
283
     0
284
     8
340
11
371
    -1
372
    -1
  0
ENDTAB
  0
TABLE
  2
BLOCK_RECORD
  5
1
330
0
100
AcDbSymbolTable
 70
     6
  0
BLOCK_RECORD
  5
1F
102
{ACAD_XDICTIONARY
360
CC
102
}
330
1
100
AcDbSymbolTableRecord
100
AcDbBlockTableRecord
  2
*Model_Space
340
22
  0
BLOCK_RECORD
  5
1B
330
1
100
AcDbSymbolTableRecord
100
AcDbBlockTableRecord
  2
*Paper_Space
340
1E
  0
BLOCK_RECORD
  5
23
330
1
100
AcDbSymbolTableRecord
100
AcDbBlockTableRecord
  2
*Paper_Space0
340
26
  0
BLOCK_RECORD
  5
72
330
1
100
AcDbSymbolTableRecord
100
AcDbBlockTableRecord
  2
GENAXEH
340
0
  0
BLOCK_RECORD
  5
319
330
1
100
AcDbSymbolTableRecord
100
AcDbBlockTableRecord
  2
_Open30
340
0
  0
BLOCK_RECORD
  5
577
330
1
100
AcDbSymbolTableRecord
100
AcDbBlockTableRecord
  2
_None
340
0
  0
ENDTAB
  0
ENDSEC
  0
SECTION
  2
BLOCKS
  0
BLOCK
  5
20
330
1F
100
AcDbEntity
  8
0
100
AcDbBlockBegin
  2
*Model_Space
 70
     0
 10
0.0
 20
0.0
 30
0.0
  3
*Model_Space
  1

  0
ENDBLK
  5
21
330
1F
100
AcDbEntity
  8
0
100
AcDbBlockEnd
  0
BLOCK
  5
1C
330
1B
100
AcDbEntity
 67
     1
  8
0
100
AcDbBlockBegin
  2
*Paper_Space
 70
     0
 10
0.0
 20
0.0
 30
0.0
  3
*Paper_Space
  1

  0
ENDBLK
  5
1D
330
1B
100
AcDbEntity
 67
     1
  8
0
100
AcDbBlockEnd
  0
BLOCK
  5
24
330
23
100
AcDbEntity
  8
0
100
AcDbBlockBegin
  2
*Paper_Space0
 70
     0
 10
0.0
 20
0.0
 30
0.0
  3
*Paper_Space0
  1

  0
ENDBLK
  5
25
330
23
100
AcDbEntity
  8
0
100
AcDbBlockEnd
  0
BLOCK
  5
74
330
72
100
AcDbEntity
  8
0
100
AcDbBlockBegin
  2
GENAXEH
 70
     0
 10
0.0
 20
0.0
 30
0.0
  3
GENAXEH
  1

  0
LINE
  5
73
330
72
100
AcDbEntity
  8
0
100
AcDbLine
 10
-1.0
 20
0.0
 30
0.0
 11
1.0
 21
0.0
 31
0.0
  0
ENDBLK
  5
75
330
72
100
AcDbEntity
  8
0
100
AcDbBlockEnd
  0
BLOCK
  5
31D
330
319
100
AcDbEntity
  8
0
100
AcDbBlockBegin
  2
_Open30
 70
     0
 10
0.0
 20
0.0
 30
0.0
  3
_Open30
  1

  0
LINE
  5
31A
330
319
100
AcDbEntity
  8
0
 62
     0
370
    -2
100
AcDbLine
 10
-1.0
 20
0.26794919
 30
0.0
 11
0.0
 21
0.0
 31
0.0
  0
LINE
  5
31B
330
319
100
AcDbEntity
  8
0
 62
     0
370
    -2
100
AcDbLine
 10
0.0
 20
0.0
 30
0.0
 11
-1.0
 21
-0.26794919
 31
0.0
  0
LINE
  5
31C
330
319
100
AcDbEntity
  8
0
 62
     0
370
    -2
100
AcDbLine
 10
0.0
 20
0.0
 30
0.0
 11
-1.0
 21
0.0
 31
0.0
  0
ENDBLK
  5
31E
330
319
100
AcDbEntity
  8
0
100
AcDbBlockEnd
  0
BLOCK
  5
578
330
577
100
AcDbEntity
  8
0
100
AcDbBlockBegin
  2
_None
 70
     0
 10
0.0
 20
0.0
 30
0.0
  3
_None
  1

  0
ENDBLK
  5
579
330
577
100
AcDbEntity
  8
0
100
AcDbBlockEnd
  0
ENDSEC
  0
SECTION
  2
ENTITIES
  0
LINE
  5
3DD3
330
1F
100
AcDbEntity
  8
ﾁｭｳｼﾝｾﾝ
100
AcDbLine
 10
385.3960511739872
 20
321.7482628595448
 30
0.0
 11
536.9848811739871
 21
321.7482628595448
 31
0.0
  0
LINE
  5
3E14
330
1F
100
AcDbEntity
  8
ﾁｭｳｼﾝｾﾝ
100
AcDbLine
 10
266.6436386220805
 20
298.5482788595449
 30
0.0
 11
389.9002824943525
 21
298.5482788595449
 31
0.0
  0
TEXT
  5
4C9D
330
1F
100
AcDbEntity
  8
AM_0
100
AcDbText
 10
629.268894666008
 20
437.0777356944898
 30
0.0
 40
7.5
  1
ＶＸ０８－００５～０３０ＨＦ－Ｔ２（Ｔ４）
 41
0.8299999999999998
100
AcDbText
  0
LINE
  5
4E1E
330
1F
100
AcDbEntity
  8
AM_7
100
AcDbLine
 10
265.5370111739872
 20
546.16105129773
 30
0.0
 11
541.037041173987
 21
546.1610673462733
 31
0.0
1001
GENIUS_GENOBJ-N-CEN_13
1002
{
1000
OWNER
1000
GEN
1002
}
1001
GENIUS_GENODEF_13
1002
{
1000
HIER
1070
     0
1002
}
1002
{
1000
MANEDIT
1070
     0
1002
}
1002
{
1000
NOSEL
1070
     0
1002
}
1002
{
1000
BEHIND
1070
     0
1002
}
1002
{
1000
OTHER
1070
     0
1002
}
1002
{
1000
REACTOR
1002
}
1001
GENIUS_GENCEN_19
1002
{
1040
9.0
1002
}
  0
LINE
  5
4EC6
330
1F
100
AcDbEntity
  8
AM_0
100
AcDbLine
 10
411.037071173987
 20
463.9100926472435
 30
0.0
 11
411.037071173987
 21
628.4119926472437
 31
0.0
  0
LINE
  5
4EC7
330
1F
100
AcDbEntity
  8
AM_0
100
AcDbLine
 10
411.037071173987
 20
463.9100926472435
 30
0.0
 11
405.967251173987
 21
464.0871326472437
 31
0.0
  0
LINE
  5
4EC8
330
1F
100
AcDbEntity
  8
AM_0
100
AcDbLine
 10
411.0370411739871
 20
628.4119926472437
 30
0.0
 11
405.967221173987
 21
628.2349226472434
 31
0.0
  0
LINE
  5
4EC9
330
1F
100
AcDbEntity
  8
AM_0
100
AcDbLine
 10
404.037041173987
 20
466.0859426472437
 30
0.0
 11
404.037041173987
 21
626.2361426472438
 31
0.0
  0
LINE
  5
4ECA
330
1F
100
AcDbEntity
  8
AM_0
100
AcDbLine
 10
374.537071173987
 20
585.6357126472437
 30
0.0
 11
404.037041173987
 21
585.6357126472437
 31
0.0
  0
LINE
  5
4ECB
330
1F
100
AcDbEntity
  8
AM_0
100
AcDbLine
 10
374.537041173987
 20
619.6610726472437
 30
0.0
 11
394.0370411739871
 21
620.1716926472437
 31
0.0
  0
LINE
  5
4ECC
330
1F
100
AcDbEntity
  8
AM_0
100
AcDbLine
 10
374.537071173987
 20
607.7396826472437
 30
0.0
 11
404.037041173987
 21
607.7396826472437
 31
0.0
  0
LINE
  5
4ECE
330
1F
100
AcDbEntity
  8
AM_0
100
AcDbLine
 10
394.0370711739871
 20
468.1479226472437
 30
0.0
 11
394.0370711739871
 21
479.5479126472437
 31
0.0
  0
LINE
  5
4ECF
330
1F
100
AcDbEntity
  8
AM_0
100
AcDbLine
 10
394.8370611739873
 20
467.3479326472436
 30
0.0
 11
402.0370411739872
 21
467.3479326472436
 31
0.0
  0
LINE
  5
4ED0
330
1F
100
AcDbEntity
  8
AM_0
100
AcDbLine
 10
394.8370611739873
 20
480.3479026472437
 30
0.0
 11
402.0370411739872
 21
480.3479026472437
 31
0.0
  0
LINE
  5
4ED1
330
1F
100
AcDbEntity
  8
AM_0
100
AcDbLine
 10
394.0370711739871
 20
468.1479226472437
 30
0.0
 11
394.8370911739871
 21
467.3478726472437
 31
0.0
  0
LINE
  5
4ED2
330
1F
100
AcDbEntity
  8
AM_0
100
AcDbLine
 10
394.0370411739871
 20
479.5479126472437
 30
0.0
 11
394.8370611739873
 21
480.3479326472437
 31
0.0
  0
LINE
  5
4ED3
330
1F
100
AcDbEntity
  8
AM_0
100
AcDbLine
 10
394.8370611739873
 20
467.3479326472436
 30
0.0
 11
394.8370611739873
 21
480.3479026472437
 31
0.0
  0
LINE
  5
4ED4
330
1F
100
AcDbEntity
  8
AM_0
100
AcDbLine
 10
402.0370411739872
 20
465.3479026472438
 30
0.0
 11
402.0370411739872
 21
482.3479026472438
 31
0.0
  0
LINE
  5
4ED5
330
1F
100
AcDbEntity
  8
AM_0
100
AcDbLine
 10
402.0370411739872
 20
482.3479026472438
 30
0.0
 11
404.037041173987
 21
482.3479026472438
 31
0.0
  0
LINE
  5
4ED6
330
1F
100
AcDbEntity
  8
AM_0
100
AcDbLine
 10
402.0370411739872
 20
465.3479026472438
 30
0.0
 11
404.037041173987
 21
465.3479026472438
 31
0.0
  0
LINE
  5
4ED7
330
1F
100
AcDbEntity
  8
AM_0
100
AcDbLine
 10
394.0370711739871
 20
612.7741726472437
 30
0.0
 11
394.0370711739871
 21
624.1741926472437
 31
0.0
  0
LINE
  5
4ED8
330
1F
100
AcDbEntity
  8
AM_0
100
AcDbLine
 10
394.8370611739873
 20
611.9741826472436
 30
0.0
 11
402.0370411739872
 21
611.9741826472436
 31
0.0
  0
LINE
  5
4ED9
330
1F
100
AcDbEntity
  8
AM_0
100
AcDbLine
 10
402.0370411739872
 20
609.9741526472437
 30
0.0
 11
404.037041173987
 21
609.9741526472437
 31
0.0
  0
LINE
  5
4EDA
330
1F
100
AcDbEntity
  8
AM_0
100
AcDbLine
 10
394.8370611739873
 20
624.9741226472435
 30
0.0
 11
402.0370411739872
 21
624.9741226472435
 31
0.0
  0
LINE
  5
4EDB
330
1F
100
AcDbEntity
  8
AM_0
100
AcDbLine
 10
394.0370711739871
 20
624.1741326472438
 30
0.0
 11
394.8370911739871
 21
624.9741826472437
 31
0.0
  0
LINE
  5
4EDC
330
1F
100
AcDbEntity
  8
AM_0
100
AcDbLine
 10
394.8370611739873
 20
611.9741826472436
 30
0.0
 11
394.8370611739873
 21
624.9741226472435
 31
0.0
  0
LINE
  5
4EDD
330
1F
100
AcDbEntity
  8
AM_0
100
AcDbLine
 10
402.0370411739872
 20
609.9741526472437
 30
0.0
 11
402.0370411739872
 21
626.9741226472437
 31
0.0
  0
LINE
  5
4EDE
330
1F
100
AcDbEntity
  8
AM_0
100
AcDbLine
 10
402.0370411739872
 20
626.9741226472437
 30
0.0
 11
404.037041173987
 21
626.9741226472437
 31
0.0
  0
LINE
  5
4EDF
330
1F
100
AcDbEntity
  8
AM_0
100
AcDbLine
 10
394.0370411739871
 20
612.7742026472438
 30
0.0
 11
394.8370611739873
 21
611.9741526472437
 31
0.0
  0
LINE
  5
4EE0
330
1F
100
AcDbEntity
  8
AM_0
100
AcDbLine
 10
374.537071173987
 20
484.5824026472437
 30
0.0
 11
404.037041173987
 21
484.5824026472437
 31
0.0
  0
LINE
  5
4EE1
330
1F
100
AcDbEntity
  8
AM_0
100
AcDbLine
 10
374.537041173987
 20
472.6610126472437
 30
0.0
 11
394.0370411739871
 21
472.1503926472437
 31
0.0
  0
LINE
  5
4EE2
330
1F
100
AcDbEntity
  8
AM_0
100
AcDbLine
 10
374.537071173987
 20
506.6863726472437
 30
0.0
 11
404.037041173987
 21
506.6863726472437
 31
0.0
  0
LINE
  5
4EE3
330
1F
100
AcDbEntity
  8
AM_0
100
AcDbLine
 10
477.967311173987
 20
453.9428726472437
 30
0.0
 11
486.037071173987
 21
453.6610426472436
 31
0.0
  0
LINE
  5
4EE4
330
1F
100
AcDbEntity
  8
AM_0
100
AcDbLine
 10
490.037101173987
 20
631.1610726472437
 30
0.0
 11
490.037101173987
 21
461.1610426472436
 31
0.0
  0
LINE
  5
4EE5
330
1F
100
AcDbEntity
  8
AM_0
100
AcDbLine
 10
500.0370411739871
 20
542.1610426472437
 30
0.0
 11
532.0370411739871
 21
542.1610426472437
 31
0.0
  0
LINE
  5
4EE6
330
1F
100
AcDbEntity
  8
AM_0
100
AcDbLine
 10
476.037071173987
 20
455.9416526472438
 30
0.0
 11
476.037071173987
 21
636.3804326472437
 31
0.0
  0
LINE
  5
4EE7
330
1F
100
AcDbEntity
  8
AM_0
100
AcDbLine
 10
474.342791173987
 20
631.9667326472435
 30
0.0
 11
476.037071173987
 21
633.6610126472437
 31
0.0
  0
LINE
  5
4EE8
330
1F
100
AcDbEntity
  8
AM_0
100
AcDbLine
 10
480.037071173987
 20
475.6610426472438
 30
0.0
 11
480.037071173987
 21
616.3333426472437
 31
0.0
  0
LINE
  5
4EEA
330
1F
100
AcDbEntity
  8
AM_0
100
AcDbLine
 10
486.037071173987
 20
631.1610726472437
 30
0.0
 11
490.037101173987
 21
631.1610726472437
 31
0.0
  0
LINE
  5
4EEB
330
1F
100
AcDbEntity
  8
AM_0
100
AcDbLine
 10
486.037071173987
 20
453.6610426472436
 30
0.0
 11
486.037071173987
 21
638.6610726472436
 31
0.0
  0
LINE
  5
4EEC
330
1F
100
AcDbEntity
  8
AM_0
100
AcDbLine
 10
470.981771173987
 20
461.8167726472436
 30
0.0
 11
411.037071173987
 21
463.9100926472435
 31
0.0
  0
LINE
  5
4EED
330
1F
100
AcDbEntity
  8
AM_0
100
AcDbLine
 10
470.981771173987
 20
630.5053126472438
 30
0.0
 11
411.037071173987
 21
628.4119926472437
 31
0.0
  0
LINE
  5
4EEE
330
1F
100
AcDbEntity
  8
AM_0
100
AcDbLine
 10
532.0370411739871
 20
560.1610726472438
 30
0.0
 11
532.0370411739871
 21
532.1610726472437
 31
0.0
  0
LINE
  5
4EEF
330
1F
100
AcDbEntity
  8
AM_0
100
AcDbLine
 10
490.0370711739871
 20
560.1610726472438
 30
0.0
 11
532.0370411739871
 21
560.1610726472438
 31
0.0
  0
LINE
  5
4EF0
330
1F
100
AcDbEntity
  8
AM_0
100
AcDbLine
 10
490.0370711739871
 20
532.1610726472437
 30
0.0
 11
532.0370411739871
 21
532.1610726472437
 31
0.0
  0
LINE
  5
4EF1
330
1F
100
AcDbEntity
  8
AM_0
100
AcDbLine
 10
500.0370411739871
 20
550.1610126472437
 30
0.0
 11
500.0370411739871
 21
542.1610426472437
 31
0.0
  0
LINE
  5
4EF3
330
1F
100
AcDbEntity
  8
AM_0
100
AcDbLine
 10
474.3428311739871
 20
460.3553426472437
 30
0.0
 11
476.037101173987
 21
458.6610726472438
 31
0.0
  0
LINE
  5
4EF4
330
1F
100
AcDbEntity
  8
AM_0
100
AcDbLine
 10
477.967311173987
 20
638.3792726472438
 30
0.0
 11
486.037071173987
 21
638.6610726472436
 31
0.0
  0
LINE
  5
4EF5
330
1F
100
AcDbEntity
  8
AM_0
100
AcDbLine
 10
500.0370411739871
 20
550.1610126472437
 30
0.0
 11
532.0370411739871
 21
550.1610126472437
 31
0.0
  0
LINE
  5
4EF6
330
1F
100
AcDbEntity
  8
AM_0
100
AcDbLine
 10
486.037071173987
 20
461.1610426472436
 30
0.0
 11
490.037101173987
 21
461.1610426472436
 31
0.0
  0
ARC
  5
4EF7
330
1F
100
AcDbEntity
  8
AM_0
100
AcDbCircle
 10
406.0370411739872
 20
466.0859426472437
 30
0.0
 40
2.0
100
AcDbArc
 50
180.000010000001
 51
267.9999999999995
  0
ARC
  5
4EF8
330
1F
100
AcDbEntity
  8
AM_0
100
AcDbCircle
 10
406.0370411739872
 20
626.2361426472438
 30
0.0
 40
2.0
100
AcDbArc
 50
91.99999800000055
 51
180.000010000001
  0
ARC
  5
4EF9
330
1F
100
AcDbEntity
  8
AM_0
100
AcDbCircle
 10
470.807271173987
 20
456.8198226472438
 30
0.0
 40
5.0
100
AcDbArc
 50
45.00000099999689
 51
87.99999999999952
  0
ARC
  5
4EFA
330
1F
100
AcDbEntity
  8
AM_0
100
AcDbCircle
 10
477.0370711739871
 20
475.9887426472437
 30
0.0
 40
3.0
100
AcDbArc
 50
267.9999999999995
 51
0.0
  0
ARC
  5
4EFB
330
1F
100
AcDbEntity
  8
AM_0
100
AcDbCircle
 10
478.037101173987
 20
455.9416526472438
 30
0.0
 40
2.0
100
AcDbArc
 50
179.999989999999
 51
268.0000099999986
  0
ARC
  5
4EFC
330
1F
100
AcDbEntity
  8
AM_0
100
AcDbCircle
 10
479.037071173987
 20
597.2862826472437
 30
0.0
 40
3.0
100
AcDbArc
 50
179.999989999999
 51
270.0
  0
ARC
  5
4EFD
330
1F
100
AcDbEntity
  8
AM_0
100
AcDbCircle
 10
478.037101173987
 20
636.3804326472437
 30
0.0
 40
2.0
100
AcDbArc
 50
91.99999800000055
 51
180.000010000001
  0
ARC
  5
4EFE
330
1F
100
AcDbEntity
  8
AM_0
100
AcDbCircle
 10
500.0370411739871
 20
546.1610126472437
 30
0.0
 40
3.9999962
100
AcDbArc
 50
90.00000300000095
 51
270.0
  0
ARC
  5
4EFF
330
1F
100
AcDbEntity
  8
AM_0
100
AcDbCircle
 10
477.0370711739871
 20
616.3333426472437
 30
0.0
 40
3.0
100
AcDbArc
 50
0.0
 51
91.99999800000055
  0
ARC
  5
4F00
330
1F
100
AcDbEntity
  8
AM_0
100
AcDbCircle
 10
470.807271173987
 20
635.5022626472435
 30
0.0
 40
5.0
100
AcDbArc
 50
272.0000000000005
 51
315.0
  0
ARC
  5
4F01
330
1F
100
AcDbEntity
  8
AM_0
100
AcDbCircle
 10
479.037071173987
 20
495.0358026472437
 30
0.0
 40
3.0
100
AcDbArc
 50
90.00000300000095
 51
180.000010000001
  0
POLYLINE
  5
4F02
330
1F
100
AcDbEntity
  8
AM_0
100
AcDb2dPolyline
 66
     1
 10
0.0
 20
0.0
 30
0.0
  0
VERTEX
  5
4F03
330
4F02
100
AcDbEntity
  8
AM_0
100
AcDbVertex
100
AcDb2dVertex
 10
472.9501311739871
 20
630.5740326472438
 30
0.0
 42
0.081985852
  0
VERTEX
  5
4F04
330
4F02
100
AcDbEntity
  8
AM_0
100
AcDbVertex
100
AcDb2dVertex
 10
450.8342411739871
 20
575.6623526472437
 30
0.0
 42
0.10914194
  0
VERTEX
  5
4F05
330
4F02
100
AcDbEntity
  8
AM_0
100
AcDbVertex
100
AcDb2dVertex
 10
450.8343311739871
 20
516.6593426472438
 30
0.0
 42
0.081985219
  0
VERTEX
  5
4F06
330
4F02
100
AcDbEntity
  8
AM_0
100
AcDbVertex
100
AcDb2dVertex
 10
472.9501311739871
 20
461.7480426472437
 30
0.0
  0
SEQEND
  5
4F07
330
4F02
100
AcDbEntity
  8
AM_0
  0
LINE
  5
4FE4
330
1F
100
AcDbEntity
  8
AM_0
100
AcDbLine
 10
532.0371011739871
 20
338.7482938595449
 30
0.0
 11
532.0371011739871
 21
307.7482618595449
 31
0.0
  0
LINE
  5
4FE5
330
1F
100
AcDbEntity
  8
AM_0
100
AcDbLine
 10
490.0370711739872
 20
335.7482938595449
 30
0.0
 11
532.0371011739871
 21
335.7482938595449
 31
0.0
  0
LINE
  5
4FE6
330
1F
100
AcDbEntity
  8
AM_0
100
AcDbLine
 10
490.0370711739872
 20
307.7482618595449
 30
0.0
 11
532.0371011739871
 21
307.7482618595449
 31
0.0
  0
LINE
  5
4FE8
330
1F
100
AcDbEntity
  8
AM_0
100
AcDbLine
 10
500.0370611739872
 20
338.7482938595449
 30
0.0
 11
532.0371011739871
 21
338.7482938595449
 31
0.0
  0
LINE
  5
4FE9
330
1F
100
AcDbEntity
  8
AM_0
100
AcDbLine
 10
500.0370611739872
 20
338.7482938595449
 30
0.0
 11
500.0370611739872
 21
335.7482938595449
 31
0.0
  0
LINE
  5
4FEA
330
1F
100
AcDbEntity
  8
AM_0
100
AcDbLine
 10
411.0371111739871
 20
379.5482788595449
 30
0.0
 11
411.0371111739871
 21
251.8911298595449
 31
0.0
  0
LINE
  5
4FF2
330
1F
100
AcDbEntity
  8
AM_0
100
AcDbLine
 10
374.5370711739874
 20
236.9695858595449
 30
0.0
 11
404.0370611739872
 21
236.9695858595449
 31
0.0
  0
LINE
  5
4FF3
330
1F
100
AcDbEntity
  8
AM_0
100
AcDbLine
 10
374.5370711739874
 20
360.1268788595448
 30
0.0
 11
404.0370611739872
 21
360.1268788595448
 31
0.0
  0
LINE
  5
4FF4
330
1F
100
AcDbEntity
  8
AM_0
100
AcDbLine
 10
374.5370711739874
 20
372.0482788595449
 30
0.0
 11
401.1156011739874
 21
372.7442488595449
 31
0.0
  0
LINE
  5
4FF5
330
1F
100
AcDbEntity
  8
AM_0
100
AcDbLine
 10
404.0370611739872
 20
377.4165988595449
 30
0.0
 11
404.0370611739872
 21
219.7099369162207
 31
0.0
  0
LINE
  5
4FF6
330
1F
100
AcDbEntity
  8
AM_0
100
AcDbLine
 10
405.9847211739873
 20
379.415948859545
 30
0.0
 11
411.0370511739872
 21
379.548248859545
 31
0.0
  0
LINE
  5
4FF7
330
1F
100
AcDbEntity
  8
AM_0
100
AcDbLine
 10
374.5370711739874
 20
338.022905859545
 30
0.0
 11
404.0370611739872
 21
338.022905859545
 31
0.0
  0
LINE
  5
4FF8
330
1F
100
AcDbEntity
  8
AM_0
100
AcDbLine
 10
374.5370711739874
 20
259.0735618595449
 30
0.0
 11
404.0370611739872
 21
259.0735618595449
 31
0.0
  0
ARC
  5
4FF9
330
1F
100
AcDbEntity
  8
AM_0
100
AcDbCircle
 10
401.0370611739872
 20
375.7431688595449
 30
0.0
 40
3.0
100
AcDbArc
 50
271.5000000000027
 51
0.0
  0
ARC
  5
4FFA
330
1F
100
AcDbEntity
  8
AM_0
100
AcDbCircle
 10
406.0370411739873
 20
377.4165988595449
 30
0.0
 40
2.00000007
100
AcDbArc
 50
91.50000100000154
 51
180.0000100000009
  0
LINE
  5
4FFD
330
1F
100
AcDbEntity
  8
AM_0
100
AcDbLine
 10
436.0370111739871
 20
246.4634848595449
 30
0.0
 11
436.0370111739871
 21
258.7834918595449
 31
0.0
  0
LINE
  5
4FFE
330
1F
100
AcDbEntity
  8
AM_0
100
AcDbLine
 10
436.0370111739871
 20
259.9437988595448
 30
0.0
 11
476.0370611739872
 21
259.9437988595448
 31
0.0
  0
LINE
  5
4FFF
330
1F
100
AcDbEntity
  8
AM_0
100
AcDbLine
 10
436.0370111739871
 20
245.2804858595448
 30
0.0
 11
476.0370611739872
 21
245.2804858595448
 31
0.0
  0
LINE
  5
5000
330
1F
100
AcDbEntity
  8
AM_0
100
AcDbLine
 10
474.6117911739872
 20
340.2225358595449
 30
0.0
 11
470.2753211739873
 21
317.0917648595448
 31
0.0
  0
LINE
  5
5001
330
1F
100
AcDbEntity
  8
AM_0
100
AcDbLine
 10
466.9671311739874
 20
363.1193548595448
 30
0.0
 11
466.9671311739874
 21
363.1193548595448
 31
0.0
  0
LINE
  5
5002
330
1F
100
AcDbEntity
  8
AM_0
100
AcDbLine
 10
447.6143111739872
 20
380.8255618595449
 30
0.0
 11
466.9671011739872
 21
363.1193848595449
 31
0.0
  0
LINE
  5
5003
330
1F
100
AcDbEntity
  8
AM_0
100
AcDbLine
 10
490.0370111739871
 20
406.7482378595448
 30
0.0
 11
490.0370111739871
 21
236.7482578595449
 31
0.0
  0
LINE
  5
5004
330
1F
100
AcDbEntity
  8
AM_0
100
AcDbLine
 10
453.7909511739871
 20
216.0552628595449
 30
0.0
 11
476.0370311739873
 21
228.8990458595449
 31
0.0
  0
LINE
  5
5005
330
1F
100
AcDbEntity
  8
AM_0
100
AcDbLine
 10
476.0370611739872
 20
297.837920859545
 30
0.0
 11
476.0370611739872
 21
372.8734768595449
 31
0.0
  0
LINE
  5
5006
330
1F
100
AcDbEntity
  8
AM_0
100
AcDbLine
 10
411.0370211739873
 20
379.5482818595449
 30
0.0
 11
446.4333311739872
 21
380.7843328595449
 31
0.0
  0
LINE
  5
5007
330
1F
100
AcDbEntity
  8
AM_0
100
AcDbLine
 10
411.0370211739873
 20
217.5482608595448
 30
0.0
 11
453.7909511739871
 21
216.0552628595449
 31
0.0
  0
LINE
  5
5008
330
1F
100
AcDbEntity
  8
AM_0
100
AcDbLine
 10
411.0370211739873
 20
344.7982498595449
 30
0.0
 11
472.9823411739871
 21
344.7982498595449
 31
0.0
  0
LINE
  5
5009
330
1F
100
AcDbEntity
  8
AM_0
100
AcDbLine
 10
476.0370611739872
 20
232.0056268595449
 30
0.0
 11
476.0370611739872
 21
267.3776218595449
 31
0.0
  0
LINE
  5
500A
330
1F
100
AcDbEntity
  8
AM_0
100
AcDbLine
 10
448.4499911739872
 20
381.661187859545
 30
0.0
 11
476.0370611739872
 21
409.2482578595449
 31
0.0
  0
LINE
  5
500B
330
1F
100
AcDbEntity
  8
AM_0
100
AcDbLine
 10
477.6660611739871
 20
295.8379048595449
 30
0.0
 11
480.0370211739873
 21
295.8379048595449
 31
0.0
  0
LINE
  5
500C
330
1F
100
AcDbEntity
  8
AM_0
100
AcDbLine
 10
486.0370211739873
 20
229.2482578595449
 30
0.0
 11
486.0370211739873
 21
321.7482598595449
 31
0.0
  0
LINE
  5
500D
330
1F
100
AcDbEntity
  8
AM_0
100
AcDbLine
 10
476.0370311739873
 20
228.8990458595449
 30
0.0
 11
486.0370211739873
 21
229.2482578595449
 31
0.0
  0
LINE
  5
500E
330
1F
100
AcDbEntity
  8
AM_0
100
AcDbLine
 10
486.0370211739873
 20
406.7482378595448
 30
0.0
 11
490.0370111739871
 21
406.7482378595448
 31
0.0
  0
LINE
  5
500F
330
1F
100
AcDbEntity
  8
AM_0
100
AcDbLine
 10
411.0370211739873
 20
217.5482608595448
 30
0.0
 11
411.0370211739873
 21
379.5482818595449
 31
0.0
  0
LINE
  5
5010
330
1F
100
AcDbEntity
  8
AM_0
100
AcDbLine
 10
480.0370211739873
 20
251.2482568595449
 30
0.0
 11
480.0370211739873
 21
391.9205278595449
 31
0.0
  0
LINE
  5
5011
330
1F
100
AcDbEntity
  8
AM_0
100
AcDbLine
 10
411.0370211739873
 20
232.4380468595449
 30
0.0
 11
476.0370611739872
 21
232.4380468595449
 31
0.0
  0
LINE
  5
5012
330
1F
100
AcDbEntity
  8
AM_0
100
AcDbLine
 10
486.0370211739873
 20
236.7482578595449
 30
0.0
 11
490.0370111739871
 21
236.7482578595449
 31
0.0
  0
LINE
  5
5013
330
1F
100
AcDbEntity
  8
AM_0
100
AcDbLine
 10
476.0370611739872
 20
372.8734768595449
 30
0.0
 11
476.0370611739872
 21
411.9676678595449
 31
0.0
  0
LINE
  5
5014
330
1F
100
AcDbEntity
  8
AM_0
100
AcDbLine
 10
411.0370211739873
 20
217.5482608595448
 30
0.0
 11
405.9672611739872
 21
217.7253088595449
 31
0.0
  0
LINE
  5
5015
330
1F
100
AcDbEntity
  8
AM_0
100
AcDbLine
 10
374.5370111739873
 20
225.0482608595448
 30
0.0
 11
401.1155711739872
 21
224.3522758595449
 31
0.0
  0
ARC
  5
5016
330
1F
100
AcDbEntity
  8
AM_0
100
AcDbCircle
 10
436.0386911739872
 20
252.6121498595448
 30
0.0
 40
7.331659199999998
100
AcDbArc
 50
90.00000299999769
 51
270.0
  0
ARC
  5
5017
330
1F
100
AcDbEntity
  8
AM_0
100
AcDbCircle
 10
494.6823611739871
 20
312.5160358595449
 30
0.0
 40
24.8322114
100
AcDbArc
 50
169.3816800000022
 51
218.7932100000013
  0
ARC
  5
5018
330
1F
100
AcDbEntity
  8
AM_0
100
AcDbCircle
 10
450.204811173987
 20
344.7982498595449
 30
0.0
 40
24.8322114
100
AcDbArc
 50
349.3816800000022
 51
47.54406600000115
  0
ARC
  5
5019
330
1F
100
AcDbEntity
  8
AM_0
100
AcDbCircle
 10
479.0370611739872
 20
232.0056268595449
 30
0.0
 40
3.0
100
AcDbArc
 50
179.999989999999
 51
271.9999900000013
  0
ARC
  5
501A
330
1F
100
AcDbEntity
  8
AM_0
100
AcDbCircle
 10
479.0370611739872
 20
267.3776218595449
 30
0.0
 40
3.0
100
AcDbArc
 50
90.00000299999769
 51
180.0000100000009
  0
ARC
  5
501B
330
1F
100
AcDbEntity
  8
AM_0
100
AcDbCircle
 10
477.0370211739873
 20
391.9205278595449
 30
0.0
 40
3.0
100
AcDbArc
 50
0.0
 51
91.99999800000055
  0
ARC
  5
501C
330
1F
100
AcDbEntity
  8
AM_0
100
AcDbCircle
 10
477.0370211739873
 20
251.2482568595449
 30
0.0
 40
3.0
100
AcDbArc
 50
270.0
 51
0.0
  0
ARC
  5
501D
330
1F
100
AcDbEntity
  8
AM_0
100
AcDbCircle
 10
478.0370111739871
 20
411.9676678595449
 30
0.0
 40
2.00000007
100
AcDbArc
 50
91.99999800000055
 51
180.0000100000009
  0
ARC
  5
501E
330
1F
100
AcDbEntity
  8
AM_0
100
AcDbCircle
 10
446.3286611739873
 20
383.7825178595449
 30
0.0
 40
3.0
100
AcDbArc
 50
271.9999999999971
 51
315.0
  0
ARC
  5
501F
330
1F
100
AcDbEntity
  8
AM_0
100
AcDbCircle
 10
479.0370611739872
 20
372.8734768595449
 30
0.0
 40
3.0
100
AcDbArc
 50
179.999989999999
 51
270.0
  0
ARC
  5
5020
330
1F
100
AcDbEntity
  8
AM_0
100
AcDbCircle
 10
477.6660611739871
 20
298.8379048595449
 30
0.0
 40
3.0
100
AcDbArc
 50
218.7932199999976
 51
270.0
  0
ARC
  5
5021
330
1F
100
AcDbEntity
  8
AM_0
100
AcDbCircle
 10
406.0370111739874
 20
219.7240888595449
 30
0.0
 40
2.00000007
100
AcDbArc
 50
179.999989999999
 51
268.0000099999987
  0
ARC
  5
5022
330
1F
100
AcDbEntity
  8
AM_0
100
AcDbCircle
 10
401.0370911739872
 20
221.3532988595448
 30
0.0
 40
3.0
100
AcDbArc
 50
0.0
 51
88.49999700000074
  0
LINE
  5
5026
330
1F
100
AcDbEntity
  8
AM_0
100
AcDbLine
 10
706.9467116781063
 20
338.7482638595448
 30
0.0
 11
714.9467126781064
 21
338.7482638595448
 31
0.0
  0
LINE
  5
5027
330
1F
100
AcDbEntity
  8
AM_0
100
AcDbLine
 10
706.9467116781063
 20
331.7482798595448
 30
0.0
 11
714.9467126781064
 21
331.7482798595448
 31
0.0
  0
LINE
  5
5028
330
1F
100
AcDbEntity
  8
AM_0
100
AcDbLine
 10
714.9467126781064
 20
331.7482798595448
 30
0.0
 11
714.9467126781064
 21
338.7482638595448
 31
0.0
  0
LINE
  5
5029
330
1F
100
AcDbEntity
  8
AM_0
100
AcDbLine
 10
706.9467116781063
 20
331.7482798595448
 30
0.0
 11
706.9467116781063
 21
338.7482638595448
 31
0.0
  0
LINE
  5
502A
330
1F
100
AcDbEntity
  8
AM_0
100
AcDbLine
 10
710.9467286781064
 20
229.2482608595448
 30
0.0
 11
740.9467286781064
 21
229.2482608595448
 31
0.0
  0
LINE
  5
502B
330
1F
100
AcDbEntity
  8
AM_0
100
AcDbLine
 10
710.9467286781064
 20
229.2482608595448
 30
0.0
 11
680.9467286781064
 21
229.2482608595448
 31
0.0
  0
LINE
  5
502C
330
1F
100
AcDbEntity
  8
AM_0
100
AcDbLine
 10
618.4467416781065
 20
351.7482628595448
 30
0.0
 11
620.8522586781064
 21
397.6483108595448
 31
0.0
  0
LINE
  5
502D
330
1F
100
AcDbEntity
  8
AM_0
100
AcDbLine
 10
618.4467116781063
 20
321.7482628595448
 30
0.0
 11
618.4467116781063
 21
351.7482628595448
 31
0.0
  0
LINE
  5
502E
330
1F
100
AcDbEntity
  8
AM_0
100
AcDbLine
 10
740.9467286781064
 20
414.2482708595448
 30
0.0
 11
786.8468006781063
 21
411.8427508595448
 31
0.0
  0
LINE
  5
502F
330
1F
100
AcDbEntity
  8
AM_0
100
AcDbLine
 10
710.9467286781064
 20
414.2482708595448
 30
0.0
 11
740.9467286781064
 21
414.2482708595448
 31
0.0
  0
LINE
  5
5030
330
1F
100
AcDbEntity
  8
AM_0
100
AcDbLine
 10
680.9467286781064
 20
229.2482608595448
 30
0.0
 11
635.0466566781062
 21
231.6537778595448
 31
0.0
  0
LINE
  5
5031
330
1F
100
AcDbEntity
  8
AM_0
100
AcDbLine
 10
713.4467276781062
 20
382.3680208595448
 30
0.0
 11
713.4467276781062
 21
392.9361208595448
 31
0.0
  0
LINE
  5
5032
330
1F
100
AcDbEntity
  8
AM_0
100
AcDbLine
 10
803.4467306781063
 20
321.7482628595448
 30
0.0
 11
803.4467306781063
 21
291.7482628595448
 31
0.0
  0
LINE
  5
5033
330
1F
100
AcDbEntity
  8
AM_0
100
AcDbLine
 10
803.4467306781063
 20
291.7482778595448
 30
0.0
 11
801.0412046781064
 21
245.8481908595448
 31
0.0
  0
LINE
  5
5034
330
1F
100
AcDbEntity
  8
AM_0
100
AcDbLine
 10
803.4467246781064
 20
351.7482628595448
 30
0.0
 11
801.0412046781064
 21
397.6483108595448
 31
0.0
  0
LINE
  5
5035
330
1F
100
AcDbEntity
  8
AM_0
100
AcDbLine
 10
803.4467306781063
 20
321.7482628595448
 30
0.0
 11
803.4467306781063
 21
351.7482628595448
 31
0.0
  0
LINE
  5
5036
330
1F
100
AcDbEntity
  8
AM_0
100
AcDbLine
 10
618.4467116781063
 20
291.7482478595449
 30
0.0
 11
620.8522286781064
 21
245.8481908595448
 31
0.0
  0
LINE
  5
5037
330
1F
100
AcDbEntity
  8
AM_0
100
AcDbLine
 10
683.6741456781062
 20
353.2634938595448
 30
0.0
 11
658.7863736781064
 21
378.1512508595448
 31
0.0
  0
LINE
  5
5038
330
1F
100
AcDbEntity
  8
AM_0
100
AcDbLine
 10
679.4315156781065
 20
349.0208458595449
 30
0.0
 11
654.5437406781063
 21
373.9086028595448
 31
0.0
  0
LINE
  5
5039
330
1F
100
AcDbEntity
  8
AM_0
100
AcDbLine
 10
636.0817826781064
 20
293.5482808595448
 30
0.0
 11
666.9467126781064
 21
293.5482808595448
 31
0.0
  0
LINE
  5
503A
330
1F
100
AcDbEntity
  8
AM_0
100
AcDbLine
 10
785.8116746781063
 20
293.5482808595448
 30
0.0
 11
754.9467446781063
 21
293.5482808595448
 31
0.0
  0
LINE
  5
503B
330
1F
100
AcDbEntity
  8
AM_0
100
AcDbLine
 10
740.9467286781064
 20
229.2482608595448
 30
0.0
 11
786.8468006781063
 21
231.6537778595448
 31
0.0
  0
LINE
  5
503C
330
1F
100
AcDbEntity
  8
ﾁｭｳｼﾝｾﾝ1
 48
0.5
100
AcDbLine
 10
779.1287838444061
 20
389.930341772257
 30
0.0
 11
793.9369679022131
 21
404.738523511344
 31
0.0
  0
LINE
  5
503D
330
1F
100
AcDbEntity
  8
ﾁｭｳｼﾝｾﾝ1
 48
0.5
100
AcDbLine
 10
643.110585679972
 20
389.5844243664597
 30
0.0
 11
627.484638535029
 21
405.2103474779178
 31
0.0
  0
LINE
  5
503E
330
1F
100
AcDbEntity
  8
AM_0
100
AcDbLine
 10
618.4467116781063
 20
321.7482628595448
 30
0.0
 11
618.4467116781063
 21
291.7482628595448
 31
0.0
  0
LINE
  5
503F
330
1F
100
AcDbEntity
  8
ﾁｭｳｼﾝｾﾝ1
 48
0.5
100
AcDbLine
 10
643.6567406594226
 20
254.458290668606
 30
0.0
 11
627.3730751803403
 21
238.1746112063092
 31
0.0
  0
LINE
  5
5040
330
1F
100
AcDbEntity
  8
ﾁｭｳｼﾝｾﾝ
100
AcDbLine
 10
675.9436616781063
 20
298.5482818595448
 30
0.0
 11
745.5936566781063
 21
298.5482818595448
 31
0.0
  0
LINE
  5
5041
330
1F
100
AcDbEntity
  8
ﾁｭｳｼﾝｾﾝ
100
AcDbLine
 10
710.9467286781064
 20
212.2135318595447
 30
0.0
 11
710.9467286781066
 21
419.831056937428
 31
0.0
  0
LINE
  5
5042
330
1F
100
AcDbEntity
  8
ﾁｭｳｼﾝｾﾝ
100
AcDbLine
 10
615.2461624858788
 20
321.7482628595448
 30
0.0
 11
808.8328077872557
 21
321.7482628595448
 31
0.0
  0
LINE
  5
5043
330
1F
100
AcDbEntity
  8
AM_0
100
AcDbLine
 10
708.4467116781063
 20
382.3680208595448
 30
0.0
 11
708.4467116781063
 21
392.9361208595448
 31
0.0
  0
LINE
  5
5044
330
1F
100
AcDbEntity
  8
AM_0
100
AcDbLine
 10
742.4619266781062
 20
349.0208458595449
 30
0.0
 11
767.3497136781064
 21
373.9086358595449
 31
0.0
  0
LINE
  5
5045
330
1F
100
AcDbEntity
  8
AM_0
100
AcDbLine
 10
680.9467286781064
 20
414.2482708595448
 30
0.0
 11
635.0466566781062
 21
411.8427508595448
 31
0.0
  0
LINE
  5
5046
330
1F
100
AcDbEntity
  8
AM_0
100
AcDbLine
 10
671.9466956781063
 20
321.7482628595448
 30
0.0
 11
671.9466956781063
 21
298.5482818595448
 31
0.0
  0
LINE
  5
5047
330
1F
100
AcDbEntity
  8
AM_0
100
AcDbLine
 10
749.9467436781062
 20
321.7482628595448
 30
0.0
 11
749.9467436781062
 21
298.5482818595448
 31
0.0
  0
LINE
  5
5048
330
1F
100
AcDbEntity
  8
AM_0
100
AcDbLine
 10
738.2192816781063
 20
353.2634608595448
 30
0.0
 11
763.1070836781064
 21
378.1512808595448
 31
0.0
  0
LINE
  5
5049
330
1F
100
AcDbEntity
  8
ﾁｭｳｼﾝｾﾝ1
 48
0.5
100
AcDbLine
 10
779.4655275333
 20
253.2294645765758
 30
0.0
 11
794.2879300611437
 21
238.407066725444
 31
0.0
  0
LINE
  5
504A
330
1F
100
AcDbEntity
  8
AM_0
100
AcDbLine
 10
710.9467286781064
 20
414.2482708595448
 30
0.0
 11
680.9467286781064
 21
414.2482708595448
 31
0.0
  0
CIRCLE
  5
504B
330
1F
100
AcDbEntity
  8
AM_5
100
AcDbCircle
 10
710.9467286781064
 20
321.7482628595448
 30
0.0
 40
4.000000199999999
  0
ARC
  5
504C
330
1F
100
AcDbEntity
  8
AM_0
100
AcDbCircle
 10
710.9467286781064
 20
321.7482628595448
 30
0.0
 40
14.0000013
100
AcDbArc
 50
106.6015400000018
 51
73.39845199999828
  0
CIRCLE
  5
504D
330
1F
100
AcDbEntity
  8
AM_0
100
AcDbCircle
 10
710.9467286781064
 20
321.7482628595448
 30
0.0
 40
3.0
  0
ARC
  5
504E
330
1F
100
AcDbEntity
  8
AM_0
100
AcDbCircle
 10
710.9467286781064
 20
298.5482818595448
 30
0.0
 40
76.000002
100
AcDbArc
 50
358.6064500000027
 51
12.76020200000259
  0
ARC
  5
504F
330
1F
100
AcDbEntity
  8
AM_0
100
AcDbCircle
 10
710.9467286781064
 20
298.5482818595448
 30
0.0
 40
76.000002
100
AcDbArc
 50
167.2398000000007
 51
181.3935400000023
  0
ARC
  5
5050
330
1F
100
AcDbEntity
  8
AM_0
100
AcDbCircle
 10
710.9467286781064
 20
321.7482628595448
 30
0.0
 40
74.400003
100
AcDbArc
 50
171.8834499999985
 51
184.9454200000019
  0
ARC
  5
5051
330
1F
100
AcDbEntity
  8
AM_0
100
AcDbCircle
 10
635.8316906781062
 20
396.8633008595448
 30
0.0
 40
15.00000029999999
100
AcDbArc
 50
92.99999900000159
 51
176.9999900000002
  0
ARC
  5
5052
330
1F
100
AcDbEntity
  8
AM_0
100
AcDbCircle
 10
786.0617576781062
 20
396.8633008595448
 30
0.0
 40
15.00000029999999
100
AcDbArc
 50
3.000000099998847
 51
86.99999899999692
  0
ARC
  5
5053
330
1F
100
AcDbEntity
  8
AM_0
100
AcDbCircle
 10
786.0617576781062
 20
246.6332248595448
 30
0.0
 40
15.00000029999999
100
AcDbArc
 50
272.9999999999991
 51
357.0000000000011
  0
ARC
  5
5054
330
1F
100
AcDbEntity
  8
AM_0
100
AcDbCircle
 10
716.4467276781063
 20
382.3680208595448
 30
0.0
 40
3.0
100
AcDbArc
 50
180.0000100000009
 51
266.245800000004
  0
ARC
  5
5055
330
1F
100
AcDbEntity
  8
AM_0
100
AcDbCircle
 10
786.0617576781062
 20
396.8633008595448
 30
0.0
 40
15.00000029999999
100
AcDbArc
 50
3.000000099998847
 51
86.99999899999692
  0
ARC
  5
5056
330
1F
100
AcDbEntity
  8
AM_0
100
AcDbCircle
 10
705.4467116781063
 20
392.9361208595448
 30
0.0
 40
3.0
100
AcDbArc
 50
0.0
 51
94.41791900000339
  0
ARC
  5
5057
330
1F
100
AcDbEntity
  8
AM_0
100
AcDbCircle
 10
786.0617576781062
 20
246.6332248595448
 30
0.0
 40
15.00000029999999
100
AcDbArc
 50
272.9999999999991
 51
357.0000000000011
  0
ARC
  5
5058
330
1F
100
AcDbEntity
  8
AM_0
100
AcDbCircle
 10
716.4467276781063
 20
392.9361208595448
 30
0.0
 40
3.0
100
AcDbArc
 50
85.58208600000218
 51
180.0000100000009
  0
ARC
  5
5059
330
1F
100
AcDbEntity
  8
AM_0
100
AcDbCircle
 10
710.9467286781064
 20
321.7482628595448
 30
0.0
 40
74.400003
100
AcDbArc
 50
355.054579999998
 51
8.116549400000137
  0
ARC
  5
505A
330
1F
100
AcDbEntity
  8
AM_0
100
AcDbCircle
 10
635.8316906781062
 20
246.6332248595448
 30
0.0
 40
15.00000029999999
100
AcDbArc
 50
183.0000099999997
 51
267.0000000000009
  0
ARC
  5
505B
330
1F
100
AcDbEntity
  8
AM_0
100
AcDbCircle
 10
710.9467286781064
 20
298.5482818595448
 30
0.0
 40
81.00000300000001
100
AcDbArc
 50
125.474170000001
 51
155.4112299999968
  0
ARC
  5
505C
330
1F
100
AcDbEntity
  8
AM_0
100
AcDbCircle
 10
754.9467446781063
 20
298.5482818595448
 30
0.0
 40
5.0000001
100
AcDbArc
 50
179.999989999999
 51
270.0
  0
ARC
  5
505D
330
1F
100
AcDbEntity
  8
AM_0
100
AcDbCircle
 10
710.9467286781064
 20
321.7482628595448
 30
0.0
 40
39.000012
100
AcDbArc
 50
0.0
 51
36.7867909999975
  0
ARC
  5
505E
330
1F
100
AcDbEntity
  8
AM_0
100
AcDbCircle
 10
685.7954666781063
 20
355.3847698595449
 30
0.0
 40
3.0
100
AcDbArc
 50
225.0
 51
306.7867899999999
  0
ARC
  5
505F
330
1F
100
AcDbEntity
  8
AM_0
100
AcDbCircle
 10
677.3102066781063
 20
346.8995098595448
 30
0.0
 40
3.0
100
AcDbArc
 50
323.213210000001
 51
45.00000100000264
  0
ARC
  5
5060
330
1F
100
AcDbEntity
  8
AM_0
100
AcDbCircle
 10
710.9467286781064
 20
321.7482628595448
 30
0.0
 40
39.000012
100
AcDbArc
 50
53.21320800000103
 51
126.7867899999999
  0
ARC
  5
5061
330
1F
100
AcDbEntity
  8
AM_0
100
AcDbCircle
 10
660.9076796781064
 20
380.2725568595448
 30
0.0
 40
3.0
100
AcDbArc
 50
130.5308599999985
 51
225.0
  0
ARC
  5
5062
330
1F
100
AcDbEntity
  8
AM_0
100
AcDbCircle
 10
710.9467286781064
 20
298.5482818595448
 30
0.0
 40
81.00000300000001
100
AcDbArc
 50
58.8609450000028
 51
86.24580300000374
  0
ARC
  5
5063
330
1F
100
AcDbEntity
  8
AM_0
100
AcDbCircle
 10
710.9467286781064
 20
321.7482628595448
 30
0.0
 40
39.000012
100
AcDbArc
 50
143.213210000001
 51
180.0000100000009
  0
ARC
  5
5064
330
1F
100
AcDbEntity
  8
AM_0
100
AcDbCircle
 10
666.9467126781064
 20
298.5482818595448
 30
0.0
 40
5.0000001
100
AcDbArc
 50
270.0
 51
0.0
  0
ARC
  5
5065
330
1F
100
AcDbEntity
  8
AM_0
100
AcDbCircle
 10
679.6145576781063
 20
218.4589678595449
 30
0.0
 40
5.0000001
100
AcDbArc
 50
68.63379799999703
 51
143.2612600000023
  0
ARC
  5
5066
330
1F
100
AcDbEntity
  8
AM_0
100
AcDbCircle
 10
669.1967276781062
 20
226.2351388595448
 30
0.0
 40
8.000000099999999
100
AcDbArc
 50
156.7387399999979
 51
323.2612700000009
  0
ARC
  5
5067
330
1F
100
AcDbEntity
  8
AM_0
100
AcDbCircle
 10
752.6967296781065
 20
226.2351388595448
 30
0.0
 40
8.000000099999999
100
AcDbArc
 50
216.7387399999976
 51
23.2612579999982
  0
ARC
  5
5068
330
1F
100
AcDbEntity
  8
ﾁｭｳｼﾝｾﾝ1
 48
0.5
100
AcDbCircle
 10
710.9467286781068
 20
321.7482628595456
 30
0.0
 40
107.5000109999991
100
AcDbArc
 50
38.02723200000231
 51
51.88414996277384
  0
ARC
  5
5069
330
1F
100
AcDbEntity
  8
AM_0
100
AcDbCircle
 10
710.9467286781064
 20
298.5482818595448
 30
0.0
 40
81.00000300000001
100
AcDbArc
 50
248.6337999999979
 51
270.0
  0
ARC
  5
506A
330
1F
100
AcDbEntity
  8
AM_0
100
AcDbCircle
 10
742.2788966781062
 20
218.4589678595449
 30
0.0
 40
5.0000001
100
AcDbArc
 50
36.73873700000122
 51
111.3662099999999
  0
CIRCLE
  5
506B
330
1F
100
AcDbEntity
  8
AM_0
100
AcDbCircle
 10
786.9607076781065
 20
397.7622508595448
 30
0.0
 40
6.000000299999999
  0
CIRCLE
  5
506C
330
1F
100
AcDbEntity
  8
AM_0
100
AcDbCircle
 10
634.9327646781063
 20
397.7622508595448
 30
0.0
 40
6.000000299999999
  0
ARC
  5
506D
330
1F
100
AcDbEntity
  8
ﾁｭｳｼﾝｾﾝ1
 48
0.5
100
AcDbCircle
 10
710.9467286781071
 20
321.7482628595449
 30
0.0
 40
107.5000110000003
100
AcDbArc
 50
124.6309744252675
 51
143.2463199999992
  0
ARC
  5
506E
330
1F
100
AcDbEntity
  8
AM_0
100
AcDbCircle
 10
652.4224196781062
 20
371.7872968595448
 30
0.0
 40
3.0
100
AcDbArc
 50
45.00000100000264
 51
139.4691400000013
  0
ARC
  5
506F
330
1F
100
AcDbEntity
  8
AM_0
100
AcDbCircle
 10
635.8316906781062
 20
246.6332248595448
 30
0.0
 40
15.00000029999999
100
AcDbArc
 50
183.0000099999997
 51
267.0000000000009
  0
ARC
  5
5070
330
1F
100
AcDbEntity
  8
ﾁｭｳｼﾝｾﾝ1
 48
0.5
100
AcDbCircle
 10
710.9467286781039
 20
321.7482628595427
 30
0.0
 40
107.5000109999967
100
AcDbArc
 50
218.0272399999988
 51
232.061136882204
  0
CIRCLE
  5
5071
330
1F
100
AcDbEntity
  8
AM_0
100
AcDbCircle
 10
634.9327646781063
 20
245.7342688595448
 30
0.0
 40
6.000000299999999
  0
CIRCLE
  5
5072
330
1F
100
AcDbEntity
  8
AM_0
100
AcDbCircle
 10
710.9467286781064
 20
321.7482628595448
 30
0.0
 40
29.000001
  0
CIRCLE
  5
5073
330
1F
100
AcDbEntity
  8
AM_0
100
AcDbCircle
 10
786.9607076781065
 20
245.7342688595448
 30
0.0
 40
6.000000299999999
  0
CIRCLE
  5
5074
330
1F
100
AcDbEntity
  8
AM_0
100
AcDbCircle
 10
710.9467286781064
 20
321.7482628595448
 30
0.0
 40
80.00000099999999
  0
ARC
  5
5075
330
1F
100
AcDbEntity
  8
AM_0
100
AcDbCircle
 10
710.9467286781064
 20
298.5482818595448
 30
0.0
 40
81.00000300000001
100
AcDbArc
 50
24.58877499999846
 51
54.52582999999899
  0
CIRCLE
  5
5076
330
1F
100
AcDbEntity
  8
AM_0
100
AcDbCircle
 10
710.9467286781064
 20
321.7482628595448
 30
0.0
 40
85.000002
  0
ARC
  5
5077
330
1F
100
AcDbEntity
  8
AM_0
100
AcDbCircle
 10
769.4710526781063
 20
371.7872968595448
 30
0.0
 40
3.0
100
AcDbArc
 50
40.53086499999786
 51
135.0
  0
ARC
  5
5078
330
1F
100
AcDbEntity
  8
AM_0
100
AcDbCircle
 10
736.0979756781063
 20
355.3847698595449
 30
0.0
 40
3.0
100
AcDbArc
 50
233.2132100000001
 51
315.0
  0
ARC
  5
5079
330
1F
100
AcDbEntity
  8
ﾁｭｳｼﾝｾﾝ1
 48
0.5
100
AcDbCircle
 10
710.9467286781087
 20
321.7482628595429
 30
0.0
 40
107.500010999997
100
AcDbArc
 50
304.5604849941711
 51
323.2463199999992
  0
ARC
  5
507A
330
1F
100
AcDbEntity
  8
AM_0
100
AcDbCircle
 10
744.5832656781065
 20
346.8995098595448
 30
0.0
 40
3.0
100
AcDbArc
 50
135.0
 51
216.786789999999
  0
ARC
  5
507B
330
1F
100
AcDbEntity
  8
AM_0
100
AcDbCircle
 10
760.9857626781063
 20
380.2725568595448
 30
0.0
 40
3.0
100
AcDbArc
 50
315.0
 51
49.46913700000321
  0
ARC
  5
507C
330
1F
100
AcDbEntity
  8
AM_0
100
AcDbCircle
 10
635.8316906781062
 20
396.8633008595448
 30
0.0
 40
15.00000029999999
100
AcDbArc
 50
92.99999900000159
 51
176.9999900000002
  0
ARC
  5
507D
330
1F
100
AcDbEntity
  8
AM_0
100
AcDbCircle
 10
710.9467286781064
 20
298.5482818595448
 30
0.0
 40
81.00000300000001
100
AcDbArc
 50
270.0
 51
291.3661999999954
  0
ARC
  5
507E
330
1F
100
AcDbEntity
  8
AM_0
100
AcDbCircle
 10
705.4467116781063
 20
382.3680208595448
 30
0.0
 40
3.0
100
AcDbArc
 50
273.754199999996
 51
0.0
  0
ARC
  5
5082
330
1F
100
AcDbEntity
  8
AM_0
100
AcDbCircle
 10
710.9467421514827
 20
298.5482518595449
 30
0.0
 40
81.00000300000001
100
AcDbArc
 50
93.75419500000093
 51
121.1390599999999
  0
LINE
  5
50E8
330
1F
100
AcDbEntity
  8
AM_0
100
AcDbLine
 10
477.9672122479098
 20
413.9664495859769
 30
0.0
 11
486.0370022479099
 21
414.2482395859768
 31
0.0
  0
LINE
  5
50E9
330
1F
100
AcDbEntity
  8
AM_0
100
AcDbLine
 10
486.0370022479099
 20
321.7482315859768
 30
0.0
 11
486.0370022479099
 21
414.2482095859767
 31
0.0
  0
LINE
  5
51A1
330
1F
100
AcDbEntity
  8
AM_0
100
AcDbLine
 10
374.537041173987
 20
225.0482773595448
 30
0.0
 11
374.537041173987
 21
372.0482803595449
 31
0.0
  0
LINE
  5
51A2
330
1F
100
AcDbEntity
  8
AM_0
100
AcDbLine
 10
374.537041173987
 20
372.0482758595449
 30
0.0
 11
374.537041173987
 21
225.0482818595449
 31
0.0
  0
LINE
  5
51A3
330
1F
100
AcDbEntity
  8
0
100
AcDbLine
 10
374.537041173987
 20
372.5470173732727
 30
0.0
 11
364.467242180582
 21
372.1953722437957
 31
0.0
  0
LINE
  5
51A4
330
1F
100
AcDbEntity
  8
0
100
AcDbLine
 10
362.537041173987
 20
370.1965905897576
 30
0.0
 11
362.5370411739888
 21
226.8999671293326
 31
0.0
  0
ARC
  5
51A5
330
1F
100
AcDbEntity
  8
0
100
AcDbCircle
 10
364.537041173987
 20
370.1965905897576
 30
0.0
 40
2.0
100
AcDbArc
 50
92.00000000000034
 51
180.0
1001
GENIUS_GENODEF_13
1002
{
1000
HIER
1070
     0
1002
}
1002
{
1000
MANEDIT
1070
     0
1002
}
1002
{
1000
NOSEL
1070
     0
1002
}
1002
{
1000
BEHIND
1070
     0
1002
}
1002
{
1000
OTHER
1070
     0
1002
}
1002
{
1000
REACTOR
1002
}
1001
GENIUS_GENOBJ-N-FIL_13
1002
{
1000
OWNER
1000
GEN
1002
}
  0
LINE
  5
51A6
330
1F
100
AcDbEntity
  8
0
100
AcDbLine
 10
333.9115977998205
 20
340.6216840651508
 30
0.0
 11
293.6417396640946
 21
339.2154296317276
 31
0.0
  0
ARC
  5
51A7
330
1F
100
AcDbEntity
  8
0
100
AcDbCircle
 10
293.5370411739871
 20
342.2136021127848
 30
0.0
 40
3.0
100
AcDbArc
 50
180.0
 51
272.0000000000004
1001
GENIUS_GENOBJ-N-FIL_13
1002
{
1000
OWNER
1000
GEN
1002
}
1001
GENIUS_GENODEF_13
1002
{
1000
HIER
1070
     0
1002
}
1002
{
1000
MANEDIT
1070
     0
1002
}
1002
{
1000
NOSEL
1070
     0
1002
}
1002
{
1000
BEHIND
1070
     0
1002
}
1002
{
1000
OTHER
1070
     0
1002
}
1002
{
1000
REACTOR
1002
}
  0
ARC
  5
51A8
330
1F
100
AcDbEntity
  8
0
100
AcDbCircle
 10
333.3881053492829
 20
355.6125464704372
 30
0.0
 40
15.0
100
AcDbArc
 50
272.0000000000004
 51
315.0
1001
GENIUS_GENODEF_13
1002
{
1000
HIER
1070
     0
1002
}
1002
{
1000
MANEDIT
1070
     0
1002
}
1002
{
1000
NOSEL
1070
     0
1002
}
1002
{
1000
BEHIND
1070
     0
1002
}
1002
{
1000
OTHER
1070
     0
1002
}
1002
{
1000
REACTOR
1002
}
1001
GENIUS_GENOBJ-N-FIL_13
1002
{
1000
OWNER
1000
GEN
1002
}
  0
LINE
  5
51A9
330
1F
100
AcDbEntity
  8
0
100
AcDbLine
 10
343.9947070670811
 20
345.0059447526391
 30
0.0
 11
361.0725750799196
 21
362.0838127654778
 31
0.0
  0
ARC
  5
51AA
330
1F
100
AcDbEntity
  8
0
100
AcDbCircle
 10
357.5370411739869
 20
365.6193466714106
 30
0.0
 40
5.0
100
AcDbArc
 50
315.0
 51
0.0
1001
GENIUS_GENODEF_13
1002
{
1000
HIER
1070
     0
1002
}
1002
{
1000
MANEDIT
1070
     0
1002
}
1002
{
1000
NOSEL
1070
     0
1002
}
1002
{
1000
BEHIND
1070
     0
1002
}
1002
{
1000
OTHER
1070
     0
1002
}
1002
{
1000
REACTOR
1002
}
1001
GENIUS_GENOBJ-N-FIL_13
1002
{
1000
OWNER
1000
GEN
1002
}
  0
LINE
  5
51AB
330
1F
100
AcDbEntity
  8
0
100
AcDbLine
 10
374.537041173987
 20
372.5470173732727
 30
0.0
 11
374.537041173987
 21
224.5495403458174
 31
0.0
  0
LINE
  5
51AC
330
1F
100
AcDbEntity
  8
0
100
AcDbLine
 10
374.5370411739874
 20
224.5495403458174
 30
0.0
 11
364.4672421805823
 21
224.9011854752945
 31
0.0
  0
ARC
  5
51AD
330
1F
100
AcDbEntity
  8
0
100
AcDbCircle
 10
364.5370411739872
 20
226.8999671293326
 30
0.0
 40
2.0
100
AcDbArc
 50
180.0
 51
267.9999999999997
1001
GENIUS_GENODEF_13
1002
{
1000
HIER
1070
     0
1002
}
1002
{
1000
MANEDIT
1070
     0
1002
}
1002
{
1000
NOSEL
1070
     0
1002
}
1002
{
1000
BEHIND
1070
     0
1002
}
1002
{
1000
OTHER
1070
     0
1002
}
1002
{
1000
REACTOR
1002
}
1001
GENIUS_GENOBJ-N-FIL_13
1002
{
1000
OWNER
1000
GEN
1002
}
  0
LINE
  5
51AE
330
1F
100
AcDbEntity
  8
0
100
AcDbLine
 10
333.9115977998207
 20
256.4748736539391
 30
0.0
 11
293.6417396640946
 21
257.8811280873624
 31
0.0
  0
ARC
  5
51AF
330
1F
100
AcDbEntity
  8
0
100
AcDbCircle
 10
293.5370411739871
 20
254.8829556063051
 30
0.0
 40
3.0
100
AcDbArc
 50
87.99999999999965
 51
180.0
1001
GENIUS_GENODEF_13
1002
{
1000
HIER
1070
     0
1002
}
1002
{
1000
MANEDIT
1070
     0
1002
}
1002
{
1000
NOSEL
1070
     0
1002
}
1002
{
1000
BEHIND
1070
     0
1002
}
1002
{
1000
OTHER
1070
     0
1002
}
1002
{
1000
REACTOR
1002
}
1001
GENIUS_GENOBJ-N-FIL_13
1002
{
1000
OWNER
1000
GEN
1002
}
  0
LINE
  5
51B0
330
1F
100
AcDbEntity
  8
0
100
AcDbLine
 10
343.9947070670813
 20
252.090612966451
 30
0.0
 11
361.0725750799198
 21
235.0127449536123
 31
0.0
  0
ARC
  5
51B1
330
1F
100
AcDbEntity
  8
0
100
AcDbCircle
 10
333.3881053492831
 20
241.4840112486527
 30
0.0
 40
15.0
100
AcDbArc
 50
45.0
 51
87.99999999999965
1001
GENIUS_GENODEF_13
1002
{
1000
HIER
1070
     0
1002
}
1002
{
1000
MANEDIT
1070
     0
1002
}
1002
{
1000
NOSEL
1070
     0
1002
}
1002
{
1000
BEHIND
1070
     0
1002
}
1002
{
1000
OTHER
1070
     0
1002
}
1002
{
1000
REACTOR
1002
}
1001
GENIUS_GENOBJ-N-FIL_13
1002
{
1000
OWNER
1000
GEN
1002
}
  0
ARC
  5
51B2
330
1F
100
AcDbEntity
  8
0
100
AcDbCircle
 10
357.5370411739871
 20
231.4772110476796
 30
0.0
 40
5.0
100
AcDbArc
 50
0.0
 51
45.0
1001
GENIUS_GENODEF_13
1002
{
1000
HIER
1070
     0
1002
}
1002
{
1000
MANEDIT
1070
     0
1002
}
1002
{
1000
NOSEL
1070
     0
1002
}
1002
{
1000
BEHIND
1070
     0
1002
}
1002
{
1000
OTHER
1070
     0
1002
}
1002
{
1000
REACTOR
1002
}
1001
GENIUS_GENOBJ-N-FIL_13
1002
{
1000
OWNER
1000
GEN
1002
}
  0
ARC
  5
51B3
330
1F
100
AcDbEntity
  8
AM_5
 62
     2
370
    35
100
AcDbCircle
 10
377.3310411739871
 20
298.548278859545
 30
0.0
 40
48.4502085537012
100
AcDbArc
 50
135.0617711120834
 51
224.9382288879166
  0
ARC
  5
51B4
330
1F
100
AcDbEntity
  8
AM_5
 62
     2
370
    35
100
AcDbCircle
 10
339.495311076794
 20
260.7940430382956
 30
0.0
 40
5.0
100
AcDbArc
 50
267.9999999999997
 51
44.93822888791658
1001
GENIUS_GENOBJ-N-FIL_13
1002
{
1000
OWNER
1000
GEN
1002
}
1001
GENIUS_GENODEF_13
1002
{
1000
HIER
1070
     0
1002
}
1002
{
1000
MANEDIT
1070
     0
1002
}
1002
{
1000
NOSEL
1070
     0
1002
}
1002
{
1000
BEHIND
1070
     0
1002
}
1002
{
1000
OTHER
1070
     0
1002
}
1002
{
1000
REACTOR
1002
}
  0
ARC
  5
51B5
330
1F
100
AcDbEntity
  8
AM_5
 62
     2
370
    35
100
AcDbCircle
 10
339.4953110767941
 20
336.3025146807946
 30
0.0
 40
5.0
100
AcDbArc
 50
315.0617711120834
 51
92.00000000000034
1001
GENIUS_GENODEF_13
1002
{
1000
HIER
1070
     0
1002
}
1002
{
1000
MANEDIT
1070
     0
1002
}
1002
{
1000
NOSEL
1070
     0
1002
}
1002
{
1000
BEHIND
1070
     0
1002
}
1002
{
1000
OTHER
1070
     0
1002
}
1002
{
1000
REACTOR
1002
}
1001
GENIUS_GENOBJ-N-FIL_13
1002
{
1000
OWNER
1000
GEN
1002
}
  0
LINE
  5
51B6
330
1F
100
AcDbEntity
  8
AM_0
100
AcDbLine
 10
374.5371011739871
 20
360.1269103595448
 30
0.0
 11
362.5370411739871
 21
360.1269103595447
 31
0.0
  0
LINE
  5
51B7
330
1F
100
AcDbEntity
  8
AM_0
100
AcDbLine
 10
374.5371011739871
 20
338.0229373595449
 30
0.0
 11
362.5370411739874
 21
338.0229373595448
 31
0.0
  0
LINE
  5
51B8
330
1F
100
AcDbEntity
  8
AM_0
100
AcDbLine
 10
374.5371011739871
 20
259.0735933595448
 30
0.0
 11
362.5370411739884
 21
259.0735933595447
 31
0.0
  0
LINE
  5
51B9
330
1F
100
AcDbEntity
  8
AM_0
100
AcDbLine
 10
374.5371011739871
 20
236.9696173595448
 30
0.0
 11
362.5370411739887
 21
236.9696173595447
 31
0.0
  0
LINE
  5
51BA
330
1F
100
AcDbEntity
  8
0
100
AcDbLine
 10
309.0370411739871
 20
339.7530454070105
 30
0.0
 11
309.0370411739871
 21
340.1578349764954
 31
0.0
1001
GENIUS_GENOBJ-N-CEN_13
1002
{
1000
OWNER
1000
GEN
1002
}
1001
GENIUS_GENODEF_13
1002
{
1000
HIER
1070
     0
1002
}
1002
{
1000
MANEDIT
1070
     0
1002
}
1002
{
1000
NOSEL
1070
     0
1002
}
1002
{
1000
BEHIND
1070
     0
1002
}
1002
{
1000
OTHER
1070
     0
1002
}
1002
{
1000
REACTOR
1002
}
1001
GENIUS_GENCEN_19
1002
{
1040
2.794
1002
}
  0
LINE
  5
51BB
330
1F
100
AcDbEntity
  8
0
100
AcDbLine
 10
292.0370411739872
 20
339.6155259014315
 30
0.0
 11
292.0370411739871
 21
340.1578349764954
 31
0.0
1001
GENIUS_GENOBJ-N-CEN_13
1002
{
1000
OWNER
1000
GEN
1002
}
1001
GENIUS_GENODEF_13
1002
{
1000
HIER
1070
     0
1002
}
1002
{
1000
MANEDIT
1070
     0
1002
}
1002
{
1000
NOSEL
1070
     0
1002
}
1002
{
1000
BEHIND
1070
     0
1002
}
1002
{
1000
OTHER
1070
     0
1002
}
1002
{
1000
REACTOR
1002
}
1001
GENIUS_GENCEN_19
1002
{
1040
2.794
1002
}
  0
LINE
  5
51BC
330
1F
100
AcDbEntity
  8
図面枠-ｷｲﾛ
100
AcDbLine
 10
292.0370411739871
 20
340.1578349764953
 30
0.0
 11
309.0370411739871
 21
340.1578349764954
 31
0.0
  0
ARC
  5
51BD
330
1F
100
AcDbEntity
  8
0
100
AcDbCircle
 10
300.5370411739872
 20
323.0953349764953
 30
0.0
 40
19.06249999999999
100
AcDbArc
 50
63.51896016962665
 51
116.4810398303733
  0
LINE
  5
51BE
330
1F
100
AcDbEntity
  8
AM_7
  6
AM_ISO08W050x2
 62
     1
370
    25
100
AcDbLine
 10
300.5370411739871
 20
344.9518349764953
 30
0.0
 11
300.5370411739871
 21
329.8939934375118
 31
0.0
1001
GENIUS_GENODEF_13
1002
{
1000
HIER
1070
     0
1002
}
1002
{
1000
MANEDIT
1070
     0
1002
}
1002
{
1000
NOSEL
1070
     0
1002
}
1002
{
1000
BEHIND
1070
     0
1002
}
1002
{
1000
OTHER
1070
     0
1002
}
1002
{
1000
REACTOR
1002
}
1001
GENIUS_GENOBJ-N-CEN_13
1002
{
1000
OWNER
1000
GEN
1002
}
1001
GENIUS_GENCEN_19
1002
{
1040
2.794
1002
}
  0
LINE
  5
51BF
330
1F
100
AcDbEntity
  8
AM_0
100
AcDbLine
 10
374.537041173987
 20
472.6610726472456
 30
0.0
 11
374.537041173987
 21
619.6610426472455
 31
0.0
  0
LINE
  5
51C0
330
1F
100
AcDbEntity
  8
0
100
AcDbLine
 10
374.537041173987
 20
620.1597961609734
 30
0.0
 11
364.467242180582
 21
619.8081510314963
 31
0.0
  0
LINE
  5
51C1
330
1F
100
AcDbEntity
  8
0
100
AcDbLine
 10
362.537041173987
 20
617.8093693774582
 30
0.0
 11
362.5370411739888
 21
474.5127459170332
 31
0.0
  0
ARC
  5
51C2
330
1F
100
AcDbEntity
  8
0
100
AcDbCircle
 10
364.537041173987
 20
617.8093693774582
 30
0.0
 40
2.0
100
AcDbArc
 50
92.00000000000034
 51
180.0
1001
GENIUS_GENODEF_13
1002
{
1000
HIER
1070
     0
1002
}
1002
{
1000
MANEDIT
1070
     0
1002
}
1002
{
1000
NOSEL
1070
     0
1002
}
1002
{
1000
BEHIND
1070
     0
1002
}
1002
{
1000
OTHER
1070
     0
1002
}
1002
{
1000
REACTOR
1002
}
1001
GENIUS_GENOBJ-N-FIL_13
1002
{
1000
OWNER
1000
GEN
1002
}
  0
LINE
  5
51C3
330
1F
100
AcDbEntity
  8
0
100
AcDbLine
 10
333.9115977998205
 20
588.2344628528515
 30
0.0
 11
293.6417252400515
 21
586.8282079157295
 31
0.0
  0
ARC
  5
51C4
330
1F
100
AcDbEntity
  8
0
100
AcDbCircle
 10
293.537026749944
 20
589.8263803967868
 30
0.0
 40
3.0
100
AcDbArc
 50
180.0
 51
272.0000000000004
1001
GENIUS_GENODEF_13
1002
{
1000
HIER
1070
     0
1002
}
1002
{
1000
MANEDIT
1070
     0
1002
}
1002
{
1000
NOSEL
1070
     0
1002
}
1002
{
1000
BEHIND
1070
     0
1002
}
1002
{
1000
OTHER
1070
     0
1002
}
1002
{
1000
REACTOR
1002
}
1001
GENIUS_GENOBJ-N-FIL_13
1002
{
1000
OWNER
1000
GEN
1002
}
  0
ARC
  5
51C5
330
1F
100
AcDbEntity
  8
0
100
AcDbCircle
 10
333.3881053492829
 20
603.2253252581378
 30
0.0
 40
15.0
100
AcDbArc
 50
272.0000000000004
 51
315.0
1001
GENIUS_GENODEF_13
1002
{
1000
HIER
1070
     0
1002
}
1002
{
1000
MANEDIT
1070
     0
1002
}
1002
{
1000
NOSEL
1070
     0
1002
}
1002
{
1000
BEHIND
1070
     0
1002
}
1002
{
1000
OTHER
1070
     0
1002
}
1002
{
1000
REACTOR
1002
}
1001
GENIUS_GENOBJ-N-FIL_13
1002
{
1000
OWNER
1000
GEN
1002
}
  0
LINE
  5
51C6
330
1F
100
AcDbEntity
  8
0
100
AcDbLine
 10
343.9947070670811
 20
592.6187235403396
 30
0.0
 11
361.0725750799196
 21
609.6965915531784
 31
0.0
  0
ARC
  5
51C7
330
1F
100
AcDbEntity
  8
0
100
AcDbCircle
 10
357.5370411739869
 20
613.2321254591111
 30
0.0
 40
5.0
100
AcDbArc
 50
315.0
 51
0.0
1001
GENIUS_GENODEF_13
1002
{
1000
HIER
1070
     0
1002
}
1002
{
1000
MANEDIT
1070
     0
1002
}
1002
{
1000
NOSEL
1070
     0
1002
}
1002
{
1000
BEHIND
1070
     0
1002
}
1002
{
1000
OTHER
1070
     0
1002
}
1002
{
1000
REACTOR
1002
}
1001
GENIUS_GENOBJ-N-FIL_13
1002
{
1000
OWNER
1000
GEN
1002
}
  0
LINE
  5
51C8
330
1F
100
AcDbEntity
  8
0
100
AcDbLine
 10
374.5370411739874
 20
472.162319133518
 30
0.0
 11
364.4672421805823
 21
472.5139642629951
 31
0.0
  0
ARC
  5
51C9
330
1F
100
AcDbEntity
  8
0
100
AcDbCircle
 10
364.5370411739872
 20
474.5127459170332
 30
0.0
 40
2.0
100
AcDbArc
 50
180.0
 51
267.9999999999997
1001
GENIUS_GENODEF_13
1002
{
1000
HIER
1070
     0
1002
}
1002
{
1000
MANEDIT
1070
     0
1002
}
1002
{
1000
NOSEL
1070
     0
1002
}
1002
{
1000
BEHIND
1070
     0
1002
}
1002
{
1000
OTHER
1070
     0
1002
}
1002
{
1000
REACTOR
1002
}
1001
GENIUS_GENOBJ-N-FIL_13
1002
{
1000
OWNER
1000
GEN
1002
}
  0
LINE
  5
51CA
330
1F
100
AcDbEntity
  8
0
100
AcDbLine
 10
333.9115977998207
 20
504.0876524416397
 30
0.0
 11
293.6417252400516
 21
505.4939073787616
 31
0.0
  0
ARC
  5
51CB
330
1F
100
AcDbEntity
  8
0
100
AcDbCircle
 10
293.5370267499441
 20
502.4957348977043
 30
0.0
 40
3.0
100
AcDbArc
 50
87.99999999999965
 51
180.0
1001
GENIUS_GENODEF_13
1002
{
1000
HIER
1070
     0
1002
}
1002
{
1000
MANEDIT
1070
     0
1002
}
1002
{
1000
NOSEL
1070
     0
1002
}
1002
{
1000
BEHIND
1070
     0
1002
}
1002
{
1000
OTHER
1070
     0
1002
}
1002
{
1000
REACTOR
1002
}
1001
GENIUS_GENOBJ-N-FIL_13
1002
{
1000
OWNER
1000
GEN
1002
}
  0
LINE
  5
51CC
330
1F
100
AcDbEntity
  8
0
100
AcDbLine
 10
343.9947070670813
 20
499.7033917541516
 30
0.0
 11
361.0725750799198
 21
482.625523741313
 31
0.0
  0
ARC
  5
51CD
330
1F
100
AcDbEntity
  8
0
100
AcDbCircle
 10
333.3881053492831
 20
489.0967900363533
 30
0.0
 40
15.0
100
AcDbArc
 50
45.0
 51
87.99999999999965
1001
GENIUS_GENODEF_13
1002
{
1000
HIER
1070
     0
1002
}
1002
{
1000
MANEDIT
1070
     0
1002
}
1002
{
1000
NOSEL
1070
     0
1002
}
1002
{
1000
BEHIND
1070
     0
1002
}
1002
{
1000
OTHER
1070
     0
1002
}
1002
{
1000
REACTOR
1002
}
1001
GENIUS_GENOBJ-N-FIL_13
1002
{
1000
OWNER
1000
GEN
1002
}
  0
ARC
  5
51CE
330
1F
100
AcDbEntity
  8
0
100
AcDbCircle
 10
357.5370411739871
 20
479.0899898353802
 30
0.0
 40
5.0
100
AcDbArc
 50
0.0
 51
45.0
1001
GENIUS_GENODEF_13
1002
{
1000
HIER
1070
     0
1002
}
1002
{
1000
MANEDIT
1070
     0
1002
}
1002
{
1000
NOSEL
1070
     0
1002
}
1002
{
1000
BEHIND
1070
     0
1002
}
1002
{
1000
OTHER
1070
     0
1002
}
1002
{
1000
REACTOR
1002
}
1001
GENIUS_GENOBJ-N-FIL_13
1002
{
1000
OWNER
1000
GEN
1002
}
  0
ARC
  5
51CF
330
1F
100
AcDbEntity
  8
AM_5
 62
     2
370
    35
100
AcDbCircle
 10
377.3310411739871
 20
546.1610576472456
 30
0.0
 40
48.4502085537012
100
AcDbArc
 50
135.0617711120834
 51
224.9382288879166
  0
ARC
  5
51D0
330
1F
100
AcDbEntity
  8
AM_5
 62
     2
370
    35
100
AcDbCircle
 10
339.495311076794
 20
508.4068218259963
 30
0.0
 40
5.0
100
AcDbArc
 50
267.9999999999997
 51
44.93822888791658
1001
GENIUS_GENOBJ-N-FIL_13
1002
{
1000
OWNER
1000
GEN
1002
}
1001
GENIUS_GENODEF_13
1002
{
1000
HIER
1070
     0
1002
}
1002
{
1000
MANEDIT
1070
     0
1002
}
1002
{
1000
NOSEL
1070
     0
1002
}
1002
{
1000
BEHIND
1070
     0
1002
}
1002
{
1000
OTHER
1070
     0
1002
}
1002
{
1000
REACTOR
1002
}
  0
ARC
  5
51D1
330
1F
100
AcDbEntity
  8
AM_5
 62
     2
370
    35
100
AcDbCircle
 10
339.4953110767941
 20
583.9152934684952
 30
0.0
 40
5.0
100
AcDbArc
 50
315.0617711120834
 51
92.00000000000034
1001
GENIUS_GENODEF_13
1002
{
1000
HIER
1070
     0
1002
}
1002
{
1000
MANEDIT
1070
     0
1002
}
1002
{
1000
NOSEL
1070
     0
1002
}
1002
{
1000
BEHIND
1070
     0
1002
}
1002
{
1000
OTHER
1070
     0
1002
}
1002
{
1000
REACTOR
1002
}
1001
GENIUS_GENOBJ-N-FIL_13
1002
{
1000
OWNER
1000
GEN
1002
}
  0
LINE
  5
51D2
330
1F
100
AcDbEntity
  8
AM_0
100
AcDbLine
 10
374.5371011739871
 20
607.7396891472455
 30
0.0
 11
362.5370411739871
 21
607.7396891472453
 31
0.0
  0
LINE
  5
51D3
330
1F
100
AcDbEntity
  8
AM_0
100
AcDbLine
 10
374.5371011739871
 20
585.6357161472455
 30
0.0
 11
362.5370411739874
 21
585.6357161472454
 31
0.0
  0
LINE
  5
51D4
330
1F
100
AcDbEntity
  8
AM_0
100
AcDbLine
 10
374.5371011739871
 20
506.6863721472454
 30
0.0
 11
362.5370411739884
 21
506.6863721472453
 31
0.0
  0
LINE
  5
51D5
330
1F
100
AcDbEntity
  8
AM_0
100
AcDbLine
 10
374.5371011739871
 20
484.5823961472454
 30
0.0
 11
362.5370411739887
 21
484.5823961472453
 31
0.0
  0
CIRCLE
  5
51D6
330
1F
100
AcDbEntity
  8
0
100
AcDbCircle
 10
300.5370411739871
 20
568.6610576472455
 30
0.0
 40
10.0
  0
LINE
  5
51D7
330
1F
100
AcDbEntity
  8
ﾁｭｳｼﾝｾﾝ1
 48
0.7
100
AcDbLine
 10
300.5370411739871
 20
581.6610576472455
 30
0.0
 11
300.537041173987
 21
555.6610576472455
 31
0.0
1001
GENIUS_GENODEF_13
1002
{
1000
HIER
1070
     0
1002
}
1002
{
1000
MANEDIT
1070
     0
1002
}
1002
{
1000
NOSEL
1070
     0
1002
}
1002
{
1000
BEHIND
1070
     0
1002
}
1002
{
1000
OTHER
1070
     0
1002
}
1002
{
1000
REACTOR
1002
}
1001
GENIUS_GENOBJ-N-CEN_13
1002
{
1000
OWNER
1000
GEN
1002
}
1001
GENIUS_GENCEN_19
1002
{
1040
3.0
1002
}
  0
LINE
  5
51D8
330
1F
100
AcDbEntity
  8
AM_0
100
AcDbLine
 10
299.537041173987
 20
573.6610576472456
 30
0.0
 11
299.537041173987
 21
563.6610576472455
 31
0.0
1001
GENIUS_GENODEF_13
1002
{
1000
HIER
1070
     0
1002
}
1002
{
1000
MANEDIT
1070
     0
1002
}
1002
{
1000
NOSEL
1070
     0
1002
}
1002
{
1000
BEHIND
1070
     0
1002
}
1002
{
1000
OTHER
1070
     0
1002
}
1002
{
1000
REACTOR
1002
}
1001
GENIUS_GENOBJ-N-CEN_13
1002
{
1000
OWNER
1000
GEN
1002
}
1001
GENIUS_GENCEN_19
1002
{
1040
3.0
1002
}
  0
LINE
  5
51D9
330
1F
100
AcDbEntity
  8
AM_0
100
AcDbLine
 10
301.537041173987
 20
573.6610576472456
 30
0.0
 11
301.537041173987
 21
563.6610576472455
 31
0.0
1001
GENIUS_GENODEF_13
1002
{
1000
HIER
1070
     0
1002
}
1002
{
1000
MANEDIT
1070
     0
1002
}
1002
{
1000
NOSEL
1070
     0
1002
}
1002
{
1000
BEHIND
1070
     0
1002
}
1002
{
1000
OTHER
1070
     0
1002
}
1002
{
1000
REACTOR
1002
}
1001
GENIUS_GENOBJ-N-CEN_13
1002
{
1000
OWNER
1000
GEN
1002
}
1001
GENIUS_GENCEN_19
1002
{
1040
3.0
1002
}
  0
CIRCLE
  5
51DA
330
1F
100
AcDbEntity
  8
AM_0
100
AcDbCircle
 10
300.5370411739871
 20
568.6610576472455
 30
0.0
 40
8.500000000000056
  0
CIRCLE
  5
51DB
330
1F
100
AcDbEntity
  8
AM_0
100
AcDbCircle
 10
300.5370411739871
 20
568.6610576472455
 30
0.0
 40
8.999999999999971
  0
ARC
  5
51DC
330
1F
100
AcDbEntity
  8
AM_0
100
AcDbCircle
 10
300.5370411739871
 20
573.6610576472456
 30
0.0
 40
1.0
100
AcDbArc
 50
0.0
 51
180.0
  0
ARC
  5
51DD
330
1F
100
AcDbEntity
  8
AM_0
100
AcDbCircle
 10
300.5370411739871
 20
563.6610576472455
 30
0.0
 40
1.0
100
AcDbArc
 50
180.0
 51
0.0
  0
LINE
  5
51DE
330
1F
100
AcDbEntity
  8
ﾁｭｳｼﾝｾﾝ1
 48
0.7
100
AcDbLine
 10
287.5370411739871
 20
568.6610576472455
 30
0.0
 11
313.5370411739871
 21
568.6610576472455
 31
0.0
1001
GENIUS_GENOBJ-N-CEN_13
1002
{
1000
OWNER
1000
GEN
1002
}
1001
GENIUS_GENODEF_13
1002
{
1000
HIER
1070
     0
1002
}
1002
{
1000
MANEDIT
1070
     0
1002
}
1002
{
1000
NOSEL
1070
     0
1002
}
1002
{
1000
BEHIND
1070
     0
1002
}
1002
{
1000
OTHER
1070
     0
1002
}
1002
{
1000
REACTOR
1002
}
1001
GENIUS_GENCEN_19
1002
{
1040
3.0
1002
}
  0
LINE
  5
51DF
330
1F
100
AcDbEntity
  8
0
100
AcDbLine
 10
274.5370411739871
 20
238.5483103595449
 30
0.0
 11
274.537041173987
 21
358.5483103595448
 31
0.0
  0
LINE
  5
51E0
330
1F
100
AcDbEntity
  8
0
100
AcDbLine
 10
290.5370411739871
 20
241.5483103595449
 30
0.0
 11
290.5370411739871
 21
355.5483103595448
 31
0.0
  0
LINE
  5
51E1
330
1F
100
AcDbEntity
  8
0
100
AcDbLine
 10
287.5370411739871
 20
358.5483103595448
 30
0.0
 11
274.537041173987
 21
358.5483103595448
 31
0.0
  0
LINE
  5
51E2
330
1F
100
AcDbEntity
  8
0
100
AcDbLine
 10
287.5370411739871
 20
238.5483103595449
 30
0.0
 11
274.5370411739871
 21
238.5483103595449
 31
0.0
  0
ARC
  5
51E3
330
1F
100
AcDbEntity
  8
AM_0
100
AcDbCircle
 10
287.5370411739872
 20
355.548310359545
 30
0.0
 40
3.0
100
AcDbArc
 50
359.9999999999968
 51
90.00000000000325
1001
GENIUS_GENOBJ-N-FIL_13
1002
{
1000
OWNER
1000
GEN
1002
}
1001
GENIUS_GENODEF_13
1002
{
1000
HIER
1070
     0
1002
}
1002
{
1000
MANEDIT
1070
     0
1002
}
1002
{
1000
NOSEL
1070
     0
1002
}
1002
{
1000
BEHIND
1070
     0
1002
}
1002
{
1000
OTHER
1070
     0
1002
}
1002
{
1000
REACTOR
1002
}
  0
ARC
  5
51E4
330
1F
100
AcDbEntity
  8
AM_0
100
AcDbCircle
 10
287.5370411739872
 20
241.548310359545
 30
0.0
 40
3.0
100
AcDbArc
 50
270.0
 51
0.0
1001
GENIUS_GENODEF_13
1002
{
1000
HIER
1070
     0
1002
}
1002
{
1000
MANEDIT
1070
     0
1002
}
1002
{
1000
NOSEL
1070
     0
1002
}
1002
{
1000
BEHIND
1070
     0
1002
}
1002
{
1000
OTHER
1070
     0
1002
}
1002
{
1000
REACTOR
1002
}
1001
GENIUS_GENOBJ-N-FIL_13
1002
{
1000
OWNER
1000
GEN
1002
}
  0
LINE
  5
51E5
330
1F
100
AcDbEntity
  8
0
100
AcDbLine
 10
274.537026749944
 20
486.1610576472448
 30
0.0
 11
274.5370267499439
 21
606.1610576472446
 31
0.0
  0
LINE
  5
51E6
330
1F
100
AcDbEntity
  8
0
100
AcDbLine
 10
290.537026749944
 20
489.1610576472447
 30
0.0
 11
290.5370267499439
 21
603.1610576472446
 31
0.0
  0
LINE
  5
51E7
330
1F
100
AcDbEntity
  8
0
100
AcDbLine
 10
287.537026749944
 20
606.1610576472446
 30
0.0
 11
274.5370267499439
 21
606.1610576472446
 31
0.0
  0
LINE
  5
51E8
330
1F
100
AcDbEntity
  8
0
100
AcDbLine
 10
287.537026749944
 20
486.1610576472448
 30
0.0
 11
274.537026749944
 21
486.1610576472448
 31
0.0
  0
ARC
  5
51E9
330
1F
100
AcDbEntity
  8
AM_0
100
AcDbCircle
 10
287.5370267499441
 20
603.1610576472449
 30
0.0
 40
3.0
100
AcDbArc
 50
359.9999999999968
 51
90.00000000000325
1001
GENIUS_GENOBJ-N-FIL_13
1002
{
1000
OWNER
1000
GEN
1002
}
1001
GENIUS_GENODEF_13
1002
{
1000
HIER
1070
     0
1002
}
1002
{
1000
MANEDIT
1070
     0
1002
}
1002
{
1000
NOSEL
1070
     0
1002
}
1002
{
1000
BEHIND
1070
     0
1002
}
1002
{
1000
OTHER
1070
     0
1002
}
1002
{
1000
REACTOR
1002
}
  0
ARC
  5
51EA
330
1F
100
AcDbEntity
  8
AM_0
100
AcDbCircle
 10
287.5370267499441
 20
489.1610576472449
 30
0.0
 40
3.0
100
AcDbArc
 50
270.0
 51
0.0
1001
GENIUS_GENODEF_13
1002
{
1000
HIER
1070
     0
1002
}
1002
{
1000
MANEDIT
1070
     0
1002
}
1002
{
1000
NOSEL
1070
     0
1002
}
1002
{
1000
BEHIND
1070
     0
1002
}
1002
{
1000
OTHER
1070
     0
1002
}
1002
{
1000
REACTOR
1002
}
1001
GENIUS_GENOBJ-N-FIL_13
1002
{
1000
OWNER
1000
GEN
1002
}
  0
ENDSEC
  0
SECTION
  2
OBJECTS
  0
DICTIONARY
  5
C
330
0
100
AcDbDictionary
281
     1
  3
ACAD_COLOR
350
2196
  3
ACAD_GROUP
350
D
  3
ACAD_LAYOUT
350
1A
  3
ACAD_MATERIAL
350
2195
  3
ACAD_MLINESTYLE
350
17
  3
ACAD_PLOTSETTINGS
350
19
  3
ACAD_PLOTSTYLENAME
350
E
  3
ACAD_TABLESTYLE
350
2197
  3
AcadDim
350
14B1
  3
ACDBHEADERROUNDTRIPXREC
350
5233
  3
AcDbVariableDictionary
350
34
  3
AcmDictionary
350
47
  3
AMG
350
2B
  3
AMGSNAPSETTINGS
350
81
  3
ASE_INDEX_DICTIONARY
350
2D7B
  3
DWGPROPS
350
5232
  0
DICTIONARY
  5
2D9C
330
2
100
AcDbDictionary
280
     1
281
     1
  3
ACAD_LAYERSTATES
360
2D9D
  0
DICTIONARY
  5
CC
330
1F
100
AcDbDictionary
280
     1
281
     1
  3
ACAD_SORTENTS
360
2D4D
  0
DICTIONARY
  5
2196
102
{ACAD_REACTORS
330
C
102
}
330
C
100
AcDbDictionary
281
     1
  0
DICTIONARY
  5
D
102
{ACAD_REACTORS
330
C
102
}
330
C
100
AcDbDictionary
281
     1
  0
DICTIONARY
  5
1A
102
{ACAD_REACTORS
330
C
102
}
330
C
100
AcDbDictionary
281
     1
  3
Model
350
22
  3
ﾚｲｱｳﾄ1
350
1E
  3
ﾚｲｱｳﾄ2
350
26
  0
DICTIONARY
  5
2195
102
{ACAD_REACTORS
330
C
102
}
330
C
100
AcDbDictionary
281
     1
  0
DICTIONARY
  5
17
102
{ACAD_REACTORS
330
C
102
}
330
C
100
AcDbDictionary
281
     1
  3
Standard
350
18
  0
DICTIONARY
  5
19
102
{ACAD_REACTORS
330
C
102
}
330
C
100
AcDbDictionary
281
     1
  3
A1
350
7A0
  3
A2
350
7A1
  3
A3外形図
350
7A2
  3
A3部品図
350
7A3
  3
A4外形図
350
7A4
  3
A4製造仕様書
350
7A5
  3
A4部品図
350
7A6
  0
ACDBDICTIONARYWDFLT
  5
E
102
{ACAD_REACTORS
330
C
102
}
330
C
100
AcDbDictionary
281
     1
  3
Normal
350
F
100
AcDbDictionaryWithDefault
340
F
  0
DICTIONARY
  5
2197
102
{ACAD_REACTORS
330
C
102
}
330
C
100
AcDbDictionary
281
     1
  3
Standard
350
2198
  0
XRECORD
  5
14B1
102
{ACAD_REACTORS
330
C
102
}
330
C
100
AcDbXrecord
280
     1
 90
   990106
  3

 60
     0
 61
     0
 62
     4
 63
     4
 64
     1
 65
     0
 66
     0
 67
     3
 68
     1
 69
     0
 70
     0
 71
     0
 72
     0
 40
0.0
170
     0
  0
DICTIONARY
  5
5233
102
{ACAD_REACTORS
330
C
102
}
330
C
100
AcDbDictionary
281
     1
  0
DICTIONARY
  5
34
102
{ACAD_REACTORS
330
C
102
}
330
C
100
AcDbDictionary
281
     1
  3
CTABLESTYLE
350
22C6
  3
DIMASSOC
350
522F
  3
INDEXCTL
350
35
  3
PROJECTNAME
350
5230
  0
DICTIONARY
  5
47
102
{ACAD_REACTORS
330
C
102
}
330
C
100
AcDbDictionary
281
     1
  3
AcmStdDictionary
350
4C
  3
AMDTSECTSYM_ARROWCOLOR
350
21A4
  0
DICTIONARY
  5
2B
102
{ACAD_REACTORS
330
C
102
}
330
C
100
AcDbDictionary
281
     1
  0
DICTIONARY
  5
81
102
{ACAD_REACTORS
330
C
102
}
330
C
100
AcDbDictionary
281
     1
  0
DICTIONARY
  5
2D7B
102
{ACAD_REACTORS
330
C
102
}
330
C
100
AcDbDictionary
281
     1
  3
ASEBlockHierarchyIndexRecord
350
2D7C
1001
DCO15
1040
1618998178.717
  0
XRECORD
  5
5232
102
{ACAD_REACTORS
330
C
102
}
330
C
100
AcDbXrecord
280
     1
  1
DWGPROPS COOKIE
  2

  3

  4

  6

  7

  8

  9

300
AmdtFileType=84
301
=
302
=
303
=
304
=
305
=
306
=
307
=
308
=
309
=
 40
0.4916440393518519
 41
2452065.605619213
 42
2454770.873692466
  1

 90
        1
  0
DICTIONARY
  5
2D9D
102
{ACAD_REACTORS
330
2D9C
102
}
330
2D9C
100
AcDbDictionary
281
     1
  0
SORTENTSTABLE
  5
2D4D
102
{ACAD_REACTORS
330
CC
102
}
330
CC
100
AcDbSortentsTable
330
1F
  0
LAYOUT
  5
22
102
{ACAD_XDICTIONARY
360
5236
102
}
102
{ACAD_REACTORS
330
1A
102
}
330
1A
100
AcDbPlotSettings
  1

  2
\\XSERIES235\Canon LASER SHOT LBP-910
  4
A4
  6
AM_VIEW1
 40
5.873749732971191
 41
5.873747825622558
 42
5.873748779296875
 43
5.873748779296875
 44
209.9733276367187
 45
296.9259948730469
 46
0.0
 47
0.34
 48
0.0
 49
0.0
140
0.0
141
0.0
142
1.0
143
3.0
 70
 11936
 72
     1
 73
     1
 74
     2
  7
acad1.ctb
 75
     0
147
0.3341282932256912
148
0.0
149
0.0
100
AcDbLayout
  1
Model
 70
     1
 71
     0
 10
0.0
 20
0.0
 11
12.0
 21
9.0
 12
0.0
 22
0.0
 32
0.0
 14
0.0
 24
0.0
 34
0.0
 15
0.0
 25
0.0
 35
0.0
146
0.0
 13
0.0
 23
0.0
 33
0.0
 16
1.0
 26
0.0
 36
0.0
 17
0.0
 27
1.0
 37
0.0
 76
     0
330
1F
1001
ACAD_PSEXT
1000
\\XSERIES235\Canon LASER SHOT LBP-910
1000
Canon LASER SHOT LBP-910
1000
\\XSERIES235
1000

1070
     0
  0
LAYOUT
  5
1E
102
{ACAD_XDICTIONARY
360
5234
102
}
102
{ACAD_REACTORS
330
1A
102
}
330
1A
100
AcDbPlotSettings
  1

  2
\\FHKSV01\RICOH imagio MF2700(FAX)
  4

  6

 40
0.0
 41
0.0
 42
0.0
 43
0.0
 44
0.0
 45
0.0
 46
0.0
 47
0.0
 48
0.0
 49
0.0
140
0.0
141
0.0
142
1.0
143
1.0
 70
   688
 72
     0
 73
     0
 74
     5
  7
acad1.ctb
 75
    16
147
1.0
148
0.0
149
0.0
100
AcDbLayout
  1
ﾚｲｱｳﾄ1
 70
     1
 71
     1
 10
0.0
 20
0.0
 11
420.0
 21
297.0
 12
0.0
 22
0.0
 32
0.0
 14
1.000000000000000E+20
 24
1.000000000000000E+20
 34
1.000000000000000E+20
 15
-1.000000000000000E+20
 25
-1.000000000000000E+20
 35
-1.000000000000000E+20
146
0.0
 13
0.0
 23
0.0
 33
0.0
 16
1.0
 26
0.0
 36
0.0
 17
0.0
 27
1.0
 37
0.0
 76
     0
330
1B
  0
LAYOUT
  5
26
102
{ACAD_XDICTIONARY
360
5238
102
}
102
{ACAD_REACTORS
330
1A
102
}
330
1A
100
AcDbPlotSettings
  1

  2
\\FHKSV01\RICOH imagio MF2700(FAX)
  4

  6

 40
0.0
 41
0.0
 42
0.0
 43
0.0
 44
0.0
 45
0.0
 46
0.0
 47
0.0
 48
0.0
 49
0.0
140
0.0
141
0.0
142
1.0
143
1.0
 70
   688
 72
     0
 73
     0
 74
     5
  7
acad1.ctb
 75
    16
147
1.0
148
0.0
149
0.0
100
AcDbLayout
  1
ﾚｲｱｳﾄ2
 70
     1
 71
     2
 10
0.0
 20
0.0
 11
12.0
 21
9.0
 12
0.0
 22
0.0
 32
0.0
 14
0.0
 24
0.0
 34
0.0
 15
0.0
 25
0.0
 35
0.0
146
0.0
 13
0.0
 23
0.0
 33
0.0
 16
1.0
 26
0.0
 36
0.0
 17
0.0
 27
1.0
 37
0.0
 76
     0
330
23
  0
MLINESTYLE
  5
18
102
{ACAD_REACTORS
330
17
102
}
330
17
100
AcDbMlineStyle
  2
STANDARD
 70
     0
  3

 62
   256
 51
90.0
 52
90.0
 71
     2
 49
0.5
 62
   256
  6
BYLAYER
 49
-0.5
 62
   256
  6
BYLAYER
  0
PLOTSETTINGS
  5
7A0
102
{ACAD_XDICTIONARY
360
523A
102
}
102
{ACAD_REACTORS
330
19
102
}
330
19
100
AcDbPlotSettings
  1
A1
  2
\\NETFINITY_5500\HP DesignJet 750C+ (D/A1) by HP)
  4
User267
  6

 40
17.76941680908203
 41
5.789102554321289
 42
17.7694091796875
 43
5.7890625
 44
840.9093017578125
 45
593.97900390625
 46
2.0
 47
13.0
 48
0.0
 49
0.0
140
0.0
141
0.0
142
1.0
143
1.0
 70
  1712
 72
     1
 73
     0
 74
     1
  7
acad.ctb
 75
    16
147
1.0
148
0.0100416569983963
149
0.0078848243487073
  0
PLOTSETTINGS
  5
7A1
102
{ACAD_XDICTIONARY
360
523C
102
}
102
{ACAD_REACTORS
330
19
102
}
330
19
100
AcDbPlotSettings
  1
A2
  2
\\NETFINITY_5500\HP DesignJet 750C+ (D/A1) by HP)
  4
User266
  6

 40
5.78908348083496
 41
17.76940155029297
 42
5.78912353515625
 43
17.7694091796875
 44
593.97900390625
 45
419.9466552734374
 46
12.0
 47
0.0
 48
0.0
 49
0.0
140
0.0
141
0.0
142
1.0
143
1.0
 70
  1712
 72
     1
 73
     0
 74
     1
  7
acad.ctb
 75
    16
147
1.0
148
0.0100416569983963
149
0.0078848243487073
  0
PLOTSETTINGS
  5
7A2
102
{ACAD_XDICTIONARY
360
523E
102
}
102
{ACAD_REACTORS
330
19
102
}
330
19
100
AcDbPlotSettings
  1
A3外形図
  2
\\NETFINITY_5500\Canon LASER SHOT LBP-910
  4
A3
  6

 40
5.873749732971191
 41
5.873747825622558
 42
5.873748779296875
 43
5.873748779296875
 44
296.9259948730469
 45
419.9466552734374
 46
0.0
 47
15.0
 48
0.0
 49
0.0
140
0.0
141
0.0
142
1.0
143
1.0
 70
  1712
 72
     1
 73
     1
 74
     1
  7
acad1.ctb
 75
    16
147
1.0
148
0.0024839861629289
149
0.0093761313144114
  0
PLOTSETTINGS
  5
7A3
102
{ACAD_XDICTIONARY
360
5240
102
}
102
{ACAD_REACTORS
330
19
102
}
330
19
100
AcDbPlotSettings
  1
A3部品図
  2
\\NETFINITY_5500\Canon LASER SHOT LBP-910
  4
A3
  6

 40
5.873749732971191
 41
5.873747825622558
 42
5.873748779296875
 43
5.873748779296875
 44
296.9259948730469
 45
419.9466552734374
 46
0.0
 47
0.0
 48
0.0
 49
0.0
140
0.0
141
0.0
142
1.0
143
1.0
 70
  1712
 72
     1
 73
     1
 74
     1
  7
acad1.ctb
 75
    16
147
1.0
148
0.0024839861629289
149
0.0093761313144114
  0
PLOTSETTINGS
  5
7A4
102
{ACAD_XDICTIONARY
360
5242
102
}
102
{ACAD_REACTORS
330
19
102
}
330
19
100
AcDbPlotSettings
  1
A4外形図
  2
\\NETFINITY_5500\Canon LASER SHOT LBP-910
  4
A4
  6

 40
5.873749732971191
 41
5.873747825622558
 42
5.873748779296875
 43
5.873748779296875
 44
209.9733276367187
 45
296.9259948730469
 46
0.0
 47
0.0
 48
0.0
 49
0.0
140
0.0
141
0.0
142
1.0
143
1.0
 70
  1712
 72
     1
 73
     1
 74
     1
  7
acad1.ctb
 75
    16
147
1.0
148
0.0115486965655691
149
0.0124955963574962
  0
PLOTSETTINGS
  5
7A5
102
{ACAD_XDICTIONARY
360
5244
102
}
102
{ACAD_REACTORS
330
19
102
}
330
19
100
AcDbPlotSettings
  1
A4製造仕様書
  2
\\NETFINITY_5500\Canon LASER SHOT LBP-910
  4
A4
  6

 40
5.873749732971191
 41
5.873747825622558
 42
5.873748779296875
 43
5.873748779296875
 44
209.9733276367187
 45
296.9259948730469
 46
15.0
 47
0.0
 48
0.0
 49
0.0
140
0.0
141
0.0
142
1.0
143
1.0
 70
  1712
 72
     1
 73
     0
 74
     1
  7
acad1.ctb
 75
    16
147
1.0
148
0.0115486965655691
149
7.86079562315183
  0
PLOTSETTINGS
  5
7A6
102
{ACAD_XDICTIONARY
360
5246
102
}
102
{ACAD_REACTORS
330
19
102
}
330
19
100
AcDbPlotSettings
  1
A4部品図
  2
\\NETFINITY_5500\Canon LASER SHOT LBP-910
  4
A4
  6

 40
5.873749732971191
 41
5.873747825622558
 42
5.873748779296875
 43
5.873748779296875
 44
209.9733276367187
 45
296.9259948730469
 46
0.0
 47
0.0
 48
0.0
 49
0.0
140
0.0
141
0.0
142
1.0
143
1.0
 70
  1712
 72
     1
 73
     0
 74
     1
  7
acad1.ctb
 75
    16
147
1.0
148
0.0115486965655691
149
0.0124955963574962
  0
ACDBPLACEHOLDER
  5
F
102
{ACAD_REACTORS
330
E
102
}
330
E
  0
TABLESTYLE
  5
2198
102
{ACAD_REACTORS
330
2197
102
}
330
2197
100
AcDbTableStyle
  3
Standard
 70
     0
 71
     0
 40
1.5
 41
1.5
280
     0
281
     0
  7
STANDARD
140
4.5
170
     2
 62
     0
 63
     7
283
     0
274
    -2
284
     1
 64
     0
275
    -2
285
     1
 65
     0
276
    -2
286
     1
 66
     0
277
    -2
287
     1
 67
     0
278
    -2
288
     1
 68
     0
279
    -2
289
     1
 69
     0
  7
STANDARD
140
6.0
170
     5
 62
     0
 63
     7
283
     0
274
    -2
284
     1
 64
     0
275
    -2
285
     1
 65
     0
276
    -2
286
     1
 66
     0
277
    -2
287
     1
 67
     0
278
    -2
288
     1
 68
     0
279
    -2
289
     1
 69
     0
  7
STANDARD
140
4.5
170
     5
 62
     0
 63
     7
283
     0
274
    -2
284
     1
 64
     0
275
    -2
285
     1
 65
     0
276
    -2
286
     1
 66
     0
277
    -2
287
     1
 67
     0
278
    -2
288
     1
 68
     0
279
    -2
289
     1
 69
     0
  0
DICTIONARYVAR
  5
22C6
102
{ACAD_REACTORS
330
34
102
}
330
34
100
DictionaryVariables
280
     0
  1
STANDARD
  0
DICTIONARYVAR
  5
522F
102
{ACAD_REACTORS
330
34
102
}
330
34
100
DictionaryVariables
280
     0
  1
1
  0
DICTIONARYVAR
  5
35
102
{ACAD_REACTORS
330
34
102
}
330
34
100
DictionaryVariables
280
     0
  1
0
  0
DICTIONARYVAR
  5
5230
102
{ACAD_REACTORS
330
34
102
}
330
34
100
DictionaryVariables
280
     0
  1

  0
DICTIONARY
  5
4C
102
{ACAD_REACTORS
330
47
102
}
330
47
100
AcDbDictionary
281
     1
  0
XRECORD
  5
21A4
102
{ACAD_REACTORS
330
47
102
}
330
47
100
AcDbXrecord
280
     1
 90
-1023410169
  0
XRECORD
  5
2D7C
102
{ACAD_REACTORS
330
2D7B
102
}
330
2D7B
100
AcDbXrecord
280
     1
330
0
330
0
330
0
330
0
330
0
330
0
330
0
330
0
330
0
330
0
330
0
330
0
330
0
330
0
330
0
330
0
330
0
330
0
330
0
330
0
330
0
330
0
330
0
330
0
330
0
330
0
330
0
330
0
330
0
330
0
330
0
330
0
330
0
330
0
330
0
330
0
330
0
330
0
330
0
330
0
330
0
330
0
330
0
330
0
330
0
330
0
330
0
330
0
330
0
330
0
330
0
330
0
330
0
330
0
330
0
330
0
330
0
330
0
330
0
330
0
  0
DICTIONARY
  5
5236
330
22
100
AcDbDictionary
280
     1
281
     1
  3
ACAD_XREC_ROUNDTRIP
360
5237
  0
DICTIONARY
  5
5234
330
1E
100
AcDbDictionary
280
     1
281
     1
  3
ACAD_XREC_ROUNDTRIP
360
5235
  0
DICTIONARY
  5
5238
330
26
100
AcDbDictionary
280
     1
281
     1
  3
ACAD_XREC_ROUNDTRIP
360
5239
  0
DICTIONARY
  5
523A
330
7A0
100
AcDbDictionary
280
     1
281
     1
  3
ACAD_XREC_ROUNDTRIP
360
523B
  0
DICTIONARY
  5
523C
330
7A1
100
AcDbDictionary
280
     1
281
     1
  3
ACAD_XREC_ROUNDTRIP
360
523D
  0
DICTIONARY
  5
523E
330
7A2
100
AcDbDictionary
280
     1
281
     1
  3
ACAD_XREC_ROUNDTRIP
360
523F
  0
DICTIONARY
  5
5240
330
7A3
100
AcDbDictionary
280
     1
281
     1
  3
ACAD_XREC_ROUNDTRIP
360
5241
  0
DICTIONARY
  5
5242
330
7A4
100
AcDbDictionary
280
     1
281
     1
  3
ACAD_XREC_ROUNDTRIP
360
5243
  0
DICTIONARY
  5
5244
330
7A5
100
AcDbDictionary
280
     1
281
     1
  3
ACAD_XREC_ROUNDTRIP
360
5245
  0
DICTIONARY
  5
5246
330
7A6
100
AcDbDictionary
280
     1
281
     1
  3
ACAD_XREC_ROUNDTRIP
360
5247
  0
XRECORD
  5
5237
102
{ACAD_REACTORS
330
5236
102
}
330
5236
100
AcDbXrecord
280
     1
102
SHADEPLOT
 70
     0
102
SHADEPLOTRESLEVEL
 70
     2
102
SHADEPLOTCUSTOMDPI
 70
   300
  0
XRECORD
  5
5235
102
{ACAD_REACTORS
330
5234
102
}
330
5234
100
AcDbXrecord
280
     1
102
SHADEPLOT
 70
     0
102
SHADEPLOTRESLEVEL
 70
     2
102
SHADEPLOTCUSTOMDPI
 70
   300
  0
XRECORD
  5
5239
102
{ACAD_REACTORS
330
5238
102
}
330
5238
100
AcDbXrecord
280
     1
102
SHADEPLOT
 70
     0
102
SHADEPLOTRESLEVEL
 70
     2
102
SHADEPLOTCUSTOMDPI
 70
   300
  0
XRECORD
  5
523B
102
{ACAD_REACTORS
330
523A
102
}
330
523A
100
AcDbXrecord
280
     1
102
SHADEPLOT
 70
     0
102
SHADEPLOTRESLEVEL
 70
     2
102
SHADEPLOTCUSTOMDPI
 70
   300
  0
XRECORD
  5
523D
102
{ACAD_REACTORS
330
523C
102
}
330
523C
100
AcDbXrecord
280
     1
102
SHADEPLOT
 70
     0
102
SHADEPLOTRESLEVEL
 70
     2
102
SHADEPLOTCUSTOMDPI
 70
   300
  0
XRECORD
  5
523F
102
{ACAD_REACTORS
330
523E
102
}
330
523E
100
AcDbXrecord
280
     1
102
SHADEPLOT
 70
     0
102
SHADEPLOTRESLEVEL
 70
     2
102
SHADEPLOTCUSTOMDPI
 70
   300
  0
XRECORD
  5
5241
102
{ACAD_REACTORS
330
5240
102
}
330
5240
100
AcDbXrecord
280
     1
102
SHADEPLOT
 70
     0
102
SHADEPLOTRESLEVEL
 70
     2
102
SHADEPLOTCUSTOMDPI
 70
   300
  0
XRECORD
  5
5243
102
{ACAD_REACTORS
330
5242
102
}
330
5242
100
AcDbXrecord
280
     1
102
SHADEPLOT
 70
     0
102
SHADEPLOTRESLEVEL
 70
     2
102
SHADEPLOTCUSTOMDPI
 70
   300
  0
XRECORD
  5
5245
102
{ACAD_REACTORS
330
5244
102
}
330
5244
100
AcDbXrecord
280
     1
102
SHADEPLOT
 70
     0
102
SHADEPLOTRESLEVEL
 70
     2
102
SHADEPLOTCUSTOMDPI
 70
   300
  0
XRECORD
  5
5247
102
{ACAD_REACTORS
330
5246
102
}
330
5246
100
AcDbXrecord
280
     1
102
SHADEPLOT
 70
     0
102
SHADEPLOTRESLEVEL
 70
     2
102
SHADEPLOTCUSTOMDPI
 70
   300
  0
ENDSEC
  0
EOF
