  0
SECTION
  2
HEADER
  9
$ACADVER
  1
AC1015
  9
$ACADMAINTVER
 70
    20
  9
$DWGCODEPAGE
  3
ANSI_932
  9
$INSBASE
 10
0.0
 20
0.0
 30
0.0
  9
$EXTMIN
 10
343.8692352276635
 20
262.245495865089
 30
-0.0015258207003583
  9
$EXTMAX
 10
1038.709780366055
 20
802.8328291064735
 30
0.0000000349246037
  9
$LIMMIN
 10
0.0
 20
0.0
  9
$LIMMAX
 10
1138.0
 20
740.0000000000001
  9
$ORTHOMODE
 70
     0
  9
$REGENMODE
 70
     1
  9
$FILLMODE
 70
     1
  9
$QTEXTMODE
 70
     0
  9
$MIRRTEXT
 70
     0
  9
$LTSCALE
 40
4.0
  9
$ATTMODE
 70
     1
  9
$TEXTSIZE
 40
2.5
  9
$TRACEWID
 40
1.0
  9
$TEXTSTYLE
  7
STANDARD
  9
$CLAYER
  8
0
  9
$CELTYPE
  6
ByLayer
  9
$CECOLOR
 62
   256
  9
$CELTSCALE
 40
1.0
  9
$DISPSILH
 70
     0
  9
$DIMSCALE
 40
1.0
  9
$DIMASZ
 40
2.0
  9
$DIMEXO
 40
1.0
  9
$DIMDLI
 40
8.0
  9
$DIMRND
 40
0.0
  9
$DIMDLE
 40
0.0
  9
$DIMEXE
 40
1.0
  9
$DIMTP
 40
0.1
  9
$DIMTM
 40
0.1
  9
$DIMTXT
 40
2.5
  9
$DIMCEN
 40
0.0
  9
$DIMTSZ
 40
0.0
  9
$DIMTOL
 70
     0
  9
$DIMLIM
 70
     0
  9
$DIMTIH
 70
     0
  9
$DIMTOH
 70
     0
  9
$DIMSE1
 70
     0
  9
$DIMSE2
 70
     0
  9
$DIMTAD
 70
     3
  9
$DIMZIN
 70
     8
  9
$DIMBLK
  1

  9
$DIMASO
 70
     1
  9
$DIMSHO
 70
     1
  9
$DIMPOST
  1

  9
$DIMAPOST
  1
"
  9
$DIMALT
 70
     0
  9
$DIMALTD
 70
     2
  9
$DIMALTF
 40
0.0393701
  9
$DIMLFAC
 40
1.0
  9
$DIMTOFL
 70
     1
  9
$DIMTVP
 40
0.0
  9
$DIMTIX
 70
     0
  9
$DIMSOXD
 70
     0
  9
$DIMSAH
 70
     0
  9
$DIMBLK1
  1

  9
$DIMBLK2
  1

  9
$DIMSTYLE
  2
AM_JIS
  9
$DIMCLRD
 70
     2
  9
$DIMCLRE
 70
     2
  9
$DIMCLRT
 70
     4
  9
$DIMTFAC
 40
0.71
  9
$DIMGAP
 40
1.5
  9
$DIMJUST
 70
     0
  9
$DIMSD1
 70
     0
  9
$DIMSD2
 70
     0
  9
$DIMTOLJ
 70
     0
  9
$DIMTZIN
 70
     8
  9
$DIMALTZ
 70
     0
  9
$DIMALTTZ
 70
     0
  9
$DIMUPT
 70
     0
  9
$DIMDEC
 70
     2
  9
$DIMTDEC
 70
     2
  9
$DIMALTU
 70
     2
  9
$DIMALTTD
 70
     2
  9
$DIMTXSTY
  7
STANDARD
  9
$DIMAUNIT
 70
     0
  9
$DIMADEC
 70
     0
  9
$DIMALTRND
 40
0.0
  9
$DIMAZIN
 70
     2
  9
$DIMDSEP
 70
    46
  9
$DIMATFIT
 70
     3
  9
$DIMFRAC
 70
     0
  9
$DIMLDRBLK
  1

  9
$DIMLUNIT
 70
     2
  9
$DIMLWD
 70
    35
  9
$DIMLWE
 70
    35
  9
$DIMTMOVE
 70
     0
  9
$LUNITS
 70
     2
  9
$LUPREC
 70
     2
  9
$SKETCHINC
 40
1.0
  9
$FILLETRAD
 40
10.0
  9
$AUNITS
 70
     0
  9
$AUPREC
 70
     0
  9
$MENU
  1
.
  9
$ELEVATION
 40
0.0
  9
$PELEVATION
 40
0.0
  9
$THICKNESS
 40
0.0
  9
$LIMCHECK
 70
     0
  9
$CHAMFERA
 40
10.0
  9
$CHAMFERB
 40
10.0
  9
$CHAMFERC
 40
0.0
  9
$CHAMFERD
 40
0.0
  9
$SKPOLY
 70
     0
  9
$TDCREATE
 40
2454573.602460845
  9
$TDUCREATE
 40
2454573.227460845
  9
$TDUPDATE
 40
2454770.875748542
  9
$TDUUPDATE
 40
2454770.500748542
  9
$TDINDWG
 40
0.0359412384
  9
$TDUSRTIMER
 40
0.0359410532
  9
$USRTIMER
 70
     1
  9
$ANGBASE
 50
0.0
  9
$ANGDIR
 70
     0
  9
$PDMODE
 70
     0
  9
$PDSIZE
 40
0.0
  9
$PLINEWID
 40
0.0
  9
$SPLFRAME
 70
     0
  9
$SPLINETYPE
 70
     6
  9
$SPLINESEGS
 70
     8
  9
$HANDSEED
  5
13BB
  9
$SURFTAB1
 70
     6
  9
$SURFTAB2
 70
     6
  9
$SURFTYPE
 70
     6
  9
$SURFU
 70
     6
  9
$SURFV
 70
     6
  9
$UCSBASE
  2

  9
$UCSNAME
  2

  9
$UCSORG
 10
0.0
 20
0.0
 30
0.0
  9
$UCSXDIR
 10
1.0
 20
0.0
 30
0.0
  9
$UCSYDIR
 10
0.0
 20
1.0
 30
0.0
  9
$UCSORTHOREF
  2

  9
$UCSORTHOVIEW
 70
     0
  9
$UCSORGTOP
 10
0.0
 20
0.0
 30
0.0
  9
$UCSORGBOTTOM
 10
0.0
 20
0.0
 30
0.0
  9
$UCSORGLEFT
 10
0.0
 20
0.0
 30
0.0
  9
$UCSORGRIGHT
 10
0.0
 20
0.0
 30
0.0
  9
$UCSORGFRONT
 10
0.0
 20
0.0
 30
0.0
  9
$UCSORGBACK
 10
0.0
 20
0.0
 30
0.0
  9
$PUCSBASE
  2

  9
$PUCSNAME
  2

  9
$PUCSORG
 10
0.0
 20
0.0
 30
0.0
  9
$PUCSXDIR
 10
1.0
 20
0.0
 30
0.0
  9
$PUCSYDIR
 10
0.0
 20
1.0
 30
0.0
  9
$PUCSORTHOREF
  2

  9
$PUCSORTHOVIEW
 70
     0
  9
$PUCSORGTOP
 10
0.0
 20
0.0
 30
0.0
  9
$PUCSORGBOTTOM
 10
0.0
 20
0.0
 30
0.0
  9
$PUCSORGLEFT
 10
0.0
 20
0.0
 30
0.0
  9
$PUCSORGRIGHT
 10
0.0
 20
0.0
 30
0.0
  9
$PUCSORGFRONT
 10
0.0
 20
0.0
 30
0.0
  9
$PUCSORGBACK
 10
0.0
 20
0.0
 30
0.0
  9
$USERI1
 70
     0
  9
$USERI2
 70
     0
  9
$USERI3
 70
     0
  9
$USERI4
 70
     0
  9
$USERI5
 70
     0
  9
$USERR1
 40
0.0
  9
$USERR2
 40
0.0
  9
$USERR3
 40
0.0
  9
$USERR4
 40
0.0
  9
$USERR5
 40
0.0
  9
$WORLDVIEW
 70
     1
  9
$SHADEDGE
 70
     3
  9
$SHADEDIF
 70
    70
  9
$TILEMODE
 70
     1
  9
$MAXACTVP
 70
    64
  9
$PINSBASE
 10
0.0
 20
0.0
 30
0.0
  9
$PLIMCHECK
 70
     0
  9
$PEXTMIN
 10
1.000000000000000E+20
 20
1.000000000000000E+20
 30
1.000000000000000E+20
  9
$PEXTMAX
 10
-1.000000000000000E+20
 20
-1.000000000000000E+20
 30
-1.000000000000000E+20
  9
$PLIMMIN
 10
0.0
 20
0.0
  9
$PLIMMAX
 10
420.0
 20
297.0
  9
$UNITMODE
 70
     0
  9
$VISRETAIN
 70
     1
  9
$PLINEGEN
 70
     0
  9
$PSLTSCALE
 70
     1
  9
$TREEDEPTH
 70
  3020
  9
$CMLSTYLE
  2
Standard
  9
$CMLJUST
 70
     0
  9
$CMLSCALE
 40
20.0
  9
$PROXYGRAPHICS
 70
     1
  9
$MEASUREMENT
 70
     1
  9
$CELWEIGHT
370
    -1
  9
$ENDCAPS
280
     0
  9
$JOINSTYLE
280
     0
  9
$LWDISPLAY
290
     0
  9
$INSUNITS
 70
     4
  9
$HYPERLINKBASE
  1

  9
$STYLESHEET
  1
acad1.ctb
  9
$XEDIT
290
     1
  9
$CEPSNTYPE
380
     0
  9
$PSTYLEMODE
290
     1
  9
$FINGERPRINTGUID
  2
{41B1BBC6-017B-4742-8A4E-44F35A147FA2}
  9
$VERSIONGUID
  2
{50257382-E5E8-4FC8-A689-19B2721D871A}
  9
$EXTNAMES
290
     1
  9
$PSVPSCALE
 40
0.0
  9
$OLESTARTUP
290
     0
  0
ENDSEC
  0
SECTION
  2
CLASSES
  0
CLASS
  1
ACDBDICTIONARYWDFLT
  2
AcDbDictionaryWithDefault
  3
ObjectDBX Classes
 90
        0
280
     0
281
     0
  0
CLASS
  1
AMGSETTINGSOBJ
  2
AmgSettingsObj
  3
"AcadM|Product Description: AutoCAD Mechanical 2000|Company: Autodesk"
 90
        0
280
     0
281
     0
  0
CLASS
  1
AMGOBJPROPCFG
  2
AmgObjPropCfg
  3
"AmgLay|Product Description: AutoCAD Mechanical 2000|Company: Autodesk"
 90
        1
280
     0
281
     0
  0
CLASS
  1
ACME_DOCUMENT
  2
AcMeDbDoc
  3
AcMeServices
 90
        0
280
     0
281
     0
  0
CLASS
  1
ACMESCOPE
  2
AcMeScope
  3
AcMeServices
 90
        0
280
     0
281
     0
  0
CLASS
  1
ACMECOMMANDHISTORY
  2
AcMeCommandHistory
  3
AcMeServices
 90
        0
280
     0
281
     0
  0
CLASS
  1
ACIMSYSVARMAN
  2
AcImSysVarManager
  3
AcMeServices
 90
        0
280
     0
281
     0
  0
CLASS
  1
ACIMINTSYSVAR
  2
AcImIntSysVar
  3
AcMeServices
 90
        0
280
     0
281
     0
  0
CLASS
  1
ACMEDRAWINGMAN
  2
AcMeDrawingMan
  3
AcMeServices
 90
        0
280
     0
281
     0
  0
CLASS
  1
ACMEVIEW
  2
AcMeView
  3
AcMeServices
 90
        0
280
     0
281
     0
  0
CLASS
  1
ACDBENTITYCACHE
  2
AcMeEntityCache
  3
AcMeServices
 90
        0
280
     0
281
     0
  0
CLASS
  1
GSMANAGER
  2
AcMeGSManager
  3
AcMeServices
 90
        0
280
     0
281
     0
  0
CLASS
  1
AMDTINTERNALREACTOR
  2
AmdtInternalReactor
  3
AcMeServices
 90
        0
280
     0
281
     0
  0
CLASS
  1
ACMESTATEMGR
  2
AcMeStateMgr
  3
AcMeServices
 90
        0
280
     0
281
     0
  0
CLASS
  1
ACGREFMASTER
  2
AcGrefMaster
  3
AcAttribServices
 90
        0
280
     0
281
     0
  0
CLASS
  1
AM_DRAWING_MGR
  2
AcDmDwgMgr
  3
AcMechDwgViewMgmt
 90
        0
280
     0
281
     0
  0
CLASS
  1
AM_DWG_DOCUMENT
  2
AcDmDwgDocument
  3
AcMechDwgViewMgmt
 90
        0
280
     0
281
     0
  0
CLASS
  1
AM_DWG_SHEET
  2
AcDmSheet
  3
AcMechDwgViewMgmt
 90
        0
280
     0
281
     0
  0
CLASS
  1
AM_VIEWDIMPARMAP
  2
AcDmViewDimParMap
  3
AcMechDwgViewMgmt
 90
        0
280
     0
281
     0
  0
CLASS
  1
ACIMREALSYSVAR
  2
AcImRealSysVar
  3
AcMeServices
 90
        0
280
     0
281
     0
  0
CLASS
  1
AM_DWGMGR_NAME
  2
AcDmDwgMgrName
  3
AcMechDwgViewMgmt
 90
        0
280
     0
281
     0
  0
CLASS
  1
ACME_DATABASE
  2
AcMeDbDatabase
  3
AcMeServices
 90
        0
280
     0
281
     0
  0
CLASS
  1
ACRFINSADJUSTERMGR
  2
AcRfInsAdjusterMgr
  3
AcMeServices
 90
        0
280
     0
281
     0
  0
CLASS
  1
ACGREFACADMASTER
  2
AcGrefacadMaster
  3
AcGrefServices
 90
        0
280
     0
281
     0
  0
CLASS
  1
AMDTMENUSTATEMGR
  2
AmdtMenuStateMgr
  3
McadcomServices
 90
        0
280
     0
281
     0
  0
CLASS
  1
AMDTMCOMMENUSTATE
  2
AmdtMcomMenuState
  3
McadcomServices
 90
        0
280
     0
281
     0
  0
CLASS
  1
AMIMASTER
  2
AmiMaster
  3
AmiServices
 90
        0
280
     0
281
     0
  0
CLASS
  1
MAPIAMMOUDLE
  2
MApiAmModule
  3
MApiAmServices
 90
        0
280
     0
281
     0
  0
CLASS
  1
AMDTADMENUSTATE
  2
AmdtAdMenuState
  3
DesignerServices
 90
        0
280
     0
281
     0
  0
CLASS
  1
ADAPPL
  2
AcAdAppl
  3
DesignerServices
 90
        0
280
     0
281
     0
  0
CLASS
  1
DEPMGR
  2
AcAdDepMgr
  3
DesignerServices
 90
        0
280
     0
281
     0
  0
CLASS
  1
PARAMMGR
  2
AcAdParamMgr
  3
DesignerServices
 90
        0
280
     0
281
     0
  0
CLASS
  1
PARAMSCOPE
  2
AcAdParamScope
  3
DesignerServices
 90
        0
280
     0
281
     0
  0
CLASS
  1
NAMEDAPPL
  2
AcAdNamedAppl
  3
DesignerServices
 90
        0
280
     0
281
     0
  0
CLASS
  1
AMDTDMMENUSTATE
  2
AmdtDmMenuState
  3
AcMechDwgViewMgmt
 90
        0
280
     0
281
     0
  0
CLASS
  1
AMDTAMMENUSTATE
  2
AmdtAmMenuState
  3
DesignerAssemblies
 90
        0
280
     0
281
     0
  0
CLASS
  1
ACIMSTRSYSVAR
  2
AcImStrSysVar
  3
AcMeServices
 90
        0
280
     0
281
     0
  0
CLASS
  1
ACAMPROJECT
  2
AcAmProject
  3
DesignerAssemblies
 90
        0
280
     0
281
     0
  0
CLASS
  1
ACAMGRCOMPDEF
  2
AcAmGrCompDef
  3
DesignerAssemblies
 90
        0
280
     0
281
     0
  0
CLASS
  1
ACCMCONTEXT
  2
AcCmContext
  3
DesignerAssemblies
 90
        0
280
     0
281
     0
  0
CLASS
  1
ACAMCOMPDEF
  2
AcAmCompDef
  3
DesignerAssemblies
 90
        0
280
     0
281
     0
  0
CLASS
  1
ACAMCOMPDEFMGR
  2
AcAmCompDefMgr
  3
DesignerAssemblies
 90
        0
280
     0
281
     0
  0
CLASS
  1
AMCONTEXTMGR
  2
AcAmContextMgr
  3
DesignerAssemblies
 90
        0
280
     0
281
     0
  0
CLASS
  1
ACAMCONTEXTMODELER
  2
AcAmContextModeler
  3
DesignerAssemblies
 90
        0
280
     0
281
     0
  0
CLASS
  1
ACMDATADICTIONARY
  2
AcmDataDictionary
  3
"AcmSymBB|Product Description: AutoCAD Mechanical 2004 DX|Company: Autodesk"
 90
        0
280
     0
281
     0
  0
CLASS
  1
ACMSTANDARDISO
  2
AcmStandardISO
  3
"Amdt_StdImp|Product Description: AutoCAD Mechanical 2004 DX|Company: Autodesk"
 90
        0
280
     0
281
     0
  0
CLASS
  1
AMDTEDGESTANDARDISO
  2
AmdtEdgeStdISO
  3
"Amdt_StdImp|Product Description: AutoCAD Mechanical 2004 DX|Company: Autodesk"
 90
        0
280
     0
281
     0
  0
CLASS
  1
ACMSURFSTANDARDISO
  2
AcmSurfTextStdISO
  3
"Amdt_StdImp|Product Description: AutoCAD Mechanical 2004 DX|Company: Autodesk"
 90
        0
280
     0
281
     0
  0
CLASS
  1
ACMFCFSTANDARDISO
  2
AcmFCFStdISO
  3
"Amdt_StdImp|Product Description: AutoCAD Mechanical 2004 DX|Company: Autodesk"
 90
        0
280
     0
281
     0
  0
CLASS
  1
ACMWELDSTANDARDISO
  2
AcmWeldingStdISO
  3
"Amdt_StdImp|Product Description: AutoCAD Mechanical 2004 DX|Company: Autodesk"
 90
        0
280
     0
281
     0
  0
CLASS
  1
ACMIDSTANDARDISO
  2
AcmIdStdISO
  3
"Amdt_StdImp|Product Description: AutoCAD Mechanical 2004 DX|Company: Autodesk"
 90
        0
280
     0
281
     0
  0
CLASS
  1
ACMDATUMSTANDARDISO
  2
AcmDatumStdISO
  3
"Amdt_StdImp|Product Description: AutoCAD Mechanical 2004 DX|Company: Autodesk"
 90
        0
280
     0
281
     0
  0
CLASS
  1
ACMBOMSTANDARDISO
  2
AcmBOMStdISO
  3
"Amdt_StdImp|Product Description: AutoCAD Mechanical 2004 DX|Company: Autodesk"
 90
        0
280
     0
281
     0
  0
CLASS
  1
ACMDETAILSTANDARDISO
  2
AmdtDetailSymStdISO
  3
"Amdt_StdImp|Product Description: AutoCAD Mechanical 2004 DX|Company: Autodesk"
 90
        0
280
     0
281
     0
  0
CLASS
  1
ACMSECTIONSTANDARDISO
  2
AmdtSectionSymStdISO
  3
"Amdt_StdImp|Product Description: AutoCAD Mechanical 2004 DX|Company: Autodesk"
 90
        0
280
     0
281
     0
  0
CLASS
  1
ACMCENTERLINESTANDARDISO
  2
AmdtCenterLineStdISO
  3
"Amdt_StdImp|Product Description: AutoCAD Mechanical 2004 DX|Company: Autodesk"
 90
        0
280
     0
281
     0
  0
CLASS
  1
ACMTHREADLINESTANDARDISO
  2
AmdtThreadLineStdISO
  3
"Amdt_StdImp|Product Description: AutoCAD Mechanical 2004 DX|Company: Autodesk"
 90
        0
280
     0
281
     0
  0
CLASS
  1
ACMNOTESTANDARDISO
  2
AmdtNoteStdISO
  3
"Amdt_StdImp|Product Description: AutoCAD Mechanical 2004 DX|Company: Autodesk"
 90
        0
280
     0
281
     0
  0
CLASS
  1
AMDTNOTETEMPLATEDB
  2
AmdtNoteTemplateDB
  3
AMDT_STDIMP_MODULE_NAME
 90
        0
280
     0
281
     0
  0
CLASS
  1
ACAMGLAYSTD
  2
AcAmgLayStd
  3
"AcAmgLayStd|Product Description: AutoCAD Mechanical 2000|Company: Autodesk"
 90
        0
280
     0
281
     0
  0
CLASS
  1
ACAMGDIMSTD
  2
AcAmgDimStd
  3
"AcAmgDimStd|Product Description: AutoCAD Mechanical 2000|Company: Autodesk"
 90
        0
280
     0
281
     0
  0
CLASS
  1
ACAMGHOLECHARTSTDISO
  2
AcAmgHoleChartStdISO
  3
ACMSYMBB_MODULE_NAME
 90
        0
280
     0
281
     0
  0
CLASS
  1
ACAMGTITLESTD
  2
AcAmgTitleStd
  3
"TITLEAPP"
 90
        0
280
     0
281
     0
  0
CLASS
  1
ACMSTANDARDJIS
  2
AcmStandardJIS
  3
"Amdt_StdImp|Product Description: AutoCAD Mechanical 2004 DX|Company: Autodesk"
 90
        0
280
     0
281
     0
  0
CLASS
  1
ACMSURFSTANDARDJIS
  2
AcmSurfTextStdJIS
  3
"Amdt_StdImp|Product Description: AutoCAD Mechanical 2004 DX|Company: Autodesk"
 90
        0
280
     0
281
     0
  0
CLASS
  1
ACMFCFSTANDARDJIS98
  2
AcmFCFStdJIS98
  3
"Amdt_StdImp|Product Description: AutoCAD Mechanical 2004 DX|Company: Autodesk"
 90
        0
280
     0
281
     0
  0
CLASS
  1
ACMWELDSTANDARDJIS
  2
AcmWeldingStdJIS
  3
"Amdt_StdImp|Product Description: AutoCAD Mechanical 2004 DX|Company: Autodesk"
 90
        0
280
     0
281
     0
  0
CLASS
  1
ACMIDSTANDARDJIS
  2
AcmIdStdJIS
  3
"Amdt_StdImp|Product Description: AutoCAD Mechanical 2004 DX|Company: Autodesk"
 90
        0
280
     0
281
     0
  0
CLASS
  1
ACMDATUMSTANDARDJIS
  2
AcmDatumStdJIS
  3
"Amdt_StdImp|Product Description: AutoCAD Mechanical 2004 DX|Company: Autodesk"
 90
        0
280
     0
281
     0
  0
CLASS
  1
ACMBOMSTANDARDJIS
  2
AcmBOMStdJIS
  3
"Amdt_StdImp|Product Description: AutoCAD Mechanical 2004 DX|Company: Autodesk"
 90
        0
280
     0
281
     0
  0
CLASS
  1
ACMDETAILSTANDARDJIS
  2
AmdtDetailSymStdJIS
  3
"Amdt_StdImp|Product Description: AutoCAD Mechanical 2004 DX|Company: Autodesk"
 90
        0
280
     0
281
     0
  0
CLASS
  1
ACMSECTIONSTANDARDJIS
  2
AmdtSectionSymStdJIS
  3
"Amdt_StdImp|Product Description: AutoCAD Mechanical 2004 DX|Company: Autodesk"
 90
        0
280
     0
281
     0
  0
CLASS
  1
ACMCENTERLINESTANDARDJIS
  2
AmdtCenterLineStdJIS
  3
"Amdt_StdImp|Product Description: AutoCAD Mechanical 2004 DX|Company: Autodesk"
 90
        0
280
     0
281
     0
  0
CLASS
  1
ACMTHREADLINESTANDARDJIS
  2
AmdtThreadLineStdJIS
  3
"Amdt_StdImp|Product Description: AutoCAD Mechanical 2004 DX|Company: Autodesk"
 90
        0
280
     0
281
     0
  0
CLASS
  1
ACMNOTESTANDARDJIS
  2
AmdtNoteStdJIS
  3
"Amdt_StdImp|Product Description: AutoCAD Mechanical 2004 DX|Company: Autodesk"
 90
        0
280
     0
281
     0
  0
CLASS
  1
ACAMGHOLECHARTSTDJIS
  2
AcAmgHoleChartStdJIS
  3
ACMSYMBB_MODULE_NAME
 90
        0
280
     0
281
     0
  0
CLASS
  1
CATALOGSTATE
  2
AcAmCatalogState
  3
DesignerAssemblies
 90
        0
280
     0
281
     0
  0
CLASS
  1
ACAMGRCOMPDEFSET
  2
AcAmGrCompDefSet
  3
DesignerAssemblies
 90
        0
280
     0
281
     0
  0
CLASS
  1
AMDTBROWSERDBTAB
  2
AmdtBrowserDbTab
  3
McadcomServices
 90
        0
280
     0
281
     0
  0
CLASS
  1
CBROWSERAPPOBJECT
  2
CBrowserAppObject
  3
McadcomServices
 90
        0
280
     0
281
     0
  0
CLASS
  1
DM_PLACEHOLDER
  2
AcDmSelsetPlaceholder
  3
AcMechDwgViewMgmt
 90
        0
280
     0
281
     0
  0
CLASS
  1
LAYER_INDEX
  2
AcDbLayerIndex
  3
ObjectDBX Classes
 90
    32768
280
     0
281
     0
  0
CLASS
  1
IDBUFFER
  2
AcDbIdBuffer
  3
ObjectDBX Classes
 90
    32768
280
     0
281
     0
  0
CLASS
  1
ACAMGFILTERDAT
  2
AcAmgFilterDat
  3
"AcadM|Product Description: AutoCAD Mechanical 2000|Company: Autodesk"
 90
        0
280
     0
281
     0
  0
CLASS
  1
ACMSTANDARDANSI
  2
AcmStandardANSI
  3
"Amdt_StdImp|Product Description: AutoCAD Mechanical 2004 DX|Company: Autodesk"
 90
        0
280
     0
281
     0
  0
CLASS
  1
ACMSURFSTANDARDANSI
  2
AcmSurfTextStdANSI
  3
"Amdt_StdImp|Product Description: AutoCAD Mechanical 2004 DX|Company: Autodesk"
 90
        0
280
     0
281
     0
  0
CLASS
  1
ACMFCFSTANDARDANSI
  2
AcmFCFStdANSI
  3
"Amdt_StdImp|Product Description: AutoCAD Mechanical 2004 DX|Company: Autodesk"
 90
        0
280
     0
281
     0
  0
CLASS
  1
ACMWELDSTANDARDANSI
  2
AcmWeldingStdANSI
  3
"Amdt_StdImp|Product Description: AutoCAD Mechanical 2004 DX|Company: Autodesk"
 90
        0
280
     0
281
     0
  0
CLASS
  1
ACMIDSTANDARDANSI
  2
AcmIdStdANSI
  3
"Amdt_StdImp|Product Description: AutoCAD Mechanical 2004 DX|Company: Autodesk"
 90
        0
280
     0
281
     0
  0
CLASS
  1
ACMDATUMSTANDARDANSI
  2
AcmDatumStdANSI
  3
"Amdt_StdImp|Product Description: AutoCAD Mechanical 2004 DX|Company: Autodesk"
 90
        0
280
     0
281
     0
  0
CLASS
  1
ACMBOMSTANDARDANSI
  2
AcmBOMStdANSI
  3
"Amdt_StdImp|Product Description: AutoCAD Mechanical 2004 DX|Company: Autodesk"
 90
        0
280
     0
281
     0
  0
CLASS
  1
ACMDETAILSTANDARDANSI
  2
AmdtDetailSymStdANSI
  3
"Amdt_StdImp|Product Description: AutoCAD Mechanical 2004 DX|Company: Autodesk"
 90
        0
280
     0
281
     0
  0
CLASS
  1
ACMSECTIONSTANDARDANSI
  2
AmdtSectionSymStdANSI
  3
"Amdt_StdImp|Product Description: AutoCAD Mechanical 2004 DX|Company: Autodesk"
 90
        0
280
     0
281
     0
  0
CLASS
  1
ACMCENTERLINESTANDARDANSI
  2
AmdtCenterLineStdANSI
  3
"Amdt_StdImp|Product Description: AutoCAD Mechanical 2004 DX|Company: Autodesk"
 90
        0
280
     0
281
     0
  0
CLASS
  1
ACMTHREADLINESTANDARDANSI
  2
AmdtThreadLineStdANSI
  3
"Amdt_StdImp|Product Description: AutoCAD Mechanical 2004 DX|Company: Autodesk"
 90
        0
280
     0
281
     0
  0
CLASS
  1
ACMNOTESTANDARDANSI
  2
AmdtNoteStdANSI
  3
"Amdt_StdImp|Product Description: AutoCAD Mechanical 2004 DX|Company: Autodesk"
 90
        0
280
     0
281
     0
  0
CLASS
  1
ACAMGHOLECHARTSTDANSI
  2
AcAmgHoleChartStdANSI
  3
ACMSYMBB_MODULE_NAME
 90
        0
280
     0
281
     0
  0
CLASS
  1
ACMDATAENTRYBLOCK
  2
AcmDataEntryBlock
  3
"AcmSymBB|Product Description: AutoCAD Mechanical 2004 DX|Company: Autodesk"
 90
    32768
280
     0
281
     0
  0
CLASS
  1
SORTENTSTABLE
  2
AcDbSortentsTable
  3
ObjectDBX Classes
 90
        0
280
     0
281
     0
  0
CLASS
  1
AMDTFORMULAUPDATEDISPATCHER
  2
AmdtFormulaUpdateDispatcher
  3
AcMeServices
 90
        0
280
     0
281
     0
  0
CLASS
  1
TABLESTYLE
  2
AcDbTableStyle
  3
ObjectDBX Classes
 90
     2047
280
     0
281
     0
  0
CLASS
  1
ACMDATUMID
  2
AcmDatumId
  3
"AcmSymBB|Product Description: AutoCAD Mechanical 2004 DX|Company: Autodesk"
 90
    33791
280
     0
281
     1
  0
CLASS
  1
ACDBDIMENSIONRES
  2
AcDbDimensionRes
  3
"AcDbDimensionRes|Product Description: AutoCAD Mechanical 2000|Company: Autodesk"
 90
    32768
280
     0
281
     0
  0
CLASS
  1
DIMASSOC
  2
AcDbDimAssoc
  3
"AcDbDimAssoc|Product Desc:     AcDim ARX App For Dimension|Company:          Autodesk, Inc.|WEB Address:      www.autodesk.com"
 90
    32768
280
     0
281
     0
  0
CLASS
  1
DICTIONARYVAR
  2
AcDbDictionaryVar
  3
ObjectDBX Classes
 90
        0
280
     0
281
     0
  0
CLASS
  1
ACRFATTGENMGR
  2
AcRfAttGeneralMgr
  3
AcAttribServices
 90
        0
280
     0
281
     0
  0
CLASS
  1
ACDBPLACEHOLDER
  2
AcDbPlaceHolder
  3
ObjectDBX Classes
 90
        0
280
     0
281
     0
  0
CLASS
  1
LAYOUT
  2
AcDbLayout
  3
ObjectDBX Classes
 90
        0
280
     0
281
     0
  0
ENDSEC
  0
SECTION
  2
TABLES
  0
TABLE
  2
VPORT
  5
8
330
0
100
AcDbSymbolTable
 70
    15
  0
VPORT
  5
13B3
330
8
100
AcDbSymbolTableRecord
100
AcDbViewportTableRecord
  2
*Active
 70
     0
 10
0.0
 20
0.0
 11
1.0
 21
1.0
 12
691.2895077968591
 22
532.5391624857814
 13
0.0
 23
0.0
 14
10.0
 24
10.0
 15
40.0
 25
40.0
 16
0.0
 26
0.0
 36
1.0
 17
0.0
 27
0.0
 37
0.0
 40
544.5476800050577
 41
1.475550122249388
 42
50.0
 43
0.0
 44
0.0
 50
0.0
 51
0.0
 71
     0
 72
  1000
 73
     1
 74
     3
 75
     0
 76
     0
 77
     0
 78
     0
281
     0
 65
     1
110
0.0
120
0.0
130
0.0
111
1.0
121
0.0
131
0.0
112
0.0
122
1.0
132
0.0
 79
     0
146
0.0
  0
ENDTAB
  0
TABLE
  2
LTYPE
  5
5
330
0
100
AcDbSymbolTable
 70
    20
  0
LTYPE
  5
14
330
5
100
AcDbSymbolTableRecord
100
AcDbLinetypeTableRecord
  2
ByBlock
 70
     0
  3

 72
    65
 73
     0
 40
0.0
  0
LTYPE
  5
15
330
5
100
AcDbSymbolTableRecord
100
AcDbLinetypeTableRecord
  2
ByLayer
 70
     0
  3

 72
    65
 73
     0
 40
0.0
  0
LTYPE
  5
16
330
5
100
AcDbSymbolTableRecord
100
AcDbLinetypeTableRecord
  2
Continuous
 70
     0
  3
Solid line
 72
    65
 73
     0
 40
0.0
  0
LTYPE
  5
47
330
5
100
AcDbSymbolTableRecord
100
AcDbLinetypeTableRecord
  2
AM_ISO02W050
 70
     0
  3
__ __ __ __ __ __ __ __ __ __ __ __ __ __ __
 72
    65
 73
     2
 40
7.5
 49
6.0
 74
     0
 49
-1.5
 74
     0
  0
LTYPE
  5
48
330
5
100
AcDbSymbolTableRecord
100
AcDbLinetypeTableRecord
  2
AM_ISO08W050
 70
     0
  3
____ . ____ . ____ . ____ . ____ . ____ . ____
 72
    65
 73
     4
 40
18.0
 49
12.0
 74
     0
 49
-1.5
 74
     0
 49
3.0
 74
     0
 49
-1.5
 74
     0
  0
LTYPE
  5
49
330
5
100
AcDbSymbolTableRecord
100
AcDbLinetypeTableRecord
  2
AM_ISO09W050
 70
     0
  3
_____ . . _____ . . _____ . . ____ .. ____
 72
    65
 73
     6
 40
22.5
 49
12.0
 74
     0
 49
-1.5
 74
     0
 49
3.0
 74
     0
 49
-1.5
 74
     0
 49
3.0
 74
     0
 49
-1.5
 74
     0
  0
LTYPE
  5
4A
330
5
100
AcDbSymbolTableRecord
100
AcDbLinetypeTableRecord
  2
Amconstr
 70
     0
  3
_______________________
 72
    65
 73
     2
 40
9999.0
 49
9999.0
 74
     0
 49
0.0
 74
     0
  0
LTYPE
  5
4B
330
5
100
AcDbSymbolTableRecord
100
AcDbLinetypeTableRecord
  2
AM_ISO08W050x2
 70
     0
  3
__ . __ . __ . __ . __ . __
 72
    65
 73
     4
 40
9.0
 49
6.0
 74
     0
 49
-0.75
 74
     0
 49
1.5
 74
     0
 49
-0.75
 74
     0
  0
LTYPE
  5
4C
330
5
100
AcDbSymbolTableRecord
100
AcDbLinetypeTableRecord
  2
AM_ISO02W050x2
 70
     0
  3
 _ _ _ _ _ _ _ _ _ _ _ _
 72
    65
 73
     2
 40
3.75
 49
3.0
 74
     0
 49
-0.75
 74
     0
  0
LTYPE
  5
4D
330
5
100
AcDbSymbolTableRecord
100
AcDbLinetypeTableRecord
  2
Amzigzag
 70
     0
  3
/\/-/\/-/\/-/\/-/\/-/\/
 72
    65
 73
     2
 40
11.0001
 49
0.0001
 74
     4
 75
   135
340
4E
 46
0.04
 50
0.0
 44
0.0
 45
0.0
 49
-11.0
 74
     0
  0
LTYPE
  5
6B
330
5
100
AcDbSymbolTableRecord
100
AcDbLinetypeTableRecord
  2
HIDDEN
 70
     0
  3
Hidden __ __ __ __ __ __ __ __ __ __ __ __ __ _
 72
    65
 73
     2
 40
9.524999999999998
 49
6.349999999999999
 74
     0
 49
-3.174999999999999
 74
     0
  0
LTYPE
  5
6C
330
5
100
AcDbSymbolTableRecord
100
AcDbLinetypeTableRecord
  2
PHANTOM2
 70
     0
  3
Phantom (.5x) ___ _ _ ___ _ _ ___ _ _ ___ _ _
 72
    65
 73
     6
 40
31.75
 49
15.875
 74
     0
 49
-3.174999999999999
 74
     0
 49
3.174999999999999
 74
     0
 49
-3.174999999999999
 74
     0
 49
3.174999999999999
 74
     0
 49
-3.174999999999999
 74
     0
  0
LTYPE
  5
6D
330
5
100
AcDbSymbolTableRecord
100
AcDbLinetypeTableRecord
  2
CENTER
 70
     0
  3
Center ____ _ ____ _ ____ _ ____ _ ____ _ ____
 72
    65
 73
     4
 40
50.8
 49
31.75
 74
     0
 49
-6.349999999999999
 74
     0
 49
6.349999999999999
 74
     0
 49
-6.349999999999999
 74
     0
  0
LTYPE
  5
AC
330
5
100
AcDbSymbolTableRecord
100
AcDbLinetypeTableRecord
  2
ACISOWELD
 70
     0
  3
_ _ _ _ _
 72
    65
 73
     2
 40
2.0
 49
2.0
 74
     0
 49
-1.0
 74
     0
  0
LTYPE
  5
AF
330
5
100
AcDbSymbolTableRecord
100
AcDbLinetypeTableRecord
  2
ACISOTGB
 70
     0
  3
__ . . __ . .
 72
    65
 73
     6
 40
9.0
 49
4.0
 74
     0
 49
-1.0
 74
     0
 49
1.0
 74
     0
 49
-1.0
 74
     0
 49
1.0
 74
     0
 49
-1.0
 74
     0
  0
LTYPE
  5
B0
330
5
100
AcDbSymbolTableRecord
100
AcDbLinetypeTableRecord
  2
ACISOTGL
 70
     0
  3
_ _ _ _ _
 72
    65
 73
     2
 40
3.0
 49
2.0
 74
     0
 49
-1.0
 74
     0
  0
LTYPE
  5
DA
330
5
100
AcDbSymbolTableRecord
100
AcDbLinetypeTableRecord
  2
ACJISTGB
 70
     0
  3
__ . . __ . .
 72
    65
 73
     6
 40
9.0
 49
4.0
 74
     0
 49
-1.0
 74
     0
 49
1.0
 74
     0
 49
-1.0
 74
     0
 49
1.0
 74
     0
 49
-1.0
 74
     0
  0
LTYPE
  5
DB
330
5
100
AcDbSymbolTableRecord
100
AcDbLinetypeTableRecord
  2
ACJISTGL
 70
     0
  3
_ _ _ _ _
 72
    65
 73
     2
 40
3.0
 49
2.0
 74
     0
 49
-1.0
 74
     0
  0
LTYPE
  5
231
330
5
100
AcDbSymbolTableRecord
100
AcDbLinetypeTableRecord
  2
ACANSTGBM
 70
     0
  3
__ . . __ . .
 72
    65
 73
     6
 40
9.0
 49
4.0
 74
     0
 49
-1.0
 74
     0
 49
1.0
 74
     0
 49
-1.0
 74
     0
 49
1.0
 74
     0
 49
-1.0
 74
     0
  0
LTYPE
  5
232
330
5
100
AcDbSymbolTableRecord
100
AcDbLinetypeTableRecord
  2
ACANSTGLM
 70
     0
  3
_ _ _ _ _
 72
    65
 73
     2
 40
3.0
 49
2.0
 74
     0
 49
-1.0
 74
     0
  0
LTYPE
  5
4BF
330
5
100
AcDbSymbolTableRecord
100
AcDbLinetypeTableRecord
  2
GEN7
 70
     0
  3
____ . ____ . ____ . ____ . ____ . ____ . ____
 72
    65
 73
     4
 40
14.25
 49
9.75
 74
     0
 49
-1.5
 74
     0
 49
1.5
 74
     0
 49
-1.5
 74
     0
  0
LTYPE
  5
4C0
330
5
100
AcDbSymbolTableRecord
100
AcDbLinetypeTableRecord
  2
GEN7A
 70
     0
  3
__ . __ . __
 72
    65
 73
     4
 40
7.375
 49
4.75
 74
     0
 49
-0.875
 74
     0
 49
0.875
 74
     0
 49
-0.875
 74
     0
  0
ENDTAB
  0
TABLE
  2
LAYER
  5
2
102
{ACAD_XDICTIONARY
360
65E
102
}
330
0
100
AcDbSymbolTable
 70
     9
  0
LAYER
  5
10
330
2
100
AcDbSymbolTableRecord
100
AcDbLayerTableRecord
  2
0
 70
     0
 62
     7
  6
Continuous
370
    -3
390
F
  0
LAYER
  5
2F
330
2
100
AcDbSymbolTableRecord
100
AcDbLayerTableRecord
  2
Defpoints
 70
     0
 62
     7
  6
Continuous
290
     0
370
    -3
390
F
  0
LAYER
  5
655
330
2
100
AcDbSymbolTableRecord
100
AcDbLayerTableRecord
  2
AM_5
 70
     0
 62
     2
  6
Continuous
370
    35
390
F
  0
LAYER
  5
656
330
2
100
AcDbSymbolTableRecord
100
AcDbLayerTableRecord
  2
ﾁｭｳｼﾝｾﾝ
 70
     0
 62
     1
  6
GEN7
370
    -3
390
F
  0
LAYER
  5
657
330
2
100
AcDbSymbolTableRecord
100
AcDbLayerTableRecord
  2
ﾁｭｳｼﾝｾﾝ1
 70
     0
 62
     1
  6
GEN7A
370
    -3
390
F
  0
LAYER
  5
658
330
2
100
AcDbSymbolTableRecord
100
AcDbLayerTableRecord
  2
AM_7
 70
     0
 62
     1
  6
AM_ISO08W050
370
    25
390
F
  0
LAYER
  5
659
330
2
100
AcDbSymbolTableRecord
100
AcDbLayerTableRecord
  2
AM_0
 70
     0
 62
     7
  6
Continuous
370
    50
390
F
  0
LAYER
  5
E2D
330
2
100
AcDbSymbolTableRecord
100
AcDbLayerTableRecord
  2
図面枠-ｷｲﾛ
 70
     0
 62
     2
  6
Continuous
370
    -3
390
F
  0
ENDTAB
  0
TABLE
  2
STYLE
  5
3
330
0
100
AcDbSymbolTable
 70
     8
  0
STYLE
  5
11
330
3
100
AcDbSymbolTableRecord
100
AcDbTextStyleTableRecord
  2
STANDARD
 70
     0
 40
0.0
 41
0.84
 50
0.0
 71
     0
 42
2.5
  3
txt.shx
  4
bigfont.shx
  0
STYLE
  5
4E
330
3
100
AcDbSymbolTableRecord
100
AcDbTextStyleTableRecord
  2

 70
     1
 40
0.0
 41
1.0
 50
0.0
 71
     0
 42
2.5
  3
ltypeshp.shx
  4

  0
STYLE
  5
A6
330
3
100
AcDbSymbolTableRecord
100
AcDbTextStyleTableRecord
  2
ACISOTS
 70
     0
 40
1.0
 41
1.0
 50
0.0
 71
     0
 42
2.5
  3
isocp.shx
  4
extfont.shx
  0
STYLE
  5
AA
330
3
100
AcDbSymbolTableRecord
100
AcDbTextStyleTableRecord
  2
ACISOGDT
 70
     0
 40
0.0
 41
1.0
 50
0.0
 71
     0
 42
2.5
  3
amgdt.shx
  4

  0
STYLE
  5
D6
330
3
100
AcDbSymbolTableRecord
100
AcDbTextStyleTableRecord
  2
ACJISGDT
 70
     0
 40
0.0
 41
1.0
 50
0.0
 71
     0
 42
2.5
  3
amgdt.shx
  4

  0
STYLE
  5
DE
330
3
100
AcDbSymbolTableRecord
100
AcDbTextStyleTableRecord
  2
ACJISTS
 70
     0
 40
1.0
 41
1.0
 50
0.0
 71
     0
 42
2.5
  3
isocp.shx
  4
extfont.shx
  0
STYLE
  5
240
330
3
100
AcDbSymbolTableRecord
100
AcDbTextStyleTableRecord
  2
ACANSTS
 70
     0
 40
1.0
 41
1.0
 50
0.0
 71
     0
 42
2.5
  3
romans.shx
  4
bigfont.shx
  0
STYLE
  5
241
330
3
100
AcDbSymbolTableRecord
100
AcDbTextStyleTableRecord
  2
ACANSGDT
 70
     0
 40
0.0
 41
1.0
 50
0.0
 71
     0
 42
2.5
  3
amgdtans.shx
  4

  0
ENDTAB
  0
TABLE
  2
VIEW
  5
6
330
0
100
AcDbSymbolTable
 70
     6
  0
VIEW
  5
2D6
330
6
100
AcDbSymbolTableRecord
100
AcDbViewTableRecord
  2
AM_VIEW1
 70
     0
 40
390.4809602649007
 10
284.5
 20
544.7595198675498
 41
569.0
 11
0.0
 21
0.0
 31
1.0
 12
0.0
 22
0.0
 32
0.0
 42
50.0
 43
0.0
 44
0.0
 50
0.0
 71
     0
281
     0
 72
     0
  0
VIEW
  5
2D7
330
6
100
AcDbSymbolTableRecord
100
AcDbViewTableRecord
  2
AM_VIEW2
 70
     0
 40
390.4809602649007
 10
853.5
 20
544.7595198675498
 41
569.0
 11
0.0
 21
0.0
 31
1.0
 12
0.0
 22
0.0
 32
0.0
 42
50.0
 43
0.0
 44
0.0
 50
0.0
 71
     0
281
     0
 72
     0
  0
VIEW
  5
2D8
330
6
100
AcDbSymbolTableRecord
100
AcDbViewTableRecord
  2
AM_VIEW3
 70
     0
 40
390.4809602649007
 10
284.5
 20
195.2404801324503
 41
569.0
 11
0.0
 21
0.0
 31
1.0
 12
0.0
 22
0.0
 32
0.0
 42
50.0
 43
0.0
 44
0.0
 50
0.0
 71
     0
281
     0
 72
     0
  0
VIEW
  5
2D9
330
6
100
AcDbSymbolTableRecord
100
AcDbViewTableRecord
  2
AM_VIEW4
 70
     0
 40
390.4809602649007
 10
853.5
 20
195.2404801324503
 41
569.0
 11
0.0
 21
0.0
 31
1.0
 12
0.0
 22
0.0
 32
0.0
 42
50.0
 43
0.0
 44
0.0
 50
0.0
 71
     0
281
     0
 72
     0
  0
VIEW
  5
2DA
330
6
100
AcDbSymbolTableRecord
100
AcDbViewTableRecord
  2
AM_VIEW5
 70
     0
 40
390.4809602649006
 10
569.0
 20
370.0
 41
569.0
 11
0.0
 21
0.0
 31
1.0
 12
0.0
 22
0.0
 32
0.0
 42
50.0
 43
0.0
 44
0.0
 50
0.0
 71
     0
281
     0
 72
     0
  0
VIEW
  5
2DB
330
6
100
AcDbSymbolTableRecord
100
AcDbViewTableRecord
  2
AM_VIEW6
 70
     0
 40
780.954110910596
 10
569.0
 20
370.0000000000001
 41
1137.98862
 11
0.0
 21
0.0
 31
1.0
 12
0.0
 22
0.0
 32
0.0
 42
50.0
 43
0.0
 44
0.0
 50
0.0
 71
     0
281
     0
 72
     0
  0
ENDTAB
  0
TABLE
  2
UCS
  5
7
330
0
100
AcDbSymbolTable
 70
     0
  0
ENDTAB
  0
TABLE
  2
APPID
  5
9
330
0
100
AcDbSymbolTable
 70
    45
  0
APPID
  5
12
330
9
100
AcDbSymbolTableRecord
100
AcDbRegAppTableRecord
  2
ACAD
 70
     0
  0
APPID
  5
30
330
9
100
AcDbSymbolTableRecord
100
AcDbRegAppTableRecord
  2
MCAD_NO_VIS
 70
     0
  0
APPID
  5
31
330
9
100
AcDbSymbolTableRecord
100
AcDbRegAppTableRecord
  2
ACAD_TEMP_GRAPHIC
 70
     0
  0
APPID
  5
32
330
9
100
AcDbSymbolTableRecord
100
AcDbRegAppTableRecord
  2
AD_DRAW
 70
     0
  0
APPID
  5
33
330
9
100
AcDbSymbolTableRecord
100
AcDbRegAppTableRecord
  2
ACATTRIBSERVICES
 70
     0
  0
APPID
  5
34
330
9
100
AcDbSymbolTableRecord
100
AcDbRegAppTableRecord
  2
DESIGNERASSEMBLIES
 70
     0
  0
APPID
  5
35
330
9
100
AcDbSymbolTableRecord
100
AcDbRegAppTableRecord
  2
ACADM_DIM_EDIT
 70
     0
  0
APPID
  5
36
330
9
100
AcDbSymbolTableRecord
100
AcDbRegAppTableRecord
  2
AMDT_DM_ADJ
 70
     0
  0
APPID
  5
37
330
9
100
AcDbSymbolTableRecord
100
AcDbRegAppTableRecord
  2
GENIUS_GENDIMSH_14
 70
     0
  0
APPID
  5
38
330
9
100
AcDbSymbolTableRecord
100
AcDbRegAppTableRecord
  2
GEVID1057795304
 70
     0
  0
APPID
  5
39
330
9
100
AcDbSymbolTableRecord
100
AcDbRegAppTableRecord
  2
GEVDC
 70
     0
  0
APPID
  5
3A
330
9
100
AcDbSymbolTableRecord
100
AcDbRegAppTableRecord
  2
GEVCON
 70
     0
  0
APPID
  5
3B
330
9
100
AcDbSymbolTableRecord
100
AcDbRegAppTableRecord
  2
GENIUS_GENBH_13
 70
     0
  0
APPID
  5
3C
330
9
100
AcDbSymbolTableRecord
100
AcDbRegAppTableRecord
  2
GENIUS_GENOENT_13
 70
     0
  0
APPID
  5
3D
330
9
100
AcDbSymbolTableRecord
100
AcDbRegAppTableRecord
  2
GENIUS_GENOBJ-NBEHI-BHF_13
 70
     0
  0
APPID
  5
3E
330
9
100
AcDbSymbolTableRecord
100
AcDbRegAppTableRecord
  2
GENIUS_GENOLIS_13
 70
     0
  0
APPID
  5
3F
330
9
100
AcDbSymbolTableRecord
100
AcDbRegAppTableRecord
  2
GENIUS_GENODEF_13
 70
     0
  0
APPID
  5
40
330
9
100
AcDbSymbolTableRecord
100
AcDbRegAppTableRecord
  2
GENIUS_GENOREF_13
 70
     0
  0
APPID
  5
41
330
9
100
AcDbSymbolTableRecord
100
AcDbRegAppTableRecord
  2
GENIUS_GENOBJ-NBEHI-BHB_13
 70
     0
  0
APPID
  5
42
330
9
100
AcDbSymbolTableRecord
100
AcDbRegAppTableRecord
  2
GENIUS_GENOBJ-F-SCPASSM_13
 70
     0
  0
APPID
  5
43
330
9
100
AcDbSymbolTableRecord
100
AcDbRegAppTableRecord
  2
GENIUS_GENDTOL_13
 70
     0
  0
APPID
  5
21C
330
9
100
AcDbSymbolTableRecord
100
AcDbRegAppTableRecord
  2
GENIUS_GENTRA_14
 70
     0
  0
APPID
  5
248
330
9
100
AcDbSymbolTableRecord
100
AcDbRegAppTableRecord
  2
ASURF_PCURVE_APPNAME
 70
     0
  0
APPID
  5
249
330
9
100
AcDbSymbolTableRecord
100
AcDbRegAppTableRecord
  2
GENIUS_GENCFG_13
 70
     0
  0
APPID
  5
24A
330
9
100
AcDbSymbolTableRecord
100
AcDbRegAppTableRecord
  2
GENIUS_GE3CFG0_13
 70
     0
  0
APPID
  5
24B
330
9
100
AcDbSymbolTableRecord
100
AcDbRegAppTableRecord
  2
GENIUS_GENCFG0_13
 70
     0
  0
APPID
  5
24C
330
9
100
AcDbSymbolTableRecord
100
AcDbRegAppTableRecord
  2
GENIUS_GENCFG1_13
 70
     0
  0
APPID
  5
24D
330
9
100
AcDbSymbolTableRecord
100
AcDbRegAppTableRecord
  2
GENIUS_GENCFG2_13
 70
     0
  0
APPID
  5
24E
330
9
100
AcDbSymbolTableRecord
100
AcDbRegAppTableRecord
  2
GENIUS_GENCFG3_13
 70
     0
  0
APPID
  5
24F
330
9
100
AcDbSymbolTableRecord
100
AcDbRegAppTableRecord
  2
GENIUS_GENCFG4_13
 70
     0
  0
APPID
  5
250
330
9
100
AcDbSymbolTableRecord
100
AcDbRegAppTableRecord
  2
GENIUS_GEVCFG0_13
 70
     0
  0
APPID
  5
2D4
330
9
100
AcDbSymbolTableRecord
100
AcDbRegAppTableRecord
  2
GENIUS_GENOBJ-N-TIT_13
 70
     0
  0
APPID
  5
2D5
330
9
100
AcDbSymbolTableRecord
100
AcDbRegAppTableRecord
  2
GENIUS_GENTITLE_13
 70
     0
  0
APPID
  5
2DC
330
9
100
AcDbSymbolTableRecord
100
AcDbRegAppTableRecord
  2
GENIUS_GENSCREG_15
 70
     0
  0
APPID
  5
2DD
330
9
100
AcDbSymbolTableRecord
100
AcDbRegAppTableRecord
  2
GENIUS_GENOBJ-N-SDF_13
 70
     0
  0
APPID
  5
30E
330
9
100
AcDbSymbolTableRecord
100
AcDbRegAppTableRecord
  2
GENIUS_GENFIL_13
 70
     0
  0
APPID
  5
30F
330
9
100
AcDbSymbolTableRecord
100
AcDbRegAppTableRecord
  2
GENIUS_GENOBJ-N-CHA_13
 70
     0
  0
APPID
  5
310
330
9
100
AcDbSymbolTableRecord
100
AcDbRegAppTableRecord
  2
GENIUS_GEFSH_13
 70
     0
  0
APPID
  5
311
330
9
100
AcDbSymbolTableRecord
100
AcDbRegAppTableRecord
  2
GENIUS_GENOBJ-F-SHS_13
 70
     0
  0
APPID
  5
40D
330
9
100
AcDbSymbolTableRecord
100
AcDbRegAppTableRecord
  2
GENIUS_GENOBJ-N-CEN_13
 70
     0
  0
APPID
  5
496
330
9
100
AcDbSymbolTableRecord
100
AcDbRegAppTableRecord
  2
GENIUS_GENREC_14
 70
     0
  0
APPID
  5
497
330
9
100
AcDbSymbolTableRecord
100
AcDbRegAppTableRecord
  2
GENIUS_GENOBJ-N-REC_13
 70
     0
  0
APPID
  5
65B
330
9
100
AcDbSymbolTableRecord
100
AcDbRegAppTableRecord
  2
GENIUS_GENOBJ-N-FIL_13
 70
     0
  0
APPID
  5
65C
330
9
100
AcDbSymbolTableRecord
100
AcDbRegAppTableRecord
  2
ACAD_PSEXT
 70
     0
  0
APPID
  5
65D
330
9
100
AcDbSymbolTableRecord
100
AcDbRegAppTableRecord
  2
GENIUS_GENCEN_19
 70
     0
  0
ENDTAB
  0
TABLE
  2
DIMSTYLE
  5
A
330
0
100
AcDbSymbolTable
 70
    23
100
AcDbDimStyleTable
 71
     1
340
EA
  0
DIMSTYLE
105
C6
330
A
100
AcDbSymbolTableRecord
100
AcDbDimStyleTableRecord
  2
AM_ISO
 70
     0
  4
"
 41
2.5
 42
1.0
 43
10.0
 44
1.0
 47
0.1
 48
0.1
 73
     0
 74
     0
 77
     1
 78
     8
 79
     2
140
3.5
141
0.0
143
0.0393701
146
0.71
147
1.5
172
     1
176
   256
177
   256
178
     2
271
     2
272
     3
274
     4
283
     0
284
     8
340
11
371
    -1
372
    -1
  0
DIMSTYLE
105
C7
330
A
100
AcDbSymbolTableRecord
100
AcDbDimStyleTableRecord
  2
AM_ISO$3
 70
     0
  4
"
 41
2.5
 42
1.0
 43
10.0
 44
1.0
 47
0.1
 48
0.1
 73
     0
 77
     1
 78
     8
 79
     2
140
3.5
141
0.0
143
0.0393701
146
0.71
147
1.5
176
   256
177
   256
178
     2
271
     2
272
     3
274
     4
283
     0
284
     8
288
     1
289
     0
340
11
371
    -1
372
    -1
  0
DIMSTYLE
105
C8
330
A
100
AcDbSymbolTableRecord
100
AcDbDimStyleTableRecord
  2
AM_ISO$4
 70
     0
  4
"
 41
2.5
 42
1.0
 43
10.0
 44
1.0
 47
0.1
 48
0.1
 73
     0
 77
     1
 78
     8
 79
     2
140
3.5
141
0.0
143
0.0393701
146
0.71
147
1.5
176
   256
177
   256
178
     2
271
     2
272
     3
274
     4
283
     0
284
     8
288
     1
289
     0
340
11
371
    -1
372
    -1
  0
DIMSTYLE
105
C9
330
A
100
AcDbSymbolTableRecord
100
AcDbDimStyleTableRecord
  2
AM_ISO$6
 70
     0
  4
"
 41
2.5
 42
1.0
 43
10.0
 44
1.0
 47
0.1
 48
0.1
 73
     0
 74
     0
 78
     8
 79
     2
140
3.5
141
0.0
143
0.0393701
146
0.71
147
1.5
172
     1
176
   256
177
   256
178
     2
271
     2
272
     3
274
     4
283
     0
284
     8
340
11
371
    -1
372
    -1
  0
DIMSTYLE
105
CA
330
A
100
AcDbSymbolTableRecord
100
AcDbDimStyleTableRecord
  2
AM_ISO$7
 70
     0
  4
"
 41
2.5
 42
1.0
 43
10.0
 44
1.0
 47
0.1
 48
0.1
 73
     0
 74
     0
 77
     1
 78
     8
 79
     2
140
5.0
141
0.0
143
0.0393701
146
0.71
147
1.5
172
     1
176
   256
177
   256
178
     2
271
     2
272
     3
274
     4
283
     0
284
     8
340
11
371
    -1
372
    -1
  0
DIMSTYLE
105
CB
330
A
100
AcDbSymbolTableRecord
100
AcDbDimStyleTableRecord
  2
AM_ISO$SF
 70
     0
  4
"
 41
2.5
 42
1.0
 43
10.0
 44
1.0
 47
0.1
 48
0.1
 73
     0
 74
     0
 75
     1
 76
     1
 77
     1
 78
     8
 79
     2
140
3.5
141
0.0
143
0.0393701
146
0.71
147
1.5
172
     1
176
   256
177
   256
178
     2
271
     2
272
     3
274
     4
283
     0
284
     8
340
11
371
    -1
372
    -1
  0
DIMSTYLE
105
CC
330
A
100
AcDbSymbolTableRecord
100
AcDbDimStyleTableRecord
  2
AM_ISO$SH
 70
     0
  4
"
 41
2.5
 42
1.0
 43
10.0
 44
1.0
 47
0.1
 48
0.1
 73
     0
 74
     0
 75
     1
 76
     1
 77
     1
 78
     8
 79
     2
140
3.5
141
0.0
143
0.0393701
144
2.0
146
0.71
147
1.5
172
     1
173
     1
176
   256
177
   256
178
     2
271
     2
272
     3
274
     4
283
     0
284
     8
340
11
343
CD
371
    -1
372
    -1
  0
DIMSTYLE
105
EA
102
{ACAD_REACTORS
330
D3
102
}
330
A
100
AcDbSymbolTableRecord
100
AcDbDimStyleTableRecord
  2
AM_JIS
 70
     0
  4
"
 41
2.0
 42
1.0
 43
8.0
 44
1.0
 47
0.1
 48
0.1
 73
     0
 74
     0
 77
     3
 78
     8
 79
     2
140
2.5
141
0.0
143
0.0393701
146
0.71
147
1.5
172
     1
176
     2
177
     2
178
     4
271
     2
272
     2
283
     0
284
     8
340
11
371
    35
372
    35
  0
DIMSTYLE
105
EB
330
A
100
AcDbSymbolTableRecord
100
AcDbDimStyleTableRecord
  2
AM_JIS$3
 70
     0
  4
"
 41
2.0
 42
1.0
 43
10.0
 44
1.0
 47
0.1
 48
0.1
 73
     0
 77
     3
 78
     8
 79
     2
140
2.5
141
0.0
143
0.0393701
146
0.71
147
1.5
176
     2
177
     2
178
     4
271
     2
272
     3
274
     4
283
     0
284
     8
288
     1
289
     0
340
11
371
    35
372
    35
  0
DIMSTYLE
105
EC
330
A
100
AcDbSymbolTableRecord
100
AcDbDimStyleTableRecord
  2
AM_JIS$4
 70
     0
  4
"
 41
2.0
 42
1.0
 43
10.0
 44
1.0
 47
0.1
 48
0.1
 73
     0
 74
     0
 77
     3
 78
     8
 79
     2
140
2.5
141
0.0
143
0.0393701
146
0.71
147
1.5
176
     2
177
     2
178
     4
271
     2
272
     2
283
     0
284
     8
288
     1
289
     0
340
11
371
    35
372
    35
  0
DIMSTYLE
105
ED
330
A
100
AcDbSymbolTableRecord
100
AcDbDimStyleTableRecord
  2
AM_JIS$6
 70
     0
  4
"
 41
2.0
 42
1.0
 43
10.0
 44
1.0
 47
0.1
 48
0.1
 73
     0
 74
     0
 78
     8
 79
     2
140
2.5
141
0.0
143
0.0393701
146
0.71
147
1.5
172
     1
176
     2
177
     2
178
     4
271
     2
272
     3
274
     4
283
     0
284
     8
340
11
371
    35
372
    35
  0
DIMSTYLE
105
EE
330
A
100
AcDbSymbolTableRecord
100
AcDbDimStyleTableRecord
  2
AM_JIS$7
 70
     0
  4
"
 41
2.0
 42
1.0
 43
10.0
 44
1.0
 47
0.1
 48
0.1
 73
     0
 74
     0
 77
     3
 78
     8
 79
     2
140
2.5
141
0.0
143
0.0393701
146
0.71
147
1.5
172
     1
176
     2
177
     2
178
     4
271
     2
272
     3
274
     4
283
     0
284
     8
340
11
343
EF
344
EF
371
    35
372
    35
  0
DIMSTYLE
105
F5
330
A
100
AcDbSymbolTableRecord
100
AcDbDimStyleTableRecord
  2
AM_JIS$SF
 70
     0
  4
"
 41
2.0
 42
1.0
 43
10.0
 44
1.0
 47
0.1
 48
0.1
 73
     0
 74
     0
 75
     1
 76
     1
 77
     3
 78
     8
 79
     2
140
2.5
141
0.0
143
0.0393701
146
0.71
147
1.5
172
     1
176
     2
177
     2
178
     4
271
     2
272
     3
274
     4
283
     0
284
     8
340
11
371
    35
372
    35
  0
DIMSTYLE
105
F6
330
A
100
AcDbSymbolTableRecord
100
AcDbDimStyleTableRecord
  2
AM_JIS$SH
 70
     0
  4
"
 41
2.0
 42
1.0
 43
10.0
 44
1.0
 47
0.1
 48
0.1
 73
     0
 74
     0
 75
     1
 76
     1
 77
     3
 78
     8
 79
     2
140
2.5
141
0.0
143
0.0393701
144
2.0
146
0.71
147
1.5
172
     1
173
     1
176
     2
177
     2
178
     4
271
     2
272
     3
274
     4
283
     0
284
     8
340
11
343
CD
371
    35
372
    35
  0
DIMSTYLE
105
242
330
A
100
AcDbSymbolTableRecord
100
AcDbDimStyleTableRecord
  2
AM_ANSI
 70
     0
  4
"
 41
2.5
 42
1.0
 43
10.0
 44
1.0
 47
0.1
 48
0.1
 78
     8
 79
     2
140
3.5
141
0.0
143
0.0393701
146
0.71
147
1.5
176
     2
177
     2
178
     4
271
     2
272
     3
274
     4
284
     8
340
11
371
    35
372
    35
  0
DIMSTYLE
105
243
330
A
100
AcDbSymbolTableRecord
100
AcDbDimStyleTableRecord
  2
AM_ANSI$3
 70
     0
  4
"
 41
2.5
 42
1.0
 43
10.0
 44
1.0
 47
0.1
 48
0.1
 78
     8
 79
     2
140
3.5
141
0.0
143
0.0393701
146
0.71
147
1.5
176
     2
177
     2
178
     4
271
     2
272
     3
274
     4
284
     8
288
     1
289
     0
340
11
371
    35
372
    35
  0
DIMSTYLE
105
244
330
A
100
AcDbSymbolTableRecord
100
AcDbDimStyleTableRecord
  2
AM_ANSI$4
 70
     0
  4
"
 41
2.5
 42
1.0
 43
10.0
 44
1.0
 47
0.1
 48
0.1
 78
     8
 79
     2
140
3.5
141
0.0
143
0.0393701
146
0.71
147
1.5
176
     2
177
     2
178
     4
271
     2
272
     3
274
     4
284
     8
288
     1
289
     0
340
11
371
    35
372
    35
  0
DIMSTYLE
105
245
330
A
100
AcDbSymbolTableRecord
100
AcDbDimStyleTableRecord
  2
AM_ANSI$7
 70
     0
  4
"
 41
2.5
 42
1.0
 43
10.0
 44
1.0
 47
0.1
 48
0.1
 78
     8
 79
     2
140
5.0
141
0.0
143
0.0393701
146
0.71
147
1.5
176
     2
177
     2
178
     4
271
     2
272
     3
274
     4
284
     8
340
11
371
    35
372
    35
  0
DIMSTYLE
105
246
330
A
100
AcDbSymbolTableRecord
100
AcDbDimStyleTableRecord
  2
AM_ANSI$SF
 70
     0
  4
"
 41
2.5
 42
1.0
 43
10.0
 44
1.0
 47
0.1
 48
0.1
 75
     1
 76
     1
 78
     8
 79
     2
140
3.5
141
0.0
143
0.0393701
146
0.71
147
1.5
176
     2
177
     2
178
     4
271
     2
272
     3
274
     4
284
     8
340
11
371
    35
372
    35
  0
DIMSTYLE
105
247
330
A
100
AcDbSymbolTableRecord
100
AcDbDimStyleTableRecord
  2
AM_ANSI$SH
 70
     0
  4
"
 41
2.5
 42
1.0
 43
10.0
 44
1.0
 47
0.1
 48
0.1
 75
     1
 76
     1
 78
     8
 79
     2
140
3.5
141
0.0
143
0.0393701
146
0.71
147
1.5
173
     1
176
     2
177
     2
178
     4
271
     2
272
     3
274
     4
284
     8
340
11
343
CD
371
    35
372
    35
  0
DIMSTYLE
105
AA3
102
{ACAD_REACTORS
330
D3
102
}
330
A
100
AcDbSymbolTableRecord
100
AcDbDimStyleTableRecord
  2
AM_JIS$0
 70
     0
  4
"
 41
2.0
 42
1.0
 43
8.0
 44
1.0
 47
0.1
 48
0.1
 73
     0
 74
     0
 77
     3
 78
     8
 79
     2
140
2.5
141
0.0
143
0.0393701
146
0.71
147
1.5
172
     1
176
     2
177
     2
178
     4
271
     2
272
     2
283
     0
284
     8
340
11
371
    35
372
    35
  0
DIMSTYLE
105
ECA
330
A
100
AcDbSymbolTableRecord
100
AcDbDimStyleTableRecord
  2
STANDARD
 70
     0
279
     2
340
11
  0
ENDTAB
  0
TABLE
  2
BLOCK_RECORD
  5
1
330
0
100
AcDbSymbolTable
 70
     5
  0
BLOCK_RECORD
  5
21
102
{ACAD_XDICTIONARY
360
109
102
}
330
1
100
AcDbSymbolTableRecord
100
AcDbBlockTableRecord
  2
*Model_Space
340
24
  0
BLOCK_RECORD
  5
1D
330
1
100
AcDbSymbolTableRecord
100
AcDbBlockTableRecord
  2
*Paper_Space
340
20
  0
BLOCK_RECORD
  5
25
330
1
100
AcDbSymbolTableRecord
100
AcDbBlockTableRecord
  2
*Paper_Space0
340
28
  0
BLOCK_RECORD
  5
CD
330
1
100
AcDbSymbolTableRecord
100
AcDbBlockTableRecord
  2
GENAXEH
340
0
  0
BLOCK_RECORD
  5
EF
330
1
100
AcDbSymbolTableRecord
100
AcDbBlockTableRecord
  2
_Open30
340
0
  0
ENDTAB
  0
ENDSEC
  0
SECTION
  2
BLOCKS
  0
BLOCK
  5
22
330
21
100
AcDbEntity
  8
0
100
AcDbBlockBegin
  2
*Model_Space
 70
     0
 10
0.0
 20
0.0
 30
0.0
  3
*Model_Space
  1

  0
ENDBLK
  5
23
330
21
100
AcDbEntity
  8
0
100
AcDbBlockEnd
  0
BLOCK
  5
1E
330
1D
100
AcDbEntity
 67
     1
  8
0
100
AcDbBlockBegin
  2
*Paper_Space
 70
     0
 10
0.0
 20
0.0
 30
0.0
  3
*Paper_Space
  1

  0
ENDBLK
  5
1F
330
1D
100
AcDbEntity
 67
     1
  8
0
100
AcDbBlockEnd
  0
BLOCK
  5
26
330
25
100
AcDbEntity
  8
0
100
AcDbBlockBegin
  2
*Paper_Space0
 70
     0
 10
0.0
 20
0.0
 30
0.0
  3
*Paper_Space0
  1

  0
ENDBLK
  5
27
330
25
100
AcDbEntity
  8
0
100
AcDbBlockEnd
  0
BLOCK
  5
CE
330
CD
100
AcDbEntity
  8
0
100
AcDbBlockBegin
  2
GENAXEH
 70
     0
 10
0.0
 20
0.0
 30
0.0
  3
GENAXEH
  1

  0
LINE
  5
CF
330
CD
100
AcDbEntity
  8
0
100
AcDbLine
 10
-1.0
 20
0.0
 30
0.0
 11
1.0
 21
0.0
 31
0.0
  0
ENDBLK
  5
D0
330
CD
100
AcDbEntity
  8
0
100
AcDbBlockEnd
  0
BLOCK
  5
F0
330
EF
100
AcDbEntity
  8
0
100
AcDbBlockBegin
  2
_Open30
 70
     0
 10
0.0
 20
0.0
 30
0.0
  3
_Open30
  1

  0
LINE
  5
F1
330
EF
100
AcDbEntity
  8
0
  6
ByBlock
 62
     0
370
    -2
100
AcDbLine
 10
-1.0
 20
0.26794919
 30
0.0
 11
0.0
 21
0.0
 31
0.0
  0
LINE
  5
F2
330
EF
100
AcDbEntity
  8
0
  6
ByBlock
 62
     0
370
    -2
100
AcDbLine
 10
0.0
 20
0.0
 30
0.0
 11
-1.0
 21
-0.26794919
 31
0.0
  0
LINE
  5
F3
330
EF
100
AcDbEntity
  8
0
  6
ByBlock
 62
     0
370
    -2
100
AcDbLine
 10
0.0
 20
0.0
 30
0.0
 11
-1.0
 21
0.0
 31
0.0
  0
ENDBLK
  5
F4
330
EF
100
AcDbEntity
  8
0
100
AcDbBlockEnd
  0
ENDSEC
  0
SECTION
  2
ENTITIES
  0
LINE
  5
78A
330
21
100
AcDbEntity
  8
ﾁｭｳｼﾝｾﾝ
100
AcDbLine
 10
349.6519163994133
 20
367.0443138483939
 30
0.0
 11
483.9327689549149
 21
367.0443138483939
 31
0.0
  0
TEXT
  5
E8B
330
21
100
AcDbEntity
  8
AM_0
100
AcDbText
 10
808.7947287619838
 20
547.8007306609795
 30
0.0
 40
7.5
  1
ＶＸ０８－０４０～１００ＨＦ－Ｔ２（Ｔ４）
 41
0.8299999999999998
100
AcDbText
  0
LINE
  5
1007
330
21
100
AcDbEntity
  8
AM_7
 62
     1
370
    25
100
AcDbLine
 10
343.9097494024731
 20
685.1461660065345
 30
0.0
 11
697.7617494024729
 21
685.1461660065344
 31
0.0
1001
GENIUS_GENODEF_13
1002
{
1000
HIER
1070
     0
1002
}
1002
{
1000
MANEDIT
1070
     0
1002
}
1002
{
1000
NOSEL
1070
     0
1002
}
1002
{
1000
BEHIND
1070
     0
1002
}
1002
{
1000
OTHER
1070
     0
1002
}
1002
{
1000
REACTOR
1002
}
1001
GENIUS_GENOBJ-N-CEN_13
1002
{
1000
OWNER
1000
GEN
1002
}
1001
GENIUS_GENCEN_19
1002
{
1040
11.176
1002
}
  0
LINE
  5
110C
330
21
100
AcDbEntity
  8
ﾁｭｳｼﾝｾﾝ
100
AcDbLine
 10
476.3515494024731
 20
395.0443038483939
 30
0.0
 11
689.365019402473
 21
395.0443038483939
 31
0.0
  0
LINE
  5
110D
330
21
100
AcDbEntity
  8
AM_0
100
AcDbLine
 10
686.5857894024732
 20
379.0443348483939
 30
0.0
 11
628.5857694024731
 21
379.0443348483939
 31
0.0
  0
LINE
  5
110F
330
21
100
AcDbEntity
  8
AM_0
100
AcDbLine
 10
686.5857894024732
 20
414.0442908483938
 30
0.0
 11
641.5857894024732
 21
414.0442908483938
 31
0.0
  0
LINE
  5
1110
330
21
100
AcDbEntity
  8
AM_0
100
AcDbLine
 10
686.5857894024732
 20
411.0442908483938
 30
0.0
 11
628.5857694024731
 21
411.0442908483938
 31
0.0
  0
LINE
  5
1113
330
21
100
AcDbEntity
  8
AM_0
100
AcDbLine
 10
686.5857894024732
 20
379.0443348483939
 30
0.0
 11
686.5857894024732
 21
414.0442908483938
 31
0.0
  0
LINE
  5
1114
330
21
100
AcDbEntity
  8
AM_0
100
AcDbLine
 10
641.5857894024732
 20
411.0442908483938
 30
0.0
 11
641.5857894024732
 21
414.0442908483938
 31
0.0
  0
LINE
  5
1115
330
21
100
AcDbEntity
  8
AM_0
100
AcDbLine
 10
455.0858094024731
 20
293.5443168483939
 30
0.0
 11
487.1556294024732
 21
292.4244138483939
 31
0.0
  0
LINE
  5
1116
330
21
100
AcDbEntity
  8
AM_0
100
AcDbLine
 10
455.0858094024731
 20
440.5443108483939
 30
0.0
 11
486.6904794024731
 21
441.6479808483939
 31
0.0
  0
LINE
  5
1117
330
21
100
AcDbEntity
  8
AM_0
100
AcDbLine
 10
455.0858094024731
 20
327.5696478483939
 30
0.0
 11
489.5858094024731
 21
327.5696478483939
 31
0.0
  0
LINE
  5
1118
330
21
100
AcDbEntity
  8
AM_0
100
AcDbLine
 10
455.0858094024731
 20
406.5190008483939
 30
0.0
 11
489.5858094024731
 21
406.5190008483939
 31
0.0
  0
LINE
  5
1119
330
21
100
AcDbEntity
  8
AM_0
100
AcDbLine
 10
455.0858094024731
 20
428.6229708483939
 30
0.0
 11
489.5858094024731
 21
428.6229708483939
 31
0.0
  0
LINE
  5
111A
330
21
100
AcDbEntity
  8
AM_0
100
AcDbLine
 10
455.0858094024731
 20
305.4656898483939
 30
0.0
 11
489.5858094024731
 21
305.4656898483939
 31
0.0
  0
LINE
  5
1120
330
21
100
AcDbEntity
  8
AM_0
100
AcDbLine
 10
511.5857994024732
 20
466.544329848394
 30
0.0
 11
511.5857994024732
 21
267.5442948483939
 31
0.0
  0
LINE
  5
1121
330
21
100
AcDbEntity
  8
AM_0
100
AcDbLine
 10
511.5857994024732
 20
397.2296418483939
 30
0.0
 11
511.5873294024732
 21
397.2296418483939
 31
0.0
  0
LINE
  5
1122
330
21
100
AcDbEntity
  8
AM_0
100
AcDbLine
 10
503.5159794024731
 20
466.2625098483938
 30
0.0
 11
511.5857994024732
 21
466.5442998483938
 31
0.0
  0
LINE
  5
1123
330
21
100
AcDbEntity
  8
AM_0
100
AcDbLine
 10
501.5858094024731
 20
269.8248888483939
 30
0.0
 11
501.5858094024731
 21
286.6265178483939
 31
0.0
  0
LINE
  5
1124
330
21
100
AcDbEntity
  8
AM_0
100
AcDbLine
 10
492.4811394024732
 20
461.0665398483938
 30
0.0
 11
499.6556394024732
 21
461.3170998483938
 31
0.0
  0
LINE
  5
1125
330
21
100
AcDbEntity
  8
AM_0
100
AcDbLine
 10
489.5858094024731
 20
458.068369848394
 30
0.0
 11
489.5858094024731
 21
276.0208668483939
 31
0.0
  0
LINE
  5
1126
330
21
100
AcDbEntity
  8
AM_0
100
AcDbLine
 10
491.5858194024732
 20
450.3469698483939
 30
0.0
 11
499.5857994024732
 21
450.3469698483939
 31
0.0
  0
LINE
  5
1127
330
21
100
AcDbEntity
  8
AM_0
100
AcDbLine
 10
491.5858194024732
 20
433.376416848394
 30
0.0
 11
499.5857994024732
 21
433.376416848394
 31
0.0
  0
LINE
  5
1128
330
21
100
AcDbEntity
  8
AM_0
100
AcDbLine
 10
491.0643294024732
 20
424.4269848483939
 30
0.0
 11
500.0148894024732
 21
424.4269848483939
 31
0.0
  0
LINE
  5
1129
330
21
100
AcDbEntity
  8
AM_0
100
AcDbLine
 10
501.5858094024731
 20
452.3469798483938
 30
0.0
 11
501.5858094024731
 21
464.2637598483938
 31
0.0
  0
LINE
  5
112A
330
21
100
AcDbEntity
  8
AM_0
100
AcDbLine
 10
501.5858094024731
 20
306.6640548483939
 30
0.0
 11
501.5858094024731
 21
431.3764158483938
 31
0.0
  0
LINE
  5
112B
330
21
100
AcDbEntity
  8
AM_0
100
AcDbLine
 10
609.5857794024732
 20
453.9550698483938
 30
0.0
 11
609.5857794024732
 21
509.1234198483939
 31
0.0
  0
LINE
  5
112C
330
21
100
AcDbEntity
  8
AM_0
100
AcDbLine
 10
574.0963194024732
 20
469.5547998483939
 30
0.0
 11
609.5858094024731
 21
505.0442898483939
 31
0.0
  0
LINE
  5
112D
330
21
100
AcDbEntity
  8
AM_0
100
AcDbLine
 10
511.5857994024732
 20
466.544329848394
 30
0.0
 11
570.6916494024731
 21
468.092059848394
 31
0.0
  0
LINE
  5
112E
330
21
100
AcDbEntity
  8
AM_0
100
AcDbLine
 10
511.5857994024732
 20
267.5443038483938
 30
0.0
 11
596.8227894024733
 21
265.3122948483939
 31
0.0
  0
LINE
  5
112F
330
21
100
AcDbEntity
  8
AM_0
100
AcDbLine
 10
612.6904794024731
 20
277.128913848394
 30
0.0
 11
624.5857794024732
 21
277.544302848394
 31
0.0
  0
LINE
  5
1130
330
21
100
AcDbEntity
  8
AM_0
100
AcDbLine
 10
616.5857994024733
 20
303.676324848394
 30
0.0
 11
616.5857994024733
 21
395.0443068483939
 31
0.0
  0
LINE
  5
1131
330
21
100
AcDbEntity
  8
AM_0
100
AcDbLine
 10
624.5857794024732
 20
290.044303848394
 30
0.0
 11
628.5857994024732
 21
290.044303848394
 31
0.0
  0
LINE
  5
1132
330
21
100
AcDbEntity
  8
AM_0
100
AcDbLine
 10
616.5857994024733
 20
395.0443068483939
 30
0.0
 11
616.5857994024733
 21
485.6440698483939
 31
0.0
  0
LINE
  5
1133
330
21
100
AcDbEntity
  8
AM_0
100
AcDbLine
 10
611.8703694024731
 20
300.6146028483939
 30
0.0
 11
613.6905294024732
 21
300.6781548483939
 31
0.0
  0
LINE
  5
1134
330
21
100
AcDbEntity
  8
AM_0
100
AcDbLine
 10
612.4811094024733
 20
512.1215898483938
 30
0.0
 11
624.5857794024732
 21
512.5442898483938
 31
0.0
  0
LINE
  5
1135
330
21
100
AcDbEntity
  8
AM_0
100
AcDbLine
 10
624.5857794024732
 20
395.0443068483939
 30
0.0
 11
624.5857794024732
 21
512.544319848394
 31
0.0
  0
LINE
  5
1136
330
21
100
AcDbEntity
  8
AM_0
100
AcDbLine
 10
624.5857794024732
 20
277.544302848394
 30
0.0
 11
624.5857794024732
 21
395.0443068483939
 31
0.0
  0
LINE
  5
1137
330
21
100
AcDbEntity
  8
AM_0
100
AcDbLine
 10
489.5858094024731
 20
286.6265178483939
 30
0.0
 11
607.8492894024732
 21
286.6265178483939
 31
0.0
  0
LINE
  5
1138
330
21
100
AcDbEntity
  8
AM_0
100
AcDbLine
 10
609.5857794024732
 20
280.1270838483939
 30
0.0
 11
609.5857794024732
 21
330.3550368483939
 31
0.0
  0
LINE
  5
1139
330
21
100
AcDbEntity
  8
AM_0
100
AcDbLine
 10
609.5857794024732
 20
366.280069848394
 30
0.0
 11
609.5857794024732
 21
453.9550698483938
 31
0.0
  0
LINE
  5
113A
330
21
100
AcDbEntity
  8
AM_0
100
AcDbLine
 10
489.5858094024731
 20
446.2487298483938
 30
0.0
 11
596.5793094024731
 21
446.2487298483938
 31
0.0
  0
LINE
  5
113B
330
21
100
AcDbEntity
  8
AM_0
100
AcDbLine
 10
597.4736694024731
 20
444.0813408483939
 30
0.0
 11
593.0528994024732
 21
401.4774438483939
 31
0.0
  0
LINE
  5
113C
330
21
100
AcDbEntity
  8
AM_0
100
AcDbLine
 10
596.8227594024732
 20
265.3122948483939
 30
0.0
 11
617.5858194024733
 21
277.2998568483939
 31
0.0
  0
LINE
  5
113D
330
21
100
AcDbEntity
  8
AM_0
100
AcDbLine
 10
489.5858094024731
 20
306.6640548483939
 30
0.0
 11
607.8492894024732
 21
306.6640548483939
 31
0.0
  0
LINE
  5
113E
330
21
100
AcDbEntity
  8
AM_0
100
AcDbLine
 10
612.5857794024732
 20
450.9550698483938
 30
0.0
 11
616.5857994024733
 21
450.9550698483938
 31
0.0
  0
LINE
  5
113F
330
21
100
AcDbEntity
  8
AM_0
100
AcDbLine
 10
612.5857794024732
 20
363.280069848394
 30
0.0
 11
616.5857994024733
 21
363.280069848394
 31
0.0
  0
LINE
  5
1140
330
21
100
AcDbEntity
  8
AM_0
100
AcDbLine
 10
612.5857794024732
 20
333.3550368483939
 30
0.0
 11
616.5857994024733
 21
333.3550368483939
 31
0.0
  0
LINE
  5
1141
330
21
100
AcDbEntity
  8
AM_0
100
AcDbLine
 10
572.6858094024732
 20
468.1442598483938
 30
0.0
 11
579.9159894024731
 21
466.9830198483939
 31
0.0
  0
LINE
  5
1142
330
21
100
AcDbEntity
  8
AM_0
100
AcDbLine
 10
613.3012494024732
 20
488.6359398483939
 30
0.0
 11
613.4810694024731
 21
488.6422398483939
 31
0.0
  0
LINE
  5
1143
330
21
100
AcDbEntity
  8
AM_0
100
AcDbLine
 10
624.5857794024732
 20
500.0443398483939
 30
0.0
 11
628.5857994024732
 21
500.0443398483939
 31
0.0
  0
LINE
  5
1144
330
21
100
AcDbEntity
  8
AM_0
100
AcDbLine
 10
628.5857994024732
 20
290.044303848394
 30
0.0
 11
628.5857994024732
 21
500.0443398483939
 31
0.0
  0
LINE
  5
1145
330
21
100
AcDbEntity
  8
AM_0
100
AcDbLine
 10
492.4811394024732
 20
273.0220788483939
 30
0.0
 11
499.6556394024732
 21
272.7715458483939
 31
0.0
  0
LINE
  5
1146
330
21
100
AcDbEntity
  8
AM_0
100
AcDbLine
 10
503.5159794024731
 20
267.8261118483939
 30
0.0
 11
511.5857994024732
 21
267.5443038483938
 31
0.0
  0
ARC
  5
1147
330
21
100
AcDbEntity
  8
AM_0
100
AcDbCircle
 10
486.5858094024731
 20
444.6461598483938
 30
0.0
 40
3.0
100
AcDbArc
 50
271.9999999999971
 51
0.0
  0
ARC
  5
1148
330
21
100
AcDbEntity
  8
AM_0
100
AcDbCircle
 10
486.5858094024731
 20
289.4424678483939
 30
0.0
 40
3.0
100
AcDbArc
 50
0.0
 51
87.99999999999633
  0
ARC
  5
1149
330
21
100
AcDbEntity
  8
AM_0
100
AcDbCircle
 10
503.5858194024732
 20
464.2637598483938
 30
0.0
 40
2.00000007
100
AcDbArc
 50
91.99999800000055
 51
180.0000100000009
  0
ARC
  5
114A
330
21
100
AcDbEntity
  8
AM_0
100
AcDbCircle
 10
492.5858094024731
 20
276.0208668483939
 30
0.0
 40
3.0
100
AcDbArc
 50
179.999989999999
 51
268.0000099999987
  0
ARC
  5
114B
330
21
100
AcDbEntity
  8
AM_0
100
AcDbCircle
 10
492.5858094024731
 20
458.068369848394
 30
0.0
 40
3.0
100
AcDbArc
 50
91.99999800000055
 51
180.0000100000009
  0
ARC
  5
114C
330
21
100
AcDbEntity
  8
AM_0
100
AcDbCircle
 10
499.5857994024732
 20
463.3158798483939
 30
0.0
 40
2.00000007
100
AcDbArc
 50
271.9999999999971
 51
0.0
  0
ARC
  5
114D
330
21
100
AcDbEntity
  8
AM_0
100
AcDbCircle
 10
499.5857994024732
 20
452.3469798483938
 30
0.0
 40
2.00000007
100
AcDbArc
 50
270.0
 51
0.0
  0
ARC
  5
114E
330
21
100
AcDbEntity
  8
AM_0
100
AcDbCircle
 10
499.5857994024732
 20
431.3764158483938
 30
0.0
 40
2.00000007
100
AcDbArc
 50
0.0
 51
90.00000299999769
  0
ARC
  5
114F
330
21
100
AcDbEntity
  8
AM_0
100
AcDbCircle
 10
491.5858194024732
 20
448.3469598483939
 30
0.0
 40
2.00000007
100
AcDbArc
 50
90.00000299999769
 51
180.0000100000009
  0
ARC
  5
1150
330
21
100
AcDbEntity
  8
AM_0
100
AcDbCircle
 10
491.5858194024732
 20
435.3763848483938
 30
0.0
 40
2.00000007
100
AcDbArc
 50
179.999989999999
 51
270.0
  0
ARC
  5
1151
330
21
100
AcDbEntity
  8
AM_0
100
AcDbCircle
 10
612.5857794024732
 20
280.1270838483939
 30
0.0
 40
3.0
100
AcDbArc
 50
179.999989999999
 51
271.9999900000013
  0
ARC
  5
1152
330
21
100
AcDbEntity
  8
AM_0
100
AcDbCircle
 10
576.5857794024732
 20
446.2487298483938
 30
0.0
 40
21.0000006
100
AcDbArc
 50
354.0759799999996
 51
80.87552500000333
  0
ARC
  5
1153
330
21
100
AcDbEntity
  8
AM_0
100
AcDbCircle
 10
632.8393194024731
 20
397.3490868483939
 30
0.0
 40
40.00000199999999
100
AcDbArc
 50
174.0759799999995
 51
234.4553399999976
  0
ARC
  5
1154
330
21
100
AcDbEntity
  8
AM_0
100
AcDbCircle
 10
612.5857794024732
 20
330.3550368483939
 30
0.0
 40
3.0
100
AcDbArc
 50
90.00000299999769
 51
180.0000100000009
  0
ARC
  5
1155
330
21
100
AcDbEntity
  8
AM_0
100
AcDbCircle
 10
612.5857794024732
 20
366.280069848394
 30
0.0
 40
3.0
100
AcDbArc
 50
179.999989999999
 51
270.0
  0
ARC
  5
1156
330
21
100
AcDbEntity
  8
AM_0
100
AcDbCircle
 10
613.5857994024733
 20
303.676324848394
 30
0.0
 40
3.0
100
AcDbArc
 50
271.9999999999971
 51
0.0
  0
ARC
  5
1157
330
21
100
AcDbEntity
  8
AM_0
100
AcDbCircle
 10
612.5857794024732
 20
453.9550698483938
 30
0.0
 40
3.0
100
AcDbArc
 50
179.999989999999
 51
270.0
  0
ARC
  5
1158
330
21
100
AcDbEntity
  8
AM_0
100
AcDbCircle
 10
612.5857794024732
 20
509.1234198483939
 30
0.0
 40
3.0
100
AcDbArc
 50
91.99999800000055
 51
180.0000100000009
  0
ARC
  5
1159
330
21
100
AcDbEntity
  8
AM_0
100
AcDbCircle
 10
613.5857994024733
 20
485.6440698483939
 30
0.0
 40
3.0
100
AcDbArc
 50
0.0
 51
91.99999800000055
  0
ARC
  5
115A
330
21
100
AcDbEntity
  8
AM_0
100
AcDbCircle
 10
570.5607594024732
 20
473.090359848394
 30
0.0
 40
5.0000001
100
AcDbArc
 50
271.5000000000027
 51
315.0
  0
ARC
  5
115B
330
21
100
AcDbEntity
  8
AM_0
100
AcDbCircle
 10
499.5857994024732
 20
270.7727658483939
 30
0.0
 40
2.00000007
100
AcDbArc
 50
0.0
 51
87.99999999999633
  0
ARC
  5
115C
330
21
100
AcDbEntity
  8
AM_0
100
AcDbCircle
 10
492.5858094024731
 20
276.020254848394
 30
0.0
 40
3.0
100
AcDbArc
 50
179.999989999999
 51
268.0000099999987
  0
ARC
  5
115D
330
21
100
AcDbEntity
  8
AM_0
100
AcDbCircle
 10
503.5858194024732
 20
269.8248888483939
 30
0.0
 40
2.00000007
100
AcDbArc
 50
179.999989999999
 51
268.0000099999987
  0
POINT
  5
115E
330
21
100
AcDbEntity
  8
AM_0
100
AcDbPoint
 10
916.8506074450396
 20
395.0443038483939
 30
0.0
  0
POINT
  5
115F
330
21
100
AcDbEntity
  8
AM_0
100
AcDbPoint
 10
916.8506074450396
 20
395.0443038483939
 30
0.0
  0
LINE
  5
1160
330
21
100
AcDbEntity
  8
AM_0
100
AcDbLine
 10
911.8505914450397
 20
414.0443208483937
 30
0.0
 11
921.8505904450395
 21
414.0443208483937
 31
0.0
  0
LINE
  5
1161
330
21
100
AcDbEntity
  8
AM_0
100
AcDbLine
 10
921.8505904450395
 20
406.0443198483938
 30
0.0
 11
921.8505904450395
 21
414.0443208483937
 31
0.0
  0
LINE
  5
1162
330
21
100
AcDbEntity
  8
AM_0
100
AcDbLine
 10
911.8505914450397
 20
406.0443198483938
 30
0.0
 11
911.8505914450397
 21
414.0443208483937
 31
0.0
  0
LINE
  5
1163
330
21
100
AcDbEntity
  8
AM_0
100
AcDbLine
 10
911.8505914450397
 20
406.0443198483938
 30
0.0
 11
921.8505904450395
 21
406.0443198483938
 31
0.0
  0
LINE
  5
1164
330
21
100
AcDbEntity
  8
ﾁｭｳｼﾝｾﾝ
100
AcDbLine
 10
858.5576453374029
 20
367.0443198483939
 30
0.0
 11
974.3904804847185
 21
367.0443198483939
 31
0.0
  0
LINE
  5
1165
330
21
100
AcDbEntity
  8
AM_0
100
AcDbLine
 10
969.8505994450398
 20
352.0443168483939
 30
0.0
 11
1002.82734044504
 21
352.0443168483939
 31
0.0
  0
LINE
  5
1166
330
21
100
AcDbEntity
  8
AM_0
100
AcDbLine
 10
882.7466464450397
 20
434.8051248483939
 30
0.0
 11
853.5163444450395
 21
464.0353968483938
 31
0.0
  0
LINE
  5
1167
330
21
100
AcDbEntity
  8
AM_0
100
AcDbLine
 10
863.8505884450395
 20
352.0443168483939
 30
0.0
 11
830.8738594450396
 21
352.0443168483939
 31
0.0
  0
LINE
  5
1168
330
21
100
AcDbEntity
  8
AM_0
100
AcDbLine
 10
868.8505894450395
 20
395.0443038483939
 30
0.0
 11
868.8505894450395
 21
357.0443178483939
 31
0.0
  0
LINE
  5
1169
330
21
100
AcDbEntity
  8
AM_0
100
AcDbLine
 10
799.3506034450397
 20
395.0443038483939
 30
0.0
 11
799.3506034450397
 21
425.0442888483938
 31
0.0
  0
LINE
  5
116A
330
21
100
AcDbEntity
  8
AM_0
100
AcDbLine
 10
916.8506074450396
 20
512.544316848394
 30
0.0
 11
886.8505894450395
 21
512.544316848394
 31
0.0
  0
LINE
  5
116B
330
21
100
AcDbEntity
  8
AM_0
100
AcDbLine
 10
916.8506074450396
 20
277.5442998483939
 30
0.0
 11
886.8505894450395
 21
277.5442998483939
 31
0.0
  0
LINE
  5
116C
330
21
100
AcDbEntity
  8
AM_0
100
AcDbLine
 10
799.3506034450397
 20
395.0443038483939
 30
0.0
 11
799.3506034450397
 21
365.044303848394
 31
0.0
  0
LINE
  5
116D
330
21
100
AcDbEntity
  8
AM_0
100
AcDbLine
 10
799.3506034450397
 20
425.0442888483938
 30
0.0
 11
802.7654584450397
 21
490.2035868483939
 31
0.0
  0
LINE
  5
116E
330
21
100
AcDbEntity
  8
ﾁｭｳｼﾝｾﾝ1
100
AcDbLine
 10
1002.421203829502
 20
309.4736941523182
 30
0.0
 11
1022.199772213598
 21
289.6951341466849
 31
0.0
  0
LINE
  5
116F
330
21
100
AcDbEntity
  8
AM_0
100
AcDbLine
 10
886.8505894450395
 20
277.5442998483939
 30
0.0
 11
821.6913334450396
 21
280.959157848394
 31
0.0
  0
LINE
  5
1170
330
21
100
AcDbEntity
  8
AM_0
100
AcDbLine
 10
886.8505894450395
 20
512.544316848394
 30
0.0
 11
821.6913334450396
 21
509.1294768483939
 31
0.0
  0
LINE
  5
1171
330
21
100
AcDbEntity
  8
AM_0
100
AcDbLine
 10
1034.350602445039
 20
425.0442888483938
 30
0.0
 11
1030.93575044504
 21
490.2035568483939
 31
0.0
  0
LINE
  5
1172
330
21
100
AcDbEntity
  8
AM_0
100
AcDbLine
 10
1034.350599445039
 20
395.0443038483939
 30
0.0
 11
1034.350599445039
 21
365.044303848394
 31
0.0
  0
LINE
  5
1173
330
21
100
AcDbEntity
  8
AM_0
100
AcDbLine
 10
799.3505734450395
 20
365.044303848394
 30
0.0
 11
802.7654284450395
 21
299.8850148483939
 31
0.0
  0
LINE
  5
1174
330
21
100
AcDbEntity
  8
ﾁｭｳｼﾝｾﾝ1
100
AcDbLine
 10
831.0246721416037
 20
480.8702273493787
 30
0.0
 11
812.5522423027559
 21
499.3426593374632
 31
0.0
  0
LINE
  5
1175
330
21
100
AcDbEntity
  8
ﾁｭｳｼﾝｾﾝ1
100
AcDbLine
 10
830.1329338903915
 20
308.3266479388727
 30
0.0
 11
812.3689276554225
 21
290.5626396781191
 31
0.0
  0
LINE
  5
1176
330
21
100
AcDbEntity
  8
AM_0
100
AcDbLine
 10
877.0897864450398
 20
429.1482648483939
 30
0.0
 11
847.8594844450396
 21
458.378536848394
 31
0.0
  0
LINE
  5
1177
330
21
100
AcDbEntity
  8
AM_0
100
AcDbLine
 10
950.9545204450397
 20
434.8051248483939
 30
0.0
 11
980.1848374450397
 21
464.0353968483938
 31
0.0
  0
LINE
  5
1178
330
21
100
AcDbEntity
  8
AM_0
100
AcDbLine
 10
956.6113954450397
 20
429.1482318483939
 30
0.0
 11
985.8416974450397
 21
458.378536848394
 31
0.0
  0
LINE
  5
1179
330
21
100
AcDbEntity
  8
ﾁｭｳｼﾝｾﾝ1
100
AcDbLine
 10
1001.866380502113
 20
480.0600756383125
 30
0.0
 11
1021.570958742483
 21
499.7646667532923
 31
0.0
  0
LINE
  5
117A
330
21
100
AcDbEntity
  8
AM_0
100
AcDbLine
 10
946.8506074450397
 20
512.5442868483938
 30
0.0
 11
1012.009881445039
 21
509.129446848394
 31
0.0
  0
LINE
  5
117B
330
21
100
AcDbEntity
  8
AM_0
100
AcDbLine
 10
916.8506074450396
 20
512.544316848394
 30
0.0
 11
946.8506074450397
 21
512.544316848394
 31
0.0
  0
LINE
  5
117C
330
21
100
AcDbEntity
  8
AM_0
100
AcDbLine
 10
946.8505924450395
 20
277.5442998483939
 30
0.0
 11
1012.009881445039
 21
280.9591428483939
 31
0.0
  0
LINE
  5
117D
330
21
100
AcDbEntity
  8
AM_0
100
AcDbLine
 10
1034.350599445039
 20
395.0443038483939
 30
0.0
 11
1034.350599445039
 21
425.0442888483938
 31
0.0
  0
LINE
  5
117E
330
21
100
AcDbEntity
  8
AM_0
100
AcDbLine
 10
1034.350602445039
 20
365.0442888483939
 30
0.0
 11
1030.935747445039
 21
299.8850148483939
 31
0.0
  0
LINE
  5
117F
330
21
100
AcDbEntity
  8
AM_0
100
AcDbLine
 10
916.8506074450396
 20
277.5442998483939
 30
0.0
 11
946.8506074450397
 21
277.5442998483939
 31
0.0
  0
LINE
  5
1180
330
21
100
AcDbEntity
  8
AM_0
100
AcDbLine
 10
913.8506074450397
 20
475.5590268483939
 30
0.0
 11
913.8506074450397
 21
469.368526848394
 31
0.0
  0
LINE
  5
1181
330
21
100
AcDbEntity
  8
AM_0
100
AcDbLine
 10
919.8506074450397
 20
475.5590268483939
 30
0.0
 11
919.8506074450397
 21
469.368526848394
 31
0.0
  0
LINE
  5
1182
330
21
100
AcDbEntity
  8
AM_0
100
AcDbLine
 10
964.8506014450395
 20
395.0443038483939
 30
0.0
 11
964.8506014450395
 21
357.0443178483939
 31
0.0
  0
LINE
  5
1183
330
21
100
AcDbEntity
  8
ﾁｭｳｼﾝｾﾝ
100
AcDbLine
 10
916.8506074450396
 20
262.2735708483939
 30
0.0
 11
916.8506074450396
 21
518.0956462150553
 31
0.0
  0
LINE
  5
1184
330
21
100
AcDbEntity
  8
ﾁｭｳｼﾝｾﾝ
100
AcDbLine
 10
794.1829384450397
 20
395.0443038483939
 30
0.0
 11
1038.660339445039
 21
395.0443038483939
 31
0.0
  0
CIRCLE
  5
1185
330
21
100
AcDbEntity
  8
AM_0
100
AcDbCircle
 10
916.8506074450396
 20
395.0443038483939
 30
0.0
 40
2.75000007
  0
CIRCLE
  5
1186
330
21
100
AcDbEntity
  8
AM_0
100
AcDbCircle
 10
916.8506074450396
 20
395.0443038483939
 30
0.0
 40
2.75000007
  0
CIRCLE
  5
1187
330
21
100
AcDbEntity
  8
AM_0
100
AcDbCircle
 10
916.8506074450396
 20
395.0443038483939
 30
0.0
 40
2.75000007
  0
ARC
  5
1188
330
21
100
AcDbEntity
  8
AM_0
100
AcDbCircle
 10
916.8506074450396
 20
395.0443038483939
 30
0.0
 40
16.0000005
100
AcDbArc
 50
108.2099600000048
 51
71.79005199999881
  0
CIRCLE
  5
1189
330
21
100
AcDbEntity
  8
AM_5
100
AcDbCircle
 10
916.8506074450396
 20
395.0443038483939
 30
0.0
 40
4.000000199999999
  0
ARC
  5
118A
330
21
100
AcDbEntity
  8
AM_0
100
AcDbCircle
 10
916.8506074450396
 20
395.0443038483939
 30
0.0
 40
16.0000005
100
AcDbArc
 50
108.2099600000048
 51
71.79005199999881
  0
ARC
  5
118B
330
21
100
AcDbEntity
  8
AM_0
100
AcDbCircle
 10
916.8506074450396
 20
395.0443038483939
 30
0.0
 40
89.00000399999999
100
AcDbArc
 50
166.1242299999981
 51
179.5717700000002
  0
ARC
  5
118C
330
21
100
AcDbEntity
  8
AM_0
100
AcDbCircle
 10
873.5542654450396
 20
425.6127408483938
 30
0.0
 40
5.0000001
100
AcDbArc
 50
324.7768499999978
 51
45.00000100000264
  0
ARC
  5
118D
330
21
100
AcDbEntity
  8
AM_0
100
AcDbCircle
 10
863.8505884450395
 20
357.0443178483939
 30
0.0
 40
5.0000001
100
AcDbArc
 50
270.0
 51
0.0
  0
ARC
  5
118E
330
21
100
AcDbEntity
  8
AM_0
100
AcDbCircle
 10
916.8506074450396
 20
367.0443198483939
 30
0.0
 40
99.500004
100
AcDbArc
 50
125.8636899999968
 51
150.2697600000038
  0
ARC
  5
118F
330
21
100
AcDbEntity
  8
AM_0
100
AcDbCircle
 10
969.8505994450398
 20
357.0443178483939
 30
0.0
 40
5.0000001
100
AcDbArc
 50
179.999989999999
 51
270.0
  0
ARC
  5
1190
330
21
100
AcDbEntity
  8
AM_0
100
AcDbCircle
 10
857.0518684450396
 20
467.5709568483938
 30
0.0
 40
5.0000001
100
AcDbArc
 50
129.5058200000001
 51
225.0
  0
ARC
  5
1191
330
21
100
AcDbEntity
  8
AM_0
100
AcDbCircle
 10
1002.82734044504
 20
357.0443178483939
 30
0.0
 40
5.0000001
100
AcDbArc
 50
270.0
 51
336.1555300000005
  0
ARC
  5
1192
330
21
100
AcDbEntity
  8
AM_0
100
AcDbCircle
 10
916.8506074450396
 20
395.0443038483939
 30
0.0
 40
48.0
100
AcDbArc
 50
144.7768400000017
 51
180.0000100000009
  0
CIRCLE
  5
1193
330
21
100
AcDbEntity
  8
AM_0
100
AcDbCircle
 10
916.8506074450396
 20
395.0443038483939
 30
0.0
 40
29.000001
  0
ARC
  5
1194
330
21
100
AcDbEntity
  8
AM_0
100
AcDbCircle
 10
916.8506074450396
 20
395.0443038483939
 30
0.0
 40
89.00000399999999
100
AcDbArc
 50
0.4282278600016865
 51
13.87576399999807
  0
ARC
  5
1195
330
21
100
AcDbEntity
  8
AM_0
100
AcDbCircle
 10
916.8506074450396
 20
395.0443038483939
 30
0.0
 40
48.0
100
AcDbArc
 50
0.0
 51
35.22315200000117
  0
ARC
  5
1196
330
21
100
AcDbEntity
  8
AM_0
100
AcDbCircle
 10
916.8506074450396
 20
395.0443038483939
 30
0.0
 40
48.0
100
AcDbArc
 50
54.77684999999778
 51
125.2231400000008
  0
ARC
  5
1197
330
21
100
AcDbEntity
  8
AM_0
100
AcDbCircle
 10
844.3239454450395
 20
454.8430368483938
 30
0.0
 40
5.0000001
100
AcDbArc
 50
45.00000100000264
 51
140.4941799999988
  0
ARC
  5
1198
330
21
100
AcDbEntity
  8
AM_0
100
AcDbCircle
 10
916.8506074450396
 20
367.0443198483939
 30
0.0
 40
93.50000399999998
100
AcDbArc
 50
356.99212
 51
17.85321299999984
  0
ARC
  5
1199
330
21
100
AcDbEntity
  8
AM_0
100
AcDbCircle
 10
916.8506074450396
 20
367.0443198483939
 30
0.0
 40
99.500004
100
AcDbArc
 50
29.73024300000002
 51
54.13631200000036
  0
ARC
  5
119A
330
21
100
AcDbEntity
  8
AM_0
100
AcDbCircle
 10
916.8506074450396
 20
367.0443198483939
 30
0.0
 40
99.500004
100
AcDbArc
 50
58.83849399999925
 51
86.64417999999653
  0
ARC
  5
119B
330
21
100
AcDbEntity
  8
AM_0
100
AcDbCircle
 10
886.2821854450396
 20
438.3406458483938
 30
0.0
 40
5.0000001
100
AcDbArc
 50
225.0
 51
305.2231500000023
  0
ARC
  5
119C
330
21
100
AcDbEntity
  8
AM_0
100
AcDbCircle
 10
830.8738594450396
 20
357.0443178483939
 30
0.0
 40
5.0000001
100
AcDbArc
 50
203.8444699999995
 51
270.0
  0
ARC
  5
119D
330
21
100
AcDbEntity
  8
AM_0
100
AcDbCircle
 10
822.7380544450397
 20
300.9317388483939
 30
0.0
 40
20.0000007
100
AcDbArc
 50
183.0000099999997
 51
267.0000000000009
  0
CIRCLE
  5
119E
330
21
100
AcDbEntity
  8
AM_0
100
AcDbCircle
 10
1012.31001344504
 20
299.5848888483939
 30
0.0
 40
7.500000299999999
  0
ARC
  5
119F
330
21
100
AcDbEntity
  8
ﾁｭｳｼﾝｾﾝ1
100
AcDbCircle
 10
916.8506074450405
 20
395.0443038483927
 30
0.0
 40
135.0000029999985
100
AcDbArc
 50
304.5369191709712
 51
322.2563499999999
  0
ARC
  5
11A0
330
21
100
AcDbEntity
  8
AM_0
100
AcDbCircle
 10
822.7380544450397
 20
489.1568568483939
 30
0.0
 40
20.0000007
100
AcDbArc
 50
92.99999900000159
 51
176.9999900000002
  0
CIRCLE
  5
11A1
330
21
100
AcDbEntity
  8
AM_0
100
AcDbCircle
 10
821.3911924450396
 20
299.5848888483939
 30
0.0
 40
7.500000299999999
  0
ARC
  5
11A2
330
21
100
AcDbEntity
  8
ﾁｭｳｼﾝｾﾝ1
100
AcDbCircle
 10
916.8506074450396
 20
395.0443038483939
 30
0.0
 40
135.000003
100
AcDbArc
 50
218.3683899999979
 51
232.2563499999989
  0
ARC
  5
11A3
330
21
100
AcDbEntity
  8
ﾁｭｳｼﾝｾﾝ1
100
AcDbCircle
 10
916.850607445038
 20
395.044303848396
 30
0.0
 40
135.0000029999974
100
AcDbArc
 50
123.9592920991924
 51
142.2563499999998
  0
CIRCLE
  5
11A4
330
21
100
AcDbEntity
  8
AM_0
100
AcDbCircle
 10
916.8506074450396
 20
395.0443038483939
 30
0.0
 40
99.000003
  0
CIRCLE
  5
11A5
330
21
100
AcDbEntity
  8
AM_0
100
AcDbCircle
 10
821.3911924450396
 20
490.5037368483939
 30
0.0
 40
7.500000299999999
  0
CIRCLE
  5
11A6
330
21
100
AcDbEntity
  8
AM_0
100
AcDbCircle
 10
916.8506074450396
 20
395.0443038483939
 30
0.0
 40
105.000003
  0
ARC
  5
11A7
330
21
100
AcDbEntity
  8
AM_0
100
AcDbCircle
 10
976.6493224450396
 20
467.5709568483938
 30
0.0
 40
5.0000001
100
AcDbArc
 50
315.0
 51
50.49418200000092
  0
ARC
  5
11A8
330
21
100
AcDbEntity
  8
AM_0
100
AcDbCircle
 10
989.3772334450396
 20
454.8430368483938
 30
0.0
 40
5.0000001
100
AcDbArc
 50
39.50581799999908
 51
135.0
  0
CIRCLE
  5
11A9
330
21
100
AcDbEntity
  8
AM_0
100
AcDbCircle
 10
1012.31001344504
 20
490.5037368483939
 30
0.0
 40
7.500000299999999
  0
ARC
  5
11AA
330
21
100
AcDbEntity
  8
ﾁｭｳｼﾝｾﾝ1
100
AcDbCircle
 10
916.8506074450396
 20
395.0443038483939
 30
0.0
 40
135.000003
100
AcDbArc
 50
38.36839300000006
 51
52.25634600000293
  0
ARC
  5
11AB
330
21
100
AcDbEntity
  8
AM_0
100
AcDbCircle
 10
916.8506074450396
 20
367.0443198483939
 30
0.0
 40
99.500004
100
AcDbArc
 50
242.8856600000016
 51
297.114350000001
  0
ARC
  5
11AC
330
21
100
AcDbEntity
  8
AM_0
100
AcDbCircle
 10
922.8506074450397
 20
469.368526848394
 30
0.0
 40
3.0
100
AcDbArc
 50
179.999989999999
 51
266.6441900000006
  0
ARC
  5
11AD
330
21
100
AcDbEntity
  8
AM_0
100
AcDbCircle
 10
910.8506074450398
 20
475.5590268483939
 30
0.0
 40
3.0
100
AcDbArc
 50
0.0
 51
90.00000299999769
  0
ARC
  5
11AE
330
21
100
AcDbEntity
  8
AM_0
100
AcDbCircle
 10
960.1469344450396
 20
425.6127408483938
 30
0.0
 40
5.0000001
100
AcDbArc
 50
135.0
 51
215.2231500000023
  0
ARC
  5
11AF
330
21
100
AcDbEntity
  8
AM_0
100
AcDbCircle
 10
916.8506074450396
 20
367.0443198483939
 30
0.0
 40
93.50000399999998
100
AcDbArc
 50
162.1467900000002
 51
183.00788
  0
ARC
  5
11B0
330
21
100
AcDbEntity
  8
AM_0
100
AcDbCircle
 10
910.8506074450398
 20
469.368526848394
 30
0.0
 40
3.0
100
AcDbArc
 50
273.355819999997
 51
0.0
  0
ARC
  5
11B1
330
21
100
AcDbEntity
  8
AM_0
100
AcDbCircle
 10
1010.96315744504
 20
489.1568568483939
 30
0.0
 40
20.0000007
100
AcDbArc
 50
3.000000099998847
 51
86.99999899999692
  0
ARC
  5
11B2
330
21
100
AcDbEntity
  8
AM_0
100
AcDbCircle
 10
1010.96315744504
 20
300.9317388483939
 30
0.0
 40
20.0000007
100
AcDbArc
 50
272.9999999999991
 51
357.0000000000011
  0
ARC
  5
11B3
330
21
100
AcDbEntity
  8
AM_0
100
AcDbCircle
 10
947.4190114450397
 20
438.3406458483938
 30
0.0
 40
5.0000001
100
AcDbArc
 50
234.7768599999991
 51
315.0
  0
ARC
  5
11B4
330
21
100
AcDbEntity
  8
AM_0
100
AcDbCircle
 10
922.8506074450397
 20
475.5590268483939
 30
0.0
 40
3.0
100
AcDbArc
 50
90.00000299999769
 51
180.0000100000009
  0
ARC
  5
11B5
330
21
100
AcDbEntity
  8
AM_0
100
AcDbCircle
 10
916.8506074450396
 20
367.0443198483939
 30
0.0
 40
99.500004
100
AcDbArc
 50
93.35581799999742
 51
121.1614999999984
  0
LINE
  5
1268
330
21
100
AcDbEntity
  8
AM_0
100
AcDbLine
 10
511.585809402473
 20
585.6461660065344
 30
0.0
 11
511.585809402473
 21
784.6461660065342
 31
0.0
  0
LINE
  5
1269
330
21
100
AcDbEntity
  8
AM_0
100
AcDbLine
 10
501.585809402473
 20
620.0739560065345
 30
0.0
 11
501.585809402473
 21
750.2183660065345
 31
0.0
  0
LINE
  5
126A
330
21
100
AcDbEntity
  8
AM_0
100
AcDbLine
 10
504.481139402473
 20
585.8942360065346
 30
0.0
 11
511.5857494024732
 21
585.6461660065344
 31
0.0
  0
LINE
  5
126B
330
21
100
AcDbEntity
  8
AM_0
100
AcDbLine
 10
455.0858094024731
 20
623.5675160065345
 30
0.0
 11
489.585809402473
 21
623.5675160065345
 31
0.0
  0
LINE
  5
126C
330
21
100
AcDbEntity
  8
AM_0
100
AcDbLine
 10
455.0858094024731
 20
746.7247760065345
 30
0.0
 11
489.585809402473
 21
746.7247760065345
 31
0.0
  0
LINE
  5
126D
330
21
100
AcDbEntity
  8
AM_0
100
AcDbLine
 10
455.0858094024731
 20
724.6208360065345
 30
0.0
 11
489.585809402473
 21
724.6208360065345
 31
0.0
  0
LINE
  5
126E
330
21
100
AcDbEntity
  8
AM_0
100
AcDbLine
 10
455.0858094024731
 20
645.6714960065344
 30
0.0
 11
489.585809402473
 21
645.6714960065344
 31
0.0
  0
LINE
  5
126F
330
21
100
AcDbEntity
  8
AM_0
100
AcDbLine
 10
455.0857494024731
 20
611.6461360065345
 30
0.0
 11
487.1556394024729
 21
610.5262260065345
 31
0.0
  0
LINE
  5
1270
330
21
100
AcDbEntity
  8
AM_0
100
AcDbLine
 10
455.0858094024731
 20
758.6461660065345
 30
0.0
 11
486.6904894024729
 21
759.7497960065346
 31
0.0
  0
LINE
  5
1271
330
21
100
AcDbEntity
  8
AM_0
100
AcDbLine
 10
489.585809402473
 20
594.2250560065344
 30
0.0
 11
489.585809402473
 21
776.0673060065346
 31
0.0
  0
LINE
  5
1272
330
21
100
AcDbEntity
  8
AM_0
100
AcDbLine
 10
489.585809402473
 20
617.0739560065345
 30
0.0
 11
498.585809402473
 21
617.0739560065345
 31
0.0
  0
LINE
  5
1273
330
21
100
AcDbEntity
  8
AM_0
100
AcDbLine
 10
489.585809402473
 20
627.8285960065343
 30
0.0
 11
501.585809402473
 21
627.8285960065343
 31
0.0
  0
LINE
  5
1274
330
21
100
AcDbEntity
  8
AM_0
100
AcDbLine
 10
489.585809402473
 20
753.2183660065345
 30
0.0
 11
498.585809402473
 21
753.2183660065345
 31
0.0
  0
LINE
  5
1275
330
21
100
AcDbEntity
  8
AM_0
100
AcDbLine
 10
489.585809402473
 20
742.4637260065344
 30
0.0
 11
501.585809402473
 21
742.4637260065344
 31
0.0
  0
LINE
  5
1276
330
21
100
AcDbEntity
  8
AM_0
100
AcDbLine
 10
492.585809402473
 20
602.2561460065344
 30
0.0
 11
498.585809402473
 21
602.2561460065344
 31
0.0
  0
LINE
  5
1277
330
21
100
AcDbEntity
  8
AM_0
100
AcDbLine
 10
501.585809402473
 20
588.8924360065344
 30
0.0
 11
501.585809402473
 21
599.2561460065344
 31
0.0
  0
LINE
  5
1278
330
21
100
AcDbEntity
  8
AM_0
100
AcDbLine
 10
492.585809402473
 20
591.2250560065344
 30
0.0
 11
498.6230394024729
 21
591.2250560065344
 31
0.0
  0
LINE
  5
1279
330
21
100
AcDbEntity
  8
AM_0
100
AcDbLine
 10
492.585809402473
 20
779.0673060065346
 30
0.0
 11
498.6230394024729
 21
779.0673060065346
 31
0.0
  0
LINE
  5
127A
330
21
100
AcDbEntity
  8
AM_0
100
AcDbLine
 10
501.585809402473
 20
781.3998860065346
 30
0.0
 11
501.585809402473
 21
771.0361760065348
 31
0.0
  0
LINE
  5
127B
330
21
100
AcDbEntity
  8
AM_0
100
AcDbLine
 10
492.585809402473
 20
768.0361760065343
 30
0.0
 11
498.585809402473
 21
768.0361760065343
 31
0.0
  0
LINE
  5
127C
330
21
100
AcDbEntity
  8
AM_0
100
AcDbLine
 10
504.481079402473
 20
784.3980560065345
 30
0.0
 11
511.5857494024732
 21
784.6461660065342
 31
0.0
  0
LINE
  5
127E
330
21
100
AcDbEntity
  8
AM_0
100
AcDbLine
 10
603.6446494024731
 20
581.0873560065345
 30
0.0
 11
609.5858694024729
 21
575.1461360065345
 31
0.0
  0
LINE
  5
127F
330
21
100
AcDbEntity
  8
AM_0
100
AcDbLine
 10
511.585869402473
 20
585.6461660065344
 30
0.0
 11
600.283599402473
 21
582.5487560065344
 31
0.0
  0
LINE
  5
1280
330
21
100
AcDbEntity
  8
AM_0
100
AcDbLine
 10
613.301299402473
 20
591.5545160065345
 30
0.0
 11
613.481139402473
 21
591.5482360065346
 31
0.0
  0
LINE
  5
1281
330
21
100
AcDbEntity
  8
AM_0
100
AcDbLine
 10
686.585869402473
 20
701.1461660065342
 30
0.0
 11
628.5858394024731
 21
701.1461660065342
 31
0.0
  0
LINE
  5
1282
330
21
100
AcDbEntity
  8
AM_0
100
AcDbLine
 10
612.481139402473
 20
568.0688360065345
 30
0.0
 11
624.5858394024731
 21
567.6461360065345
 31
0.0
  0
LINE
  5
1283
330
21
100
AcDbEntity
  8
AM_0
100
AcDbLine
 10
686.585869402473
 20
669.1461960065343
 30
0.0
 11
628.5858394024731
 21
669.1461960065343
 31
0.0
  0
LINE
  5
1284
330
21
100
AcDbEntity
  8
AM_0
100
AcDbLine
 10
686.585869402473
 20
669.1461960065343
 30
0.0
 11
686.585869402473
 21
701.1461660065342
 31
0.0
  0
LINE
  5
1285
330
21
100
AcDbEntity
  8
AM_0
100
AcDbLine
 10
612.5858394024731
 20
629.2354260065345
 30
0.0
 11
616.5858394024731
 21
629.2354260065345
 31
0.0
  0
LINE
  5
1286
330
21
100
AcDbEntity
  8
AM_0
100
AcDbLine
 10
628.5858394024731
 20
580.1461360065343
 30
0.0
 11
628.5858394024731
 21
790.1461660065344
 31
0.0
  0
LINE
  5
1287
330
21
100
AcDbEntity
  8
AM_0
100
AcDbLine
 10
624.5858394024731
 20
790.1461660065344
 30
0.0
 11
628.5858394024731
 21
790.1461660065344
 31
0.0
  0
LINE
  5
1288
330
21
100
AcDbEntity
  8
AM_0
100
AcDbLine
 10
613.301299402473
 20
778.7377760065344
 30
0.0
 11
613.481139402473
 21
778.7440660065344
 31
0.0
  0
LINE
  5
1289
330
21
100
AcDbEntity
  8
AM_0
100
AcDbLine
 10
612.5858394024731
 20
741.0569260065342
 30
0.0
 11
616.5858394024731
 21
741.0569260065342
 31
0.0
  0
LINE
  5
128A
330
21
100
AcDbEntity
  8
AM_0
100
AcDbLine
 10
624.5858394024731
 20
567.6461660065345
 30
0.0
 11
624.5858394024731
 21
802.6461660065345
 31
0.0
  0
LINE
  5
128B
330
21
100
AcDbEntity
  8
AM_0
100
AcDbLine
 10
612.481169402473
 20
802.2234960065345
 30
0.0
 11
624.5858394024731
 21
802.6461660065345
 31
0.0
  0
LINE
  5
128C
330
21
100
AcDbEntity
  8
AM_0
100
AcDbLine
 10
616.5858394024731
 20
594.5464360065344
 30
0.0
 11
616.5858394024731
 21
775.7458960065344
 31
0.0
  0
LINE
  5
128E
330
21
100
AcDbEntity
  8
AM_0
100
AcDbLine
 10
511.585869402473
 20
784.6461660065342
 30
0.0
 11
600.283629402473
 21
787.7435760065343
 31
0.0
  0
LINE
  5
1290
330
21
100
AcDbEntity
  8
AM_0
100
AcDbLine
 10
603.6446494024731
 20
789.2049360065345
 30
0.0
 11
609.585839402473
 21
795.1461660065344
 31
0.0
  0
LINE
  5
1291
330
21
100
AcDbEntity
  8
AM_0
100
AcDbLine
 10
609.585839402473
 20
571.0670360065345
 30
0.0
 11
609.585839402473
 21
799.2252660065344
 31
0.0
  0
LINE
  5
1292
330
21
100
AcDbEntity
  8
AM_0
100
AcDbLine
 10
624.5858394024731
 20
580.1461360065343
 30
0.0
 11
628.5858394024731
 21
580.1461360065343
 31
0.0
  0
LINE
  5
1293
330
21
100
AcDbEntity
  8
AM_0
100
AcDbLine
 10
641.5858394024731
 20
690.1461660065344
 30
0.0
 11
641.5858394024731
 21
680.1461660065345
 31
0.0
  0
LINE
  5
1294
330
21
100
AcDbEntity
  8
AM_0
100
AcDbLine
 10
641.5858394024731
 20
690.1461660065344
 30
0.0
 11
686.585869402473
 21
690.1461660065344
 31
0.0
  0
LINE
  5
1295
330
21
100
AcDbEntity
  8
AM_0
100
AcDbLine
 10
641.5858394024731
 20
680.1461660065345
 30
0.0
 11
686.585869402473
 21
680.1461660065345
 31
0.0
  0
ARC
  5
1296
330
21
100
AcDbEntity
  8
AM_0
100
AcDbCircle
 10
486.585809402473
 20
762.7479660065346
 30
0.0
 40
3.0
100
AcDbArc
 50
271.9999999999972
 51
0.0
  0
ARC
  5
1297
330
21
100
AcDbEntity
  8
AM_0
100
AcDbCircle
 10
486.585809402473
 20
607.5443260065346
 30
0.0
 40
3.0
100
AcDbArc
 50
0.0
 51
88.00000000000279
  0
ARC
  5
1298
330
21
100
AcDbEntity
  8
AM_0
100
AcDbCircle
 10
498.585809402473
 20
620.0739560065345
 30
0.0
 40
3.0
100
AcDbArc
 50
270.0
 51
0.0
  0
ARC
  5
1299
330
21
100
AcDbEntity
  8
AM_0
100
AcDbCircle
 10
498.585809402473
 20
750.2183660065345
 30
0.0
 40
3.0
100
AcDbArc
 50
0.0
 51
90.00000299999769
  0
ARC
  5
129A
330
21
100
AcDbEntity
  8
AM_0
100
AcDbCircle
 10
498.585809402473
 20
599.2561460065344
 30
0.0
 40
3.0
100
AcDbArc
 50
0.0
 51
90.00000299999769
  0
ARC
  5
129B
330
21
100
AcDbEntity
  8
AM_0
100
AcDbCircle
 10
504.585809402473
 20
588.8924360065344
 30
0.0
 40
3.0
100
AcDbArc
 50
180.000010000001
 51
268.0000000000028
  0
ARC
  5
129C
330
21
100
AcDbEntity
  8
AM_0
100
AcDbCircle
 10
492.585809402473
 20
605.2561460065344
 30
0.0
 40
3.0
100
AcDbArc
 50
180.000010000001
 51
270.0
  0
ARC
  5
129D
330
21
100
AcDbEntity
  8
AM_0
100
AcDbCircle
 10
492.585809402473
 20
594.2250560065344
 30
0.0
 40
3.0
100
AcDbArc
 50
180.000010000001
 51
270.0
  0
ARC
  5
129E
330
21
100
AcDbEntity
  8
AM_0
100
AcDbCircle
 10
498.6230394024729
 20
588.2250560065345
 30
0.0
 40
3.0
100
AcDbArc
 50
6.386299399996091
 51
90.00000299999769
  0
ARC
  5
129F
330
21
100
AcDbEntity
  8
AM_0
100
AcDbCircle
 10
498.6230394024729
 20
782.0673060065346
 30
0.0
 40
3.0
100
AcDbArc
 50
270.0
 51
353.6137000000033
  0
ARC
  5
12A0
330
21
100
AcDbEntity
  8
AM_0
100
AcDbCircle
 10
492.585809402473
 20
765.0361760065343
 30
0.0
 40
3.0
100
AcDbArc
 50
90.00000299999769
 51
180.000010000001
  0
ARC
  5
12A1
330
21
100
AcDbEntity
  8
AM_0
100
AcDbCircle
 10
504.585809402473
 20
781.3998860065346
 30
0.0
 40
3.0
100
AcDbArc
 50
91.99999800000055
 51
180.000010000001
  0
ARC
  5
12A2
330
21
100
AcDbEntity
  8
AM_0
100
AcDbCircle
 10
498.585809402473
 20
771.0361760065348
 30
0.0
 40
3.0
100
AcDbArc
 50
270.0
 51
0.0
  0
ARC
  5
12A3
330
21
100
AcDbEntity
  8
AM_0
100
AcDbCircle
 10
492.585809402473
 20
776.0673060065346
 30
0.0
 40
3.0
100
AcDbArc
 50
90.00000299999769
 51
180.000010000001
  0
ARC
  5
12A4
330
21
100
AcDbEntity
  8
AM_0
100
AcDbCircle
 10
600.109099402473
 20
577.5518060065345
 30
0.0
 40
5.0
100
AcDbArc
 50
45.0000010000038
 51
88.00000000000279
  0
ARC
  5
12A5
330
21
100
AcDbEntity
  8
AM_0
100
AcDbCircle
 10
613.585839402473
 20
594.5464360065344
 30
0.0
 40
3.0
100
AcDbArc
 50
268.0000000000028
 51
0.0
  0
ARC
  5
12A6
330
21
100
AcDbEntity
  8
AM_0
100
AcDbCircle
 10
613.585839402473
 20
775.7458960065344
 30
0.0
 40
3.0
100
AcDbArc
 50
0.0
 51
91.99999800000055
  0
ARC
  5
12A7
330
21
100
AcDbEntity
  8
AM_0
100
AcDbCircle
 10
612.5858394024731
 20
799.2252660065344
 30
0.0
 40
3.0
100
AcDbArc
 50
91.99999800000055
 51
180.000010000001
  0
ARC
  5
12A8
330
21
100
AcDbEntity
  8
AM_0
100
AcDbCircle
 10
612.5858394024731
 20
626.2354260065345
 30
0.0
 40
3.0
100
AcDbArc
 50
90.00000299999769
 51
180.000010000001
  0
ARC
  5
12A9
330
21
100
AcDbEntity
  8
AM_0
100
AcDbCircle
 10
612.5858394024731
 20
744.0569260065342
 30
0.0
 40
3.0
100
AcDbArc
 50
179.999989999999
 51
270.0
  0
ARC
  5
12AA
330
21
100
AcDbEntity
  8
AM_0
100
AcDbCircle
 10
612.5858394024731
 20
571.0670360065345
 30
0.0
 40
3.0
100
AcDbArc
 50
179.999989999999
 51
268.0000099999986
  0
ARC
  5
12AB
330
21
100
AcDbEntity
  8
AM_0
100
AcDbCircle
 10
600.109099402473
 20
792.7405260065348
 30
0.0
 40
5.0
100
AcDbArc
 50
271.9999999999972
 51
315.0
  0
ARC
  5
12AC
330
21
100
AcDbEntity
  8
AM_0
100
AcDbCircle
 10
641.5858394024731
 20
685.1461660065345
 30
0.0
 40
5.0
100
AcDbArc
 50
90.00000299999769
 51
270.0
  0
POLYLINE
  5
12AD
330
21
100
AcDbEntity
  8
AM_0
100
AcDb2dPolyline
 66
     1
 10
0.0
 20
0.0
 30
0.0
  0
VERTEX
  5
12AE
330
12AD
100
AcDbEntity
  8
AM_0
100
AcDbVertex
100
AcDb2dVertex
 10
602.2519494024731
 20
787.8122960065345
 30
0.0
 42
0.07982674
  0
VERTEX
  5
12AF
330
12AD
100
AcDbEntity
  8
AM_0
100
AcDbVertex
100
AcDb2dVertex
 10
576.4101194024731
 20
720.9058460065346
 30
0.0
 42
0.10414855
  0
VERTEX
  5
12B0
330
12AD
100
AcDbEntity
  8
AM_0
100
AcDbVertex
100
AcDb2dVertex
 10
576.4101894024729
 20
649.3861160065343
 30
0.0
 42
0.07982627
  0
VERTEX
  5
12B1
330
12AD
100
AcDbEntity
  8
AM_0
100
AcDbVertex
100
AcDb2dVertex
 10
602.2519494024731
 20
582.4800260065345
 30
0.0
  0
SEQEND
  5
12B2
330
12AD
100
AcDbEntity
  8
AM_0
  0
LINE
  5
134B
330
21
100
AcDbEntity
  8
AM_0
100
AcDbLine
 10
455.0858094024731
 20
293.5443123483937
 30
0.0
 11
455.0858094024731
 21
440.5443153483938
 31
0.0
  0
LINE
  5
134C
330
21
100
AcDbEntity
  8
AM_0
100
AcDbLine
 10
455.0858094024731
 20
440.5443108483937
 30
0.0
 11
455.0858094024731
 21
293.5443168483938
 31
0.0
  0
LINE
  5
134D
330
21
100
AcDbEntity
  8
0
100
AcDbLine
 10
455.0858094024731
 20
441.0430523621216
 30
0.0
 11
445.0160104090681
 21
440.6914072326444
 31
0.0
  0
LINE
  5
134E
330
21
100
AcDbEntity
  8
0
100
AcDbLine
 10
443.085809402473
 20
438.6926255786064
 30
0.0
 11
443.0858094024748
 21
295.3960021181814
 31
0.0
  0
ARC
  5
134F
330
21
100
AcDbEntity
  8
0
100
AcDbCircle
 10
445.0858094024731
 20
438.6926255786064
 30
0.0
 40
2.0
100
AcDbArc
 50
92.00000000000034
 51
180.0
1001
GENIUS_GENODEF_13
1002
{
1000
HIER
1070
     0
1002
}
1002
{
1000
MANEDIT
1070
     0
1002
}
1002
{
1000
NOSEL
1070
     0
1002
}
1002
{
1000
BEHIND
1070
     0
1002
}
1002
{
1000
OTHER
1070
     0
1002
}
1002
{
1000
REACTOR
1002
}
1001
GENIUS_GENOBJ-N-FIL_13
1002
{
1000
OWNER
1000
GEN
1002
}
  0
LINE
  5
1350
330
21
100
AcDbEntity
  8
0
100
AcDbLine
 10
414.4603660283066
 20
409.1177190539997
 30
0.0
 11
374.1905078925807
 21
407.7114646205764
 31
0.0
  0
ARC
  5
1351
330
21
100
AcDbEntity
  8
0
100
AcDbCircle
 10
374.0858094024732
 20
410.7096371016337
 30
0.0
 40
3.0
100
AcDbArc
 50
180.0
 51
272.0000000000004
1001
GENIUS_GENOBJ-N-FIL_13
1002
{
1000
OWNER
1000
GEN
1002
}
1001
GENIUS_GENODEF_13
1002
{
1000
HIER
1070
     0
1002
}
1002
{
1000
MANEDIT
1070
     0
1002
}
1002
{
1000
NOSEL
1070
     0
1002
}
1002
{
1000
BEHIND
1070
     0
1002
}
1002
{
1000
OTHER
1070
     0
1002
}
1002
{
1000
REACTOR
1002
}
  0
ARC
  5
1352
330
21
100
AcDbEntity
  8
0
100
AcDbCircle
 10
413.936873577769
 20
424.108581459286
 30
0.0
 40
15.0
100
AcDbArc
 50
272.0000000000004
 51
315.0
1001
GENIUS_GENODEF_13
1002
{
1000
HIER
1070
     0
1002
}
1002
{
1000
MANEDIT
1070
     0
1002
}
1002
{
1000
NOSEL
1070
     0
1002
}
1002
{
1000
BEHIND
1070
     0
1002
}
1002
{
1000
OTHER
1070
     0
1002
}
1002
{
1000
REACTOR
1002
}
1001
GENIUS_GENOBJ-N-FIL_13
1002
{
1000
OWNER
1000
GEN
1002
}
  0
LINE
  5
1353
330
21
100
AcDbEntity
  8
0
100
AcDbLine
 10
424.5434752955672
 20
413.5019797414878
 30
0.0
 11
441.6213433084057
 21
430.5798477543266
 31
0.0
  0
ARC
  5
1354
330
21
100
AcDbEntity
  8
0
100
AcDbCircle
 10
438.085809402473
 20
434.1153816602593
 30
0.0
 40
5.0
100
AcDbArc
 50
315.0
 51
0.0
1001
GENIUS_GENODEF_13
1002
{
1000
HIER
1070
     0
1002
}
1002
{
1000
MANEDIT
1070
     0
1002
}
1002
{
1000
NOSEL
1070
     0
1002
}
1002
{
1000
BEHIND
1070
     0
1002
}
1002
{
1000
OTHER
1070
     0
1002
}
1002
{
1000
REACTOR
1002
}
1001
GENIUS_GENOBJ-N-FIL_13
1002
{
1000
OWNER
1000
GEN
1002
}
  0
LINE
  5
1355
330
21
100
AcDbEntity
  8
0
100
AcDbLine
 10
455.0858094024731
 20
441.0430523621216
 30
0.0
 11
455.0858094024731
 21
293.0455753346663
 31
0.0
  0
LINE
  5
1356
330
21
100
AcDbEntity
  8
0
100
AcDbLine
 10
455.0858094024734
 20
293.0455753346663
 30
0.0
 11
445.0160104090683
 21
293.3972204641433
 31
0.0
  0
ARC
  5
1357
330
21
100
AcDbEntity
  8
0
100
AcDbCircle
 10
445.0858094024733
 20
295.3960021181814
 30
0.0
 40
2.0
100
AcDbArc
 50
180.0
 51
267.9999999999997
1001
GENIUS_GENODEF_13
1002
{
1000
HIER
1070
     0
1002
}
1002
{
1000
MANEDIT
1070
     0
1002
}
1002
{
1000
NOSEL
1070
     0
1002
}
1002
{
1000
BEHIND
1070
     0
1002
}
1002
{
1000
OTHER
1070
     0
1002
}
1002
{
1000
REACTOR
1002
}
1001
GENIUS_GENOBJ-N-FIL_13
1002
{
1000
OWNER
1000
GEN
1002
}
  0
LINE
  5
1358
330
21
100
AcDbEntity
  8
0
100
AcDbLine
 10
414.4603660283068
 20
324.970908642788
 30
0.0
 11
374.1905078925807
 21
326.3771630762113
 31
0.0
  0
ARC
  5
1359
330
21
100
AcDbEntity
  8
0
100
AcDbCircle
 10
374.0858094024732
 20
323.378990595154
 30
0.0
 40
3.0
100
AcDbArc
 50
87.99999999999965
 51
180.0
1001
GENIUS_GENODEF_13
1002
{
1000
HIER
1070
     0
1002
}
1002
{
1000
MANEDIT
1070
     0
1002
}
1002
{
1000
NOSEL
1070
     0
1002
}
1002
{
1000
BEHIND
1070
     0
1002
}
1002
{
1000
OTHER
1070
     0
1002
}
1002
{
1000
REACTOR
1002
}
1001
GENIUS_GENOBJ-N-FIL_13
1002
{
1000
OWNER
1000
GEN
1002
}
  0
LINE
  5
135A
330
21
100
AcDbEntity
  8
0
100
AcDbLine
 10
424.5434752955674
 20
320.5866479552998
 30
0.0
 11
441.6213433084059
 21
303.5087799424612
 31
0.0
  0
ARC
  5
135B
330
21
100
AcDbEntity
  8
0
100
AcDbCircle
 10
413.9368735777692
 20
309.9800462375015
 30
0.0
 40
15.0
100
AcDbArc
 50
45.0
 51
87.99999999999965
1001
GENIUS_GENODEF_13
1002
{
1000
HIER
1070
     0
1002
}
1002
{
1000
MANEDIT
1070
     0
1002
}
1002
{
1000
NOSEL
1070
     0
1002
}
1002
{
1000
BEHIND
1070
     0
1002
}
1002
{
1000
OTHER
1070
     0
1002
}
1002
{
1000
REACTOR
1002
}
1001
GENIUS_GENOBJ-N-FIL_13
1002
{
1000
OWNER
1000
GEN
1002
}
  0
ARC
  5
135C
330
21
100
AcDbEntity
  8
0
100
AcDbCircle
 10
438.0858094024731
 20
299.9732460365284
 30
0.0
 40
5.0
100
AcDbArc
 50
0.0
 51
45.0
1001
GENIUS_GENODEF_13
1002
{
1000
HIER
1070
     0
1002
}
1002
{
1000
MANEDIT
1070
     0
1002
}
1002
{
1000
NOSEL
1070
     0
1002
}
1002
{
1000
BEHIND
1070
     0
1002
}
1002
{
1000
OTHER
1070
     0
1002
}
1002
{
1000
REACTOR
1002
}
1001
GENIUS_GENOBJ-N-FIL_13
1002
{
1000
OWNER
1000
GEN
1002
}
  0
ARC
  5
135D
330
21
100
AcDbEntity
  8
AM_5
 62
     2
370
    35
100
AcDbCircle
 10
457.8798094024731
 20
367.0443138483939
 30
0.0
 40
48.4502085537012
100
AcDbArc
 50
135.0617711120834
 51
224.9382288879166
  0
ARC
  5
135E
330
21
100
AcDbEntity
  8
AM_5
 62
     2
370
    35
100
AcDbCircle
 10
420.04407930528
 20
329.2900780271445
 30
0.0
 40
5.0
100
AcDbArc
 50
267.9999999999997
 51
44.93822888791658
1001
GENIUS_GENOBJ-N-FIL_13
1002
{
1000
OWNER
1000
GEN
1002
}
1001
GENIUS_GENODEF_13
1002
{
1000
HIER
1070
     0
1002
}
1002
{
1000
MANEDIT
1070
     0
1002
}
1002
{
1000
NOSEL
1070
     0
1002
}
1002
{
1000
BEHIND
1070
     0
1002
}
1002
{
1000
OTHER
1070
     0
1002
}
1002
{
1000
REACTOR
1002
}
  0
ARC
  5
135F
330
21
100
AcDbEntity
  8
AM_5
 62
     2
370
    35
100
AcDbCircle
 10
420.0440793052802
 20
404.7985496696434
 30
0.0
 40
5.0
100
AcDbArc
 50
315.0617711120834
 51
92.00000000000034
1001
GENIUS_GENODEF_13
1002
{
1000
HIER
1070
     0
1002
}
1002
{
1000
MANEDIT
1070
     0
1002
}
1002
{
1000
NOSEL
1070
     0
1002
}
1002
{
1000
BEHIND
1070
     0
1002
}
1002
{
1000
OTHER
1070
     0
1002
}
1002
{
1000
REACTOR
1002
}
1001
GENIUS_GENOBJ-N-FIL_13
1002
{
1000
OWNER
1000
GEN
1002
}
  0
LINE
  5
1360
330
21
100
AcDbEntity
  8
AM_0
100
AcDbLine
 10
455.0858694024732
 20
428.6229453483937
 30
0.0
 11
443.0858094024732
 21
428.6229453483935
 31
0.0
  0
LINE
  5
1361
330
21
100
AcDbEntity
  8
AM_0
100
AcDbLine
 10
455.0858694024732
 20
406.5189723483937
 30
0.0
 11
443.0858094024735
 21
406.5189723483936
 31
0.0
  0
LINE
  5
1362
330
21
100
AcDbEntity
  8
AM_0
100
AcDbLine
 10
455.0858694024732
 20
327.5696283483937
 30
0.0
 11
443.0858094024745
 21
327.5696283483936
 31
0.0
  0
LINE
  5
1363
330
21
100
AcDbEntity
  8
AM_0
100
AcDbLine
 10
455.0858694024732
 20
305.4656523483937
 30
0.0
 11
443.0858094024747
 21
305.4656523483936
 31
0.0
  0
LINE
  5
1364
330
21
100
AcDbEntity
  8
0
100
AcDbLine
 10
389.5858094024732
 20
408.2490803958593
 30
0.0
 11
389.5858094024732
 21
408.6538699653442
 31
0.0
1001
GENIUS_GENOBJ-N-CEN_13
1002
{
1000
OWNER
1000
GEN
1002
}
1001
GENIUS_GENODEF_13
1002
{
1000
HIER
1070
     0
1002
}
1002
{
1000
MANEDIT
1070
     0
1002
}
1002
{
1000
NOSEL
1070
     0
1002
}
1002
{
1000
BEHIND
1070
     0
1002
}
1002
{
1000
OTHER
1070
     0
1002
}
1002
{
1000
REACTOR
1002
}
1001
GENIUS_GENCEN_19
1002
{
1040
2.794
1002
}
  0
LINE
  5
1365
330
21
100
AcDbEntity
  8
0
100
AcDbLine
 10
372.5858094024733
 20
408.1115608902803
 30
0.0
 11
372.5858094024732
 21
408.6538699653441
 31
0.0
1001
GENIUS_GENOBJ-N-CEN_13
1002
{
1000
OWNER
1000
GEN
1002
}
1001
GENIUS_GENODEF_13
1002
{
1000
HIER
1070
     0
1002
}
1002
{
1000
MANEDIT
1070
     0
1002
}
1002
{
1000
NOSEL
1070
     0
1002
}
1002
{
1000
BEHIND
1070
     0
1002
}
1002
{
1000
OTHER
1070
     0
1002
}
1002
{
1000
REACTOR
1002
}
1001
GENIUS_GENCEN_19
1002
{
1040
2.794
1002
}
  0
LINE
  5
1366
330
21
100
AcDbEntity
  8
図面枠-ｷｲﾛ
100
AcDbLine
 10
372.5858094024732
 20
408.6538699653441
 30
0.0
 11
389.5858094024732
 21
408.6538699653442
 31
0.0
  0
ARC
  5
1367
330
21
100
AcDbEntity
  8
0
100
AcDbCircle
 10
381.0858094024733
 20
391.5913699653442
 30
0.0
 40
19.06249999999999
100
AcDbArc
 50
63.51896016962665
 51
116.4810398303733
  0
LINE
  5
1368
330
21
100
AcDbEntity
  8
AM_7
  6
AM_ISO08W050x2
 62
     1
370
    25
100
AcDbLine
 10
381.0858094024732
 20
413.4478699653441
 30
0.0
 11
381.0858094024732
 21
398.3900284263606
 31
0.0
1001
GENIUS_GENODEF_13
1002
{
1000
HIER
1070
     0
1002
}
1002
{
1000
MANEDIT
1070
     0
1002
}
1002
{
1000
NOSEL
1070
     0
1002
}
1002
{
1000
BEHIND
1070
     0
1002
}
1002
{
1000
OTHER
1070
     0
1002
}
1002
{
1000
REACTOR
1002
}
1001
GENIUS_GENOBJ-N-CEN_13
1002
{
1000
OWNER
1000
GEN
1002
}
1001
GENIUS_GENCEN_19
1002
{
1040
2.794
1002
}
  0
LINE
  5
1369
330
21
100
AcDbEntity
  8
AM_0
100
AcDbLine
 10
455.0858094024731
 20
611.6461810065345
 30
0.0
 11
455.0858094024731
 21
758.6461510065345
 31
0.0
  0
LINE
  5
136A
330
21
100
AcDbEntity
  8
0
100
AcDbLine
 10
455.0858094024731
 20
759.1449045202624
 30
0.0
 11
445.0160104090681
 21
758.7932593907853
 31
0.0
  0
LINE
  5
136B
330
21
100
AcDbEntity
  8
0
100
AcDbLine
 10
443.085809402473
 20
756.7944777367472
 30
0.0
 11
443.0858094024748
 21
613.4978542763223
 31
0.0
  0
ARC
  5
136C
330
21
100
AcDbEntity
  8
0
100
AcDbCircle
 10
445.0858094024731
 20
756.7944777367472
 30
0.0
 40
2.0
100
AcDbArc
 50
92.00000000000034
 51
180.0
1001
GENIUS_GENODEF_13
1002
{
1000
HIER
1070
     0
1002
}
1002
{
1000
MANEDIT
1070
     0
1002
}
1002
{
1000
NOSEL
1070
     0
1002
}
1002
{
1000
BEHIND
1070
     0
1002
}
1002
{
1000
OTHER
1070
     0
1002
}
1002
{
1000
REACTOR
1002
}
1001
GENIUS_GENOBJ-N-FIL_13
1002
{
1000
OWNER
1000
GEN
1002
}
  0
LINE
  5
136D
330
21
100
AcDbEntity
  8
0
100
AcDbLine
 10
414.4603660283066
 20
727.2195712121405
 30
0.0
 11
374.1904934685376
 21
725.8133162750185
 31
0.0
  0
ARC
  5
136E
330
21
100
AcDbEntity
  8
0
100
AcDbCircle
 10
374.0857949784301
 20
728.8114887560758
 30
0.0
 40
3.0
100
AcDbArc
 50
180.0
 51
272.0000000000004
1001
GENIUS_GENODEF_13
1002
{
1000
HIER
1070
     0
1002
}
1002
{
1000
MANEDIT
1070
     0
1002
}
1002
{
1000
NOSEL
1070
     0
1002
}
1002
{
1000
BEHIND
1070
     0
1002
}
1002
{
1000
OTHER
1070
     0
1002
}
1002
{
1000
REACTOR
1002
}
1001
GENIUS_GENOBJ-N-FIL_13
1002
{
1000
OWNER
1000
GEN
1002
}
  0
ARC
  5
136F
330
21
100
AcDbEntity
  8
0
100
AcDbCircle
 10
413.936873577769
 20
742.2104336174269
 30
0.0
 40
15.0
100
AcDbArc
 50
272.0000000000004
 51
315.0
1001
GENIUS_GENODEF_13
1002
{
1000
HIER
1070
     0
1002
}
1002
{
1000
MANEDIT
1070
     0
1002
}
1002
{
1000
NOSEL
1070
     0
1002
}
1002
{
1000
BEHIND
1070
     0
1002
}
1002
{
1000
OTHER
1070
     0
1002
}
1002
{
1000
REACTOR
1002
}
1001
GENIUS_GENOBJ-N-FIL_13
1002
{
1000
OWNER
1000
GEN
1002
}
  0
LINE
  5
1370
330
21
100
AcDbEntity
  8
0
100
AcDbLine
 10
424.5434752955672
 20
731.6038318996287
 30
0.0
 11
441.6213433084057
 21
748.6816999124674
 31
0.0
  0
ARC
  5
1371
330
21
100
AcDbEntity
  8
0
100
AcDbCircle
 10
438.085809402473
 20
752.2172338184002
 30
0.0
 40
5.0
100
AcDbArc
 50
315.0
 51
0.0
1001
GENIUS_GENODEF_13
1002
{
1000
HIER
1070
     0
1002
}
1002
{
1000
MANEDIT
1070
     0
1002
}
1002
{
1000
NOSEL
1070
     0
1002
}
1002
{
1000
BEHIND
1070
     0
1002
}
1002
{
1000
OTHER
1070
     0
1002
}
1002
{
1000
REACTOR
1002
}
1001
GENIUS_GENOBJ-N-FIL_13
1002
{
1000
OWNER
1000
GEN
1002
}
  0
LINE
  5
1372
330
21
100
AcDbEntity
  8
0
100
AcDbLine
 10
455.0858094024734
 20
611.147427492807
 30
0.0
 11
445.0160104090683
 21
611.4990726222842
 31
0.0
  0
ARC
  5
1373
330
21
100
AcDbEntity
  8
0
100
AcDbCircle
 10
445.0858094024733
 20
613.4978542763223
 30
0.0
 40
2.0
100
AcDbArc
 50
180.0
 51
267.9999999999997
1001
GENIUS_GENODEF_13
1002
{
1000
HIER
1070
     0
1002
}
1002
{
1000
MANEDIT
1070
     0
1002
}
1002
{
1000
NOSEL
1070
     0
1002
}
1002
{
1000
BEHIND
1070
     0
1002
}
1002
{
1000
OTHER
1070
     0
1002
}
1002
{
1000
REACTOR
1002
}
1001
GENIUS_GENOBJ-N-FIL_13
1002
{
1000
OWNER
1000
GEN
1002
}
  0
LINE
  5
1374
330
21
100
AcDbEntity
  8
0
100
AcDbLine
 10
414.4603660283068
 20
643.0727608009288
 30
0.0
 11
374.1904934685377
 21
644.4790157380507
 31
0.0
  0
ARC
  5
1375
330
21
100
AcDbEntity
  8
0
100
AcDbCircle
 10
374.0857949784301
 20
641.4808432569934
 30
0.0
 40
3.0
100
AcDbArc
 50
87.99999999999965
 51
180.0
1001
GENIUS_GENODEF_13
1002
{
1000
HIER
1070
     0
1002
}
1002
{
1000
MANEDIT
1070
     0
1002
}
1002
{
1000
NOSEL
1070
     0
1002
}
1002
{
1000
BEHIND
1070
     0
1002
}
1002
{
1000
OTHER
1070
     0
1002
}
1002
{
1000
REACTOR
1002
}
1001
GENIUS_GENOBJ-N-FIL_13
1002
{
1000
OWNER
1000
GEN
1002
}
  0
LINE
  5
1376
330
21
100
AcDbEntity
  8
0
100
AcDbLine
 10
424.5434752955674
 20
638.6885001134406
 30
0.0
 11
441.6213433084059
 21
621.610632100602
 31
0.0
  0
ARC
  5
1377
330
21
100
AcDbEntity
  8
0
100
AcDbCircle
 10
413.9368735777692
 20
628.0818983956423
 30
0.0
 40
15.0
100
AcDbArc
 50
45.0
 51
87.99999999999965
1001
GENIUS_GENODEF_13
1002
{
1000
HIER
1070
     0
1002
}
1002
{
1000
MANEDIT
1070
     0
1002
}
1002
{
1000
NOSEL
1070
     0
1002
}
1002
{
1000
BEHIND
1070
     0
1002
}
1002
{
1000
OTHER
1070
     0
1002
}
1002
{
1000
REACTOR
1002
}
1001
GENIUS_GENOBJ-N-FIL_13
1002
{
1000
OWNER
1000
GEN
1002
}
  0
ARC
  5
1378
330
21
100
AcDbEntity
  8
0
100
AcDbCircle
 10
438.0858094024731
 20
618.0750981946693
 30
0.0
 40
5.0
100
AcDbArc
 50
0.0
 51
45.0
1001
GENIUS_GENODEF_13
1002
{
1000
HIER
1070
     0
1002
}
1002
{
1000
MANEDIT
1070
     0
1002
}
1002
{
1000
NOSEL
1070
     0
1002
}
1002
{
1000
BEHIND
1070
     0
1002
}
1002
{
1000
OTHER
1070
     0
1002
}
1002
{
1000
REACTOR
1002
}
1001
GENIUS_GENOBJ-N-FIL_13
1002
{
1000
OWNER
1000
GEN
1002
}
  0
ARC
  5
1379
330
21
100
AcDbEntity
  8
AM_5
 62
     2
370
    35
100
AcDbCircle
 10
457.8798094024731
 20
685.1461660065346
 30
0.0
 40
48.4502085537012
100
AcDbArc
 50
135.0617711120834
 51
224.9382288879166
  0
ARC
  5
137A
330
21
100
AcDbEntity
  8
AM_5
 62
     2
370
    35
100
AcDbCircle
 10
420.04407930528
 20
647.3919301852853
 30
0.0
 40
5.0
100
AcDbArc
 50
267.9999999999997
 51
44.93822888791658
1001
GENIUS_GENOBJ-N-FIL_13
1002
{
1000
OWNER
1000
GEN
1002
}
1001
GENIUS_GENODEF_13
1002
{
1000
HIER
1070
     0
1002
}
1002
{
1000
MANEDIT
1070
     0
1002
}
1002
{
1000
NOSEL
1070
     0
1002
}
1002
{
1000
BEHIND
1070
     0
1002
}
1002
{
1000
OTHER
1070
     0
1002
}
1002
{
1000
REACTOR
1002
}
  0
ARC
  5
137B
330
21
100
AcDbEntity
  8
AM_5
 62
     2
370
    35
100
AcDbCircle
 10
420.0440793052802
 20
722.9004018277843
 30
0.0
 40
5.0
100
AcDbArc
 50
315.0617711120834
 51
92.00000000000034
1001
GENIUS_GENODEF_13
1002
{
1000
HIER
1070
     0
1002
}
1002
{
1000
MANEDIT
1070
     0
1002
}
1002
{
1000
NOSEL
1070
     0
1002
}
1002
{
1000
BEHIND
1070
     0
1002
}
1002
{
1000
OTHER
1070
     0
1002
}
1002
{
1000
REACTOR
1002
}
1001
GENIUS_GENOBJ-N-FIL_13
1002
{
1000
OWNER
1000
GEN
1002
}
  0
LINE
  5
137C
330
21
100
AcDbEntity
  8
AM_0
100
AcDbLine
 10
455.0858694024732
 20
746.7247975065345
 30
0.0
 11
443.0858094024732
 21
746.7247975065344
 31
0.0
  0
LINE
  5
137D
330
21
100
AcDbEntity
  8
AM_0
100
AcDbLine
 10
455.0858694024732
 20
724.6208245065346
 30
0.0
 11
443.0858094024735
 21
724.6208245065345
 31
0.0
  0
LINE
  5
137E
330
21
100
AcDbEntity
  8
AM_0
100
AcDbLine
 10
455.0858694024732
 20
645.6714805065345
 30
0.0
 11
443.0858094024745
 21
645.6714805065344
 31
0.0
  0
LINE
  5
137F
330
21
100
AcDbEntity
  8
AM_0
100
AcDbLine
 10
455.0858694024732
 20
623.5675045065345
 30
0.0
 11
443.0858094024747
 21
623.5675045065343
 31
0.0
  0
CIRCLE
  5
1380
330
21
100
AcDbEntity
  8
0
100
AcDbCircle
 10
381.0858094024732
 20
707.6461660065346
 30
0.0
 40
10.0
  0
LINE
  5
1381
330
21
100
AcDbEntity
  8
ﾁｭｳｼﾝｾﾝ1
 48
0.7
100
AcDbLine
 10
381.0858094024732
 20
720.6461660065346
 30
0.0
 11
381.0858094024731
 21
694.6461660065345
 31
0.0
1001
GENIUS_GENODEF_13
1002
{
1000
HIER
1070
     0
1002
}
1002
{
1000
MANEDIT
1070
     0
1002
}
1002
{
1000
NOSEL
1070
     0
1002
}
1002
{
1000
BEHIND
1070
     0
1002
}
1002
{
1000
OTHER
1070
     0
1002
}
1002
{
1000
REACTOR
1002
}
1001
GENIUS_GENOBJ-N-CEN_13
1002
{
1000
OWNER
1000
GEN
1002
}
1001
GENIUS_GENCEN_19
1002
{
1040
3.0
1002
}
  0
LINE
  5
1382
330
21
100
AcDbEntity
  8
AM_0
100
AcDbLine
 10
380.0858094024732
 20
712.6461660065346
 30
0.0
 11
380.0858094024732
 21
702.6461660065345
 31
0.0
1001
GENIUS_GENODEF_13
1002
{
1000
HIER
1070
     0
1002
}
1002
{
1000
MANEDIT
1070
     0
1002
}
1002
{
1000
NOSEL
1070
     0
1002
}
1002
{
1000
BEHIND
1070
     0
1002
}
1002
{
1000
OTHER
1070
     0
1002
}
1002
{
1000
REACTOR
1002
}
1001
GENIUS_GENOBJ-N-CEN_13
1002
{
1000
OWNER
1000
GEN
1002
}
1001
GENIUS_GENCEN_19
1002
{
1040
3.0
1002
}
  0
LINE
  5
1383
330
21
100
AcDbEntity
  8
AM_0
100
AcDbLine
 10
382.0858094024732
 20
712.6461660065346
 30
0.0
 11
382.0858094024732
 21
702.6461660065345
 31
0.0
1001
GENIUS_GENODEF_13
1002
{
1000
HIER
1070
     0
1002
}
1002
{
1000
MANEDIT
1070
     0
1002
}
1002
{
1000
NOSEL
1070
     0
1002
}
1002
{
1000
BEHIND
1070
     0
1002
}
1002
{
1000
OTHER
1070
     0
1002
}
1002
{
1000
REACTOR
1002
}
1001
GENIUS_GENOBJ-N-CEN_13
1002
{
1000
OWNER
1000
GEN
1002
}
1001
GENIUS_GENCEN_19
1002
{
1040
3.0
1002
}
  0
CIRCLE
  5
1384
330
21
100
AcDbEntity
  8
AM_0
100
AcDbCircle
 10
381.0858094024732
 20
707.6461660065346
 30
0.0
 40
8.500000000000056
  0
CIRCLE
  5
1385
330
21
100
AcDbEntity
  8
AM_0
100
AcDbCircle
 10
381.0858094024732
 20
707.6461660065346
 30
0.0
 40
8.999999999999971
  0
ARC
  5
1386
330
21
100
AcDbEntity
  8
AM_0
100
AcDbCircle
 10
381.0858094024732
 20
712.6461660065346
 30
0.0
 40
1.0
100
AcDbArc
 50
0.0
 51
180.0
  0
ARC
  5
1387
330
21
100
AcDbEntity
  8
AM_0
100
AcDbCircle
 10
381.0858094024732
 20
702.6461660065345
 30
0.0
 40
1.0
100
AcDbArc
 50
180.0
 51
0.0
  0
LINE
  5
1388
330
21
100
AcDbEntity
  8
ﾁｭｳｼﾝｾﾝ1
 48
0.7
100
AcDbLine
 10
368.0858094024732
 20
707.6461660065346
 30
0.0
 11
394.0858094024731
 21
707.6461660065346
 31
0.0
1001
GENIUS_GENOBJ-N-CEN_13
1002
{
1000
OWNER
1000
GEN
1002
}
1001
GENIUS_GENODEF_13
1002
{
1000
HIER
1070
     0
1002
}
1002
{
1000
MANEDIT
1070
     0
1002
}
1002
{
1000
NOSEL
1070
     0
1002
}
1002
{
1000
BEHIND
1070
     0
1002
}
1002
{
1000
OTHER
1070
     0
1002
}
1002
{
1000
REACTOR
1002
}
1001
GENIUS_GENCEN_19
1002
{
1040
3.0
1002
}
  0
LINE
  5
1389
330
21
100
AcDbEntity
  8
0
100
AcDbLine
 10
355.0858094024732
 20
307.0443453483937
 30
0.0
 11
355.0858094024732
 21
427.0443453483936
 31
0.0
  0
LINE
  5
138A
330
21
100
AcDbEntity
  8
0
100
AcDbLine
 10
371.0858094024732
 20
310.0443453483937
 30
0.0
 11
371.0858094024731
 21
424.0443453483936
 31
0.0
  0
LINE
  5
138B
330
21
100
AcDbEntity
  8
0
100
AcDbLine
 10
368.0858094024732
 20
427.0443453483936
 30
0.0
 11
355.0858094024732
 21
427.0443453483936
 31
0.0
  0
LINE
  5
138C
330
21
100
AcDbEntity
  8
0
100
AcDbLine
 10
368.0858094024732
 20
307.0443453483937
 30
0.0
 11
355.0858094024732
 21
307.0443453483937
 31
0.0
  0
ARC
  5
138D
330
21
100
AcDbEntity
  8
AM_0
100
AcDbCircle
 10
368.0858094024733
 20
424.0443453483938
 30
0.0
 40
3.0
100
AcDbArc
 50
359.9999999999968
 51
90.00000000000325
1001
GENIUS_GENOBJ-N-FIL_13
1002
{
1000
OWNER
1000
GEN
1002
}
1001
GENIUS_GENODEF_13
1002
{
1000
HIER
1070
     0
1002
}
1002
{
1000
MANEDIT
1070
     0
1002
}
1002
{
1000
NOSEL
1070
     0
1002
}
1002
{
1000
BEHIND
1070
     0
1002
}
1002
{
1000
OTHER
1070
     0
1002
}
1002
{
1000
REACTOR
1002
}
  0
ARC
  5
138E
330
21
100
AcDbEntity
  8
AM_0
100
AcDbCircle
 10
368.0858094024733
 20
310.0443453483939
 30
0.0
 40
3.0
100
AcDbArc
 50
270.0
 51
0.0
1001
GENIUS_GENODEF_13
1002
{
1000
HIER
1070
     0
1002
}
1002
{
1000
MANEDIT
1070
     0
1002
}
1002
{
1000
NOSEL
1070
     0
1002
}
1002
{
1000
BEHIND
1070
     0
1002
}
1002
{
1000
OTHER
1070
     0
1002
}
1002
{
1000
REACTOR
1002
}
1001
GENIUS_GENOBJ-N-FIL_13
1002
{
1000
OWNER
1000
GEN
1002
}
  0
LINE
  5
138F
330
21
100
AcDbEntity
  8
0
100
AcDbLine
 10
355.0857949784301
 20
625.1461660065338
 30
0.0
 11
355.0857949784301
 21
745.1461660065336
 31
0.0
  0
LINE
  5
1390
330
21
100
AcDbEntity
  8
0
100
AcDbLine
 10
371.0857949784301
 20
628.1461660065338
 30
0.0
 11
371.08579497843
 21
742.1461660065337
 31
0.0
  0
LINE
  5
1391
330
21
100
AcDbEntity
  8
0
100
AcDbLine
 10
368.0857949784301
 20
745.1461660065336
 30
0.0
 11
355.0857949784301
 21
745.1461660065336
 31
0.0
  0
LINE
  5
1392
330
21
100
AcDbEntity
  8
0
100
AcDbLine
 10
368.0857949784301
 20
625.1461660065338
 30
0.0
 11
355.0857949784301
 21
625.1461660065338
 31
0.0
  0
ARC
  5
1393
330
21
100
AcDbEntity
  8
AM_0
100
AcDbCircle
 10
368.0857949784301
 20
742.1461660065339
 30
0.0
 40
3.0
100
AcDbArc
 50
359.9999999999968
 51
90.00000000000325
1001
GENIUS_GENOBJ-N-FIL_13
1002
{
1000
OWNER
1000
GEN
1002
}
1001
GENIUS_GENODEF_13
1002
{
1000
HIER
1070
     0
1002
}
1002
{
1000
MANEDIT
1070
     0
1002
}
1002
{
1000
NOSEL
1070
     0
1002
}
1002
{
1000
BEHIND
1070
     0
1002
}
1002
{
1000
OTHER
1070
     0
1002
}
1002
{
1000
REACTOR
1002
}
  0
ARC
  5
1394
330
21
100
AcDbEntity
  8
AM_0
100
AcDbCircle
 10
368.0857949784301
 20
628.1461660065339
 30
0.0
 40
3.0
100
AcDbArc
 50
270.0
 51
0.0
1001
GENIUS_GENODEF_13
1002
{
1000
HIER
1070
     0
1002
}
1002
{
1000
MANEDIT
1070
     0
1002
}
1002
{
1000
NOSEL
1070
     0
1002
}
1002
{
1000
BEHIND
1070
     0
1002
}
1002
{
1000
OTHER
1070
     0
1002
}
1002
{
1000
REACTOR
1002
}
1001
GENIUS_GENOBJ-N-FIL_13
1002
{
1000
OWNER
1000
GEN
1002
}
  0
ENDSEC
  0
SECTION
  2
OBJECTS
  0
DICTIONARY
  5
C
330
0
100
AcDbDictionary
281
     1
  3
ACAD_COLOR
350
1C
  3
ACAD_GROUP
350
D
  3
ACAD_LAYOUT
350
1A
  3
ACAD_MATERIAL
350
1B
  3
ACAD_MLINESTYLE
350
17
  3
ACAD_PLOTSETTINGS
350
19
  3
ACAD_PLOTSTYLENAME
350
E
  3
ACAD_TABLESTYLE
350
462
  3
ACDBHEADERROUNDTRIPXREC
350
13B4
  3
AcDbVariableDictionary
350
DDC
  3
AcmDictionary
350
A1
  3
AMG
350
2D
  3
AMGSNAPSETTINGS
350
220
  0
DICTIONARY
  5
65E
330
2
100
AcDbDictionary
280
     1
281
     1
  3
ACAD_LAYERSTATES
360
65F
  0
DICTIONARY
  5
109
330
21
100
AcDbDictionary
280
     1
281
     1
  0
DICTIONARY
  5
1C
102
{ACAD_REACTORS
330
C
102
}
330
C
100
AcDbDictionary
281
     1
  0
DICTIONARY
  5
D
102
{ACAD_REACTORS
330
C
102
}
330
C
100
AcDbDictionary
281
     1
  0
DICTIONARY
  5
1A
102
{ACAD_REACTORS
330
C
102
}
330
C
100
AcDbDictionary
281
     1
  3
Model
350
24
  3
レイアウト1
350
20
  3
レイアウト2
350
28
  0
DICTIONARY
  5
1B
102
{ACAD_REACTORS
330
C
102
}
330
C
100
AcDbDictionary
281
     1
  0
DICTIONARY
  5
17
102
{ACAD_REACTORS
330
C
102
}
330
C
100
AcDbDictionary
281
     1
  3
Standard
350
18
  0
DICTIONARY
  5
19
102
{ACAD_REACTORS
330
C
102
}
330
C
100
AcDbDictionary
281
     1
  0
ACDBDICTIONARYWDFLT
  5
E
102
{ACAD_REACTORS
330
C
102
}
330
C
100
AcDbDictionary
281
     1
  3
Normal
350
F
100
AcDbDictionaryWithDefault
340
F
  0
DICTIONARY
  5
462
102
{ACAD_REACTORS
330
C
102
}
330
C
100
AcDbDictionary
281
     1
  3
Standard
350
463
  0
DICTIONARY
  5
13B4
102
{ACAD_REACTORS
330
C
102
}
330
C
100
AcDbDictionary
281
     1
  0
DICTIONARY
  5
DDC
102
{ACAD_REACTORS
330
C
102
}
330
C
100
AcDbDictionary
281
     1
  3
CTABLESTYLE
350
DDD
  3
DIMASSOC
350
13B1
  3
HIDETEXT
350
13B0
  3
PROJECTNAME
350
13B2
  0
DICTIONARY
  5
A1
102
{ACAD_REACTORS
330
C
102
}
330
C
100
AcDbDictionary
281
     1
  3
AcmStdDictionary
350
A4
  3
AMDTSECTSYM_ARROWCOLOR
350
46F
  0
DICTIONARY
  5
2D
102
{ACAD_REACTORS
330
C
102
}
330
C
100
AcDbDictionary
281
     1
  0
DICTIONARY
  5
220
102
{ACAD_REACTORS
330
C
102
}
330
C
100
AcDbDictionary
281
     1
  0
DICTIONARY
  5
65F
102
{ACAD_REACTORS
330
65E
102
}
330
65E
100
AcDbDictionary
281
     1
  0
LAYOUT
  5
24
102
{ACAD_XDICTIONARY
360
13B7
102
}
102
{ACAD_REACTORS
330
1A
102
}
330
1A
100
AcDbPlotSettings
  1

  2
\\Xseries235\Canon LASER SHOT LBP-910
  4
A4
  6

 40
5.873749732971191
 41
5.873747825622558
 42
5.873748779296875
 43
5.873748779296875
 44
209.9733276367187
 45
296.9259948730469
 46
0.0
 47
0.34
 48
0.0
 49
0.0
140
0.0
141
0.0
142
1.0
143
4.0
 70
 11952
 72
     1
 73
     1
 74
     2
  7
acad1.ctb
 75
    18
147
0.25
148
0.0
149
0.0
100
AcDbLayout
  1
Model
 70
     1
 71
     0
 10
0.0
 20
0.0
 11
12.0
 21
9.0
 12
0.0
 22
0.0
 32
0.0
 14
0.0
 24
0.0
 34
0.0
 15
0.0
 25
0.0
 35
0.0
146
0.0
 13
0.0
 23
0.0
 33
0.0
 16
1.0
 26
0.0
 36
0.0
 17
0.0
 27
1.0
 37
0.0
 76
     0
330
21
1001
ACAD_PSEXT
1000
\\Xseries235\Canon LASER SHOT LBP-910
1000
Canon LASER SHOT LBP-910
1000
\\XSERIES235
1000

1070
     0
  0
LAYOUT
  5
20
102
{ACAD_XDICTIONARY
360
13B5
102
}
102
{ACAD_REACTORS
330
1A
102
}
330
1A
100
AcDbPlotSettings
  1

  2
\\Xseries235\Canon LASER SHOT LBP-910
  4

  6

 40
0.0
 41
0.0
 42
0.0
 43
0.0
 44
0.0
 45
0.0
 46
0.0
 47
0.0
 48
0.0
 49
0.0
140
0.0
141
0.0
142
1.0
143
1.0
 70
   688
 72
     0
 73
     0
 74
     5
  7
acad1.ctb
 75
    16
147
1.0
148
0.0
149
0.0
100
AcDbLayout
  1
レイアウト1
 70
     1
 71
     1
 10
0.0
 20
0.0
 11
420.0
 21
297.0
 12
0.0
 22
0.0
 32
0.0
 14
1.000000000000000E+20
 24
1.000000000000000E+20
 34
1.000000000000000E+20
 15
-1.000000000000000E+20
 25
-1.000000000000000E+20
 35
-1.000000000000000E+20
146
0.0
 13
0.0
 23
0.0
 33
0.0
 16
1.0
 26
0.0
 36
0.0
 17
0.0
 27
1.0
 37
0.0
 76
     0
330
1D
  0
LAYOUT
  5
28
102
{ACAD_XDICTIONARY
360
13B9
102
}
102
{ACAD_REACTORS
330
1A
102
}
330
1A
100
AcDbPlotSettings
  1

  2
\\Xseries235\Canon LASER SHOT LBP-910
  4

  6

 40
0.0
 41
0.0
 42
0.0
 43
0.0
 44
0.0
 45
0.0
 46
0.0
 47
0.0
 48
0.0
 49
0.0
140
0.0
141
0.0
142
1.0
143
1.0
 70
   688
 72
     0
 73
     0
 74
     5
  7
acad1.ctb
 75
    16
147
1.0
148
0.0
149
0.0
100
AcDbLayout
  1
レイアウト2
 70
     1
 71
     2
 10
0.0
 20
0.0
 11
12.0
 21
9.0
 12
0.0
 22
0.0
 32
0.0
 14
0.0
 24
0.0
 34
0.0
 15
0.0
 25
0.0
 35
0.0
146
0.0
 13
0.0
 23
0.0
 33
0.0
 16
1.0
 26
0.0
 36
0.0
 17
0.0
 27
1.0
 37
0.0
 76
     0
330
25
  0
MLINESTYLE
  5
18
102
{ACAD_REACTORS
330
17
102
}
330
17
100
AcDbMlineStyle
  2
STANDARD
 70
     0
  3

 62
   256
 51
90.0
 52
90.0
 71
     2
 49
0.5
 62
   256
  6
BYLAYER
 49
-0.5
 62
   256
  6
BYLAYER
  0
ACDBPLACEHOLDER
  5
F
102
{ACAD_REACTORS
330
E
102
}
330
E
  0
TABLESTYLE
  5
463
102
{ACAD_REACTORS
330
462
102
}
330
462
100
AcDbTableStyle
  3
Standard
 70
     0
 71
     0
 40
1.5
 41
1.5
280
     0
281
     0
  7
STANDARD
140
4.5
170
     2
 62
     0
 63
     7
283
     0
274
    -2
284
     1
 64
     0
275
    -2
285
     1
 65
     0
276
    -2
286
     1
 66
     0
277
    -2
287
     1
 67
     0
278
    -2
288
     1
 68
     0
279
    -2
289
     1
 69
     0
  7
STANDARD
140
6.0
170
     5
 62
     0
 63
     7
283
     0
274
    -2
284
     1
 64
     0
275
    -2
285
     1
 65
     0
276
    -2
286
     1
 66
     0
277
    -2
287
     1
 67
     0
278
    -2
288
     1
 68
     0
279
    -2
289
     1
 69
     0
  7
STANDARD
140
4.5
170
     5
 62
     0
 63
     7
283
     0
274
    -2
284
     1
 64
     0
275
    -2
285
     1
 65
     0
276
    -2
286
     1
 66
     0
277
    -2
287
     1
 67
     0
278
    -2
288
     1
 68
     0
279
    -2
289
     1
 69
     0
  0
DICTIONARYVAR
  5
DDD
102
{ACAD_REACTORS
330
DDC
102
}
330
DDC
100
DictionaryVariables
280
     0
  1
STANDARD
  0
DICTIONARYVAR
  5
13B1
102
{ACAD_REACTORS
330
DDC
102
}
330
DDC
100
DictionaryVariables
280
     0
  1
2
  0
DICTIONARYVAR
  5
13B0
102
{ACAD_REACTORS
330
DDC
102
}
330
DDC
100
DictionaryVariables
280
     0
  1
1
  0
DICTIONARYVAR
  5
13B2
102
{ACAD_REACTORS
330
DDC
102
}
330
DDC
100
DictionaryVariables
280
     0
  1

  0
DICTIONARY
  5
A4
102
{ACAD_REACTORS
330
A1
102
}
330
A1
100
AcDbDictionary
281
     1
  0
XRECORD
  5
46F
102
{ACAD_REACTORS
330
A1
102
}
330
A1
100
AcDbXrecord
280
     1
 90
-1023410169
  0
DICTIONARY
  5
13B7
330
24
100
AcDbDictionary
280
     1
281
     1
  3
ACAD_XREC_ROUNDTRIP
360
13B8
  0
DICTIONARY
  5
13B5
330
20
100
AcDbDictionary
280
     1
281
     1
  3
ACAD_XREC_ROUNDTRIP
360
13B6
  0
DICTIONARY
  5
13B9
330
28
100
AcDbDictionary
280
     1
281
     1
  3
ACAD_XREC_ROUNDTRIP
360
13BA
  0
XRECORD
  5
13B8
102
{ACAD_REACTORS
330
13B7
102
}
330
13B7
100
AcDbXrecord
280
     1
102
SHADEPLOT
 70
     0
102
SHADEPLOTRESLEVEL
 70
     2
102
SHADEPLOTCUSTOMDPI
 70
   300
  0
XRECORD
  5
13B6
102
{ACAD_REACTORS
330
13B5
102
}
330
13B5
100
AcDbXrecord
280
     1
102
SHADEPLOT
 70
     0
102
SHADEPLOTRESLEVEL
 70
     2
102
SHADEPLOTCUSTOMDPI
 70
   300
  0
XRECORD
  5
13BA
102
{ACAD_REACTORS
330
13B9
102
}
330
13B9
100
AcDbXrecord
280
     1
102
SHADEPLOT
 70
     0
102
SHADEPLOTRESLEVEL
 70
     2
102
SHADEPLOTCUSTOMDPI
 70
   300
  0
ENDSEC
  0
EOF
